999
unknown String-ID: 20550
0
SECTION
2
HEADER
9
$ACADVER
1
AC1009
9
$DWGCODEPAGE
3
unknown String-ID: 20561
0
ENDSEC
0
SECTION
2
TABLES
0
TABLE
2
LAYER
70
1
0
LAYER
2
0
70
0
62
7
6
CONTINUOUS
0
ENDTAB
0
ENDSEC
0
SECTION
2
ENTITIES
0
LINE
8
0
6
CONTINUOUS
10
0.007478
20
0.067503
30
0.0
11
0.007426
21
0.067503
31
0.0
0
LINE
8
0
6
CONTINUOUS
10
0.007478
20
0.067503
30
0.0
11
0.007426
21
0.067503
31
0.0
0
LINE
8
0
6
CONTINUOUS
10
0.025671
20
0.065261
30
0.0
11
0.025671
21
0.065756
31
0.0
0
LINE
8
0
6
CONTINUOUS
10
0.025671
20
0.065756
30
0.0
11
0.025671
21
0.066172
31
0.0
0
LINE
8
0
6
CONTINUOUS
10
0.025671
20
0.066172
30
0.0
11
0.025671
21
0.066517
31
0.0
0
LINE
8
0
6
CONTINUOUS
10
0.025671
20
0.066517
30
0.0
11
0.025671
21
0.066764
31
0.0
0
LINE
8
0
6
CONTINUOUS
10
0.025671
20
0.066892
30
0.0
11
0.025541
21
0.067161
31
0.0
0
LINE
8
0
6
CONTINUOUS
10
0.025671
20
0.066764
30
0.0
11
0.025671
21
0.066892
31
0.0
0
LINE
8
0
6
CONTINUOUS
10
0.025541
20
0.067161
30
0.0
11
0.025329
21
0.067373
31
0.0
0
LINE
8
0
6
CONTINUOUS
10
0.025329
20
0.067373
30
0.0
11
0.025060
21
0.067503
31
0.0
0
LINE
8
0
6
CONTINUOUS
10
0.006815
20
0.065756
30
0.0
11
0.006815
21
0.065261
31
0.0
0
LINE
8
0
6
CONTINUOUS
10
0.006815
20
0.066172
30
0.0
11
0.006815
21
0.065756
31
0.0
0
LINE
8
0
6
CONTINUOUS
10
0.006815
20
0.066517
30
0.0
11
0.006815
21
0.066172
31
0.0
0
LINE
8
0
6
CONTINUOUS
10
0.006815
20
0.066764
30
0.0
11
0.006815
21
0.066517
31
0.0
0
LINE
8
0
6
CONTINUOUS
10
0.007426
20
0.067503
30
0.0
11
0.007157
21
0.067373
31
0.0
0
LINE
8
0
6
CONTINUOUS
10
0.006815
20
0.066892
30
0.0
11
0.006815
21
0.066764
31
0.0
0
LINE
8
0
6
CONTINUOUS
10
0.006815
20
0.065261
30
0.0
11
0.006815
21
0.054986
31
0.0
0
LINE
8
0
6
CONTINUOUS
10
0.025671
20
0.054326
30
0.0
11
0.025671
21
0.065261
31
0.0
0
LINE
8
0
6
CONTINUOUS
10
0.025060
20
0.067503
30
0.0
11
0.024927
21
0.067503
31
0.0
0
LINE
8
0
6
CONTINUOUS
10
0.025060
20
0.067503
30
0.0
11
0.024927
21
0.067503
31
0.0
0
LINE
8
0
6
CONTINUOUS
10
0.024927
20
0.067503
30
0.0
11
0.007478
21
0.067503
31
0.0
0
LINE
8
0
6
CONTINUOUS
10
0.024927
20
0.067503
30
0.0
11
0.007478
21
0.067503
31
0.0
0
LINE
8
0
6
CONTINUOUS
10
0.025673
20
0.054142
30
0.0
11
0.025673
21
0.054323
31
0.0
0
LINE
8
0
6
CONTINUOUS
10
0.025673
20
0.051351
30
0.0
11
0.025673
21
0.053073
31
0.0
0
LINE
8
0
6
CONTINUOUS
10
0.025673
20
0.046322
30
0.0
11
0.025673
21
0.049063
31
0.0
0
LINE
8
0
6
CONTINUOUS
10
0.025673
20
0.040052
30
0.0
11
0.025673
21
0.043268
31
0.0
0
LINE
8
0
6
CONTINUOUS
10
0.025673
20
0.036836
30
0.0
11
0.025673
21
0.040052
31
0.0
0
LINE
8
0
6
CONTINUOUS
10
0.025673
20
0.033781
30
0.0
11
0.025673
21
0.036836
31
0.0
0
LINE
8
0
6
CONTINUOUS
10
0.025673
20
0.031041
30
0.0
11
0.025673
21
0.033781
31
0.0
0
LINE
8
0
6
CONTINUOUS
10
0.025673
20
0.028752
30
0.0
11
0.025673
21
0.031041
31
0.0
0
LINE
8
0
6
CONTINUOUS
10
0.025673
20
0.025961
30
0.0
11
0.025673
21
0.027030
31
0.0
0
LINE
8
0
6
CONTINUOUS
10
0.025559
20
0.025351
30
0.0
11
0.025673
21
0.025599
31
0.0
0
LINE
8
0
6
CONTINUOUS
10
0.025673
20
0.025599
30
0.0
11
0.025673
21
0.025961
31
0.0
0
LINE
8
0
6
CONTINUOUS
10
-0.006859
20
0.027770
30
0.0
11
-0.006241
21
0.027770
31
0.0
0
LINE
8
0
6
CONTINUOUS
10
-0.006241
20
0.052333
30
0.0
11
-0.006859
21
0.052333
31
0.0
0
LINE
8
0
6
CONTINUOUS
10
0.006815
20
0.054986
30
0.0
11
-0.005940
21
0.054986
31
0.0
0
LINE
8
0
6
CONTINUOUS
10
-0.005940
20
0.025117
30
0.0
11
0.025056
21
0.025117
31
0.0
0
LINE
8
0
6
CONTINUOUS
10
-0.005940
20
0.054986
30
0.0
11
-0.006241
21
0.054986
31
0.0
0
LINE
8
0
6
CONTINUOUS
10
-0.006241
20
0.054986
30
0.0
11
-0.006241
21
0.054611
31
0.0
0
LINE
8
0
6
CONTINUOUS
10
-0.006241
20
0.043375
30
0.0
11
-0.006241
21
0.040052
31
0.0
0
LINE
8
0
6
CONTINUOUS
10
-0.006241
20
0.053507
30
0.0
11
-0.006241
21
0.051728
31
0.0
0
LINE
8
0
6
CONTINUOUS
10
-0.006241
20
0.040052
30
0.0
11
-0.006241
21
0.036728
31
0.0
0
LINE
8
0
6
CONTINUOUS
10
-0.006241
20
0.051728
30
0.0
11
-0.006241
21
0.049363
31
0.0
0
LINE
8
0
6
CONTINUOUS
10
-0.006241
20
0.026596
30
0.0
11
-0.006241
21
0.025492
31
0.0
0
LINE
8
0
6
CONTINUOUS
10
-0.006241
20
0.036728
30
0.0
11
-0.006241
21
0.033572
31
0.0
0
LINE
8
0
6
CONTINUOUS
10
-0.006241
20
0.049363
30
0.0
11
-0.006241
21
0.046531
31
0.0
0
LINE
8
0
6
CONTINUOUS
10
-0.006241
20
0.025117
30
0.0
11
-0.005940
21
0.025117
31
0.0
0
LINE
8
0
6
CONTINUOUS
10
-0.006241
20
0.025492
30
0.0
11
-0.006241
21
0.025117
31
0.0
0
LINE
8
0
6
CONTINUOUS
10
-0.006241
20
0.033572
30
0.0
11
-0.006241
21
0.030740
31
0.0
0
LINE
8
0
6
CONTINUOUS
10
-0.006241
20
0.046531
30
0.0
11
-0.006241
21
0.043375
31
0.0
0
LINE
8
0
6
CONTINUOUS
10
-0.006241
20
0.054611
30
0.0
11
-0.006241
21
0.053507
31
0.0
0
LINE
8
0
6
CONTINUOUS
10
0.025102
20
0.025117
30
0.0
11
0.025360
21
0.025176
31
0.0
0
LINE
8
0
6
CONTINUOUS
10
0.025360
20
0.025176
30
0.0
11
0.025559
21
0.025351
31
0.0
0
LINE
8
0
6
CONTINUOUS
10
0.025673
20
0.027030
30
0.0
11
0.025673
21
0.028752
31
0.0
0
LINE
8
0
6
CONTINUOUS
10
-0.006241
20
0.028376
30
0.0
11
-0.006241
21
0.030740
31
0.0
0
LINE
8
0
6
CONTINUOUS
10
-0.006241
20
0.028376
30
0.0
11
-0.006241
21
0.026596
31
0.0
0
LINE
8
0
6
CONTINUOUS
10
0.025056
20
0.025117
30
0.0
11
0.025102
21
0.025117
31
0.0
0
LINE
8
0
6
CONTINUOUS
10
-0.006859
20
0.054986
30
0.0
11
-0.007345
21
0.054986
31
0.0
0
LINE
8
0
6
CONTINUOUS
10
-0.006859
20
0.054611
30
0.0
11
-0.006859
21
0.054986
31
0.0
0
LINE
8
0
6
CONTINUOUS
10
-0.006859
20
0.040052
30
0.0
11
-0.006859
21
0.043375
31
0.0
0
LINE
8
0
6
CONTINUOUS
10
-0.006859
20
0.051728
30
0.0
11
-0.006859
21
0.053507
31
0.0
0
LINE
8
0
6
CONTINUOUS
10
-0.006859
20
0.036728
30
0.0
11
-0.006859
21
0.040052
31
0.0
0
LINE
8
0
6
CONTINUOUS
10
-0.006859
20
0.049363
30
0.0
11
-0.006859
21
0.051728
31
0.0
0
LINE
8
0
6
CONTINUOUS
10
-0.006859
20
0.025492
30
0.0
11
-0.006859
21
0.026596
31
0.0
0
LINE
8
0
6
CONTINUOUS
10
-0.006859
20
0.033572
30
0.0
11
-0.006859
21
0.036728
31
0.0
0
LINE
8
0
6
CONTINUOUS
10
-0.006859
20
0.046531
30
0.0
11
-0.006859
21
0.049363
31
0.0
0
LINE
8
0
6
CONTINUOUS
10
-0.006859
20
0.025117
30
0.0
11
-0.006859
21
0.025492
31
0.0
0
LINE
8
0
6
CONTINUOUS
10
-0.007345
20
0.025117
30
0.0
11
-0.006859
21
0.025117
31
0.0
0
LINE
8
0
6
CONTINUOUS
10
-0.006859
20
0.030740
30
0.0
11
-0.006859
21
0.033572
31
0.0
0
LINE
8
0
6
CONTINUOUS
10
-0.006859
20
0.043375
30
0.0
11
-0.006859
21
0.046531
31
0.0
0
LINE
8
0
6
CONTINUOUS
10
-0.006859
20
0.053507
30
0.0
11
-0.006859
21
0.054611
31
0.0
0
LINE
8
0
6
CONTINUOUS
10
-0.006859
20
0.030740
30
0.0
11
-0.006859
21
0.028376
31
0.0
0
LINE
8
0
6
CONTINUOUS
10
-0.006859
20
0.026596
30
0.0
11
-0.006859
21
0.028376
31
0.0
0
LINE
8
0
6
CONTINUOUS
10
-0.013348
20
0.025117
30
0.0
11
-0.007345
21
0.025117
31
0.0
0
LINE
8
0
6
CONTINUOUS
10
-0.007345
20
0.054986
30
0.0
11
-0.013348
21
0.054986
31
0.0
0
LINE
8
0
6
CONTINUOUS
10
0.014403
20
-0.059768
30
0.0
11
0.014403
21
-0.055928
31
0.0
0
LINE
8
0
6
CONTINUOUS
10
0.004585
20
-0.055928
30
0.0
11
0.004585
21
-0.059768
31
0.0
0
LINE
8
0
6
CONTINUOUS
10
0.014403
20
-0.059827
30
0.0
11
0.014403
21
-0.059768
31
0.0
0
LINE
8
0
6
CONTINUOUS
10
0.004833
20
-0.060252
30
0.0
11
0.005080
21
-0.060318
31
0.0
0
LINE
8
0
6
CONTINUOUS
10
0.004651
20
-0.060072
30
0.0
11
0.004833
21
-0.060252
31
0.0
0
LINE
8
0
6
CONTINUOUS
10
0.004585
20
-0.059827
30
0.0
11
0.004651
21
-0.060072
31
0.0
0
LINE
8
0
6
CONTINUOUS
10
0.005231
20
-0.060317
30
0.0
11
0.005672
21
-0.060317
31
0.0
0
LINE
8
0
6
CONTINUOUS
10
0.005672
20
-0.060317
30
0.0
11
0.006373
21
-0.060317
31
0.0
0
LINE
8
0
6
CONTINUOUS
10
0.006373
20
-0.060317
30
0.0
11
0.007287
21
-0.060318
31
0.0
0
LINE
8
0
6
CONTINUOUS
10
0.007287
20
-0.060318
30
0.0
11
0.008352
21
-0.060318
31
0.0
0
LINE
8
0
6
CONTINUOUS
10
0.008352
20
-0.060318
30
0.0
11
0.009494
21
-0.060318
31
0.0
0
LINE
8
0
6
CONTINUOUS
10
0.009494
20
-0.060318
30
0.0
11
0.010637
21
-0.060318
31
0.0
0
LINE
8
0
6
CONTINUOUS
10
0.010637
20
-0.060318
30
0.0
11
0.011701
21
-0.060318
31
0.0
0
LINE
8
0
6
CONTINUOUS
10
0.011701
20
-0.060318
30
0.0
11
0.012615
21
-0.060318
31
0.0
0
LINE
8
0
6
CONTINUOUS
10
0.012615
20
-0.060318
30
0.0
11
0.013317
21
-0.060318
31
0.0
0
LINE
8
0
6
CONTINUOUS
10
0.013317
20
-0.060318
30
0.0
11
0.013758
21
-0.060318
31
0.0
0
LINE
8
0
6
CONTINUOUS
10
0.013908
20
-0.060318
30
0.0
11
0.014156
21
-0.060252
31
0.0
0
LINE
8
0
6
CONTINUOUS
10
0.013758
20
-0.060318
30
0.0
11
0.013908
21
-0.060318
31
0.0
0
LINE
8
0
6
CONTINUOUS
10
0.014156
20
-0.060252
30
0.0
11
0.014337
21
-0.060072
31
0.0
0
LINE
8
0
6
CONTINUOUS
10
0.014337
20
-0.060072
30
0.0
11
0.014403
21
-0.059827
31
0.0
0
LINE
8
0
6
CONTINUOUS
10
0.004585
20
-0.059768
30
0.0
11
0.004585
21
-0.059827
31
0.0
0
LINE
8
0
6
CONTINUOUS
10
0.007943
20
0.001480
30
0.0
11
0.007866
21
0.001480
31
0.0
0
LINE
8
0
6
CONTINUOUS
10
0.026239
20
-0.001821
30
0.0
11
0.026239
21
-0.001091
31
0.0
0
LINE
8
0
6
CONTINUOUS
10
0.026239
20
-0.001091
30
0.0
11
0.026239
21
-0.000480
31
0.0
0
LINE
8
0
6
CONTINUOUS
10
0.026239
20
-0.000480
30
0.0
11
0.026239
21
0.000028
31
0.0
0
LINE
8
0
6
CONTINUOUS
10
0.026239
20
0.000028
30
0.0
11
0.026239
21
0.000391
31
0.0
0
LINE
8
0
6
CONTINUOUS
10
0.026239
20
0.000581
30
0.0
11
0.026047
21
0.000977
31
0.0
0
LINE
8
0
6
CONTINUOUS
10
0.026239
20
0.000391
30
0.0
11
0.026239
21
0.000581
31
0.0
0
LINE
8
0
6
CONTINUOUS
10
0.026047
20
0.000977
30
0.0
11
0.025736
21
0.001288
31
0.0
0
LINE
8
0
6
CONTINUOUS
10
0.025736
20
0.001288
30
0.0
11
0.025340
21
0.001480
31
0.0
0
LINE
8
0
6
CONTINUOUS
10
0.006967
20
-0.001091
30
0.0
11
0.006967
21
-0.001821
31
0.0
0
LINE
8
0
6
CONTINUOUS
10
0.006967
20
-0.000480
30
0.0
11
0.006967
21
-0.001091
31
0.0
0
LINE
8
0
6
CONTINUOUS
10
0.006967
20
0.000028
30
0.0
11
0.006967
21
-0.000480
31
0.0
0
LINE
8
0
6
CONTINUOUS
10
0.006967
20
0.000391
30
0.0
11
0.006967
21
0.000028
31
0.0
0
LINE
8
0
6
CONTINUOUS
10
0.007866
20
0.001480
30
0.0
11
0.007470
21
0.001288
31
0.0
0
LINE
8
0
6
CONTINUOUS
10
0.007470
20
0.001288
30
0.0
11
0.007159
21
0.000977
31
0.0
0
LINE
8
0
6
CONTINUOUS
10
0.006967
20
0.000581
30
0.0
11
0.006967
21
0.000391
31
0.0
0
LINE
8
0
6
CONTINUOUS
10
0.007159
20
0.000977
30
0.0
11
0.006967
21
0.000581
31
0.0
0
LINE
8
0
6
CONTINUOUS
10
0.006967
20
-0.001821
30
0.0
11
0.006967
21
-0.011968
31
0.0
0
LINE
8
0
6
CONTINUOUS
10
0.026239
20
-0.012939
30
0.0
11
0.026239
21
-0.001821
31
0.0
0
LINE
8
0
6
CONTINUOUS
10
0.025340
20
0.001480
30
0.0
11
0.025144
21
0.001480
31
0.0
0
LINE
8
0
6
CONTINUOUS
10
0.025144
20
0.001480
30
0.0
11
0.007943
21
0.001480
31
0.0
0
LINE
8
0
6
CONTINUOUS
10
0.026241
20
-0.013210
30
0.0
11
0.026241
21
-0.012943
31
0.0
0
LINE
8
0
6
CONTINUOUS
10
0.026241
20
-0.017318
30
0.0
11
0.026241
21
-0.014783
31
0.0
0
LINE
8
0
6
CONTINUOUS
10
0.026241
20
-0.020686
30
0.0
11
0.026241
21
-0.017318
31
0.0
0
LINE
8
0
6
CONTINUOUS
10
0.026241
20
-0.024719
30
0.0
11
0.026241
21
-0.020686
31
0.0
0
LINE
8
0
6
CONTINUOUS
10
0.026241
20
-0.029215
30
0.0
11
0.026241
21
-0.024719
31
0.0
0
LINE
8
0
6
CONTINUOUS
10
0.026241
20
-0.033948
30
0.0
11
0.026241
21
-0.029215
31
0.0
0
LINE
8
0
6
CONTINUOUS
10
0.026241
20
-0.038682
30
0.0
11
0.026241
21
-0.033948
31
0.0
0
LINE
8
0
6
CONTINUOUS
10
0.026241
20
-0.043178
30
0.0
11
0.026241
21
-0.038682
31
0.0
0
LINE
8
0
6
CONTINUOUS
10
0.026241
20
-0.047211
30
0.0
11
0.026241
21
-0.043178
31
0.0
0
LINE
8
0
6
CONTINUOUS
10
0.026241
20
-0.050579
30
0.0
11
0.026241
21
-0.047211
31
0.0
0
LINE
8
0
6
CONTINUOUS
10
0.026241
20
-0.054686
30
0.0
11
0.026241
21
-0.053113
31
0.0
0
LINE
8
0
6
CONTINUOUS
10
0.026074
20
-0.055584
30
0.0
11
0.026241
21
-0.055220
31
0.0
0
LINE
8
0
6
CONTINUOUS
10
0.026241
20
-0.055220
30
0.0
11
0.026241
21
-0.054686
31
0.0
0
LINE
8
0
6
CONTINUOUS
10
-0.006569
20
-0.054473
30
0.0
11
-0.005921
21
-0.054473
31
0.0
0
LINE
8
0
6
CONTINUOUS
10
-0.005921
20
-0.013423
30
0.0
11
-0.006569
21
-0.013423
31
0.0
0
LINE
8
0
6
CONTINUOUS
10
0.006967
20
-0.011968
30
0.0
11
-0.005677
21
-0.011968
31
0.0
0
LINE
8
0
6
CONTINUOUS
10
-0.005677
20
-0.055928
30
0.0
11
0.004585
21
-0.055928
31
0.0
0
LINE
8
0
6
CONTINUOUS
10
0.014403
20
-0.055928
30
0.0
11
0.025333
21
-0.055928
31
0.0
0
LINE
8
0
6
CONTINUOUS
10
-0.005677
20
-0.011968
30
0.0
11
-0.005921
21
-0.011968
31
0.0
0
LINE
8
0
6
CONTINUOUS
10
-0.005921
20
-0.011968
30
0.0
11
-0.005921
21
-0.012519
31
0.0
0
LINE
8
0
6
CONTINUOUS
10
-0.005921
20
-0.029057
30
0.0
11
-0.005921
21
-0.033948
31
0.0
0
LINE
8
0
6
CONTINUOUS
10
-0.005921
20
-0.014145
30
0.0
11
-0.005921
21
-0.016763
31
0.0
0
LINE
8
0
6
CONTINUOUS
10
-0.005921
20
-0.033948
30
0.0
11
-0.005921
21
-0.038839
31
0.0
0
LINE
8
0
6
CONTINUOUS
10
-0.005921
20
-0.016763
30
0.0
11
-0.005921
21
-0.020244
31
0.0
0
LINE
8
0
6
CONTINUOUS
10
-0.005921
20
-0.053752
30
0.0
11
-0.005921
21
-0.055377
31
0.0
0
LINE
8
0
6
CONTINUOUS
10
-0.005921
20
-0.038839
30
0.0
11
-0.005921
21
-0.043485
31
0.0
0
LINE
8
0
6
CONTINUOUS
10
-0.005921
20
-0.020244
30
0.0
11
-0.005921
21
-0.024411
31
0.0
0
LINE
8
0
6
CONTINUOUS
10
-0.005921
20
-0.055928
30
0.0
11
-0.005677
21
-0.055928
31
0.0
0
LINE
8
0
6
CONTINUOUS
10
-0.005921
20
-0.055377
30
0.0
11
-0.005921
21
-0.055928
31
0.0
0
LINE
8
0
6
CONTINUOUS
10
-0.005921
20
-0.043485
30
0.0
11
-0.005921
21
-0.047653
31
0.0
0
LINE
8
0
6
CONTINUOUS
10
-0.005921
20
-0.024411
30
0.0
11
-0.005921
21
-0.029057
31
0.0
0
LINE
8
0
6
CONTINUOUS
10
-0.005921
20
-0.012519
30
0.0
11
-0.005921
21
-0.014145
31
0.0
0
LINE
8
0
6
CONTINUOUS
10
0.025401
20
-0.055928
30
0.0
11
0.025781
21
-0.055842
31
0.0
0
LINE
8
0
6
CONTINUOUS
10
0.025781
20
-0.055842
30
0.0
11
0.026074
21
-0.055584
31
0.0
0
LINE
8
0
6
CONTINUOUS
10
0.026241
20
-0.053113
30
0.0
11
0.026241
21
-0.050579
31
0.0
0
LINE
8
0
6
CONTINUOUS
10
-0.005921
20
-0.051133
30
0.0
11
-0.005921
21
-0.047653
31
0.0
0
LINE
8
0
6
CONTINUOUS
10
-0.005921
20
-0.051133
30
0.0
11
-0.005921
21
-0.053752
31
0.0
0
LINE
8
0
6
CONTINUOUS
10
0.025333
20
-0.055928
30
0.0
11
0.025401
21
-0.055928
31
0.0
0
LINE
8
0
6
CONTINUOUS
10
-0.006569
20
-0.011968
30
0.0
11
-0.006813
21
-0.011968
31
0.0
0
LINE
8
0
6
CONTINUOUS
10
-0.006569
20
-0.012519
30
0.0
11
-0.006569
21
-0.011968
31
0.0
0
LINE
8
0
6
CONTINUOUS
10
-0.006569
20
-0.033948
30
0.0
11
-0.006569
21
-0.029057
31
0.0
0
LINE
8
0
6
CONTINUOUS
10
-0.006569
20
-0.016763
30
0.0
11
-0.006569
21
-0.014145
31
0.0
0
LINE
8
0
6
CONTINUOUS
10
-0.006569
20
-0.038839
30
0.0
11
-0.006569
21
-0.033948
31
0.0
0
LINE
8
0
6
CONTINUOUS
10
-0.006569
20
-0.020244
30
0.0
11
-0.006569
21
-0.016763
31
0.0
0
LINE
8
0
6
CONTINUOUS
10
-0.006569
20
-0.055377
30
0.0
11
-0.006569
21
-0.053752
31
0.0
0
LINE
8
0
6
CONTINUOUS
10
-0.006569
20
-0.043485
30
0.0
11
-0.006569
21
-0.038839
31
0.0
0
LINE
8
0
6
CONTINUOUS
10
-0.006569
20
-0.024411
30
0.0
11
-0.006569
21
-0.020244
31
0.0
0
LINE
8
0
6
CONTINUOUS
10
-0.006569
20
-0.055928
30
0.0
11
-0.006569
21
-0.055377
31
0.0
0
LINE
8
0
6
CONTINUOUS
10
-0.006813
20
-0.055928
30
0.0
11
-0.006569
21
-0.055928
31
0.0
0
LINE
8
0
6
CONTINUOUS
10
-0.006569
20
-0.029057
30
0.0
11
-0.006569
21
-0.024411
31
0.0
0
LINE
8
0
6
CONTINUOUS
10
-0.006569
20
-0.014145
30
0.0
11
-0.006569
21
-0.012519
31
0.0
0
LINE
8
0
6
CONTINUOUS
10
-0.006569
20
-0.043485
30
0.0
11
-0.006569
21
-0.047653
31
0.0
0
LINE
8
0
6
CONTINUOUS
10
-0.006569
20
-0.047653
30
0.0
11
-0.006569
21
-0.051133
31
0.0
0
LINE
8
0
6
CONTINUOUS
10
-0.006569
20
-0.053752
30
0.0
11
-0.006569
21
-0.051133
31
0.0
0
LINE
8
0
6
CONTINUOUS
10
-0.013348
20
-0.055928
30
0.0
11
-0.006813
21
-0.055928
31
0.0
0
LINE
8
0
6
CONTINUOUS
10
-0.006813
20
-0.011968
30
0.0
11
-0.013348
21
-0.011968
31
0.0
0
LINE
8
0
6
CONTINUOUS
10
-0.015886
20
0.074704
30
0.0
11
-0.025266
21
0.075048
31
0.0
0
LINE
8
0
6
CONTINUOUS
10
-0.015367
20
0.074693
30
0.0
11
-0.015886
21
0.074704
31
0.0
0
LINE
8
0
6
CONTINUOUS
10
-0.015886
20
-0.074704
30
0.0
11
-0.015367
21
-0.074693
31
0.0
0
LINE
8
0
6
CONTINUOUS
10
-0.026241
20
-0.069355
30
0.0
11
-0.026241
21
-0.073627
31
0.0
0
LINE
8
0
6
CONTINUOUS
10
-0.026241
20
-0.028728
30
0.0
11
-0.026241
21
-0.041706
31
0.0
0
LINE
8
0
6
CONTINUOUS
10
-0.026241
20
0.028728
30
0.0
11
-0.026241
21
0.014645
31
0.0
0
LINE
8
0
6
CONTINUOUS
10
-0.026241
20
0.069355
30
0.0
11
-0.026241
21
0.062418
31
0.0
0
LINE
8
0
6
CONTINUOUS
10
-0.026241
20
-0.075069
30
0.0
11
-0.025266
21
-0.075048
31
0.0
0
LINE
8
0
6
CONTINUOUS
10
-0.026241
20
-0.073627
30
0.0
11
-0.026241
21
-0.075069
31
0.0
0
LINE
8
0
6
CONTINUOUS
10
-0.026241
20
-0.041706
30
0.0
11
-0.026241
21
-0.053082
31
0.0
0
LINE
8
0
6
CONTINUOUS
10
-0.026241
20
0.014645
30
0.0
11
-0.026241
21
0.000000
31
0.0
0
LINE
8
0
6
CONTINUOUS
10
-0.026241
20
0.062418
30
0.0
11
-0.026241
21
0.053082
31
0.0
0
LINE
8
0
6
CONTINUOUS
10
-0.026241
20
0.053082
30
0.0
11
-0.026241
21
0.041706
31
0.0
0
LINE
8
0
6
CONTINUOUS
10
-0.025266
20
0.075048
30
0.0
11
-0.026241
21
0.075069
31
0.0
0
LINE
8
0
6
CONTINUOUS
10
-0.026241
20
0.075069
30
0.0
11
-0.026241
21
0.073627
31
0.0
0
LINE
8
0
6
CONTINUOUS
10
-0.026241
20
-0.053082
30
0.0
11
-0.026241
21
-0.062418
31
0.0
0
LINE
8
0
6
CONTINUOUS
10
-0.026241
20
0.000000
30
0.0
11
-0.026241
21
-0.014645
31
0.0
0
LINE
8
0
6
CONTINUOUS
10
-0.026241
20
-0.014645
30
0.0
11
-0.026241
21
-0.028728
31
0.0
0
LINE
8
0
6
CONTINUOUS
10
-0.026241
20
0.041706
30
0.0
11
-0.026241
21
0.028728
31
0.0
0
LINE
8
0
6
CONTINUOUS
10
-0.026241
20
0.073627
30
0.0
11
-0.026241
21
0.069355
31
0.0
0
LINE
8
0
6
CONTINUOUS
10
-0.026241
20
-0.062418
30
0.0
11
-0.026241
21
-0.069355
31
0.0
0
LINE
8
0
6
CONTINUOUS
10
-0.013348
20
0.072684
30
0.0
11
-0.013635
21
0.073673
31
0.0
0
LINE
8
0
6
CONTINUOUS
10
-0.013348
20
0.071329
30
0.0
11
-0.013348
21
0.072684
31
0.0
0
LINE
8
0
6
CONTINUOUS
10
-0.013635
20
0.073673
30
0.0
11
-0.014367
21
0.074409
31
0.0
0
LINE
8
0
6
CONTINUOUS
10
-0.014367
20
0.074409
30
0.0
11
-0.015367
21
0.074693
31
0.0
0
LINE
8
0
6
CONTINUOUS
10
-0.013348
20
0.067313
30
0.0
11
-0.013348
21
0.071329
31
0.0
0
LINE
8
0
6
CONTINUOUS
10
-0.013348
20
0.060779
30
0.0
11
-0.013348
21
0.067313
31
0.0
0
LINE
8
0
6
CONTINUOUS
10
-0.013348
20
0.051969
30
0.0
11
-0.013348
21
0.060779
31
0.0
0
LINE
8
0
6
CONTINUOUS
10
-0.013348
20
0.041215
30
0.0
11
-0.013348
21
0.051969
31
0.0
0
LINE
8
0
6
CONTINUOUS
10
-0.013348
20
0.028925
30
0.0
11
-0.013348
21
0.041215
31
0.0
0
LINE
8
0
6
CONTINUOUS
10
-0.013348
20
0.015570
30
0.0
11
-0.013348
21
0.028925
31
0.0
0
LINE
8
0
6
CONTINUOUS
10
-0.013348
20
0.000842
30
0.0
11
-0.013348
21
0.015570
31
0.0
0
LINE
8
0
6
CONTINUOUS
10
-0.013348
20
-0.014745
30
0.0
11
-0.013348
21
0.000842
31
0.0
0
LINE
8
0
6
CONTINUOUS
10
-0.013348
20
-0.028204
30
0.0
11
-0.013348
21
-0.014745
31
0.0
0
LINE
8
0
6
CONTINUOUS
10
-0.013348
20
-0.040579
30
0.0
11
-0.013348
21
-0.028204
31
0.0
0
LINE
8
0
6
CONTINUOUS
10
-0.013348
20
-0.051384
30
0.0
11
-0.013348
21
-0.040579
31
0.0
0
LINE
8
0
6
CONTINUOUS
10
-0.013348
20
-0.060213
30
0.0
11
-0.013348
21
-0.051384
31
0.0
0
LINE
8
0
6
CONTINUOUS
10
-0.013348
20
-0.066734
30
0.0
11
-0.013348
21
-0.060213
31
0.0
0
LINE
8
0
6
CONTINUOUS
10
-0.013348
20
-0.070725
30
0.0
11
-0.013348
21
-0.066734
31
0.0
0
LINE
8
0
6
CONTINUOUS
10
-0.013635
20
-0.073365
30
0.0
11
-0.013348
21
-0.072068
31
0.0
0
LINE
8
0
6
CONTINUOUS
10
-0.013348
20
-0.072068
30
0.0
11
-0.013348
21
-0.070725
31
0.0
0
LINE
8
0
6
CONTINUOUS
10
-0.014367
20
-0.074326
30
0.0
11
-0.013635
21
-0.073365
31
0.0
0
LINE
8
0
6
CONTINUOUS
10
-0.015367
20
-0.074693
30
0.0
11
-0.014367
21
-0.074326
31
0.0
0
LINE
8
0
6
CONTINUOUS
10
-0.025266
20
-0.075048
30
0.0
11
-0.015886
21
-0.074704
31
0.0
0
LINE
8
0
6
CONTINUOUS
10
0.007426
20
0.054735
30
0.0
11
0.007157
21
0.054750
31
0.0
0
LINE
8
0
6
CONTINUOUS
10
0.007157
20
0.054750
30
0.0
11
0.006945
21
0.054774
31
0.0
0
ENDSEC
0
EOF
