999
unknown String-ID: 20550
0
SECTION
2
HEADER
9
$ACADVER
1
AC1009
9
$DWGCODEPAGE
3
unknown String-ID: 20561
0
ENDSEC
0
SECTION
2
TABLES
0
TABLE
2
LAYER
70
1
0
LAYER
2
0
70
0
62
7
6
CONTINUOUS
0
ENDTAB
0
ENDSEC
0
SECTION
2
ENTITIES
0
LINE
8
0
6
CONTINUOUS
10
-0.001343
20
-0.026900
30
0.0
11
-0.001343
21
-0.032287
31
0.0
0
LINE
8
0
6
CONTINUOUS
10
0.008534
20
-0.032287
30
0.0
11
0.008534
21
-0.026900
31
0.0
0
LINE
8
0
6
CONTINUOUS
10
0.008036
20
-0.032840
30
0.0
11
0.008285
21
-0.032774
31
0.0
0
LINE
8
0
6
CONTINUOUS
10
0.007885
20
-0.032840
30
0.0
11
0.008036
21
-0.032840
31
0.0
0
LINE
8
0
6
CONTINUOUS
10
0.008285
20
-0.032774
30
0.0
11
0.008467
21
-0.032593
31
0.0
0
LINE
8
0
6
CONTINUOUS
10
0.008467
20
-0.032593
30
0.0
11
0.008534
21
-0.032346
31
0.0
0
LINE
8
0
6
CONTINUOUS
10
0.007441
20
-0.032840
30
0.0
11
0.007885
21
-0.032840
31
0.0
0
LINE
8
0
6
CONTINUOUS
10
0.006735
20
-0.032840
30
0.0
11
0.007441
21
-0.032840
31
0.0
0
LINE
8
0
6
CONTINUOUS
10
0.005816
20
-0.032840
30
0.0
11
0.006735
21
-0.032840
31
0.0
0
LINE
8
0
6
CONTINUOUS
10
0.004745
20
-0.032840
30
0.0
11
0.005816
21
-0.032840
31
0.0
0
LINE
8
0
6
CONTINUOUS
10
0.003595
20
-0.032840
30
0.0
11
0.004745
21
-0.032840
31
0.0
0
LINE
8
0
6
CONTINUOUS
10
0.002446
20
-0.032840
30
0.0
11
0.003595
21
-0.032840
31
0.0
0
LINE
8
0
6
CONTINUOUS
10
0.001375
20
-0.032840
30
0.0
11
0.002446
21
-0.032840
31
0.0
0
LINE
8
0
6
CONTINUOUS
10
0.000455
20
-0.032840
30
0.0
11
0.001375
21
-0.032840
31
0.0
0
LINE
8
0
6
CONTINUOUS
10
-0.000250
20
-0.032840
30
0.0
11
0.000455
21
-0.032840
31
0.0
0
LINE
8
0
6
CONTINUOUS
10
-0.000694
20
-0.032840
30
0.0
11
-0.000250
21
-0.032840
31
0.0
0
LINE
8
0
6
CONTINUOUS
10
-0.000845
20
-0.032840
30
0.0
11
-0.000694
21
-0.032840
31
0.0
0
LINE
8
0
6
CONTINUOUS
10
-0.001094
20
-0.032774
30
0.0
11
-0.000845
21
-0.032840
31
0.0
0
LINE
8
0
6
CONTINUOUS
10
-0.001277
20
-0.032593
30
0.0
11
-0.001094
21
-0.032774
31
0.0
0
LINE
8
0
6
CONTINUOUS
10
-0.001343
20
-0.032346
30
0.0
11
-0.001277
21
-0.032593
31
0.0
0
LINE
8
0
6
CONTINUOUS
10
-0.001343
20
-0.032287
30
0.0
11
-0.001343
21
-0.032346
31
0.0
0
LINE
8
0
6
CONTINUOUS
10
0.008534
20
-0.032346
30
0.0
11
0.008534
21
-0.032287
31
0.0
0
LINE
8
0
6
CONTINUOUS
10
0.012778
20
0.045912
30
0.0
11
0.012683
21
0.045912
31
0.0
0
LINE
8
0
6
CONTINUOUS
10
0.032583
20
0.042766
30
0.0
11
0.032583
21
0.043514
31
0.0
0
LINE
8
0
6
CONTINUOUS
10
0.032583
20
0.041874
30
0.0
11
0.032583
21
0.042766
31
0.0
0
LINE
8
0
6
CONTINUOUS
10
0.032583
20
0.043514
30
0.0
11
0.032583
21
0.044135
31
0.0
0
LINE
8
0
6
CONTINUOUS
10
0.032583
20
0.044812
30
0.0
11
0.032349
21
0.045296
31
0.0
0
LINE
8
0
6
CONTINUOUS
10
0.032583
20
0.044580
30
0.0
11
0.032583
21
0.044812
31
0.0
0
LINE
8
0
6
CONTINUOUS
10
0.032349
20
0.045296
30
0.0
11
0.031968
21
0.045677
31
0.0
0
LINE
8
0
6
CONTINUOUS
10
0.031968
20
0.045677
30
0.0
11
0.031483
21
0.045912
31
0.0
0
LINE
8
0
6
CONTINUOUS
10
0.032583
20
0.044135
30
0.0
11
0.032583
21
0.044580
31
0.0
0
LINE
8
0
6
CONTINUOUS
10
0.011583
20
0.043514
30
0.0
11
0.011583
21
0.042766
31
0.0
0
LINE
8
0
6
CONTINUOUS
10
0.011583
20
0.042766
30
0.0
11
0.011583
21
0.041874
31
0.0
0
LINE
8
0
6
CONTINUOUS
10
0.011583
20
0.044135
30
0.0
11
0.011583
21
0.043514
31
0.0
0
LINE
8
0
6
CONTINUOUS
10
0.012683
20
0.045912
30
0.0
11
0.012199
21
0.045677
31
0.0
0
LINE
8
0
6
CONTINUOUS
10
0.012199
20
0.045677
30
0.0
11
0.011818
21
0.045296
31
0.0
0
LINE
8
0
6
CONTINUOUS
10
0.011583
20
0.044812
30
0.0
11
0.011583
21
0.044580
31
0.0
0
LINE
8
0
6
CONTINUOUS
10
0.011818
20
0.045296
30
0.0
11
0.011583
21
0.044812
31
0.0
0
LINE
8
0
6
CONTINUOUS
10
0.011583
20
0.044580
30
0.0
11
0.011583
21
0.044135
31
0.0
0
LINE
8
0
6
CONTINUOUS
10
0.011583
20
0.041874
30
0.0
11
0.011583
21
0.026885
31
0.0
0
LINE
8
0
6
CONTINUOUS
10
0.032583
20
0.025697
30
0.0
11
0.032583
21
0.041874
31
0.0
0
LINE
8
0
6
CONTINUOUS
10
0.031483
20
0.045912
30
0.0
11
0.031244
21
0.045912
31
0.0
0
LINE
8
0
6
CONTINUOUS
10
0.031244
20
0.045912
30
0.0
11
0.012778
21
0.045912
31
0.0
0
LINE
8
0
6
CONTINUOUS
10
0.032381
20
-0.026479
30
0.0
11
0.032586
21
-0.026033
31
0.0
0
LINE
8
0
6
CONTINUOUS
10
0.032586
20
-0.026033
30
0.0
11
0.032586
21
-0.025380
31
0.0
0
LINE
8
0
6
CONTINUOUS
10
0.032586
20
-0.025380
30
0.0
11
0.032586
21
-0.023455
31
0.0
0
LINE
8
0
6
CONTINUOUS
10
0.032586
20
-0.020355
30
0.0
11
0.032586
21
-0.016234
31
0.0
0
LINE
8
0
6
CONTINUOUS
10
0.032586
20
-0.016234
30
0.0
11
0.032586
21
-0.011299
31
0.0
0
LINE
8
0
6
CONTINUOUS
10
0.032586
20
-0.011299
30
0.0
11
0.032586
21
-0.005799
31
0.0
0
LINE
8
0
6
CONTINUOUS
10
0.032586
20
-0.005799
30
0.0
11
0.032586
21
-0.000008
31
0.0
0
LINE
8
0
6
CONTINUOUS
10
0.032586
20
-0.000008
30
0.0
11
0.032586
21
0.005784
31
0.0
0
LINE
8
0
6
CONTINUOUS
10
0.032586
20
0.005784
30
0.0
11
0.032586
21
0.011284
31
0.0
0
LINE
8
0
6
CONTINUOUS
10
0.032586
20
0.011284
30
0.0
11
0.032586
21
0.016219
31
0.0
0
LINE
8
0
6
CONTINUOUS
10
0.032586
20
0.016219
30
0.0
11
0.032586
21
0.020340
31
0.0
0
LINE
8
0
6
CONTINUOUS
10
0.032586
20
0.020340
30
0.0
11
0.032586
21
0.023440
31
0.0
0
LINE
8
0
6
CONTINUOUS
10
-0.014214
20
0.024506
30
0.0
11
-0.014543
21
0.024506
31
0.0
0
LINE
8
0
6
CONTINUOUS
10
-0.019797
20
-0.024521
30
0.0
11
-0.014543
21
-0.024521
31
0.0
0
LINE
8
0
6
CONTINUOUS
10
-0.013915
20
-0.026900
30
0.0
11
-0.001343
21
-0.026900
31
0.0
0
LINE
8
0
6
CONTINUOUS
10
0.008534
20
-0.026900
30
0.0
11
0.031475
21
-0.026900
31
0.0
0
LINE
8
0
6
CONTINUOUS
10
0.011583
20
0.026885
30
0.0
11
-0.013915
21
0.026885
31
0.0
0
LINE
8
0
6
CONTINUOUS
10
-0.014214
20
0.026210
30
0.0
11
-0.014214
21
0.024222
31
0.0
0
LINE
8
0
6
CONTINUOUS
10
-0.014214
20
0.011661
30
0.0
11
-0.014214
21
0.005977
31
0.0
0
LINE
8
0
6
CONTINUOUS
10
-0.014214
20
-0.011676
30
0.0
11
-0.014214
21
-0.016774
31
0.0
0
LINE
8
0
6
CONTINUOUS
10
-0.014214
20
0.016760
30
0.0
11
-0.014214
21
0.011661
31
0.0
0
LINE
8
0
6
CONTINUOUS
10
-0.014214
20
-0.005992
30
0.0
11
-0.014214
21
-0.011676
31
0.0
0
LINE
8
0
6
CONTINUOUS
10
-0.014214
20
-0.024236
30
0.0
11
-0.014214
21
-0.026225
31
0.0
0
LINE
8
0
6
CONTINUOUS
10
-0.013915
20
0.026885
30
0.0
11
-0.014214
21
0.026885
31
0.0
0
LINE
8
0
6
CONTINUOUS
10
-0.014214
20
0.026885
30
0.0
11
-0.014214
21
0.026210
31
0.0
0
LINE
8
0
6
CONTINUOUS
10
-0.014214
20
0.021018
30
0.0
11
-0.014214
21
0.016760
31
0.0
0
LINE
8
0
6
CONTINUOUS
10
-0.014214
20
-0.000007
30
0.0
11
-0.014214
21
-0.005992
31
0.0
0
LINE
8
0
6
CONTINUOUS
10
-0.014214
20
0.005977
30
0.0
11
-0.014214
21
-0.000007
31
0.0
0
LINE
8
0
6
CONTINUOUS
10
-0.014214
20
-0.016774
30
0.0
11
-0.014214
21
-0.021033
31
0.0
0
LINE
8
0
6
CONTINUOUS
10
-0.014214
20
0.024222
30
0.0
11
-0.014214
21
0.021018
31
0.0
0
LINE
8
0
6
CONTINUOUS
10
-0.014214
20
-0.026900
30
0.0
11
-0.013915
21
-0.026900
31
0.0
0
LINE
8
0
6
CONTINUOUS
10
-0.014214
20
-0.026225
30
0.0
11
-0.014214
21
-0.026900
31
0.0
0
LINE
8
0
6
CONTINUOUS
10
0.031558
20
-0.026900
30
0.0
11
0.032023
21
-0.026795
31
0.0
0
LINE
8
0
6
CONTINUOUS
10
0.032023
20
-0.026795
30
0.0
11
0.032381
21
-0.026479
31
0.0
0
LINE
8
0
6
CONTINUOUS
10
0.032586
20
-0.023455
30
0.0
11
0.032586
21
-0.020355
31
0.0
0
LINE
8
0
6
CONTINUOUS
10
-0.014214
20
-0.021033
30
0.0
11
-0.014214
21
-0.024236
31
0.0
0
LINE
8
0
6
CONTINUOUS
10
0.031475
20
-0.026900
30
0.0
11
0.031558
21
-0.026900
31
0.0
0
LINE
8
0
6
CONTINUOUS
10
-0.014543
20
0.024506
30
0.0
11
-0.019797
21
0.024506
31
0.0
0
LINE
8
0
6
CONTINUOUS
10
-0.014543
20
-0.024521
30
0.0
11
-0.014214
21
-0.024521
31
0.0
0
LINE
8
0
6
CONTINUOUS
10
-0.032586
20
0.041706
30
0.0
11
-0.032586
21
0.028728
31
0.0
0
LINE
8
0
6
CONTINUOUS
10
-0.021797
20
0.074693
30
0.0
11
-0.022316
21
0.074704
31
0.0
0
LINE
8
0
6
CONTINUOUS
10
-0.032586
20
-0.062418
30
0.0
11
-0.032586
21
-0.069355
31
0.0
0
LINE
8
0
6
CONTINUOUS
10
-0.022316
20
-0.074704
30
0.0
11
-0.021797
21
-0.074693
31
0.0
0
LINE
8
0
6
CONTINUOUS
10
-0.032586
20
-0.014645
30
0.0
11
-0.032586
21
-0.028728
31
0.0
0
LINE
8
0
6
CONTINUOUS
10
-0.032586
20
0.073627
30
0.0
11
-0.032586
21
0.069355
31
0.0
0
LINE
8
0
6
CONTINUOUS
10
-0.032586
20
0.075069
30
0.0
11
-0.032586
21
0.073627
31
0.0
0
LINE
8
0
6
CONTINUOUS
10
-0.031611
20
0.075048
30
0.0
11
-0.032586
21
0.075069
31
0.0
0
LINE
8
0
6
CONTINUOUS
10
-0.032586
20
0.053082
30
0.0
11
-0.032586
21
0.041706
31
0.0
0
LINE
8
0
6
CONTINUOUS
10
-0.032586
20
0.000000
30
0.0
11
-0.032586
21
-0.014645
31
0.0
0
LINE
8
0
6
CONTINUOUS
10
-0.032586
20
-0.053082
30
0.0
11
-0.032586
21
-0.062418
31
0.0
0
LINE
8
0
6
CONTINUOUS
10
-0.032586
20
0.062418
30
0.0
11
-0.032586
21
0.053082
31
0.0
0
LINE
8
0
6
CONTINUOUS
10
-0.032586
20
0.014645
30
0.0
11
-0.032586
21
0.000000
31
0.0
0
LINE
8
0
6
CONTINUOUS
10
-0.032586
20
-0.041706
30
0.0
11
-0.032586
21
-0.053082
31
0.0
0
LINE
8
0
6
CONTINUOUS
10
-0.032586
20
-0.073627
30
0.0
11
-0.032586
21
-0.075069
31
0.0
0
LINE
8
0
6
CONTINUOUS
10
-0.032586
20
-0.075069
30
0.0
11
-0.031611
21
-0.075048
31
0.0
0
LINE
8
0
6
CONTINUOUS
10
-0.032586
20
0.069355
30
0.0
11
-0.032586
21
0.062418
31
0.0
0
LINE
8
0
6
CONTINUOUS
10
-0.032586
20
0.028728
30
0.0
11
-0.032586
21
0.014645
31
0.0
0
LINE
8
0
6
CONTINUOUS
10
-0.032586
20
-0.028728
30
0.0
11
-0.032586
21
-0.041706
31
0.0
0
LINE
8
0
6
CONTINUOUS
10
-0.032586
20
-0.069355
30
0.0
11
-0.032586
21
-0.073627
31
0.0
0
LINE
8
0
6
CONTINUOUS
10
-0.019797
20
-0.072068
30
0.0
11
-0.019797
21
-0.070725
31
0.0
0
LINE
8
0
6
CONTINUOUS
10
-0.020065
20
-0.073365
30
0.0
11
-0.019797
21
-0.072068
31
0.0
0
LINE
8
0
6
CONTINUOUS
10
-0.020797
20
-0.074326
30
0.0
11
-0.020065
21
-0.073365
31
0.0
0
LINE
8
0
6
CONTINUOUS
10
-0.021797
20
-0.074693
30
0.0
11
-0.020797
21
-0.074326
31
0.0
0
LINE
8
0
6
CONTINUOUS
10
-0.019797
20
-0.070725
30
0.0
11
-0.019797
21
-0.066734
31
0.0
0
LINE
8
0
6
CONTINUOUS
10
-0.019797
20
-0.066734
30
0.0
11
-0.019797
21
-0.060213
31
0.0
0
LINE
8
0
6
CONTINUOUS
10
-0.019797
20
-0.060213
30
0.0
11
-0.019797
21
-0.051384
31
0.0
0
LINE
8
0
6
CONTINUOUS
10
-0.019797
20
-0.051384
30
0.0
11
-0.019797
21
-0.040579
31
0.0
0
LINE
8
0
6
CONTINUOUS
10
-0.019797
20
-0.040579
30
0.0
11
-0.019797
21
-0.028204
31
0.0
0
LINE
8
0
6
CONTINUOUS
10
-0.019797
20
-0.028204
30
0.0
11
-0.019797
21
-0.014745
31
0.0
0
LINE
8
0
6
CONTINUOUS
10
-0.019797
20
-0.014745
30
0.0
11
-0.019797
21
0.000842
31
0.0
0
LINE
8
0
6
CONTINUOUS
10
-0.019797
20
0.000842
30
0.0
11
-0.019797
21
0.015570
31
0.0
0
LINE
8
0
6
CONTINUOUS
10
-0.019797
20
0.015570
30
0.0
11
-0.019797
21
0.028925
31
0.0
0
LINE
8
0
6
CONTINUOUS
10
-0.019797
20
0.028925
30
0.0
11
-0.019797
21
0.041215
31
0.0
0
LINE
8
0
6
CONTINUOUS
10
-0.019797
20
0.041215
30
0.0
11
-0.019797
21
0.051969
31
0.0
0
LINE
8
0
6
CONTINUOUS
10
-0.019797
20
0.051969
30
0.0
11
-0.019797
21
0.060779
31
0.0
0
LINE
8
0
6
CONTINUOUS
10
-0.019797
20
0.060779
30
0.0
11
-0.019797
21
0.067313
31
0.0
0
LINE
8
0
6
CONTINUOUS
10
-0.019797
20
0.067313
30
0.0
11
-0.019797
21
0.071329
31
0.0
0
LINE
8
0
6
CONTINUOUS
10
-0.019797
20
0.071329
30
0.0
11
-0.019797
21
0.072684
31
0.0
0
LINE
8
0
6
CONTINUOUS
10
-0.019797
20
0.072684
30
0.0
11
-0.020065
21
0.073673
31
0.0
0
LINE
8
0
6
CONTINUOUS
10
-0.020065
20
0.073673
30
0.0
11
-0.020797
21
0.074409
31
0.0
0
LINE
8
0
6
CONTINUOUS
10
-0.020797
20
0.074409
30
0.0
11
-0.021797
21
0.074693
31
0.0
0
LINE
8
0
6
CONTINUOUS
10
-0.022316
20
0.074704
30
0.0
11
-0.031611
21
0.075048
31
0.0
0
LINE
8
0
6
CONTINUOUS
10
-0.031611
20
-0.075048
30
0.0
11
-0.022316
21
-0.074704
31
0.0
0
LINE
8
0
6
CONTINUOUS
10
0.012683
20
0.026434
30
0.0
11
0.012199
21
0.026460
31
0.0
0
LINE
8
0
6
CONTINUOUS
10
0.012199
20
0.026460
30
0.0
11
0.011818
21
0.026503
31
0.0
0
ENDSEC
0
EOF
