999
unknown String-ID: 20550
0
SECTION
2
HEADER
9
$ACADVER
1
AC1009
9
$DWGCODEPAGE
3
unknown String-ID: 20561
0
ENDSEC
0
SECTION
2
TABLES
0
TABLE
2
LAYER
70
1
0
LAYER
2
0
70
0
62
7
6
CONTINUOUS
0
ENDTAB
0
ENDSEC
0
SECTION
2
ENTITIES
0
LINE
8
0
6
CONTINUOUS
10
-0.003210
20
-0.008118
30
0.0
11
-0.003210
21
-0.008194
31
0.0
0
LINE
8
0
6
CONTINUOUS
10
0.001950
20
-0.026167
30
0.0
11
0.002224
21
-0.026167
31
0.0
0
LINE
8
0
6
CONTINUOUS
10
0.002224
20
-0.026167
30
0.0
11
0.002327
21
-0.026167
31
0.0
0
LINE
8
0
6
CONTINUOUS
10
0.001518
20
-0.026167
30
0.0
11
0.001950
21
-0.026167
31
0.0
0
LINE
8
0
6
CONTINUOUS
10
-0.003210
20
-0.025284
30
0.0
11
-0.003021
21
-0.025673
31
0.0
0
LINE
8
0
6
CONTINUOUS
10
-0.003021
20
-0.025673
30
0.0
11
-0.002716
21
-0.025979
31
0.0
0
LINE
8
0
6
CONTINUOUS
10
-0.002327
20
-0.026167
30
0.0
11
-0.002224
21
-0.026167
31
0.0
0
LINE
8
0
6
CONTINUOUS
10
-0.002716
20
-0.025979
30
0.0
11
-0.002327
21
-0.026167
31
0.0
0
LINE
8
0
6
CONTINUOUS
10
-0.002224
20
-0.026167
30
0.0
11
-0.001950
21
-0.026167
31
0.0
0
LINE
8
0
6
CONTINUOUS
10
-0.001950
20
-0.026167
30
0.0
11
-0.001518
21
-0.026167
31
0.0
0
LINE
8
0
6
CONTINUOUS
10
0.000330
20
-0.026167
30
0.0
11
0.000963
21
-0.026167
31
0.0
0
LINE
8
0
6
CONTINUOUS
10
-0.000330
20
-0.026167
30
0.0
11
0.000000
21
-0.026167
31
0.0
0
LINE
8
0
6
CONTINUOUS
10
0.000963
20
-0.026167
30
0.0
11
0.001518
21
-0.026167
31
0.0
0
LINE
8
0
6
CONTINUOUS
10
-0.001518
20
-0.026167
30
0.0
11
-0.000963
21
-0.026167
31
0.0
0
LINE
8
0
6
CONTINUOUS
10
-0.000963
20
-0.026167
30
0.0
11
-0.000330
21
-0.026167
31
0.0
0
LINE
8
0
6
CONTINUOUS
10
0.002224
20
-0.007236
30
0.0
11
0.001950
21
-0.007236
31
0.0
0
LINE
8
0
6
CONTINUOUS
10
0.002327
20
-0.007236
30
0.0
11
0.002224
21
-0.007236
31
0.0
0
LINE
8
0
6
CONTINUOUS
10
0.001950
20
-0.007236
30
0.0
11
0.001518
21
-0.007236
31
0.0
0
LINE
8
0
6
CONTINUOUS
10
-0.002327
20
-0.007236
30
0.0
11
-0.002716
21
-0.007424
31
0.0
0
LINE
8
0
6
CONTINUOUS
10
-0.002224
20
-0.007236
30
0.0
11
-0.002327
21
-0.007236
31
0.0
0
LINE
8
0
6
CONTINUOUS
10
-0.002716
20
-0.007424
30
0.0
11
-0.003021
21
-0.007729
31
0.0
0
LINE
8
0
6
CONTINUOUS
10
-0.003021
20
-0.007729
30
0.0
11
-0.003210
21
-0.008118
31
0.0
0
LINE
8
0
6
CONTINUOUS
10
-0.001950
20
-0.007236
30
0.0
11
-0.002224
21
-0.007236
31
0.0
0
LINE
8
0
6
CONTINUOUS
10
-0.001518
20
-0.007236
30
0.0
11
-0.001950
21
-0.007236
31
0.0
0
LINE
8
0
6
CONTINUOUS
10
0.000963
20
-0.007236
30
0.0
11
0.000330
21
-0.007236
31
0.0
0
LINE
8
0
6
CONTINUOUS
10
0.000000
20
-0.007236
30
0.0
11
-0.000330
21
-0.007236
31
0.0
0
LINE
8
0
6
CONTINUOUS
10
0.001518
20
-0.007236
30
0.0
11
0.000963
21
-0.007236
31
0.0
0
LINE
8
0
6
CONTINUOUS
10
-0.000963
20
-0.007236
30
0.0
11
-0.001518
21
-0.007236
31
0.0
0
LINE
8
0
6
CONTINUOUS
10
-0.000330
20
-0.007236
30
0.0
11
-0.000963
21
-0.007236
31
0.0
0
LINE
8
0
6
CONTINUOUS
10
-0.003210
20
-0.025092
30
0.0
11
-0.003210
21
-0.025284
31
0.0
0
LINE
8
0
6
CONTINUOUS
10
-0.003210
20
-0.008194
30
0.0
11
-0.003210
21
-0.025092
31
0.0
0
LINE
8
0
6
CONTINUOUS
10
-0.004735
20
-0.026167
30
0.0
11
0.000000
21
-0.026167
31
0.0
0
LINE
8
0
6
CONTINUOUS
10
-0.009233
20
-0.026167
30
0.0
11
-0.004735
21
-0.026167
31
0.0
0
LINE
8
0
6
CONTINUOUS
10
-0.013268
20
-0.026167
30
0.0
11
-0.009233
21
-0.026167
31
0.0
0
LINE
8
0
6
CONTINUOUS
10
-0.016638
20
-0.026167
30
0.0
11
-0.013268
21
-0.026167
31
0.0
0
LINE
8
0
6
CONTINUOUS
10
-0.019173
20
-0.026167
30
0.0
11
-0.016638
21
-0.026167
31
0.0
0
LINE
8
0
6
CONTINUOUS
10
-0.020747
20
-0.026167
30
0.0
11
-0.019173
21
-0.026167
31
0.0
0
LINE
8
0
6
CONTINUOUS
10
-0.021646
20
-0.026000
30
0.0
11
-0.021281
21
-0.026167
31
0.0
0
LINE
8
0
6
CONTINUOUS
10
-0.021281
20
-0.026167
30
0.0
11
-0.020747
21
-0.026167
31
0.0
0
LINE
8
0
6
CONTINUOUS
10
0.021281
20
-0.026167
30
0.0
11
0.021646
21
-0.026000
31
0.0
0
LINE
8
0
6
CONTINUOUS
10
0.020747
20
-0.026167
30
0.0
11
0.021281
21
-0.026167
31
0.0
0
LINE
8
0
6
CONTINUOUS
10
0.019173
20
-0.026167
30
0.0
11
0.020747
21
-0.026167
31
0.0
0
LINE
8
0
6
CONTINUOUS
10
0.016638
20
-0.026167
30
0.0
11
0.019173
21
-0.026167
31
0.0
0
LINE
8
0
6
CONTINUOUS
10
0.013268
20
-0.026167
30
0.0
11
0.016638
21
-0.026167
31
0.0
0
LINE
8
0
6
CONTINUOUS
10
0.009233
20
-0.026167
30
0.0
11
0.013268
21
-0.026167
31
0.0
0
LINE
8
0
6
CONTINUOUS
10
0.004735
20
-0.026167
30
0.0
11
0.009233
21
-0.026167
31
0.0
0
LINE
8
0
6
CONTINUOUS
10
0.000000
20
-0.026167
30
0.0
11
0.004735
21
-0.026167
31
0.0
0
LINE
8
0
6
CONTINUOUS
10
-0.021990
20
0.005655
30
0.0
11
-0.021990
21
-0.025259
31
0.0
0
LINE
8
0
6
CONTINUOUS
10
0.021990
20
-0.025259
30
0.0
11
0.021990
21
0.005655
31
0.0
0
LINE
8
0
6
CONTINUOUS
10
0.019421
20
0.005899
30
0.0
11
0.021016
21
0.005899
31
0.0
0
LINE
8
0
6
CONTINUOUS
10
0.000000
20
0.005899
30
0.0
11
0.004797
21
0.005899
31
0.0
0
LINE
8
0
6
CONTINUOUS
10
-0.004797
20
0.005899
30
0.0
11
0.000000
21
0.005899
31
0.0
0
LINE
8
0
6
CONTINUOUS
10
-0.021016
20
0.005899
30
0.0
11
-0.019421
21
0.005899
31
0.0
0
LINE
8
0
6
CONTINUOUS
10
0.000000
20
0.005899
30
0.0
11
-0.004893
21
0.005899
31
0.0
0
LINE
8
0
6
CONTINUOUS
10
0.009541
20
0.005899
30
0.0
11
0.004893
21
0.005899
31
0.0
0
LINE
8
0
6
CONTINUOUS
10
0.021438
20
0.005899
30
0.0
11
0.019812
21
0.005899
31
0.0
0
LINE
8
0
6
CONTINUOUS
10
-0.021990
20
0.005899
30
0.0
11
-0.021990
21
0.005655
31
0.0
0
LINE
8
0
6
CONTINUOUS
10
-0.009541
20
0.005899
30
0.0
11
-0.013710
21
0.005899
31
0.0
0
LINE
8
0
6
CONTINUOUS
10
-0.013710
20
0.005899
30
0.0
11
-0.017192
21
0.005899
31
0.0
0
LINE
8
0
6
CONTINUOUS
10
0.004893
20
0.005899
30
0.0
11
0.000000
21
0.005899
31
0.0
0
LINE
8
0
6
CONTINUOUS
10
0.017192
20
0.005899
30
0.0
11
0.013710
21
0.005899
31
0.0
0
LINE
8
0
6
CONTINUOUS
10
0.021990
20
0.005655
30
0.0
11
0.021990
21
0.005899
31
0.0
0
LINE
8
0
6
CONTINUOUS
10
0.013710
20
0.005899
30
0.0
11
0.009541
21
0.005899
31
0.0
0
LINE
8
0
6
CONTINUOUS
10
-0.019812
20
0.005899
30
0.0
11
-0.021438
21
0.005899
31
0.0
0
LINE
8
0
6
CONTINUOUS
10
-0.004893
20
0.005899
30
0.0
11
-0.009541
21
0.005899
31
0.0
0
LINE
8
0
6
CONTINUOUS
10
-0.021990
20
-0.025327
30
0.0
11
-0.021904
21
-0.025706
31
0.0
0
LINE
8
0
6
CONTINUOUS
10
-0.021904
20
-0.025706
30
0.0
11
-0.021646
21
-0.026000
31
0.0
0
LINE
8
0
6
CONTINUOUS
10
0.021904
20
-0.025706
30
0.0
11
0.021990
21
-0.025327
31
0.0
0
LINE
8
0
6
CONTINUOUS
10
0.021646
20
-0.026000
30
0.0
11
0.021904
21
-0.025706
31
0.0
0
LINE
8
0
6
CONTINUOUS
10
-0.019812
20
0.005899
30
0.0
11
-0.017192
21
0.005899
31
0.0
0
LINE
8
0
6
CONTINUOUS
10
-0.019421
20
0.005899
30
0.0
11
-0.019812
21
0.005899
31
0.0
0
LINE
8
0
6
CONTINUOUS
10
-0.021438
20
0.005899
30
0.0
11
-0.021016
21
0.005899
31
0.0
0
LINE
8
0
6
CONTINUOUS
10
-0.021990
20
0.005899
30
0.0
11
-0.021438
21
0.005899
31
0.0
0
LINE
8
0
6
CONTINUOUS
10
0.021438
20
0.005899
30
0.0
11
0.021990
21
0.005899
31
0.0
0
LINE
8
0
6
CONTINUOUS
10
0.021016
20
0.005899
30
0.0
11
0.021438
21
0.005899
31
0.0
0
LINE
8
0
6
CONTINUOUS
10
0.019812
20
0.005899
30
0.0
11
0.019421
21
0.005899
31
0.0
0
LINE
8
0
6
CONTINUOUS
10
0.017192
20
0.005899
30
0.0
11
0.019812
21
0.005899
31
0.0
0
LINE
8
0
6
CONTINUOUS
10
-0.021990
20
-0.025259
30
0.0
11
-0.021990
21
-0.025327
31
0.0
0
LINE
8
0
6
CONTINUOUS
10
0.021990
20
-0.025327
30
0.0
11
0.021990
21
-0.025259
31
0.0
0
LINE
8
0
6
CONTINUOUS
10
-0.004893
20
0.006494
30
0.0
11
0.000000
21
0.006494
31
0.0
0
LINE
8
0
6
CONTINUOUS
10
0.004893
20
0.006494
30
0.0
11
0.009541
21
0.006494
31
0.0
0
LINE
8
0
6
CONTINUOUS
10
0.019812
20
0.006494
30
0.0
11
0.021438
21
0.006494
31
0.0
0
LINE
8
0
6
CONTINUOUS
10
-0.021990
20
0.006738
30
0.0
11
-0.021990
21
0.006494
31
0.0
0
LINE
8
0
6
CONTINUOUS
10
-0.013710
20
0.006494
30
0.0
11
-0.009541
21
0.006494
31
0.0
0
LINE
8
0
6
CONTINUOUS
10
-0.017192
20
0.006494
30
0.0
11
-0.013710
21
0.006494
31
0.0
0
LINE
8
0
6
CONTINUOUS
10
0.000000
20
0.006494
30
0.0
11
0.004893
21
0.006494
31
0.0
0
LINE
8
0
6
CONTINUOUS
10
0.013710
20
0.006494
30
0.0
11
0.017192
21
0.006494
31
0.0
0
LINE
8
0
6
CONTINUOUS
10
0.021990
20
0.006494
30
0.0
11
0.021990
21
0.006738
31
0.0
0
LINE
8
0
6
CONTINUOUS
10
0.009541
20
0.006494
30
0.0
11
0.013710
21
0.006494
31
0.0
0
LINE
8
0
6
CONTINUOUS
10
-0.021438
20
0.006494
30
0.0
11
-0.019812
21
0.006494
31
0.0
0
LINE
8
0
6
CONTINUOUS
10
-0.009541
20
0.006494
30
0.0
11
-0.004893
21
0.006494
31
0.0
0
LINE
8
0
6
CONTINUOUS
10
-0.017192
20
0.006494
30
0.0
11
-0.019812
21
0.006494
31
0.0
0
LINE
8
0
6
CONTINUOUS
10
-0.021438
20
0.006494
30
0.0
11
-0.021990
21
0.006494
31
0.0
0
LINE
8
0
6
CONTINUOUS
10
0.021990
20
0.006494
30
0.0
11
0.021438
21
0.006494
31
0.0
0
LINE
8
0
6
CONTINUOUS
10
0.019812
20
0.006494
30
0.0
11
0.017192
21
0.006494
31
0.0
0
LINE
8
0
6
CONTINUOUS
10
0.021990
20
0.006738
30
0.0
11
0.021990
21
0.013378
31
0.0
0
LINE
8
0
6
CONTINUOUS
10
-0.021990
20
0.013378
30
0.0
11
-0.021990
21
0.006738
31
0.0
0
LINE
8
0
6
CONTINUOUS
10
0.000000
20
-0.026167
30
0.0
11
0.000330
21
-0.026167
31
0.0
0
LINE
8
0
6
CONTINUOUS
10
0.000330
20
-0.007236
30
0.0
11
0.000000
21
-0.007236
31
0.0
0
LINE
8
0
6
CONTINUOUS
10
0.069355
20
0.026167
30
0.0
11
0.062418
21
0.026167
31
0.0
0
LINE
8
0
6
CONTINUOUS
10
0.028728
20
0.026167
30
0.0
11
0.014645
21
0.026167
31
0.0
0
LINE
8
0
6
CONTINUOUS
10
0.074693
20
0.015378
30
0.0
11
0.074704
21
0.015897
31
0.0
0
LINE
8
0
6
CONTINUOUS
10
0.014645
20
0.026167
30
0.0
11
0.000000
21
0.026167
31
0.0
0
LINE
8
0
6
CONTINUOUS
10
0.062418
20
0.026167
30
0.0
11
0.053082
21
0.026167
31
0.0
0
LINE
8
0
6
CONTINUOUS
10
0.053082
20
0.026167
30
0.0
11
0.041706
21
0.026167
31
0.0
0
LINE
8
0
6
CONTINUOUS
10
0.075048
20
0.025192
30
0.0
11
0.075069
21
0.026167
31
0.0
0
LINE
8
0
6
CONTINUOUS
10
0.075069
20
0.026167
30
0.0
11
0.073627
21
0.026167
31
0.0
0
LINE
8
0
6
CONTINUOUS
10
0.041706
20
0.026167
30
0.0
11
0.028728
21
0.026167
31
0.0
0
LINE
8
0
6
CONTINUOUS
10
0.073627
20
0.026167
30
0.0
11
0.069355
21
0.026167
31
0.0
0
LINE
8
0
6
CONTINUOUS
10
0.070853
20
0.013378
30
0.0
11
0.072758
21
0.013646
31
0.0
0
LINE
8
0
6
CONTINUOUS
10
0.069402
20
0.013378
30
0.0
11
0.070853
21
0.013378
31
0.0
0
LINE
8
0
6
CONTINUOUS
10
0.072758
20
0.013646
30
0.0
11
0.074163
21
0.014378
31
0.0
0
LINE
8
0
6
CONTINUOUS
10
0.074163
20
0.014378
30
0.0
11
0.074693
21
0.015378
31
0.0
0
LINE
8
0
6
CONTINUOUS
10
0.065351
20
0.013378
30
0.0
11
0.069402
21
0.013378
31
0.0
0
LINE
8
0
6
CONTINUOUS
10
0.058782
20
0.013378
30
0.0
11
0.065351
21
0.013378
31
0.0
0
LINE
8
0
6
CONTINUOUS
10
0.049956
20
0.013378
30
0.0
11
0.058782
21
0.013378
31
0.0
0
LINE
8
0
6
CONTINUOUS
10
0.039221
20
0.013378
30
0.0
11
0.049956
21
0.013378
31
0.0
0
LINE
8
0
6
CONTINUOUS
10
0.026998
20
0.013378
30
0.0
11
0.039221
21
0.013378
31
0.0
0
LINE
8
0
6
CONTINUOUS
10
0.013758
20
0.013378
30
0.0
11
0.026998
21
0.013378
31
0.0
0
LINE
8
0
6
CONTINUOUS
10
0.000000
20
0.013378
30
0.0
11
0.013758
21
0.013378
31
0.0
0
LINE
8
0
6
CONTINUOUS
10
0.074704
20
0.015897
30
0.0
11
0.075048
21
0.025192
31
0.0
0
LINE
8
0
6
CONTINUOUS
10
-0.062418
20
0.026167
30
0.0
11
-0.069355
21
0.026167
31
0.0
0
LINE
8
0
6
CONTINUOUS
10
-0.014645
20
0.026167
30
0.0
11
-0.028728
21
0.026167
31
0.0
0
LINE
8
0
6
CONTINUOUS
10
-0.074704
20
0.015897
30
0.0
11
-0.074693
21
0.015378
31
0.0
0
LINE
8
0
6
CONTINUOUS
10
0.000000
20
0.026167
30
0.0
11
-0.014645
21
0.026167
31
0.0
0
LINE
8
0
6
CONTINUOUS
10
-0.053082
20
0.026167
30
0.0
11
-0.062418
21
0.026167
31
0.0
0
LINE
8
0
6
CONTINUOUS
10
-0.041706
20
0.026167
30
0.0
11
-0.053082
21
0.026167
31
0.0
0
LINE
8
0
6
CONTINUOUS
10
-0.073627
20
0.026167
30
0.0
11
-0.075069
21
0.026167
31
0.0
0
LINE
8
0
6
CONTINUOUS
10
-0.075069
20
0.026167
30
0.0
11
-0.075048
21
0.025192
31
0.0
0
LINE
8
0
6
CONTINUOUS
10
-0.028728
20
0.026167
30
0.0
11
-0.041706
21
0.026167
31
0.0
0
LINE
8
0
6
CONTINUOUS
10
-0.069355
20
0.026167
30
0.0
11
-0.073627
21
0.026167
31
0.0
0
LINE
8
0
6
CONTINUOUS
10
-0.070853
20
0.013378
30
0.0
11
-0.069402
21
0.013378
31
0.0
0
LINE
8
0
6
CONTINUOUS
10
-0.072758
20
0.013646
30
0.0
11
-0.070853
21
0.013378
31
0.0
0
LINE
8
0
6
CONTINUOUS
10
-0.074163
20
0.014378
30
0.0
11
-0.072758
21
0.013646
31
0.0
0
LINE
8
0
6
CONTINUOUS
10
-0.074693
20
0.015378
30
0.0
11
-0.074163
21
0.014378
31
0.0
0
LINE
8
0
6
CONTINUOUS
10
-0.069402
20
0.013378
30
0.0
11
-0.065351
21
0.013378
31
0.0
0
LINE
8
0
6
CONTINUOUS
10
-0.065351
20
0.013378
30
0.0
11
-0.058782
21
0.013378
31
0.0
0
LINE
8
0
6
CONTINUOUS
10
-0.058782
20
0.013378
30
0.0
11
-0.049956
21
0.013378
31
0.0
0
LINE
8
0
6
CONTINUOUS
10
-0.049956
20
0.013378
30
0.0
11
-0.039221
21
0.013378
31
0.0
0
LINE
8
0
6
CONTINUOUS
10
-0.039221
20
0.013378
30
0.0
11
-0.026998
21
0.013378
31
0.0
0
LINE
8
0
6
CONTINUOUS
10
-0.026998
20
0.013378
30
0.0
11
-0.013758
21
0.013378
31
0.0
0
LINE
8
0
6
CONTINUOUS
10
-0.013758
20
0.013378
30
0.0
11
0.000000
21
0.013378
31
0.0
0
LINE
8
0
6
CONTINUOUS
10
-0.075048
20
0.025192
30
0.0
11
-0.074704
21
0.015897
31
0.0
0
ENDSEC
0
EOF
