999
unknown String-ID: 20550
0
SECTION
2
HEADER
9
$ACADVER
1
AC1009
9
$DWGCODEPAGE
3
unknown String-ID: 20561
0
ENDSEC
0
SECTION
2
TABLES
0
TABLE
2
LAYER
70
1
0
LAYER
2
0
70
0
62
7
6
CONTINUOUS
0
ENDTAB
0
ENDSEC
0
SECTION
2
ENTITIES
0
LINE
8
0
6
CONTINUOUS
10
0.014407
20
-0.025853
30
0.0
11
0.014407
21
-0.021997
31
0.0
0
LINE
8
0
6
CONTINUOUS
10
0.004750
20
-0.021997
30
0.0
11
0.004750
21
-0.025853
31
0.0
0
LINE
8
0
6
CONTINUOUS
10
0.014407
20
-0.025911
30
0.0
11
0.014407
21
-0.025853
31
0.0
0
LINE
8
0
6
CONTINUOUS
10
0.004994
20
-0.026329
30
0.0
11
0.005237
21
-0.026394
31
0.0
0
LINE
8
0
6
CONTINUOUS
10
0.004815
20
-0.026152
30
0.0
11
0.004994
21
-0.026329
31
0.0
0
LINE
8
0
6
CONTINUOUS
10
0.004750
20
-0.025911
30
0.0
11
0.004815
21
-0.026152
31
0.0
0
LINE
8
0
6
CONTINUOUS
10
0.005385
20
-0.026394
30
0.0
11
0.005819
21
-0.026394
31
0.0
0
LINE
8
0
6
CONTINUOUS
10
0.005819
20
-0.026394
30
0.0
11
0.006509
21
-0.026394
31
0.0
0
LINE
8
0
6
CONTINUOUS
10
0.006509
20
-0.026394
30
0.0
11
0.007408
21
-0.026394
31
0.0
0
LINE
8
0
6
CONTINUOUS
10
0.007408
20
-0.026394
30
0.0
11
0.008455
21
-0.026394
31
0.0
0
LINE
8
0
6
CONTINUOUS
10
0.008455
20
-0.026394
30
0.0
11
0.009579
21
-0.026394
31
0.0
0
LINE
8
0
6
CONTINUOUS
10
0.009579
20
-0.026394
30
0.0
11
0.010702
21
-0.026394
31
0.0
0
LINE
8
0
6
CONTINUOUS
10
0.010702
20
-0.026394
30
0.0
11
0.011750
21
-0.026394
31
0.0
0
LINE
8
0
6
CONTINUOUS
10
0.011750
20
-0.026394
30
0.0
11
0.012649
21
-0.026394
31
0.0
0
LINE
8
0
6
CONTINUOUS
10
0.012649
20
-0.026394
30
0.0
11
0.013339
21
-0.026394
31
0.0
0
LINE
8
0
6
CONTINUOUS
10
0.013339
20
-0.026394
30
0.0
11
0.013772
21
-0.026394
31
0.0
0
LINE
8
0
6
CONTINUOUS
10
0.013920
20
-0.026394
30
0.0
11
0.014164
21
-0.026329
31
0.0
0
LINE
8
0
6
CONTINUOUS
10
0.013772
20
-0.026394
30
0.0
11
0.013920
21
-0.026394
31
0.0
0
LINE
8
0
6
CONTINUOUS
10
0.014164
20
-0.026329
30
0.0
11
0.014342
21
-0.026152
31
0.0
0
LINE
8
0
6
CONTINUOUS
10
0.014342
20
-0.026152
30
0.0
11
0.014407
21
-0.025911
31
0.0
0
LINE
8
0
6
CONTINUOUS
10
0.004750
20
-0.025853
30
0.0
11
0.004750
21
-0.025911
31
0.0
0
LINE
8
0
6
CONTINUOUS
10
0.008194
20
0.035324
30
0.0
11
0.008118
21
0.035324
31
0.0
0
LINE
8
0
6
CONTINUOUS
10
0.026167
20
0.032083
30
0.0
11
0.026167
21
0.032800
31
0.0
0
LINE
8
0
6
CONTINUOUS
10
0.026167
20
0.032800
30
0.0
11
0.026167
21
0.033400
31
0.0
0
LINE
8
0
6
CONTINUOUS
10
0.026167
20
0.033400
30
0.0
11
0.026167
21
0.033898
31
0.0
0
LINE
8
0
6
CONTINUOUS
10
0.026167
20
0.033898
30
0.0
11
0.026167
21
0.034255
31
0.0
0
LINE
8
0
6
CONTINUOUS
10
0.026167
20
0.034441
30
0.0
11
0.025979
21
0.034830
31
0.0
0
LINE
8
0
6
CONTINUOUS
10
0.026167
20
0.034255
30
0.0
11
0.026167
21
0.034441
31
0.0
0
LINE
8
0
6
CONTINUOUS
10
0.007236
20
0.032800
30
0.0
11
0.007236
21
0.032083
31
0.0
0
LINE
8
0
6
CONTINUOUS
10
0.007236
20
0.033400
30
0.0
11
0.007236
21
0.032800
31
0.0
0
LINE
8
0
6
CONTINUOUS
10
0.007236
20
0.033898
30
0.0
11
0.007236
21
0.033400
31
0.0
0
LINE
8
0
6
CONTINUOUS
10
0.007236
20
0.034255
30
0.0
11
0.007236
21
0.033898
31
0.0
0
LINE
8
0
6
CONTINUOUS
10
0.007236
20
0.034441
30
0.0
11
0.007236
21
0.034255
31
0.0
0
LINE
8
0
6
CONTINUOUS
10
0.007424
20
0.034830
30
0.0
11
0.007236
21
0.034441
31
0.0
0
LINE
8
0
6
CONTINUOUS
10
0.007236
20
0.032083
30
0.0
11
0.007236
21
0.021982
31
0.0
0
LINE
8
0
6
CONTINUOUS
10
0.026167
20
0.021011
30
0.0
11
0.026167
21
0.032083
31
0.0
0
LINE
8
0
6
CONTINUOUS
10
0.025284
20
0.035324
30
0.0
11
0.025092
21
0.035324
31
0.0
0
LINE
8
0
6
CONTINUOUS
10
0.025092
20
0.035324
30
0.0
11
0.008194
21
0.035324
31
0.0
0
LINE
8
0
6
CONTINUOUS
10
0.026167
20
0.020740
30
0.0
11
0.026167
21
0.021011
31
0.0
0
LINE
8
0
6
CONTINUOUS
10
0.026167
20
0.016631
30
0.0
11
0.026167
21
0.019166
31
0.0
0
LINE
8
0
6
CONTINUOUS
10
0.026167
20
0.009226
30
0.0
11
0.026167
21
0.013261
31
0.0
0
LINE
8
0
6
CONTINUOUS
10
0.026167
20
0.004728
30
0.0
11
0.026167
21
0.009226
31
0.0
0
LINE
8
0
6
CONTINUOUS
10
0.026167
20
-0.000007
30
0.0
11
0.026167
21
0.004728
31
0.0
0
LINE
8
0
6
CONTINUOUS
10
0.026167
20
-0.004743
30
0.0
11
0.026167
21
-0.000007
31
0.0
0
LINE
8
0
6
CONTINUOUS
10
0.026167
20
-0.009241
30
0.0
11
0.026167
21
-0.004743
31
0.0
0
LINE
8
0
6
CONTINUOUS
10
0.026167
20
-0.013276
30
0.0
11
0.026167
21
-0.009241
31
0.0
0
LINE
8
0
6
CONTINUOUS
10
0.026167
20
-0.016646
30
0.0
11
0.026167
21
-0.013276
31
0.0
0
LINE
8
0
6
CONTINUOUS
10
0.026167
20
-0.020755
30
0.0
11
0.026167
21
-0.019181
31
0.0
0
LINE
8
0
6
CONTINUOUS
10
0.026000
20
-0.021653
30
0.0
11
0.026167
21
-0.021288
31
0.0
0
LINE
8
0
6
CONTINUOUS
10
0.026167
20
-0.021288
30
0.0
11
0.026167
21
-0.020755
31
0.0
0
LINE
8
0
6
CONTINUOUS
10
0.007236
20
0.021982
30
0.0
11
-0.005655
21
0.021982
31
0.0
0
LINE
8
0
6
CONTINUOUS
10
-0.005655
20
-0.021997
30
0.0
11
0.004750
21
-0.021997
31
0.0
0
LINE
8
0
6
CONTINUOUS
10
0.014407
20
-0.021997
30
0.0
11
0.025259
21
-0.021997
31
0.0
0
LINE
8
0
6
CONTINUOUS
10
-0.005655
20
0.021982
30
0.0
11
-0.005899
21
0.021982
31
0.0
0
LINE
8
0
6
CONTINUOUS
10
-0.005899
20
0.021982
30
0.0
11
-0.005899
21
0.021431
31
0.0
0
LINE
8
0
6
CONTINUOUS
10
-0.005899
20
0.004886
30
0.0
11
-0.005899
21
-0.000007
31
0.0
0
LINE
8
0
6
CONTINUOUS
10
-0.005899
20
0.019805
30
0.0
11
-0.005899
21
0.017185
31
0.0
0
LINE
8
0
6
CONTINUOUS
10
-0.005899
20
-0.000007
30
0.0
11
-0.005899
21
-0.004901
31
0.0
0
LINE
8
0
6
CONTINUOUS
10
-0.005899
20
0.017185
30
0.0
11
-0.005899
21
0.013703
31
0.0
0
LINE
8
0
6
CONTINUOUS
10
-0.005899
20
-0.019820
30
0.0
11
-0.005899
21
-0.021446
31
0.0
0
LINE
8
0
6
CONTINUOUS
10
-0.005899
20
-0.004901
30
0.0
11
-0.005899
21
-0.009548
31
0.0
0
LINE
8
0
6
CONTINUOUS
10
-0.005899
20
0.013703
30
0.0
11
-0.005899
21
0.009534
31
0.0
0
LINE
8
0
6
CONTINUOUS
10
-0.005899
20
-0.021997
30
0.0
11
-0.005655
21
-0.021997
31
0.0
0
LINE
8
0
6
CONTINUOUS
10
-0.005899
20
-0.021446
30
0.0
11
-0.005899
21
-0.021997
31
0.0
0
LINE
8
0
6
CONTINUOUS
10
-0.005899
20
0.009534
30
0.0
11
-0.005899
21
0.004886
31
0.0
0
LINE
8
0
6
CONTINUOUS
10
-0.005899
20
0.021431
30
0.0
11
-0.005899
21
0.019805
31
0.0
0
LINE
8
0
6
CONTINUOUS
10
0.025327
20
-0.021997
30
0.0
11
0.025706
21
-0.021911
31
0.0
0
LINE
8
0
6
CONTINUOUS
10
0.025706
20
-0.021911
30
0.0
11
0.026000
21
-0.021653
31
0.0
0
LINE
8
0
6
CONTINUOUS
10
0.026167
20
-0.019181
30
0.0
11
0.026167
21
-0.016646
31
0.0
0
LINE
8
0
6
CONTINUOUS
10
-0.005899
20
-0.013718
30
0.0
11
-0.005899
21
-0.009548
31
0.0
0
LINE
8
0
6
CONTINUOUS
10
-0.005899
20
-0.017200
30
0.0
11
-0.005899
21
-0.013718
31
0.0
0
LINE
8
0
6
CONTINUOUS
10
-0.005899
20
-0.017200
30
0.0
11
-0.005899
21
-0.019820
31
0.0
0
LINE
8
0
6
CONTINUOUS
10
0.025259
20
-0.021997
30
0.0
11
0.025327
21
-0.021997
31
0.0
0
LINE
8
0
6
CONTINUOUS
10
-0.006494
20
0.021982
30
0.0
11
-0.006739
21
0.021982
31
0.0
0
LINE
8
0
6
CONTINUOUS
10
-0.006494
20
0.021431
30
0.0
11
-0.006494
21
0.021982
31
0.0
0
LINE
8
0
6
CONTINUOUS
10
-0.006494
20
-0.000007
30
0.0
11
-0.006494
21
0.004886
31
0.0
0
LINE
8
0
6
CONTINUOUS
10
-0.006494
20
0.017185
30
0.0
11
-0.006494
21
0.019805
31
0.0
0
LINE
8
0
6
CONTINUOUS
10
-0.006494
20
-0.017200
30
0.0
11
-0.006494
21
-0.013718
31
0.0
0
LINE
8
0
6
CONTINUOUS
10
-0.006494
20
-0.004901
30
0.0
11
-0.006494
21
-0.000007
31
0.0
0
LINE
8
0
6
CONTINUOUS
10
-0.006494
20
0.013703
30
0.0
11
-0.006494
21
0.017185
31
0.0
0
LINE
8
0
6
CONTINUOUS
10
-0.006494
20
-0.021446
30
0.0
11
-0.006494
21
-0.019820
31
0.0
0
LINE
8
0
6
CONTINUOUS
10
-0.006494
20
-0.009548
30
0.0
11
-0.006494
21
-0.004901
31
0.0
0
LINE
8
0
6
CONTINUOUS
10
-0.006494
20
0.009534
30
0.0
11
-0.006494
21
0.013703
31
0.0
0
LINE
8
0
6
CONTINUOUS
10
-0.006494
20
-0.021997
30
0.0
11
-0.006494
21
-0.021446
31
0.0
0
LINE
8
0
6
CONTINUOUS
10
-0.006738
20
-0.021997
30
0.0
11
-0.006494
21
-0.021997
31
0.0
0
LINE
8
0
6
CONTINUOUS
10
-0.006494
20
0.004886
30
0.0
11
-0.006494
21
0.009534
31
0.0
0
LINE
8
0
6
CONTINUOUS
10
-0.006494
20
0.019805
30
0.0
11
-0.006494
21
0.021431
31
0.0
0
LINE
8
0
6
CONTINUOUS
10
-0.006494
20
-0.009548
30
0.0
11
-0.006494
21
-0.013718
31
0.0
0
LINE
8
0
6
CONTINUOUS
10
-0.006494
20
-0.019820
30
0.0
11
-0.006494
21
-0.017200
31
0.0
0
LINE
8
0
6
CONTINUOUS
10
-0.013378
20
-0.021997
30
0.0
11
-0.006738
21
-0.021997
31
0.0
0
LINE
8
0
6
CONTINUOUS
10
-0.006739
20
0.021982
30
0.0
11
-0.013378
21
0.021982
31
0.0
0
LINE
8
0
6
CONTINUOUS
10
-0.026167
20
0.041706
30
0.0
11
-0.026167
21
0.028728
31
0.0
0
LINE
8
0
6
CONTINUOUS
10
-0.015378
20
0.074693
30
0.0
11
-0.015897
21
0.074704
31
0.0
0
LINE
8
0
6
CONTINUOUS
10
-0.026167
20
-0.062418
30
0.0
11
-0.026167
21
-0.069355
31
0.0
0
LINE
8
0
6
CONTINUOUS
10
-0.015897
20
-0.074704
30
0.0
11
-0.015378
21
-0.074693
31
0.0
0
LINE
8
0
6
CONTINUOUS
10
-0.026167
20
-0.014645
30
0.0
11
-0.026167
21
-0.028728
31
0.0
0
LINE
8
0
6
CONTINUOUS
10
-0.026167
20
0.073627
30
0.0
11
-0.026167
21
0.069355
31
0.0
0
LINE
8
0
6
CONTINUOUS
10
-0.026167
20
0.075069
30
0.0
11
-0.026167
21
0.073627
31
0.0
0
LINE
8
0
6
CONTINUOUS
10
-0.025192
20
0.075048
30
0.0
11
-0.026167
21
0.075069
31
0.0
0
LINE
8
0
6
CONTINUOUS
10
-0.026167
20
0.053082
30
0.0
11
-0.026167
21
0.041706
31
0.0
0
LINE
8
0
6
CONTINUOUS
10
-0.026167
20
0.000000
30
0.0
11
-0.026167
21
-0.014645
31
0.0
0
LINE
8
0
6
CONTINUOUS
10
-0.026167
20
-0.053082
30
0.0
11
-0.026167
21
-0.062418
31
0.0
0
LINE
8
0
6
CONTINUOUS
10
-0.026167
20
0.062418
30
0.0
11
-0.026167
21
0.053082
31
0.0
0
LINE
8
0
6
CONTINUOUS
10
-0.026167
20
0.014645
30
0.0
11
-0.026167
21
0.000000
31
0.0
0
LINE
8
0
6
CONTINUOUS
10
-0.026167
20
-0.041706
30
0.0
11
-0.026167
21
-0.053082
31
0.0
0
LINE
8
0
6
CONTINUOUS
10
-0.026167
20
-0.073627
30
0.0
11
-0.026167
21
-0.075069
31
0.0
0
LINE
8
0
6
CONTINUOUS
10
-0.026167
20
-0.075069
30
0.0
11
-0.025192
21
-0.075048
31
0.0
0
LINE
8
0
6
CONTINUOUS
10
-0.026167
20
0.069355
30
0.0
11
-0.026167
21
0.062418
31
0.0
0
LINE
8
0
6
CONTINUOUS
10
-0.026167
20
0.028728
30
0.0
11
-0.026167
21
0.014645
31
0.0
0
LINE
8
0
6
CONTINUOUS
10
-0.026167
20
-0.028728
30
0.0
11
-0.026167
21
-0.041706
31
0.0
0
LINE
8
0
6
CONTINUOUS
10
-0.026167
20
-0.069355
30
0.0
11
-0.026167
21
-0.073627
31
0.0
0
LINE
8
0
6
CONTINUOUS
10
-0.013378
20
-0.072068
30
0.0
11
-0.013378
21
-0.070725
31
0.0
0
LINE
8
0
6
CONTINUOUS
10
-0.013646
20
-0.073365
30
0.0
11
-0.013378
21
-0.072068
31
0.0
0
LINE
8
0
6
CONTINUOUS
10
-0.014378
20
-0.074326
30
0.0
11
-0.013646
21
-0.073365
31
0.0
0
LINE
8
0
6
CONTINUOUS
10
-0.015378
20
-0.074693
30
0.0
11
-0.014378
21
-0.074326
31
0.0
0
LINE
8
0
6
CONTINUOUS
10
-0.013378
20
-0.070725
30
0.0
11
-0.013378
21
-0.066734
31
0.0
0
LINE
8
0
6
CONTINUOUS
10
-0.013378
20
-0.066734
30
0.0
11
-0.013378
21
-0.060213
31
0.0
0
LINE
8
0
6
CONTINUOUS
10
-0.013378
20
-0.060213
30
0.0
11
-0.013378
21
-0.051384
31
0.0
0
LINE
8
0
6
CONTINUOUS
10
-0.013378
20
-0.051384
30
0.0
11
-0.013378
21
-0.040579
31
0.0
0
LINE
8
0
6
CONTINUOUS
10
-0.013378
20
-0.040579
30
0.0
11
-0.013378
21
-0.028204
31
0.0
0
LINE
8
0
6
CONTINUOUS
10
-0.013378
20
-0.028204
30
0.0
11
-0.013378
21
-0.014745
31
0.0
0
LINE
8
0
6
CONTINUOUS
10
-0.013378
20
-0.014745
30
0.0
11
-0.013378
21
0.000842
31
0.0
0
LINE
8
0
6
CONTINUOUS
10
-0.013378
20
0.000842
30
0.0
11
-0.013378
21
0.015570
31
0.0
0
LINE
8
0
6
CONTINUOUS
10
-0.013378
20
0.015570
30
0.0
11
-0.013378
21
0.028925
31
0.0
0
LINE
8
0
6
CONTINUOUS
10
-0.013378
20
0.028925
30
0.0
11
-0.013378
21
0.041215
31
0.0
0
LINE
8
0
6
CONTINUOUS
10
-0.013378
20
0.041215
30
0.0
11
-0.013378
21
0.051969
31
0.0
0
LINE
8
0
6
CONTINUOUS
10
-0.013378
20
0.051969
30
0.0
11
-0.013378
21
0.060779
31
0.0
0
LINE
8
0
6
CONTINUOUS
10
-0.013378
20
0.060779
30
0.0
11
-0.013378
21
0.067313
31
0.0
0
LINE
8
0
6
CONTINUOUS
10
-0.013378
20
0.067313
30
0.0
11
-0.013378
21
0.071329
31
0.0
0
LINE
8
0
6
CONTINUOUS
10
-0.013378
20
0.071329
30
0.0
11
-0.013378
21
0.072684
31
0.0
0
LINE
8
0
6
CONTINUOUS
10
-0.013378
20
0.072684
30
0.0
11
-0.013646
21
0.073673
31
0.0
0
LINE
8
0
6
CONTINUOUS
10
-0.013646
20
0.073673
30
0.0
11
-0.014378
21
0.074409
31
0.0
0
LINE
8
0
6
CONTINUOUS
10
-0.014378
20
0.074409
30
0.0
11
-0.015378
21
0.074693
31
0.0
0
LINE
8
0
6
CONTINUOUS
10
-0.015897
20
0.074704
30
0.0
11
-0.025192
21
0.075048
31
0.0
0
LINE
8
0
6
CONTINUOUS
10
-0.025192
20
-0.075048
30
0.0
11
-0.015897
21
-0.074704
31
0.0
0
ENDSEC
0
EOF
