999
unknown String-ID: 20550
0
SECTION
2
HEADER
9
$ACADVER
1
AC1009
9
$DWGCODEPAGE
3
unknown String-ID: 20561
0
ENDSEC
0
SECTION
2
TABLES
0
TABLE
2
LAYER
70
1
0
LAYER
2
0
70
0
62
7
6
CONTINUOUS
0
ENDTAB
0
ENDSEC
0
SECTION
2
ENTITIES
0
LINE
8
0
6
CONTINUOUS
10
0.004829
20
-0.025853
30
0.0
11
0.004829
21
-0.021453
31
0.0
0
LINE
8
0
6
CONTINUOUS
10
-0.004829
20
-0.021453
30
0.0
11
-0.004829
21
-0.025853
31
0.0
0
LINE
8
0
6
CONTINUOUS
10
-0.000000
20
-0.026394
30
0.0
11
0.001124
21
-0.026394
31
0.0
0
LINE
8
0
6
CONTINUOUS
10
0.001124
20
-0.026394
30
0.0
11
0.002171
21
-0.026394
31
0.0
0
LINE
8
0
6
CONTINUOUS
10
0.002171
20
-0.026394
30
0.0
11
0.003070
21
-0.026394
31
0.0
0
LINE
8
0
6
CONTINUOUS
10
0.003070
20
-0.026394
30
0.0
11
0.003760
21
-0.026394
31
0.0
0
LINE
8
0
6
CONTINUOUS
10
0.003760
20
-0.026394
30
0.0
11
0.004194
21
-0.026394
31
0.0
0
LINE
8
0
6
CONTINUOUS
10
0.004342
20
-0.026394
30
0.0
11
0.004585
21
-0.026329
31
0.0
0
LINE
8
0
6
CONTINUOUS
10
0.004194
20
-0.026394
30
0.0
11
0.004342
21
-0.026394
31
0.0
0
LINE
8
0
6
CONTINUOUS
10
0.004585
20
-0.026329
30
0.0
11
0.004763
21
-0.026152
31
0.0
0
LINE
8
0
6
CONTINUOUS
10
0.004763
20
-0.026152
30
0.0
11
0.004829
21
-0.025911
31
0.0
0
LINE
8
0
6
CONTINUOUS
10
-0.004342
20
-0.026394
30
0.0
11
-0.004194
21
-0.026394
31
0.0
0
LINE
8
0
6
CONTINUOUS
10
-0.004585
20
-0.026329
30
0.0
11
-0.004342
21
-0.026394
31
0.0
0
LINE
8
0
6
CONTINUOUS
10
-0.004763
20
-0.026152
30
0.0
11
-0.004585
21
-0.026329
31
0.0
0
LINE
8
0
6
CONTINUOUS
10
-0.004829
20
-0.025911
30
0.0
11
-0.004763
21
-0.026152
31
0.0
0
LINE
8
0
6
CONTINUOUS
10
-0.004194
20
-0.026394
30
0.0
11
-0.003760
21
-0.026394
31
0.0
0
LINE
8
0
6
CONTINUOUS
10
-0.003760
20
-0.026394
30
0.0
11
-0.003070
21
-0.026394
31
0.0
0
LINE
8
0
6
CONTINUOUS
10
-0.003070
20
-0.026394
30
0.0
11
-0.002171
21
-0.026394
31
0.0
0
LINE
8
0
6
CONTINUOUS
10
-0.002171
20
-0.026394
30
0.0
11
-0.001124
21
-0.026394
31
0.0
0
LINE
8
0
6
CONTINUOUS
10
-0.001124
20
-0.026394
30
0.0
11
-0.000000
21
-0.026394
31
0.0
0
LINE
8
0
6
CONTINUOUS
10
0.004829
20
-0.025911
30
0.0
11
0.004829
21
-0.025853
31
0.0
0
LINE
8
0
6
CONTINUOUS
10
-0.004829
20
-0.025853
30
0.0
11
-0.004829
21
-0.025911
31
0.0
0
LINE
8
0
6
CONTINUOUS
10
0.003080
20
0.033051
30
0.0
11
0.002700
21
0.033882
31
0.0
0
LINE
8
0
6
CONTINUOUS
10
0.003210
20
0.032146
30
0.0
11
0.003080
21
0.033051
31
0.0
0
LINE
8
0
6
CONTINUOUS
10
0.002700
20
0.033882
30
0.0
11
0.002102
21
0.034572
31
0.0
0
LINE
8
0
6
CONTINUOUS
10
-0.003080
20
0.033051
30
0.0
11
-0.003210
21
0.032146
31
0.0
0
LINE
8
0
6
CONTINUOUS
10
-0.002700
20
0.033882
30
0.0
11
-0.003080
21
0.033051
31
0.0
0
LINE
8
0
6
CONTINUOUS
10
-0.002102
20
0.034572
30
0.0
11
-0.002700
21
0.033882
31
0.0
0
LINE
8
0
6
CONTINUOUS
10
0.001333
20
0.035066
30
0.0
11
0.000457
21
0.035324
31
0.0
0
LINE
8
0
6
CONTINUOUS
10
0.000000
20
0.035324
30
0.0
11
-0.000457
21
0.035324
31
0.0
0
LINE
8
0
6
CONTINUOUS
10
0.002102
20
0.034572
30
0.0
11
0.001333
21
0.035066
31
0.0
0
LINE
8
0
6
CONTINUOUS
10
-0.001333
20
0.035066
30
0.0
11
-0.002102
21
0.034572
31
0.0
0
LINE
8
0
6
CONTINUOUS
10
-0.000457
20
0.035324
30
0.0
11
-0.001333
21
0.035066
31
0.0
0
LINE
8
0
6
CONTINUOUS
10
0.003210
20
0.021621
30
0.0
11
0.003210
21
0.032146
31
0.0
0
LINE
8
0
6
CONTINUOUS
10
-0.003210
20
0.032146
30
0.0
11
-0.003210
21
0.021621
31
0.0
0
LINE
8
0
6
CONTINUOUS
10
-0.002327
20
0.020923
30
0.0
11
-0.002230
21
0.020936
31
0.0
0
LINE
8
0
6
CONTINUOUS
10
0.002230
20
0.020936
30
0.0
11
0.002327
21
0.020923
31
0.0
0
LINE
8
0
6
CONTINUOUS
10
-0.002230
20
0.020936
30
0.0
11
0.000000
21
0.021186
31
0.0
0
LINE
8
0
6
CONTINUOUS
10
-0.003210
20
0.021621
30
0.0
11
-0.004893
21
0.021431
31
0.0
0
LINE
8
0
6
CONTINUOUS
10
-0.004893
20
0.021431
30
0.0
11
-0.009541
21
0.019805
31
0.0
0
LINE
8
0
6
CONTINUOUS
10
-0.009541
20
0.019805
30
0.0
11
-0.013710
21
0.017185
31
0.0
0
LINE
8
0
6
CONTINUOUS
10
-0.013710
20
0.017185
30
0.0
11
-0.017192
21
0.013703
31
0.0
0
LINE
8
0
6
CONTINUOUS
10
-0.017192
20
0.013703
30
0.0
11
-0.019812
21
0.009534
31
0.0
0
LINE
8
0
6
CONTINUOUS
10
-0.019812
20
0.009534
30
0.0
11
-0.021438
21
0.004886
31
0.0
0
LINE
8
0
6
CONTINUOUS
10
-0.021438
20
0.004886
30
0.0
11
-0.021990
21
-0.000007
31
0.0
0
LINE
8
0
6
CONTINUOUS
10
-0.021990
20
-0.000007
30
0.0
11
-0.021438
21
-0.004901
31
0.0
0
LINE
8
0
6
CONTINUOUS
10
-0.021438
20
-0.004901
30
0.0
11
-0.019812
21
-0.009548
31
0.0
0
LINE
8
0
6
CONTINUOUS
10
-0.019812
20
-0.009548
30
0.0
11
-0.017192
21
-0.013718
31
0.0
0
LINE
8
0
6
CONTINUOUS
10
-0.017192
20
-0.013718
30
0.0
11
-0.013710
21
-0.017200
31
0.0
0
LINE
8
0
6
CONTINUOUS
10
-0.013710
20
-0.017200
30
0.0
11
-0.009541
21
-0.019820
31
0.0
0
LINE
8
0
6
CONTINUOUS
10
-0.009541
20
-0.019820
30
0.0
11
-0.004893
21
-0.021446
31
0.0
0
LINE
8
0
6
CONTINUOUS
10
-0.004893
20
-0.021446
30
0.0
11
-0.000000
21
-0.021997
31
0.0
0
LINE
8
0
6
CONTINUOUS
10
-0.000000
20
-0.021997
30
0.0
11
0.004893
21
-0.021446
31
0.0
0
LINE
8
0
6
CONTINUOUS
10
0.004893
20
-0.021446
30
0.0
11
0.009541
21
-0.019820
31
0.0
0
LINE
8
0
6
CONTINUOUS
10
0.009541
20
-0.019820
30
0.0
11
0.013710
21
-0.017200
31
0.0
0
LINE
8
0
6
CONTINUOUS
10
0.013710
20
-0.017200
30
0.0
11
0.017192
21
-0.013718
31
0.0
0
LINE
8
0
6
CONTINUOUS
10
0.017192
20
-0.013718
30
0.0
11
0.019812
21
-0.009549
31
0.0
0
LINE
8
0
6
CONTINUOUS
10
0.019812
20
-0.009549
30
0.0
11
0.021438
21
-0.004901
31
0.0
0
LINE
8
0
6
CONTINUOUS
10
0.021438
20
-0.004901
30
0.0
11
0.021990
21
-0.000007
31
0.0
0
LINE
8
0
6
CONTINUOUS
10
0.021990
20
-0.000007
30
0.0
11
0.021438
21
0.004886
31
0.0
0
LINE
8
0
6
CONTINUOUS
10
0.021438
20
0.004886
30
0.0
11
0.019812
21
0.009534
31
0.0
0
LINE
8
0
6
CONTINUOUS
10
0.019812
20
0.009534
30
0.0
11
0.017192
21
0.013703
31
0.0
0
LINE
8
0
6
CONTINUOUS
10
0.017192
20
0.013703
30
0.0
11
0.013710
21
0.017185
31
0.0
0
LINE
8
0
6
CONTINUOUS
10
0.013710
20
0.017185
30
0.0
11
0.009541
21
0.019805
31
0.0
0
LINE
8
0
6
CONTINUOUS
10
0.009541
20
0.019805
30
0.0
11
0.004893
21
0.021431
31
0.0
0
LINE
8
0
6
CONTINUOUS
10
0.004893
20
0.021431
30
0.0
11
0.003210
21
0.021621
31
0.0
0
LINE
8
0
6
CONTINUOUS
10
0.000457
20
0.035324
30
0.0
11
0.000000
21
0.035324
31
0.0
0
LINE
8
0
6
CONTINUOUS
10
0.000000
20
0.021186
30
0.0
11
0.002230
21
0.020936
31
0.0
0
LINE
8
0
6
CONTINUOUS
10
0.035015
20
0.000000
30
0.0
11
0.033771
21
0.009186
31
0.0
0
LINE
8
0
6
CONTINUOUS
10
0.033771
20
0.009186
30
0.0
11
0.030070
21
0.017837
31
0.0
0
LINE
8
0
6
CONTINUOUS
10
0.030070
20
0.017837
30
0.0
11
0.024759
21
0.024759
31
0.0
0
LINE
8
0
6
CONTINUOUS
10
0.024759
20
0.024759
30
0.0
11
0.017837
21
0.030070
31
0.0
0
LINE
8
0
6
CONTINUOUS
10
0.017837
20
0.030070
30
0.0
11
0.009186
21
0.033771
31
0.0
0
LINE
8
0
6
CONTINUOUS
10
0.009186
20
0.033771
30
0.0
11
0.000000
21
0.035015
31
0.0
0
LINE
8
0
6
CONTINUOUS
10
0.033771
20
-0.009185
30
0.0
11
0.035015
21
0.000000
31
0.0
0
LINE
8
0
6
CONTINUOUS
10
0.030070
20
-0.017837
30
0.0
11
0.033771
21
-0.009185
31
0.0
0
LINE
8
0
6
CONTINUOUS
10
0.024759
20
-0.024759
30
0.0
11
0.030070
21
-0.017837
31
0.0
0
LINE
8
0
6
CONTINUOUS
10
0.017837
20
-0.030070
30
0.0
11
0.024759
21
-0.024759
31
0.0
0
LINE
8
0
6
CONTINUOUS
10
0.009186
20
-0.033771
30
0.0
11
0.017837
21
-0.030070
31
0.0
0
LINE
8
0
6
CONTINUOUS
10
0.000000
20
-0.035015
30
0.0
11
0.009186
21
-0.033771
31
0.0
0
LINE
8
0
6
CONTINUOUS
10
0.033983
20
0.009243
30
0.0
11
0.035235
21
0.000000
31
0.0
0
LINE
8
0
6
CONTINUOUS
10
0.030259
20
0.017949
30
0.0
11
0.033983
21
0.009243
31
0.0
0
LINE
8
0
6
CONTINUOUS
10
0.024915
20
0.024915
30
0.0
11
0.027587
21
0.021432
31
0.0
0
LINE
8
0
6
CONTINUOUS
10
0.017949
20
0.030259
30
0.0
11
0.021432
21
0.027587
31
0.0
0
LINE
8
0
6
CONTINUOUS
10
0.009243
20
0.033983
30
0.0
11
0.017949
21
0.030259
31
0.0
0
LINE
8
0
6
CONTINUOUS
10
0.000000
20
0.035235
30
0.0
11
0.009243
21
0.033983
31
0.0
0
LINE
8
0
6
CONTINUOUS
10
0.021432
20
-0.027587
30
0.0
11
0.017949
21
-0.030259
31
0.0
0
LINE
8
0
6
CONTINUOUS
10
0.035235
20
0.000000
30
0.0
11
0.033983
21
-0.009243
31
0.0
0
LINE
8
0
6
CONTINUOUS
10
0.033983
20
-0.009243
30
0.0
11
0.030259
21
-0.017949
31
0.0
0
LINE
8
0
6
CONTINUOUS
10
0.030259
20
-0.017949
30
0.0
11
0.027587
21
-0.021432
31
0.0
0
LINE
8
0
6
CONTINUOUS
10
0.024915
20
-0.024915
30
0.0
11
0.021432
21
-0.027587
31
0.0
0
LINE
8
0
6
CONTINUOUS
10
0.017949
20
-0.030259
30
0.0
11
0.009243
21
-0.033983
31
0.0
0
LINE
8
0
6
CONTINUOUS
10
0.009243
20
-0.033983
30
0.0
11
0.000000
21
-0.035235
31
0.0
0
LINE
8
0
6
CONTINUOUS
10
0.069355
20
0.028728
30
0.0
11
0.062418
21
0.041706
31
0.0
0
LINE
8
0
6
CONTINUOUS
10
0.028728
20
-0.069355
30
0.0
11
0.041706
21
-0.062418
31
0.0
0
LINE
8
0
6
CONTINUOUS
10
0.069355
20
-0.028728
30
0.0
11
0.073627
21
-0.014645
31
0.0
0
LINE
8
0
6
CONTINUOUS
10
0.028728
20
0.069355
30
0.0
11
0.014645
21
0.073627
31
0.0
0
LINE
8
0
6
CONTINUOUS
10
0.014645
20
0.073627
30
0.0
11
0.000000
21
0.075069
31
0.0
0
LINE
8
0
6
CONTINUOUS
10
0.062418
20
0.041706
30
0.0
11
0.053082
21
0.053082
31
0.0
0
LINE
8
0
6
CONTINUOUS
10
0.073627
20
-0.014645
30
0.0
11
0.075069
21
0.000000
31
0.0
0
LINE
8
0
6
CONTINUOUS
10
0.041706
20
-0.062418
30
0.0
11
0.053082
21
-0.053082
31
0.0
0
LINE
8
0
6
CONTINUOUS
10
0.053082
20
0.053082
30
0.0
11
0.041706
21
0.062418
31
0.0
0
LINE
8
0
6
CONTINUOUS
10
0.075069
20
0.000000
30
0.0
11
0.073627
21
0.014645
31
0.0
0
LINE
8
0
6
CONTINUOUS
10
0.053082
20
-0.053082
30
0.0
11
0.062418
21
-0.041706
31
0.0
0
LINE
8
0
6
CONTINUOUS
10
0.000000
20
-0.075069
30
0.0
11
0.014645
21
-0.073627
31
0.0
0
LINE
8
0
6
CONTINUOUS
10
0.041706
20
0.062418
30
0.0
11
0.028728
21
0.069355
31
0.0
0
LINE
8
0
6
CONTINUOUS
10
0.073627
20
0.014645
30
0.0
11
0.069355
21
0.028728
31
0.0
0
LINE
8
0
6
CONTINUOUS
10
0.062418
20
-0.041706
30
0.0
11
0.069355
21
-0.028728
31
0.0
0
LINE
8
0
6
CONTINUOUS
10
0.014645
20
-0.073627
30
0.0
11
0.028728
21
-0.069355
31
0.0
0
LINE
8
0
6
CONTINUOUS
10
0.021432
20
0.027587
30
0.0
11
0.024915
21
0.024915
31
0.0
0
LINE
8
0
6
CONTINUOUS
10
0.027587
20
0.021432
30
0.0
11
0.030259
21
0.017949
31
0.0
0
LINE
8
0
6
CONTINUOUS
10
0.027587
20
-0.021432
30
0.0
11
0.024915
21
-0.024915
31
0.0
0
LINE
8
0
6
CONTINUOUS
10
-0.033771
20
0.009186
30
0.0
11
-0.035015
21
0.000000
31
0.0
0
LINE
8
0
6
CONTINUOUS
10
-0.030070
20
0.017837
30
0.0
11
-0.033771
21
0.009186
31
0.0
0
LINE
8
0
6
CONTINUOUS
10
-0.024759
20
0.024759
30
0.0
11
-0.030070
21
0.017837
31
0.0
0
LINE
8
0
6
CONTINUOUS
10
-0.017837
20
0.030070
30
0.0
11
-0.024759
21
0.024759
31
0.0
0
LINE
8
0
6
CONTINUOUS
10
-0.009186
20
0.033771
30
0.0
11
-0.017837
21
0.030070
31
0.0
0
LINE
8
0
6
CONTINUOUS
10
0.000000
20
0.035015
30
0.0
11
-0.009186
21
0.033771
31
0.0
0
LINE
8
0
6
CONTINUOUS
10
-0.035015
20
0.000000
30
0.0
11
-0.033771
21
-0.009185
31
0.0
0
LINE
8
0
6
CONTINUOUS
10
-0.033771
20
-0.009185
30
0.0
11
-0.030070
21
-0.017837
31
0.0
0
LINE
8
0
6
CONTINUOUS
10
-0.030070
20
-0.017837
30
0.0
11
-0.024759
21
-0.024759
31
0.0
0
LINE
8
0
6
CONTINUOUS
10
-0.024759
20
-0.024759
30
0.0
11
-0.017837
21
-0.030070
31
0.0
0
LINE
8
0
6
CONTINUOUS
10
-0.017837
20
-0.030070
30
0.0
11
-0.009186
21
-0.033771
31
0.0
0
LINE
8
0
6
CONTINUOUS
10
-0.009186
20
-0.033771
30
0.0
11
0.000000
21
-0.035015
31
0.0
0
LINE
8
0
6
CONTINUOUS
10
-0.035235
20
0.000000
30
0.0
11
-0.033983
21
0.009243
31
0.0
0
LINE
8
0
6
CONTINUOUS
10
-0.033983
20
0.009243
30
0.0
11
-0.030259
21
0.017949
31
0.0
0
LINE
8
0
6
CONTINUOUS
10
-0.027587
20
0.021432
30
0.0
11
-0.024915
21
0.024915
31
0.0
0
LINE
8
0
6
CONTINUOUS
10
-0.021432
20
0.027587
30
0.0
11
-0.017949
21
0.030259
31
0.0
0
LINE
8
0
6
CONTINUOUS
10
-0.017949
20
0.030259
30
0.0
11
-0.009243
21
0.033983
31
0.0
0
LINE
8
0
6
CONTINUOUS
10
-0.009243
20
0.033983
30
0.0
11
0.000000
21
0.035235
31
0.0
0
LINE
8
0
6
CONTINUOUS
10
-0.017949
20
-0.030259
30
0.0
11
-0.021432
21
-0.027587
31
0.0
0
LINE
8
0
6
CONTINUOUS
10
-0.033983
20
-0.009243
30
0.0
11
-0.035235
21
0.000000
31
0.0
0
LINE
8
0
6
CONTINUOUS
10
-0.030259
20
-0.017949
30
0.0
11
-0.033983
21
-0.009243
31
0.0
0
LINE
8
0
6
CONTINUOUS
10
-0.027587
20
-0.021432
30
0.0
11
-0.030259
21
-0.017949
31
0.0
0
LINE
8
0
6
CONTINUOUS
10
-0.021432
20
-0.027587
30
0.0
11
-0.024915
21
-0.024915
31
0.0
0
LINE
8
0
6
CONTINUOUS
10
-0.009243
20
-0.033983
30
0.0
11
-0.017949
21
-0.030259
31
0.0
0
LINE
8
0
6
CONTINUOUS
10
0.000000
20
-0.035235
30
0.0
11
-0.009243
21
-0.033983
31
0.0
0
LINE
8
0
6
CONTINUOUS
10
-0.062418
20
0.041706
30
0.0
11
-0.069355
21
0.028728
31
0.0
0
LINE
8
0
6
CONTINUOUS
10
-0.041706
20
-0.062418
30
0.0
11
-0.028728
21
-0.069355
31
0.0
0
LINE
8
0
6
CONTINUOUS
10
-0.073627
20
-0.014645
30
0.0
11
-0.069355
21
-0.028728
31
0.0
0
LINE
8
0
6
CONTINUOUS
10
-0.014645
20
0.073627
30
0.0
11
-0.028728
21
0.069355
31
0.0
0
LINE
8
0
6
CONTINUOUS
10
0.000000
20
0.075069
30
0.0
11
-0.014645
21
0.073627
31
0.0
0
LINE
8
0
6
CONTINUOUS
10
-0.053082
20
0.053082
30
0.0
11
-0.062418
21
0.041706
31
0.0
0
LINE
8
0
6
CONTINUOUS
10
-0.075069
20
0.000000
30
0.0
11
-0.073627
21
-0.014645
31
0.0
0
LINE
8
0
6
CONTINUOUS
10
-0.053082
20
-0.053082
30
0.0
11
-0.041706
21
-0.062418
31
0.0
0
LINE
8
0
6
CONTINUOUS
10
-0.041706
20
0.062418
30
0.0
11
-0.053082
21
0.053082
31
0.0
0
LINE
8
0
6
CONTINUOUS
10
-0.073627
20
0.014645
30
0.0
11
-0.075069
21
0.000000
31
0.0
0
LINE
8
0
6
CONTINUOUS
10
-0.062418
20
-0.041706
30
0.0
11
-0.053082
21
-0.053082
31
0.0
0
LINE
8
0
6
CONTINUOUS
10
-0.014645
20
-0.073627
30
0.0
11
0.000000
21
-0.075069
31
0.0
0
LINE
8
0
6
CONTINUOUS
10
-0.028728
20
0.069355
30
0.0
11
-0.041706
21
0.062418
31
0.0
0
LINE
8
0
6
CONTINUOUS
10
-0.069355
20
0.028728
30
0.0
11
-0.073627
21
0.014645
31
0.0
0
LINE
8
0
6
CONTINUOUS
10
-0.069355
20
-0.028728
30
0.0
11
-0.062418
21
-0.041706
31
0.0
0
LINE
8
0
6
CONTINUOUS
10
-0.028728
20
-0.069355
30
0.0
11
-0.014645
21
-0.073627
31
0.0
0
LINE
8
0
6
CONTINUOUS
10
-0.024915
20
0.024915
30
0.0
11
-0.021432
21
0.027587
31
0.0
0
LINE
8
0
6
CONTINUOUS
10
-0.030259
20
0.017949
30
0.0
11
-0.027587
21
0.021432
31
0.0
0
LINE
8
0
6
CONTINUOUS
10
-0.024915
20
-0.024915
30
0.0
11
-0.027587
21
-0.021432
31
0.0
0
ENDSEC
0
EOF
