999
unknown String-ID: 20550
0
SECTION
2
HEADER
9
$ACADVER
1
AC1009
9
$DWGCODEPAGE
3
unknown String-ID: 20561
0
ENDSEC
0
SECTION
2
TABLES
0
TABLE
2
LAYER
70
1
0
LAYER
2
0
70
0
62
7
6
CONTINUOUS
0
ENDTAB
0
ENDSEC
0
SECTION
2
ENTITIES
0
LINE
8
0
6
CONTINUOUS
10
-0.008044
20
-0.056103
30
0.0
11
-0.008044
21
-0.055311
31
0.0
0
LINE
8
0
6
CONTINUOUS
10
-0.008288
20
-0.056103
30
0.0
11
-0.008044
21
-0.056103
31
0.0
0
LINE
8
0
6
CONTINUOUS
10
-0.008044
20
-0.055311
30
0.0
11
-0.008044
21
-0.053198
31
0.0
0
LINE
8
0
6
CONTINUOUS
10
-0.008044
20
-0.053198
30
0.0
11
-0.008044
21
-0.049678
31
0.0
0
LINE
8
0
6
CONTINUOUS
10
-0.008044
20
-0.049678
30
0.0
11
-0.008044
21
-0.045013
31
0.0
0
LINE
8
0
6
CONTINUOUS
10
-0.008044
20
-0.045013
30
0.0
11
-0.008044
21
-0.039732
31
0.0
0
LINE
8
0
6
CONTINUOUS
10
-0.008044
20
-0.039732
30
0.0
11
-0.008044
21
-0.034099
31
0.0
0
LINE
8
0
6
CONTINUOUS
10
-0.008044
20
-0.012096
30
0.0
11
-0.008288
21
-0.012096
31
0.0
0
LINE
8
0
6
CONTINUOUS
10
-0.008044
20
-0.012888
30
0.0
11
-0.008044
21
-0.012096
31
0.0
0
LINE
8
0
6
CONTINUOUS
10
-0.008044
20
-0.015000
30
0.0
11
-0.008044
21
-0.012888
31
0.0
0
LINE
8
0
6
CONTINUOUS
10
-0.008044
20
-0.018521
30
0.0
11
-0.008044
21
-0.015000
31
0.0
0
LINE
8
0
6
CONTINUOUS
10
-0.008044
20
-0.023185
30
0.0
11
-0.008044
21
-0.018521
31
0.0
0
LINE
8
0
6
CONTINUOUS
10
-0.008044
20
-0.028466
30
0.0
11
-0.008044
21
-0.023185
31
0.0
0
LINE
8
0
6
CONTINUOUS
10
-0.008044
20
-0.034099
30
0.0
11
-0.008044
21
-0.028466
31
0.0
0
LINE
8
0
6
CONTINUOUS
10
0.004060
20
-0.060364
30
0.0
11
0.005806
21
-0.060364
31
0.0
0
LINE
8
0
6
CONTINUOUS
10
0.013005
20
-0.059800
30
0.0
11
0.013005
21
-0.056156
31
0.0
0
LINE
8
0
6
CONTINUOUS
10
0.003303
20
-0.059800
30
0.0
11
0.003303
21
-0.060000
31
0.0
0
LINE
8
0
6
CONTINUOUS
10
0.012249
20
-0.060364
30
0.0
11
0.012889
21
-0.060364
31
0.0
0
LINE
8
0
6
CONTINUOUS
10
0.012889
20
-0.060364
30
0.0
11
0.013005
21
-0.060000
31
0.0
0
LINE
8
0
6
CONTINUOUS
10
0.005806
20
-0.060364
30
0.0
11
0.008154
21
-0.060364
31
0.0
0
LINE
8
0
6
CONTINUOUS
10
0.003420
20
-0.060364
30
0.0
11
0.004060
21
-0.060364
31
0.0
0
LINE
8
0
6
CONTINUOUS
10
0.003303
20
-0.060000
30
0.0
11
0.003420
21
-0.060364
31
0.0
0
LINE
8
0
6
CONTINUOUS
10
0.010502
20
-0.060364
30
0.0
11
0.012249
21
-0.060364
31
0.0
0
LINE
8
0
6
CONTINUOUS
10
0.008154
20
-0.060364
30
0.0
11
0.010502
21
-0.060364
31
0.0
0
LINE
8
0
6
CONTINUOUS
10
0.027555
20
-0.049172
30
0.0
11
0.027555
21
-0.045299
31
0.0
0
LINE
8
0
6
CONTINUOUS
10
0.027555
20
-0.013587
30
0.0
11
0.027555
21
-0.013111
31
0.0
0
LINE
8
0
6
CONTINUOUS
10
0.027555
20
-0.050890
30
0.0
11
0.027555
21
-0.049172
31
0.0
0
LINE
8
0
6
CONTINUOUS
10
0.027555
20
-0.055088
30
0.0
11
0.027555
21
-0.054611
31
0.0
0
LINE
8
0
6
CONTINUOUS
10
0.027555
20
-0.054267
30
0.0
11
0.027555
21
-0.053743
31
0.0
0
LINE
8
0
6
CONTINUOUS
10
0.027555
20
-0.052028
30
0.0
11
0.027555
21
-0.050890
31
0.0
0
LINE
8
0
6
CONTINUOUS
10
0.027555
20
-0.045299
30
0.0
11
0.027555
21
-0.038659
31
0.0
0
LINE
8
0
6
CONTINUOUS
10
0.027555
20
-0.055496
30
0.0
11
0.027555
21
-0.055088
31
0.0
0
LINE
8
0
6
CONTINUOUS
10
0.027555
20
-0.014455
30
0.0
11
0.027555
21
-0.013931
31
0.0
0
LINE
8
0
6
CONTINUOUS
10
0.027555
20
-0.013931
30
0.0
11
0.027555
21
-0.013587
31
0.0
0
LINE
8
0
6
CONTINUOUS
10
0.027555
20
-0.034099
30
0.0
11
0.027555
21
-0.029539
31
0.0
0
LINE
8
0
6
CONTINUOUS
10
0.027555
20
-0.015200
30
0.0
11
0.027555
21
-0.014455
31
0.0
0
LINE
8
0
6
CONTINUOUS
10
0.027555
20
-0.052998
30
0.0
11
0.027555
21
-0.052028
31
0.0
0
LINE
8
0
6
CONTINUOUS
10
0.027555
20
-0.022900
30
0.0
11
0.027555
21
-0.019027
31
0.0
0
LINE
8
0
6
CONTINUOUS
10
0.027272
20
-0.012303
30
0.0
11
0.027095
21
-0.012303
31
0.0
0
LINE
8
0
6
CONTINUOUS
10
0.027470
20
-0.013773
30
0.0
11
0.027470
21
-0.013416
31
0.0
0
LINE
8
0
6
CONTINUOUS
10
0.027470
20
-0.049291
30
0.0
11
0.027470
21
-0.045356
31
0.0
0
LINE
8
0
6
CONTINUOUS
10
0.027470
20
-0.051013
30
0.0
11
0.027470
21
-0.049291
31
0.0
0
LINE
8
0
6
CONTINUOUS
10
0.027555
20
-0.055614
30
0.0
11
0.027555
21
-0.055496
31
0.0
0
LINE
8
0
6
CONTINUOUS
10
0.027470
20
-0.055811
30
0.0
11
0.027555
21
-0.055614
31
0.0
0
LINE
8
0
6
CONTINUOUS
10
0.027095
20
-0.055895
30
0.0
11
0.027272
21
-0.055895
31
0.0
0
LINE
8
0
6
CONTINUOUS
10
0.027470
20
-0.014310
30
0.0
11
0.027470
21
-0.013773
31
0.0
0
LINE
8
0
6
CONTINUOUS
10
0.027470
20
-0.015059
30
0.0
11
0.027470
21
-0.014310
31
0.0
0
LINE
8
0
6
CONTINUOUS
10
-0.007169
20
-0.016625
30
0.0
11
-0.007169
21
-0.018418
31
0.0
0
LINE
8
0
6
CONTINUOUS
10
0.027470
20
-0.055677
30
0.0
11
0.027470
21
-0.055236
31
0.0
0
LINE
8
0
6
CONTINUOUS
10
0.027555
20
-0.029539
30
0.0
11
0.027555
21
-0.022900
31
0.0
0
LINE
8
0
6
CONTINUOUS
10
0.027470
20
-0.022843
30
0.0
11
0.027470
21
-0.029500
31
0.0
0
LINE
8
0
6
CONTINUOUS
10
0.027470
20
-0.013416
30
0.0
11
0.027470
21
-0.012963
31
0.0
0
LINE
8
0
6
CONTINUOUS
10
0.027555
20
-0.038659
30
0.0
11
0.027555
21
-0.034099
31
0.0
0
LINE
8
0
6
CONTINUOUS
10
0.027555
20
-0.017309
30
0.0
11
0.027555
21
-0.016170
31
0.0
0
LINE
8
0
6
CONTINUOUS
10
0.027470
20
-0.016017
30
0.0
11
0.027470
21
-0.017185
31
0.0
0
LINE
8
0
6
CONTINUOUS
10
0.027555
20
-0.012585
30
0.0
11
0.027470
21
-0.012387
31
0.0
0
LINE
8
0
6
CONTINUOUS
10
0.027555
20
-0.012702
30
0.0
11
0.027555
21
-0.012585
31
0.0
0
LINE
8
0
6
CONTINUOUS
10
0.027555
20
-0.019027
30
0.0
11
0.027555
21
-0.017309
31
0.0
0
LINE
8
0
6
CONTINUOUS
10
0.027470
20
-0.017185
30
0.0
11
0.027470
21
-0.018908
31
0.0
0
LINE
8
0
6
CONTINUOUS
10
0.027470
20
-0.055811
30
0.0
11
0.027470
21
-0.055677
31
0.0
0
LINE
8
0
6
CONTINUOUS
10
0.027272
20
-0.055895
30
0.0
11
0.027470
21
-0.055811
31
0.0
0
LINE
8
0
6
CONTINUOUS
10
0.027470
20
-0.015059
30
0.0
11
0.027470
21
-0.016017
31
0.0
0
LINE
8
0
6
CONTINUOUS
10
0.027555
20
-0.016170
30
0.0
11
0.027555
21
-0.015200
31
0.0
0
LINE
8
0
6
CONTINUOUS
10
0.027470
20
-0.012387
30
0.0
11
0.027272
21
-0.012303
31
0.0
0
LINE
8
0
6
CONTINUOUS
10
0.027470
20
-0.012521
30
0.0
11
0.027470
21
-0.012387
31
0.0
0
LINE
8
0
6
CONTINUOUS
10
0.027470
20
-0.055236
30
0.0
11
0.027470
21
-0.054782
31
0.0
0
LINE
8
0
6
CONTINUOUS
10
0.027470
20
-0.022843
30
0.0
11
0.027470
21
-0.018908
31
0.0
0
LINE
8
0
6
CONTINUOUS
10
0.027470
20
-0.052181
30
0.0
11
0.027470
21
-0.051013
31
0.0
0
LINE
8
0
6
CONTINUOUS
10
0.027470
20
-0.053139
30
0.0
11
0.027470
21
-0.053888
31
0.0
0
LINE
8
0
6
CONTINUOUS
10
0.027555
20
-0.053743
30
0.0
11
0.027555
21
-0.052998
31
0.0
0
LINE
8
0
6
CONTINUOUS
10
0.027555
20
-0.054611
30
0.0
11
0.027555
21
-0.054267
31
0.0
0
LINE
8
0
6
CONTINUOUS
10
0.027470
20
-0.054426
30
0.0
11
0.027470
21
-0.054782
31
0.0
0
LINE
8
0
6
CONTINUOUS
10
0.027470
20
-0.038698
30
0.0
11
0.027470
21
-0.034099
31
0.0
0
LINE
8
0
6
CONTINUOUS
10
0.027470
20
-0.045356
30
0.0
11
0.027470
21
-0.038698
31
0.0
0
LINE
8
0
6
CONTINUOUS
10
0.027470
20
-0.054426
30
0.0
11
0.027470
21
-0.053888
31
0.0
0
LINE
8
0
6
CONTINUOUS
10
0.027470
20
-0.053139
30
0.0
11
0.027470
21
-0.052181
31
0.0
0
LINE
8
0
6
CONTINUOUS
10
0.027470
20
-0.012521
30
0.0
11
0.027470
21
-0.012963
31
0.0
0
LINE
8
0
6
CONTINUOUS
10
0.027555
20
-0.013111
30
0.0
11
0.027555
21
-0.012702
31
0.0
0
LINE
8
0
6
CONTINUOUS
10
0.027470
20
-0.034099
30
0.0
11
0.027470
21
-0.029500
31
0.0
0
LINE
8
0
6
CONTINUOUS
10
-0.007169
20
-0.022457
30
0.0
11
-0.007169
21
-0.029350
31
0.0
0
LINE
8
0
6
CONTINUOUS
10
-0.007169
20
-0.015429
30
0.0
11
-0.007169
21
-0.016625
31
0.0
0
LINE
8
0
6
CONTINUOUS
10
-0.007169
20
-0.055094
30
0.0
11
-0.007169
21
-0.055475
31
0.0
0
LINE
8
0
6
CONTINUOUS
10
-0.007169
20
-0.054527
30
0.0
11
-0.007169
21
-0.055094
31
0.0
0
LINE
8
0
6
CONTINUOUS
10
0.027095
20
-0.012303
30
0.0
11
-0.006787
21
-0.011676
31
0.0
0
LINE
8
0
6
CONTINUOUS
10
-0.007169
20
-0.056529
30
0.0
11
-0.006787
21
-0.056522
31
0.0
0
LINE
8
0
6
CONTINUOUS
10
-0.007169
20
-0.056402
30
0.0
11
-0.007169
21
-0.056529
31
0.0
0
LINE
8
0
6
CONTINUOUS
10
-0.007169
20
-0.055956
30
0.0
11
-0.007169
21
-0.056402
31
0.0
0
LINE
8
0
6
CONTINUOUS
10
-0.007169
20
-0.055475
30
0.0
11
-0.007169
21
-0.055956
31
0.0
0
LINE
8
0
6
CONTINUOUS
10
-0.007169
20
-0.018418
30
0.0
11
-0.007169
21
-0.022457
31
0.0
0
LINE
8
0
6
CONTINUOUS
10
-0.007169
20
-0.014433
30
0.0
11
-0.007169
21
-0.015429
31
0.0
0
LINE
8
0
6
CONTINUOUS
10
-0.007169
20
-0.053765
30
0.0
11
-0.007169
21
-0.054527
31
0.0
0
LINE
8
0
6
CONTINUOUS
10
0.027555
20
-0.029549
30
0.0
11
0.027555
21
-0.034099
31
0.0
0
LINE
8
0
6
CONTINUOUS
10
0.027555
20
-0.034099
30
0.0
11
0.027555
21
-0.029549
31
0.0
0
LINE
8
0
6
CONTINUOUS
10
0.027555
20
-0.034099
30
0.0
11
0.027555
21
-0.038649
31
0.0
0
LINE
8
0
6
CONTINUOUS
10
0.027555
20
-0.038649
30
0.0
11
0.027555
21
-0.034099
31
0.0
0
LINE
8
0
6
CONTINUOUS
10
-0.007169
20
-0.029350
30
0.0
11
-0.007169
21
-0.034099
31
0.0
0
LINE
8
0
6
CONTINUOUS
10
-0.007169
20
-0.052770
30
0.0
11
-0.007169
21
-0.053765
31
0.0
0
LINE
8
0
6
CONTINUOUS
10
-0.007169
20
-0.012242
30
0.0
11
-0.007169
21
-0.012724
31
0.0
0
LINE
8
0
6
CONTINUOUS
10
-0.007169
20
-0.011797
30
0.0
11
-0.007169
21
-0.012242
31
0.0
0
LINE
8
0
6
CONTINUOUS
10
-0.007169
20
-0.049781
30
0.0
11
-0.007169
21
-0.051573
31
0.0
0
LINE
8
0
6
CONTINUOUS
10
-0.007169
20
-0.012724
30
0.0
11
-0.007169
21
-0.013104
31
0.0
0
LINE
8
0
6
CONTINUOUS
10
-0.007169
20
-0.034099
30
0.0
11
-0.007169
21
-0.038848
31
0.0
0
LINE
8
0
6
CONTINUOUS
10
-0.007169
20
-0.038848
30
0.0
11
-0.007169
21
-0.045742
31
0.0
0
LINE
8
0
6
CONTINUOUS
10
-0.007169
20
-0.051573
30
0.0
11
-0.007169
21
-0.052770
31
0.0
0
LINE
8
0
6
CONTINUOUS
10
-0.006787
20
-0.011676
30
0.0
11
-0.007169
21
-0.011669
31
0.0
0
LINE
8
0
6
CONTINUOUS
10
-0.007169
20
-0.011669
30
0.0
11
-0.007169
21
-0.011797
31
0.0
0
LINE
8
0
6
CONTINUOUS
10
-0.007169
20
-0.013104
30
0.0
11
-0.007169
21
-0.013671
31
0.0
0
LINE
8
0
6
CONTINUOUS
10
-0.007169
20
-0.045742
30
0.0
11
-0.007169
21
-0.049781
31
0.0
0
LINE
8
0
6
CONTINUOUS
10
-0.007169
20
-0.013671
30
0.0
11
-0.007169
21
-0.014433
31
0.0
0
LINE
8
0
6
CONTINUOUS
10
-0.006787
20
-0.056522
30
0.0
11
0.003303
21
-0.056335
31
0.0
0
LINE
8
0
6
CONTINUOUS
10
0.013005
20
-0.056156
30
0.0
11
0.027095
21
-0.055895
31
0.0
0
LINE
8
0
6
CONTINUOUS
10
0.013005
20
-0.060000
30
0.0
11
0.013005
21
-0.059800
31
0.0
0
LINE
8
0
6
CONTINUOUS
10
0.003303
20
-0.056335
30
0.0
11
0.003303
21
-0.059800
31
0.0
0
LINE
8
0
6
CONTINUOUS
10
0.027555
20
-0.029549
30
0.0
11
0.027555
21
-0.034099
31
0.0
0
LINE
8
0
6
CONTINUOUS
10
0.027555
20
-0.034099
30
0.0
11
0.027555
21
-0.029549
31
0.0
0
LINE
8
0
6
CONTINUOUS
10
0.027555
20
-0.038649
30
0.0
11
0.027555
21
-0.034099
31
0.0
0
LINE
8
0
6
CONTINUOUS
10
0.027555
20
-0.034099
30
0.0
11
0.027555
21
-0.038649
31
0.0
0
LINE
8
0
6
CONTINUOUS
10
-0.013555
20
-0.056103
30
0.0
11
-0.008288
21
-0.056103
31
0.0
0
LINE
8
0
6
CONTINUOUS
10
-0.008288
20
-0.012096
30
0.0
11
-0.013555
21
-0.012096
31
0.0
0
LINE
8
0
6
CONTINUOUS
10
-0.007876
20
-0.012807
30
0.0
11
-0.008044
21
-0.012807
31
0.0
0
LINE
8
0
6
CONTINUOUS
10
-0.008044
20
-0.055391
30
0.0
11
-0.007876
21
-0.055391
31
0.0
0
LINE
8
0
6
CONTINUOUS
10
-0.008239
20
0.025419
30
0.0
11
-0.008239
21
0.025944
31
0.0
0
LINE
8
0
6
CONTINUOUS
10
-0.008508
20
0.025419
30
0.0
11
-0.008239
21
0.025419
31
0.0
0
LINE
8
0
6
CONTINUOUS
10
-0.008239
20
0.025944
30
0.0
11
-0.008239
21
0.027344
31
0.0
0
LINE
8
0
6
CONTINUOUS
10
-0.008239
20
0.027344
30
0.0
11
-0.008239
21
0.029677
31
0.0
0
LINE
8
0
6
CONTINUOUS
10
-0.008239
20
0.029677
30
0.0
11
-0.008239
21
0.032769
31
0.0
0
LINE
8
0
6
CONTINUOUS
10
-0.008239
20
0.032769
30
0.0
11
-0.008239
21
0.036269
31
0.0
0
LINE
8
0
6
CONTINUOUS
10
-0.008239
20
0.036269
30
0.0
11
-0.008239
21
0.040002
31
0.0
0
LINE
8
0
6
CONTINUOUS
10
-0.008239
20
0.054586
30
0.0
11
-0.008508
21
0.054586
31
0.0
0
LINE
8
0
6
CONTINUOUS
10
-0.008239
20
0.054061
30
0.0
11
-0.008239
21
0.054586
31
0.0
0
LINE
8
0
6
CONTINUOUS
10
-0.008239
20
0.052661
30
0.0
11
-0.008239
21
0.054061
31
0.0
0
LINE
8
0
6
CONTINUOUS
10
-0.008239
20
0.050327
30
0.0
11
-0.008239
21
0.052661
31
0.0
0
LINE
8
0
6
CONTINUOUS
10
-0.008239
20
0.047236
30
0.0
11
-0.008239
21
0.050327
31
0.0
0
LINE
8
0
6
CONTINUOUS
10
-0.008239
20
0.043736
30
0.0
11
-0.008239
21
0.047236
31
0.0
0
LINE
8
0
6
CONTINUOUS
10
-0.008239
20
0.040002
30
0.0
11
-0.008239
21
0.043736
31
0.0
0
LINE
8
0
6
CONTINUOUS
10
0.027555
20
0.028944
30
0.0
11
0.027555
21
0.031786
31
0.0
0
LINE
8
0
6
CONTINUOUS
10
0.027555
20
0.055051
30
0.0
11
0.027555
21
0.055401
31
0.0
0
LINE
8
0
6
CONTINUOUS
10
0.027555
20
0.027684
30
0.0
11
0.027555
21
0.028944
31
0.0
0
LINE
8
0
6
CONTINUOUS
10
0.027555
20
0.024604
30
0.0
11
0.027555
21
0.024953
31
0.0
0
LINE
8
0
6
CONTINUOUS
10
0.027555
20
0.025206
30
0.0
11
0.027555
21
0.025590
31
0.0
0
LINE
8
0
6
CONTINUOUS
10
0.027555
20
0.026848
30
0.0
11
0.027555
21
0.027684
31
0.0
0
LINE
8
0
6
CONTINUOUS
10
0.027555
20
0.031786
30
0.0
11
0.027555
21
0.036657
31
0.0
0
LINE
8
0
6
CONTINUOUS
10
0.027555
20
0.024304
30
0.0
11
0.027555
21
0.024604
31
0.0
0
LINE
8
0
6
CONTINUOUS
10
0.027555
20
0.054415
30
0.0
11
0.027555
21
0.054799
31
0.0
0
LINE
8
0
6
CONTINUOUS
10
0.027555
20
0.054799
30
0.0
11
0.027555
21
0.055051
31
0.0
0
LINE
8
0
6
CONTINUOUS
10
0.027555
20
0.040002
30
0.0
11
0.027555
21
0.043348
31
0.0
0
LINE
8
0
6
CONTINUOUS
10
0.027555
20
0.053868
30
0.0
11
0.027555
21
0.054415
31
0.0
0
LINE
8
0
6
CONTINUOUS
10
0.027555
20
0.026137
30
0.0
11
0.027555
21
0.026848
31
0.0
0
LINE
8
0
6
CONTINUOUS
10
0.027555
20
0.048219
30
0.0
11
0.027555
21
0.051061
31
0.0
0
LINE
8
0
6
CONTINUOUS
10
0.027269
20
0.055993
30
0.0
11
0.027091
21
0.055993
31
0.0
0
LINE
8
0
6
CONTINUOUS
10
0.027469
20
0.054915
30
0.0
11
0.027469
21
0.055177
31
0.0
0
LINE
8
0
6
CONTINUOUS
10
0.027469
20
0.028857
30
0.0
11
0.027469
21
0.031744
31
0.0
0
LINE
8
0
6
CONTINUOUS
10
0.027469
20
0.027593
30
0.0
11
0.027469
21
0.028857
31
0.0
0
LINE
8
0
6
CONTINUOUS
10
0.027555
20
0.024218
30
0.0
11
0.027555
21
0.024304
31
0.0
0
LINE
8
0
6
CONTINUOUS
10
0.027469
20
0.024073
30
0.0
11
0.027555
21
0.024218
31
0.0
0
LINE
8
0
6
CONTINUOUS
10
0.027091
20
0.024011
30
0.0
11
0.027269
21
0.024011
31
0.0
0
LINE
8
0
6
CONTINUOUS
10
0.027469
20
0.054521
30
0.0
11
0.027469
21
0.054915
31
0.0
0
LINE
8
0
6
CONTINUOUS
10
0.027469
20
0.053971
30
0.0
11
0.027469
21
0.054521
31
0.0
0
LINE
8
0
6
CONTINUOUS
10
-0.007466
20
0.052822
30
0.0
11
-0.007466
21
0.051507
31
0.0
0
LINE
8
0
6
CONTINUOUS
10
0.027555
20
0.043348
30
0.0
11
0.027555
21
0.048219
31
0.0
0
LINE
8
0
6
CONTINUOUS
10
0.027469
20
0.055177
30
0.0
11
0.027469
21
0.055510
31
0.0
0
LINE
8
0
6
CONTINUOUS
10
0.027555
20
0.036657
30
0.0
11
0.027555
21
0.040002
31
0.0
0
LINE
8
0
6
CONTINUOUS
10
0.027555
20
0.052321
30
0.0
11
0.027555
21
0.053157
31
0.0
0
LINE
8
0
6
CONTINUOUS
10
0.027469
20
0.053268
30
0.0
11
0.027469
21
0.052412
31
0.0
0
LINE
8
0
6
CONTINUOUS
10
0.027555
20
0.055787
30
0.0
11
0.027469
21
0.055932
31
0.0
0
LINE
8
0
6
CONTINUOUS
10
0.027555
20
0.055701
30
0.0
11
0.027555
21
0.055787
31
0.0
0
LINE
8
0
6
CONTINUOUS
10
0.027555
20
0.051061
30
0.0
11
0.027555
21
0.052321
31
0.0
0
LINE
8
0
6
CONTINUOUS
10
0.027469
20
0.052412
30
0.0
11
0.027469
21
0.051148
31
0.0
0
LINE
8
0
6
CONTINUOUS
10
0.027469
20
0.024073
30
0.0
11
0.027469
21
0.024171
31
0.0
0
LINE
8
0
6
CONTINUOUS
10
0.027269
20
0.024011
30
0.0
11
0.027469
21
0.024073
31
0.0
0
LINE
8
0
6
CONTINUOUS
10
0.027469
20
0.053971
30
0.0
11
0.027469
21
0.053268
31
0.0
0
LINE
8
0
6
CONTINUOUS
10
0.027555
20
0.053157
30
0.0
11
0.027555
21
0.053868
31
0.0
0
LINE
8
0
6
CONTINUOUS
10
0.027469
20
0.055932
30
0.0
11
0.027269
21
0.055993
31
0.0
0
LINE
8
0
6
CONTINUOUS
10
0.027469
20
0.055833
30
0.0
11
0.027469
21
0.055932
31
0.0
0
LINE
8
0
6
CONTINUOUS
10
0.027469
20
0.024495
30
0.0
11
0.027469
21
0.024828
31
0.0
0
LINE
8
0
6
CONTINUOUS
10
0.027469
20
0.048261
30
0.0
11
0.027469
21
0.051148
31
0.0
0
LINE
8
0
6
CONTINUOUS
10
0.027469
20
0.026736
30
0.0
11
0.027469
21
0.027593
31
0.0
0
LINE
8
0
6
CONTINUOUS
10
0.027469
20
0.026034
30
0.0
11
0.027469
21
0.025484
31
0.0
0
LINE
8
0
6
CONTINUOUS
10
0.027555
20
0.025590
30
0.0
11
0.027555
21
0.026137
31
0.0
0
LINE
8
0
6
CONTINUOUS
10
0.027555
20
0.024953
30
0.0
11
0.027555
21
0.025206
31
0.0
0
LINE
8
0
6
CONTINUOUS
10
0.027469
20
0.025089
30
0.0
11
0.027469
21
0.024828
31
0.0
0
LINE
8
0
6
CONTINUOUS
10
0.027469
20
0.036628
30
0.0
11
0.027469
21
0.040002
31
0.0
0
LINE
8
0
6
CONTINUOUS
10
0.027469
20
0.025089
30
0.0
11
0.027469
21
0.025484
31
0.0
0
LINE
8
0
6
CONTINUOUS
10
0.027469
20
0.026034
30
0.0
11
0.027469
21
0.026736
31
0.0
0
LINE
8
0
6
CONTINUOUS
10
0.027555
20
0.055401
30
0.0
11
0.027555
21
0.055701
31
0.0
0
LINE
8
0
6
CONTINUOUS
10
0.027469
20
0.040002
30
0.0
11
0.027469
21
0.043377
31
0.0
0
LINE
8
0
6
CONTINUOUS
10
-0.007466
20
0.048544
30
0.0
11
-0.007466
21
0.043487
31
0.0
0
LINE
8
0
6
CONTINUOUS
10
-0.007466
20
0.053700
30
0.0
11
-0.007466
21
0.052822
31
0.0
0
LINE
8
0
6
CONTINUOUS
10
-0.007466
20
0.024599
30
0.0
11
-0.007466
21
0.024320
31
0.0
0
LINE
8
0
6
CONTINUOUS
10
-0.007466
20
0.025015
30
0.0
11
-0.007466
21
0.024599
31
0.0
0
LINE
8
0
6
CONTINUOUS
10
0.027091
20
0.055993
30
0.0
11
-0.007081
21
0.056453
31
0.0
0
LINE
8
0
6
CONTINUOUS
10
-0.007466
20
0.023546
30
0.0
11
-0.007081
21
0.023551
31
0.0
0
LINE
8
0
6
CONTINUOUS
10
-0.007466
20
0.023639
30
0.0
11
-0.007466
21
0.023546
31
0.0
0
LINE
8
0
6
CONTINUOUS
10
-0.007466
20
0.023967
30
0.0
11
-0.007466
21
0.023639
31
0.0
0
LINE
8
0
6
CONTINUOUS
10
-0.007466
20
0.024320
30
0.0
11
-0.007466
21
0.023967
31
0.0
0
LINE
8
0
6
CONTINUOUS
10
-0.007466
20
0.051507
30
0.0
11
-0.007466
21
0.048544
31
0.0
0
LINE
8
0
6
CONTINUOUS
10
-0.007466
20
0.054430
30
0.0
11
-0.007466
21
0.053700
31
0.0
0
LINE
8
0
6
CONTINUOUS
10
-0.007466
20
0.025574
30
0.0
11
-0.007466
21
0.025015
31
0.0
0
LINE
8
0
6
CONTINUOUS
10
0.027555
20
0.043340
30
0.0
11
0.027555
21
0.040002
31
0.0
0
LINE
8
0
6
CONTINUOUS
10
0.027555
20
0.040002
30
0.0
11
0.027555
21
0.043340
31
0.0
0
LINE
8
0
6
CONTINUOUS
10
0.027555
20
0.040002
30
0.0
11
0.027555
21
0.036664
31
0.0
0
LINE
8
0
6
CONTINUOUS
10
0.027555
20
0.036664
30
0.0
11
0.027555
21
0.040002
31
0.0
0
LINE
8
0
6
CONTINUOUS
10
-0.007466
20
0.043487
30
0.0
11
-0.007466
21
0.040002
31
0.0
0
LINE
8
0
6
CONTINUOUS
10
-0.007466
20
0.026304
30
0.0
11
-0.007466
21
0.025574
31
0.0
0
LINE
8
0
6
CONTINUOUS
10
-0.007466
20
0.056038
30
0.0
11
-0.007466
21
0.055685
31
0.0
0
LINE
8
0
6
CONTINUOUS
10
-0.007466
20
0.056365
30
0.0
11
-0.007466
21
0.056038
31
0.0
0
LINE
8
0
6
CONTINUOUS
10
-0.007466
20
0.028497
30
0.0
11
-0.007466
21
0.027182
31
0.0
0
LINE
8
0
6
CONTINUOUS
10
-0.007466
20
0.055685
30
0.0
11
-0.007466
21
0.055406
31
0.0
0
LINE
8
0
6
CONTINUOUS
10
-0.007466
20
0.040002
30
0.0
11
-0.007466
21
0.036518
31
0.0
0
LINE
8
0
6
CONTINUOUS
10
-0.007466
20
0.036518
30
0.0
11
-0.007466
21
0.031461
31
0.0
0
LINE
8
0
6
CONTINUOUS
10
-0.007466
20
0.027182
30
0.0
11
-0.007466
21
0.026304
31
0.0
0
LINE
8
0
6
CONTINUOUS
10
-0.007081
20
0.056453
30
0.0
11
-0.007466
21
0.056458
31
0.0
0
LINE
8
0
6
CONTINUOUS
10
-0.007466
20
0.056458
30
0.0
11
-0.007466
21
0.056365
31
0.0
0
LINE
8
0
6
CONTINUOUS
10
-0.007466
20
0.055406
30
0.0
11
-0.007466
21
0.054990
31
0.0
0
LINE
8
0
6
CONTINUOUS
10
-0.007466
20
0.031461
30
0.0
11
-0.007466
21
0.028497
31
0.0
0
LINE
8
0
6
CONTINUOUS
10
-0.007466
20
0.054990
30
0.0
11
-0.007466
21
0.054430
31
0.0
0
LINE
8
0
6
CONTINUOUS
10
-0.007081
20
0.023551
30
0.0
11
0.027091
21
0.024011
31
0.0
0
LINE
8
0
6
CONTINUOUS
10
0.027555
20
0.043340
30
0.0
11
0.027555
21
0.040002
31
0.0
0
LINE
8
0
6
CONTINUOUS
10
0.027555
20
0.040002
30
0.0
11
0.027555
21
0.043340
31
0.0
0
LINE
8
0
6
CONTINUOUS
10
0.027555
20
0.036664
30
0.0
11
0.027555
21
0.040002
31
0.0
0
LINE
8
0
6
CONTINUOUS
10
0.027555
20
0.040002
30
0.0
11
0.027555
21
0.036664
31
0.0
0
LINE
8
0
6
CONTINUOUS
10
-0.013555
20
0.025419
30
0.0
11
-0.008508
21
0.025419
31
0.0
0
LINE
8
0
6
CONTINUOUS
10
-0.008508
20
0.054586
30
0.0
11
-0.013555
21
0.054586
31
0.0
0
LINE
8
0
6
CONTINUOUS
10
-0.008239
20
0.028198
30
0.0
11
-0.007888
21
0.028198
31
0.0
0
LINE
8
0
6
CONTINUOUS
10
-0.007888
20
0.051807
30
0.0
11
-0.008239
21
0.051807
31
0.0
0
LINE
8
0
6
CONTINUOUS
10
-0.014555
20
-0.077500
30
0.0
11
-0.013855
21
-0.077200
31
0.0
0
LINE
8
0
6
CONTINUOUS
10
-0.013555
20
-0.076323
30
0.0
11
-0.013555
21
-0.075940
31
0.0
0
LINE
8
0
6
CONTINUOUS
10
-0.013555
20
-0.075940
30
0.0
11
-0.013555
21
-0.075298
31
0.0
0
LINE
8
0
6
CONTINUOUS
10
-0.013555
20
-0.075298
30
0.0
11
-0.013555
21
-0.074400
31
0.0
0
LINE
8
0
6
CONTINUOUS
10
-0.013555
20
-0.072470
30
0.0
11
-0.013555
21
-0.070976
31
0.0
0
LINE
8
0
6
CONTINUOUS
10
-0.013555
20
-0.047467
30
0.0
11
-0.013555
21
-0.039822
31
0.0
0
LINE
8
0
6
CONTINUOUS
10
-0.013555
20
-0.066334
30
0.0
11
-0.013555
21
-0.063094
31
0.0
0
LINE
8
0
6
CONTINUOUS
10
-0.013855
20
-0.047743
30
0.0
11
-0.013855
21
-0.040025
31
0.0
0
LINE
8
0
6
CONTINUOUS
10
-0.013555
20
-0.070976
30
0.0
11
-0.013555
21
-0.068923
31
0.0
0
LINE
8
0
6
CONTINUOUS
10
-0.013555
20
-0.016213
30
0.0
11
-0.013555
21
0.000000
31
0.0
0
LINE
8
0
6
CONTINUOUS
10
-0.013555
20
-0.076411
30
0.0
11
-0.013555
21
-0.076323
31
0.0
0
LINE
8
0
6
CONTINUOUS
10
-0.013855
20
-0.076967
30
0.0
11
-0.013855
21
-0.076555
31
0.0
0
LINE
8
0
6
CONTINUOUS
10
-0.013855
20
-0.076555
30
0.0
11
-0.013855
21
-0.075824
31
0.0
0
LINE
8
0
6
CONTINUOUS
10
-0.013855
20
-0.073062
30
0.0
11
-0.013855
21
-0.071534
31
0.0
0
LINE
8
0
6
CONTINUOUS
10
-0.013855
20
-0.016353
30
0.0
11
-0.013855
21
0.000000
31
0.0
0
LINE
8
0
6
CONTINUOUS
10
-0.013855
20
-0.074168
30
0.0
11
-0.013855
21
-0.074916
31
0.0
0
LINE
8
0
6
CONTINUOUS
10
-0.013555
20
-0.074400
30
0.0
11
-0.013555
21
-0.073552
31
0.0
0
LINE
8
0
6
CONTINUOUS
10
-0.013855
20
-0.073062
30
0.0
11
-0.013855
21
-0.074168
31
0.0
0
LINE
8
0
6
CONTINUOUS
10
-0.013555
20
-0.073552
30
0.0
11
-0.013555
21
-0.072470
31
0.0
0
LINE
8
0
6
CONTINUOUS
10
-0.013855
20
-0.066794
30
0.0
11
-0.013855
21
-0.069494
31
0.0
0
LINE
8
0
6
CONTINUOUS
10
-0.013555
20
-0.068923
30
0.0
11
-0.013555
21
-0.066334
31
0.0
0
LINE
8
0
6
CONTINUOUS
10
-0.013555
20
-0.028654
30
0.0
11
-0.013555
21
-0.016213
31
0.0
0
LINE
8
0
6
CONTINUOUS
10
-0.013555
20
-0.039822
30
0.0
11
-0.013555
21
-0.028654
31
0.0
0
LINE
8
0
6
CONTINUOUS
10
-0.013855
20
-0.028962
30
0.0
11
-0.013855
21
-0.040025
31
0.0
0
LINE
8
0
6
CONTINUOUS
10
-0.013555
20
-0.051535
30
0.0
11
-0.013555
21
-0.047467
31
0.0
0
LINE
8
0
6
CONTINUOUS
10
-0.013855
20
-0.047743
30
0.0
11
-0.013855
21
-0.051880
31
0.0
0
LINE
8
0
6
CONTINUOUS
10
-0.013555
20
-0.055554
30
0.0
11
-0.013555
21
-0.051535
31
0.0
0
LINE
8
0
6
CONTINUOUS
10
-0.013855
20
-0.051880
30
0.0
11
-0.013855
21
-0.055933
31
0.0
0
LINE
8
0
6
CONTINUOUS
10
-0.013555
20
-0.059445
30
0.0
11
-0.013555
21
-0.055554
31
0.0
0
LINE
8
0
6
CONTINUOUS
10
-0.013855
20
-0.028962
30
0.0
11
-0.013855
21
-0.016353
31
0.0
0
LINE
8
0
6
CONTINUOUS
10
-0.013855
20
-0.059870
30
0.0
11
-0.013855
21
-0.055933
31
0.0
0
LINE
8
0
6
CONTINUOUS
10
-0.013555
20
-0.063094
30
0.0
11
-0.013555
21
-0.059445
31
0.0
0
LINE
8
0
6
CONTINUOUS
10
-0.013855
20
-0.059870
30
0.0
11
-0.013855
21
-0.063525
31
0.0
0
LINE
8
0
6
CONTINUOUS
10
-0.013855
20
-0.066794
30
0.0
11
-0.013855
21
-0.063525
31
0.0
0
LINE
8
0
6
CONTINUOUS
10
-0.013855
20
-0.071534
30
0.0
11
-0.013855
21
-0.069494
31
0.0
0
LINE
8
0
6
CONTINUOUS
10
-0.027555
20
-0.077500
30
0.0
11
-0.027178
21
-0.077500
31
0.0
0
LINE
8
0
6
CONTINUOUS
10
-0.027555
20
-0.077401
30
0.0
11
-0.027555
21
-0.077500
31
0.0
0
LINE
8
0
6
CONTINUOUS
10
-0.027555
20
-0.063759
30
0.0
11
-0.027555
21
-0.067050
31
0.0
0
LINE
8
0
6
CONTINUOUS
10
-0.027555
20
-0.071823
30
0.0
11
-0.027555
21
-0.073359
31
0.0
0
LINE
8
0
6
CONTINUOUS
10
-0.027555
20
-0.076863
30
0.0
11
-0.027555
21
-0.077302
31
0.0
0
LINE
8
0
6
CONTINUOUS
10
-0.027555
20
-0.040227
30
0.0
11
-0.027555
21
-0.047903
31
0.0
0
LINE
8
0
6
CONTINUOUS
10
-0.027555
20
-0.047903
30
0.0
11
-0.027555
21
-0.052060
31
0.0
0
LINE
8
0
6
CONTINUOUS
10
-0.027555
20
-0.074481
30
0.0
11
-0.027555
21
-0.075240
31
0.0
0
LINE
8
0
6
CONTINUOUS
10
-0.027555
20
-0.075240
30
0.0
11
-0.027555
21
-0.076189
31
0.0
0
LINE
8
0
6
CONTINUOUS
10
-0.027555
20
-0.067050
30
0.0
11
-0.027555
21
-0.069723
31
0.0
0
LINE
8
0
6
CONTINUOUS
10
-0.027555
20
-0.069723
30
0.0
11
-0.027555
21
-0.071823
31
0.0
0
LINE
8
0
6
CONTINUOUS
10
-0.027555
20
-0.076189
30
0.0
11
-0.027555
21
-0.076863
31
0.0
0
LINE
8
0
6
CONTINUOUS
10
-0.027555
20
-0.056131
30
0.0
11
-0.027555
21
-0.060084
31
0.0
0
LINE
8
0
6
CONTINUOUS
10
-0.027555
20
0.000000
30
0.0
11
-0.027555
21
-0.016409
31
0.0
0
LINE
8
0
6
CONTINUOUS
10
-0.027555
20
-0.016409
30
0.0
11
-0.027555
21
-0.029102
31
0.0
0
LINE
8
0
6
CONTINUOUS
10
-0.027555
20
-0.060084
30
0.0
11
-0.027555
21
-0.063759
31
0.0
0
LINE
8
0
6
CONTINUOUS
10
-0.027555
20
-0.052060
30
0.0
11
-0.027555
21
-0.056131
31
0.0
0
LINE
8
0
6
CONTINUOUS
10
-0.027555
20
-0.029102
30
0.0
11
-0.027555
21
-0.040227
31
0.0
0
LINE
8
0
6
CONTINUOUS
10
-0.027555
20
-0.073359
30
0.0
11
-0.027555
21
-0.074481
31
0.0
0
LINE
8
0
6
CONTINUOUS
10
-0.013855
20
0.077200
30
0.0
11
-0.014555
21
0.077500
31
0.0
0
LINE
8
0
6
CONTINUOUS
10
-0.013555
20
0.075940
30
0.0
11
-0.013555
21
0.076323
31
0.0
0
LINE
8
0
6
CONTINUOUS
10
-0.013555
20
0.075298
30
0.0
11
-0.013555
21
0.075940
31
0.0
0
LINE
8
0
6
CONTINUOUS
10
-0.013555
20
0.074400
30
0.0
11
-0.013555
21
0.075298
31
0.0
0
LINE
8
0
6
CONTINUOUS
10
-0.013555
20
0.070976
30
0.0
11
-0.013555
21
0.072470
31
0.0
0
LINE
8
0
6
CONTINUOUS
10
-0.013555
20
0.039822
30
0.0
11
-0.013555
21
0.047467
31
0.0
0
LINE
8
0
6
CONTINUOUS
10
-0.013555
20
0.063094
30
0.0
11
-0.013555
21
0.066334
31
0.0
0
LINE
8
0
6
CONTINUOUS
10
-0.013855
20
0.040025
30
0.0
11
-0.013855
21
0.047743
31
0.0
0
LINE
8
0
6
CONTINUOUS
10
-0.013555
20
0.068923
30
0.0
11
-0.013555
21
0.070976
31
0.0
0
LINE
8
0
6
CONTINUOUS
10
-0.013555
20
0.000000
30
0.0
11
-0.013555
21
0.016213
31
0.0
0
LINE
8
0
6
CONTINUOUS
10
-0.013555
20
0.076323
30
0.0
11
-0.013555
21
0.076411
31
0.0
0
LINE
8
0
6
CONTINUOUS
10
-0.013855
20
0.076555
30
0.0
11
-0.013855
21
0.076967
31
0.0
0
LINE
8
0
6
CONTINUOUS
10
-0.013855
20
0.075824
30
0.0
11
-0.013855
21
0.076555
31
0.0
0
LINE
8
0
6
CONTINUOUS
10
-0.013855
20
0.071534
30
0.0
11
-0.013855
21
0.073062
31
0.0
0
LINE
8
0
6
CONTINUOUS
10
-0.013855
20
0.000000
30
0.0
11
-0.013855
21
0.016353
31
0.0
0
LINE
8
0
6
CONTINUOUS
10
-0.013555
20
0.073552
30
0.0
11
-0.013555
21
0.074400
31
0.0
0
LINE
8
0
6
CONTINUOUS
10
-0.013855
20
0.074916
30
0.0
11
-0.013855
21
0.074168
31
0.0
0
LINE
8
0
6
CONTINUOUS
10
-0.013555
20
0.072470
30
0.0
11
-0.013555
21
0.073552
31
0.0
0
LINE
8
0
6
CONTINUOUS
10
-0.013855
20
0.074168
30
0.0
11
-0.013855
21
0.073062
31
0.0
0
LINE
8
0
6
CONTINUOUS
10
-0.013555
20
0.066334
30
0.0
11
-0.013555
21
0.068923
31
0.0
0
LINE
8
0
6
CONTINUOUS
10
-0.013855
20
0.069494
30
0.0
11
-0.013855
21
0.066794
31
0.0
0
LINE
8
0
6
CONTINUOUS
10
-0.013555
20
0.016213
30
0.0
11
-0.013555
21
0.028654
31
0.0
0
LINE
8
0
6
CONTINUOUS
10
-0.013855
20
0.040025
30
0.0
11
-0.013855
21
0.028962
31
0.0
0
LINE
8
0
6
CONTINUOUS
10
-0.013555
20
0.028654
30
0.0
11
-0.013555
21
0.039822
31
0.0
0
LINE
8
0
6
CONTINUOUS
10
-0.013855
20
0.051880
30
0.0
11
-0.013855
21
0.047743
31
0.0
0
LINE
8
0
6
CONTINUOUS
10
-0.013555
20
0.047467
30
0.0
11
-0.013555
21
0.051535
31
0.0
0
LINE
8
0
6
CONTINUOUS
10
-0.013855
20
0.055933
30
0.0
11
-0.013855
21
0.051880
31
0.0
0
LINE
8
0
6
CONTINUOUS
10
-0.013555
20
0.051535
30
0.0
11
-0.013555
21
0.055554
31
0.0
0
LINE
8
0
6
CONTINUOUS
10
-0.013555
20
0.055554
30
0.0
11
-0.013555
21
0.059445
31
0.0
0
LINE
8
0
6
CONTINUOUS
10
-0.013855
20
0.016353
30
0.0
11
-0.013855
21
0.028962
31
0.0
0
LINE
8
0
6
CONTINUOUS
10
-0.013855
20
0.055933
30
0.0
11
-0.013855
21
0.059870
31
0.0
0
LINE
8
0
6
CONTINUOUS
10
-0.013855
20
0.063525
30
0.0
11
-0.013855
21
0.059870
31
0.0
0
LINE
8
0
6
CONTINUOUS
10
-0.013555
20
0.059445
30
0.0
11
-0.013555
21
0.063094
31
0.0
0
LINE
8
0
6
CONTINUOUS
10
-0.013855
20
0.063525
30
0.0
11
-0.013855
21
0.066794
31
0.0
0
LINE
8
0
6
CONTINUOUS
10
-0.013855
20
0.069494
30
0.0
11
-0.013855
21
0.071534
31
0.0
0
LINE
8
0
6
CONTINUOUS
10
-0.027555
20
0.077500
30
0.0
11
-0.027555
21
0.077401
31
0.0
0
LINE
8
0
6
CONTINUOUS
10
-0.027178
20
0.077500
30
0.0
11
-0.027555
21
0.077500
31
0.0
0
LINE
8
0
6
CONTINUOUS
10
-0.027555
20
0.067050
30
0.0
11
-0.027555
21
0.063759
31
0.0
0
LINE
8
0
6
CONTINUOUS
10
-0.027555
20
0.073359
30
0.0
11
-0.027555
21
0.071823
31
0.0
0
LINE
8
0
6
CONTINUOUS
10
-0.027555
20
0.077302
30
0.0
11
-0.027555
21
0.076863
31
0.0
0
LINE
8
0
6
CONTINUOUS
10
-0.027555
20
0.047903
30
0.0
11
-0.027555
21
0.040227
31
0.0
0
LINE
8
0
6
CONTINUOUS
10
-0.027555
20
0.052060
30
0.0
11
-0.027555
21
0.047903
31
0.0
0
LINE
8
0
6
CONTINUOUS
10
-0.027555
20
0.075240
30
0.0
11
-0.027555
21
0.074481
31
0.0
0
LINE
8
0
6
CONTINUOUS
10
-0.027555
20
0.076189
30
0.0
11
-0.027555
21
0.075240
31
0.0
0
LINE
8
0
6
CONTINUOUS
10
-0.027555
20
0.069723
30
0.0
11
-0.027555
21
0.067050
31
0.0
0
LINE
8
0
6
CONTINUOUS
10
-0.027555
20
0.071823
30
0.0
11
-0.027555
21
0.069723
31
0.0
0
LINE
8
0
6
CONTINUOUS
10
-0.027555
20
0.076863
30
0.0
11
-0.027555
21
0.076189
31
0.0
0
LINE
8
0
6
CONTINUOUS
10
-0.027555
20
0.060084
30
0.0
11
-0.027555
21
0.056131
31
0.0
0
LINE
8
0
6
CONTINUOUS
10
-0.027555
20
0.016409
30
0.0
11
-0.027555
21
0.000000
31
0.0
0
LINE
8
0
6
CONTINUOUS
10
-0.027555
20
0.029102
30
0.0
11
-0.027555
21
0.016409
31
0.0
0
LINE
8
0
6
CONTINUOUS
10
-0.027555
20
0.063759
30
0.0
11
-0.027555
21
0.060084
31
0.0
0
LINE
8
0
6
CONTINUOUS
10
-0.027555
20
0.056131
30
0.0
11
-0.027555
21
0.052060
31
0.0
0
LINE
8
0
6
CONTINUOUS
10
-0.027555
20
0.040227
30
0.0
11
-0.027555
21
0.029102
31
0.0
0
LINE
8
0
6
CONTINUOUS
10
-0.027555
20
0.074481
30
0.0
11
-0.027555
21
0.073359
31
0.0
0
LINE
8
0
6
CONTINUOUS
10
-0.013555
20
-0.021302
30
0.0
11
-0.013555
21
-0.015551
31
0.0
0
LINE
8
0
6
CONTINUOUS
10
-0.013555
20
-0.027542
30
0.0
11
-0.013555
21
-0.021302
31
0.0
0
LINE
8
0
6
CONTINUOUS
10
-0.013555
20
-0.056103
30
0.0
11
-0.013555
21
-0.052514
31
0.0
0
LINE
8
0
6
CONTINUOUS
10
-0.013555
20
0.018541
30
0.0
11
-0.013555
21
0.018302
31
0.0
0
LINE
8
0
6
CONTINUOUS
10
-0.013555
20
0.016137
30
0.0
11
-0.013555
21
0.018541
31
0.0
0
LINE
8
0
6
CONTINUOUS
10
-0.013555
20
0.015871
30
0.0
11
-0.013555
21
0.016137
31
0.0
0
LINE
8
0
6
CONTINUOUS
10
-0.013555
20
0.018302
30
0.0
11
-0.013555
21
0.018062
31
0.0
0
LINE
8
0
6
CONTINUOUS
10
-0.013555
20
0.015605
30
0.0
11
-0.013555
21
0.015871
31
0.0
0
LINE
8
0
6
CONTINUOUS
10
-0.013555
20
0.049995
30
0.0
11
-0.013555
21
0.054432
31
0.0
0
LINE
8
0
6
CONTINUOUS
10
-0.013555
20
0.014999
30
0.0
11
-0.013555
21
0.016459
31
0.0
0
LINE
8
0
6
CONTINUOUS
10
-0.013555
20
0.018831
30
0.0
11
-0.013555
21
0.022023
31
0.0
0
LINE
8
0
6
CONTINUOUS
10
-0.013555
20
0.025913
30
0.0
11
-0.013555
21
0.030350
31
0.0
0
LINE
8
0
6
CONTINUOUS
10
-0.013555
20
0.054432
30
0.0
11
-0.013555
21
0.054586
31
0.0
0
LINE
8
0
6
CONTINUOUS
10
-0.013555
20
0.022023
30
0.0
11
-0.013555
21
0.025913
31
0.0
0
LINE
8
0
6
CONTINUOUS
10
-0.013555
20
0.018831
30
0.0
11
-0.013555
21
0.016459
31
0.0
0
LINE
8
0
6
CONTINUOUS
10
-0.013855
20
-0.077083
30
0.0
11
-0.013855
21
-0.076967
31
0.0
0
LINE
8
0
6
CONTINUOUS
10
-0.013855
20
-0.077083
30
0.0
11
-0.013855
21
-0.077200
31
0.0
0
LINE
8
0
6
CONTINUOUS
10
-0.013555
20
-0.076500
30
0.0
11
-0.013555
21
-0.076411
31
0.0
0
LINE
8
0
6
CONTINUOUS
10
-0.013855
20
-0.077200
30
0.0
11
-0.013555
21
-0.076500
31
0.0
0
LINE
8
0
6
CONTINUOUS
10
-0.027178
20
-0.077500
30
0.0
11
-0.014931
21
-0.077500
31
0.0
0
LINE
8
0
6
CONTINUOUS
10
-0.014931
20
-0.077500
30
0.0
11
-0.014555
21
-0.077500
31
0.0
0
LINE
8
0
6
CONTINUOUS
10
-0.027555
20
-0.077302
30
0.0
11
-0.027555
21
-0.077401
31
0.0
0
LINE
8
0
6
CONTINUOUS
10
-0.013855
20
0.076967
30
0.0
11
-0.013855
21
0.077083
31
0.0
0
LINE
8
0
6
CONTINUOUS
10
-0.013555
20
0.076500
30
0.0
11
-0.013855
21
0.077200
31
0.0
0
LINE
8
0
6
CONTINUOUS
10
-0.013555
20
0.076411
30
0.0
11
-0.013555
21
0.076500
31
0.0
0
LINE
8
0
6
CONTINUOUS
10
-0.013855
20
0.077200
30
0.0
11
-0.013855
21
0.077083
31
0.0
0
LINE
8
0
6
CONTINUOUS
10
-0.014931
20
0.077500
30
0.0
11
-0.027178
21
0.077500
31
0.0
0
LINE
8
0
6
CONTINUOUS
10
-0.014555
20
0.077500
30
0.0
11
-0.014931
21
0.077500
31
0.0
0
LINE
8
0
6
CONTINUOUS
10
-0.027555
20
0.077401
30
0.0
11
-0.027555
21
0.077302
31
0.0
0
LINE
8
0
6
CONTINUOUS
10
0.003944
20
-0.056259
30
0.0
11
0.003303
21
-0.056335
31
0.0
0
ENDSEC
0
EOF
