999
unknown String-ID: 20550
0
SECTION
2
HEADER
9
$ACADVER
1
AC1009
9
$DWGCODEPAGE
3
unknown String-ID: 20561
0
ENDSEC
0
SECTION
2
TABLES
0
TABLE
2
LAYER
70
1
0
LAYER
2
0
70
0
62
7
6
CONTINUOUS
0
ENDTAB
0
ENDSEC
0
SECTION
2
ENTITIES
0
LINE
8
0
6
CONTINUOUS
10
0.004735
20
-0.060364
30
0.0
11
0.004851
21
-0.060000
31
0.0
0
LINE
8
0
6
CONTINUOUS
10
0.004094
20
-0.060364
30
0.0
11
0.004735
21
-0.060364
31
0.0
0
LINE
8
0
6
CONTINUOUS
10
-0.004851
20
-0.056110
30
0.0
11
-0.004851
21
-0.059800
31
0.0
0
LINE
8
0
6
CONTINUOUS
10
0.004851
20
-0.060000
30
0.0
11
0.004851
21
-0.059800
31
0.0
0
LINE
8
0
6
CONTINUOUS
10
-0.002348
20
-0.060364
30
0.0
11
0.000000
21
-0.060364
31
0.0
0
LINE
8
0
6
CONTINUOUS
10
-0.004094
20
-0.060364
30
0.0
11
-0.002348
21
-0.060364
31
0.0
0
LINE
8
0
6
CONTINUOUS
10
-0.004851
20
-0.060000
30
0.0
11
-0.004735
21
-0.060364
31
0.0
0
LINE
8
0
6
CONTINUOUS
10
-0.004735
20
-0.060364
30
0.0
11
-0.004094
21
-0.060364
31
0.0
0
LINE
8
0
6
CONTINUOUS
10
0.000000
20
-0.060364
30
0.0
11
0.002348
21
-0.060364
31
0.0
0
LINE
8
0
6
CONTINUOUS
10
0.002348
20
-0.060364
30
0.0
11
0.004094
21
-0.060364
31
0.0
0
LINE
8
0
6
CONTINUOUS
10
-0.019110
20
-0.014989
30
0.0
11
-0.019850
21
-0.015956
31
0.0
0
LINE
8
0
6
CONTINUOUS
10
0.019110
20
-0.053209
30
0.0
11
0.019851
21
-0.052242
31
0.0
0
LINE
8
0
6
CONTINUOUS
10
0.019851
20
-0.052242
30
0.0
11
0.020402
21
-0.051079
31
0.0
0
LINE
8
0
6
CONTINUOUS
10
-0.019110
20
-0.053209
30
0.0
11
-0.018143
21
-0.053950
31
0.0
0
LINE
8
0
6
CONTINUOUS
10
0.020402
20
-0.017119
30
0.0
11
0.019851
21
-0.015956
31
0.0
0
LINE
8
0
6
CONTINUOUS
10
-0.004615
20
-0.012427
30
0.0
11
-0.011313
21
-0.012860
31
0.0
0
LINE
8
0
6
CONTINUOUS
10
0.004615
20
-0.012427
30
0.0
11
0.000000
21
-0.012303
31
0.0
0
LINE
8
0
6
CONTINUOUS
10
0.021672
20
-0.029484
30
0.0
11
0.021240
21
-0.022786
31
0.0
0
LINE
8
0
6
CONTINUOUS
10
0.018143
20
-0.053950
30
0.0
11
0.019110
21
-0.053209
31
0.0
0
LINE
8
0
6
CONTINUOUS
10
0.015192
20
-0.054782
30
0.0
11
0.011257
21
-0.055236
31
0.0
0
LINE
8
0
6
CONTINUOUS
10
0.011313
20
-0.055338
30
0.0
11
0.015238
21
-0.054871
31
0.0
0
LINE
8
0
6
CONTINUOUS
10
-0.021239
20
-0.022786
30
0.0
11
-0.021672
21
-0.029484
31
0.0
0
LINE
8
0
6
CONTINUOUS
10
0.020683
20
-0.018908
30
0.0
11
0.021137
21
-0.022843
31
0.0
0
LINE
8
0
6
CONTINUOUS
10
0.021240
20
-0.022786
30
0.0
11
0.020771
21
-0.018861
31
0.0
0
LINE
8
0
6
CONTINUOUS
10
-0.016914
20
-0.013773
30
0.0
11
-0.015191
21
-0.013416
31
0.0
0
LINE
8
0
6
CONTINUOUS
10
-0.015238
20
-0.013328
30
0.0
11
-0.016980
21
-0.013697
31
0.0
0
LINE
8
0
6
CONTINUOUS
10
0.016980
20
-0.013697
30
0.0
11
0.015238
21
-0.013328
31
0.0
0
LINE
8
0
6
CONTINUOUS
10
0.015192
20
-0.013416
30
0.0
11
0.016914
21
-0.013773
31
0.0
0
LINE
8
0
6
CONTINUOUS
10
-0.021239
20
-0.045412
30
0.0
11
-0.020771
21
-0.049337
31
0.0
0
LINE
8
0
6
CONTINUOUS
10
-0.020683
20
-0.049291
30
0.0
11
-0.021136
21
-0.045356
31
0.0
0
LINE
8
0
6
CONTINUOUS
10
-0.020402
20
-0.017119
30
0.0
11
-0.020771
21
-0.018861
31
0.0
0
LINE
8
0
6
CONTINUOUS
10
-0.020326
20
-0.051013
30
0.0
11
-0.020683
21
-0.049291
31
0.0
0
LINE
8
0
6
CONTINUOUS
10
-0.020771
20
-0.049337
30
0.0
11
-0.020402
21
-0.051079
31
0.0
0
LINE
8
0
6
CONTINUOUS
10
0.018082
20
-0.053888
30
0.0
11
0.016914
21
-0.054426
31
0.0
0
LINE
8
0
6
CONTINUOUS
10
0.016980
20
-0.054501
30
0.0
11
0.018143
21
-0.053950
31
0.0
0
LINE
8
0
6
CONTINUOUS
10
0.016914
20
-0.054426
30
0.0
11
0.015192
21
-0.054782
31
0.0
0
LINE
8
0
6
CONTINUOUS
10
0.015238
20
-0.054871
30
0.0
11
0.016980
21
-0.054501
31
0.0
0
LINE
8
0
6
CONTINUOUS
10
0.004599
20
-0.012521
30
0.0
11
0.000000
21
-0.012387
31
0.0
0
LINE
8
0
6
CONTINUOUS
10
-0.016980
20
-0.054501
30
0.0
11
-0.015238
21
-0.054871
31
0.0
0
LINE
8
0
6
CONTINUOUS
10
-0.018082
20
-0.014310
30
0.0
11
-0.016914
21
-0.013773
31
0.0
0
LINE
8
0
6
CONTINUOUS
10
-0.016980
20
-0.013697
30
0.0
11
-0.018143
21
-0.014248
31
0.0
0
LINE
8
0
6
CONTINUOUS
10
-0.019040
20
-0.015059
30
0.0
11
-0.018082
21
-0.014310
31
0.0
0
LINE
8
0
6
CONTINUOUS
10
-0.018143
20
-0.014248
30
0.0
11
-0.019110
21
-0.014989
31
0.0
0
LINE
8
0
6
CONTINUOUS
10
-0.020995
20
-0.016625
30
0.0
11
-0.021375
21
-0.018418
31
0.0
0
LINE
8
0
6
CONTINUOUS
10
0.021712
20
-0.034099
30
0.0
11
0.021578
21
-0.038698
31
0.0
0
LINE
8
0
6
CONTINUOUS
10
0.021672
20
-0.038714
30
0.0
11
0.021796
21
-0.034099
31
0.0
0
LINE
8
0
6
CONTINUOUS
10
0.016914
20
-0.013773
30
0.0
11
0.018082
21
-0.014310
31
0.0
0
LINE
8
0
6
CONTINUOUS
10
0.018143
20
-0.014248
30
0.0
11
0.016980
21
-0.013697
31
0.0
0
LINE
8
0
6
CONTINUOUS
10
0.019789
20
-0.052181
30
0.0
11
0.020327
21
-0.051013
31
0.0
0
LINE
8
0
6
CONTINUOUS
10
-0.004599
20
-0.055677
30
0.0
11
-0.011256
21
-0.055236
31
0.0
0
LINE
8
0
6
CONTINUOUS
10
-0.011313
20
-0.055338
30
0.0
11
-0.004615
21
-0.055772
31
0.0
0
LINE
8
0
6
CONTINUOUS
10
0.019851
20
-0.015956
30
0.0
11
0.019110
21
-0.014989
31
0.0
0
LINE
8
0
6
CONTINUOUS
10
0.020327
20
-0.017185
30
0.0
11
0.019789
21
-0.016017
31
0.0
0
LINE
8
0
6
CONTINUOUS
10
-0.021136
20
-0.022843
30
0.0
11
-0.021578
21
-0.029500
31
0.0
0
LINE
8
0
6
CONTINUOUS
10
-0.019850
20
-0.015956
30
0.0
11
-0.020402
21
-0.017119
31
0.0
0
LINE
8
0
6
CONTINUOUS
10
0.020683
20
-0.049291
30
0.0
11
0.020327
21
-0.051013
31
0.0
0
LINE
8
0
6
CONTINUOUS
10
0.020402
20
-0.051079
30
0.0
11
0.020771
21
-0.049337
31
0.0
0
LINE
8
0
6
CONTINUOUS
10
-0.011313
20
-0.012860
30
0.0
11
-0.015238
21
-0.013328
31
0.0
0
LINE
8
0
6
CONTINUOUS
10
-0.015191
20
-0.013416
30
0.0
11
-0.011256
21
-0.012963
31
0.0
0
LINE
8
0
6
CONTINUOUS
10
-0.019789
20
-0.016017
30
0.0
11
-0.020326
21
-0.017185
31
0.0
0
LINE
8
0
6
CONTINUOUS
10
0.011257
20
-0.012963
30
0.0
11
0.015192
21
-0.013416
31
0.0
0
LINE
8
0
6
CONTINUOUS
10
0.015238
20
-0.013328
30
0.0
11
0.011313
21
-0.012860
31
0.0
0
LINE
8
0
6
CONTINUOUS
10
-0.020326
20
-0.017185
30
0.0
11
-0.020683
21
-0.018908
31
0.0
0
LINE
8
0
6
CONTINUOUS
10
0.018082
20
-0.053888
30
0.0
11
0.019040
21
-0.053139
31
0.0
0
LINE
8
0
6
CONTINUOUS
10
0.000000
20
-0.055811
30
0.0
11
-0.004599
21
-0.055677
31
0.0
0
LINE
8
0
6
CONTINUOUS
10
-0.004615
20
-0.055772
30
0.0
11
0.000000
21
-0.055895
31
0.0
0
LINE
8
0
6
CONTINUOUS
10
-0.019040
20
-0.015059
30
0.0
11
-0.019789
21
-0.016017
31
0.0
0
LINE
8
0
6
CONTINUOUS
10
0.021137
20
-0.045356
30
0.0
11
0.020683
21
-0.049291
31
0.0
0
LINE
8
0
6
CONTINUOUS
10
0.020771
20
-0.049337
30
0.0
11
0.021240
21
-0.045412
31
0.0
0
LINE
8
0
6
CONTINUOUS
10
-0.004599
20
-0.012521
30
0.0
11
0.000000
21
-0.012387
31
0.0
0
LINE
8
0
6
CONTINUOUS
10
0.000000
20
-0.012303
30
0.0
11
-0.004615
21
-0.012427
31
0.0
0
LINE
8
0
6
CONTINUOUS
10
0.018082
20
-0.014310
30
0.0
11
0.019040
21
-0.015059
31
0.0
0
LINE
8
0
6
CONTINUOUS
10
0.019110
20
-0.014989
30
0.0
11
0.018143
21
-0.014248
31
0.0
0
LINE
8
0
6
CONTINUOUS
10
-0.015238
20
-0.054871
30
0.0
11
-0.011313
21
-0.055338
31
0.0
0
LINE
8
0
6
CONTINUOUS
10
-0.011256
20
-0.055236
30
0.0
11
-0.015191
21
-0.054782
31
0.0
0
LINE
8
0
6
CONTINUOUS
10
-0.021136
20
-0.022843
30
0.0
11
-0.020683
21
-0.018908
31
0.0
0
LINE
8
0
6
CONTINUOUS
10
-0.020771
20
-0.018861
30
0.0
11
-0.021239
21
-0.022786
31
0.0
0
LINE
8
0
6
CONTINUOUS
10
-0.020402
20
-0.051079
30
0.0
11
-0.019850
21
-0.052242
31
0.0
0
LINE
8
0
6
CONTINUOUS
10
-0.019789
20
-0.052181
30
0.0
11
-0.020326
21
-0.051013
31
0.0
0
LINE
8
0
6
CONTINUOUS
10
0.020327
20
-0.017185
30
0.0
11
0.020683
21
-0.018908
31
0.0
0
LINE
8
0
6
CONTINUOUS
10
0.020771
20
-0.018861
30
0.0
11
0.020402
21
-0.017119
31
0.0
0
LINE
8
0
6
CONTINUOUS
10
0.004599
20
-0.012521
30
0.0
11
0.011257
21
-0.012963
31
0.0
0
LINE
8
0
6
CONTINUOUS
10
0.011313
20
-0.012860
30
0.0
11
0.004615
21
-0.012427
31
0.0
0
LINE
8
0
6
CONTINUOUS
10
0.021240
20
-0.045412
30
0.0
11
0.021672
21
-0.038714
31
0.0
0
LINE
8
0
6
CONTINUOUS
10
0.021796
20
-0.034099
30
0.0
11
0.021672
21
-0.029484
31
0.0
0
LINE
8
0
6
CONTINUOUS
10
-0.019040
20
-0.053139
30
0.0
11
-0.018082
21
-0.053888
31
0.0
0
LINE
8
0
6
CONTINUOUS
10
-0.016914
20
-0.054426
30
0.0
11
-0.015191
21
-0.054782
31
0.0
0
LINE
8
0
6
CONTINUOUS
10
0.019040
20
-0.053139
30
0.0
11
0.019789
21
-0.052181
31
0.0
0
LINE
8
0
6
CONTINUOUS
10
0.021137
20
-0.045356
30
0.0
11
0.021578
21
-0.038698
31
0.0
0
LINE
8
0
6
CONTINUOUS
10
-0.021578
20
-0.038698
30
0.0
11
-0.021711
21
-0.034099
31
0.0
0
LINE
8
0
6
CONTINUOUS
10
-0.021796
20
-0.034099
30
0.0
11
-0.021672
21
-0.038714
31
0.0
0
LINE
8
0
6
CONTINUOUS
10
0.021578
20
-0.029500
30
0.0
11
0.021137
21
-0.022843
31
0.0
0
LINE
8
0
6
CONTINUOUS
10
-0.021672
20
-0.038714
30
0.0
11
-0.021239
21
-0.045412
31
0.0
0
LINE
8
0
6
CONTINUOUS
10
-0.021136
20
-0.045356
30
0.0
11
-0.021578
21
-0.038698
31
0.0
0
LINE
8
0
6
CONTINUOUS
10
0.021712
20
-0.034099
30
0.0
11
0.021578
21
-0.029500
31
0.0
0
LINE
8
0
6
CONTINUOUS
10
-0.016914
20
-0.054426
30
0.0
11
-0.018082
21
-0.053888
31
0.0
0
LINE
8
0
6
CONTINUOUS
10
-0.018143
20
-0.053950
30
0.0
11
-0.016980
21
-0.054501
31
0.0
0
LINE
8
0
6
CONTINUOUS
10
-0.019850
20
-0.052242
30
0.0
11
-0.019110
21
-0.053209
31
0.0
0
LINE
8
0
6
CONTINUOUS
10
-0.019040
20
-0.053139
30
0.0
11
-0.019789
21
-0.052181
31
0.0
0
LINE
8
0
6
CONTINUOUS
10
-0.004599
20
-0.012521
30
0.0
11
-0.011256
21
-0.012963
31
0.0
0
LINE
8
0
6
CONTINUOUS
10
0.019789
20
-0.016017
30
0.0
11
0.019040
21
-0.015059
31
0.0
0
LINE
8
0
6
CONTINUOUS
10
0.011257
20
-0.055236
30
0.0
11
0.004599
21
-0.055677
31
0.0
0
LINE
8
0
6
CONTINUOUS
10
0.004615
20
-0.055772
30
0.0
11
0.011313
21
-0.055338
31
0.0
0
LINE
8
0
6
CONTINUOUS
10
-0.021672
20
-0.029484
30
0.0
11
-0.021796
21
-0.034099
31
0.0
0
LINE
8
0
6
CONTINUOUS
10
-0.021711
20
-0.034099
30
0.0
11
-0.021578
21
-0.029500
31
0.0
0
LINE
8
0
6
CONTINUOUS
10
0.000000
20
-0.055895
30
0.0
11
0.004615
21
-0.055772
31
0.0
0
LINE
8
0
6
CONTINUOUS
10
0.004599
20
-0.055677
30
0.0
11
0.000000
21
-0.055811
31
0.0
0
LINE
8
0
6
CONTINUOUS
10
0.011643
20
-0.012242
30
0.0
11
0.004749
21
-0.011797
31
0.0
0
LINE
8
0
6
CONTINUOUS
10
0.019666
20
-0.053765
30
0.0
11
0.020428
21
-0.052770
31
0.0
0
LINE
8
0
6
CONTINUOUS
10
0.020995
20
-0.051573
30
0.0
11
0.021375
21
-0.049781
31
0.0
0
LINE
8
0
6
CONTINUOUS
10
0.022303
20
-0.038848
30
0.0
11
0.022430
21
-0.034099
31
0.0
0
LINE
8
0
6
CONTINUOUS
10
-0.021857
20
-0.022457
30
0.0
11
-0.022303
21
-0.029350
31
0.0
0
LINE
8
0
6
CONTINUOUS
10
-0.020428
20
-0.015429
30
0.0
11
-0.020995
21
-0.016625
31
0.0
0
LINE
8
0
6
CONTINUOUS
10
-0.017474
20
-0.055094
30
0.0
11
-0.015681
21
-0.055475
31
0.0
0
LINE
8
0
6
CONTINUOUS
10
-0.018671
20
-0.054527
30
0.0
11
-0.017474
21
-0.055094
31
0.0
0
LINE
8
0
6
CONTINUOUS
10
0.004749
20
-0.011797
30
0.0
11
0.000000
21
-0.011669
31
0.0
0
LINE
8
0
6
CONTINUOUS
10
0.020428
20
-0.052770
30
0.0
11
0.020995
21
-0.051573
31
0.0
0
LINE
8
0
6
CONTINUOUS
10
0.021375
20
-0.049781
30
0.0
11
0.021857
21
-0.045742
31
0.0
0
LINE
8
0
6
CONTINUOUS
10
0.019666
20
-0.014433
30
0.0
11
0.018671
21
-0.013671
31
0.0
0
LINE
8
0
6
CONTINUOUS
10
0.018671
20
-0.013671
30
0.0
11
0.017474
21
-0.013104
31
0.0
0
LINE
8
0
6
CONTINUOUS
10
0.015682
20
-0.012724
30
0.0
11
0.011643
21
-0.012242
31
0.0
0
LINE
8
0
6
CONTINUOUS
10
0.017474
20
-0.013104
30
0.0
11
0.015682
21
-0.012724
31
0.0
0
LINE
8
0
6
CONTINUOUS
10
-0.011642
20
-0.055956
30
0.0
11
-0.004851
21
-0.056395
31
0.0
0
LINE
8
0
6
CONTINUOUS
10
-0.015681
20
-0.055475
30
0.0
11
-0.011642
21
-0.055956
31
0.0
0
LINE
8
0
6
CONTINUOUS
10
0.021857
20
-0.045742
30
0.0
11
0.022303
21
-0.038848
31
0.0
0
LINE
8
0
6
CONTINUOUS
10
-0.021375
20
-0.018418
30
0.0
11
-0.021857
21
-0.022457
31
0.0
0
LINE
8
0
6
CONTINUOUS
10
-0.019666
20
-0.014433
30
0.0
11
-0.020428
21
-0.015429
31
0.0
0
LINE
8
0
6
CONTINUOUS
10
-0.019666
20
-0.053765
30
0.0
11
-0.018671
21
-0.054527
31
0.0
0
LINE
8
0
6
CONTINUOUS
10
0.022303
20
-0.029350
30
0.0
11
0.021857
21
-0.022457
31
0.0
0
LINE
8
0
6
CONTINUOUS
10
-0.022303
20
-0.029350
30
0.0
11
-0.022430
21
-0.034099
31
0.0
0
LINE
8
0
6
CONTINUOUS
10
-0.020428
20
-0.052770
30
0.0
11
-0.019666
21
-0.053765
31
0.0
0
LINE
8
0
6
CONTINUOUS
10
-0.011642
20
-0.012242
30
0.0
11
-0.015681
21
-0.012724
31
0.0
0
LINE
8
0
6
CONTINUOUS
10
-0.004749
20
-0.011797
30
0.0
11
-0.011642
21
-0.012242
31
0.0
0
LINE
8
0
6
CONTINUOUS
10
-0.021375
20
-0.049781
30
0.0
11
-0.020995
21
-0.051573
31
0.0
0
LINE
8
0
6
CONTINUOUS
10
0.021857
20
-0.022457
30
0.0
11
0.021375
21
-0.018418
31
0.0
0
LINE
8
0
6
CONTINUOUS
10
-0.015681
20
-0.012724
30
0.0
11
-0.017474
21
-0.013104
31
0.0
0
LINE
8
0
6
CONTINUOUS
10
-0.022430
20
-0.034099
30
0.0
11
-0.022303
21
-0.038848
31
0.0
0
LINE
8
0
6
CONTINUOUS
10
0.022430
20
-0.034099
30
0.0
11
0.022303
21
-0.029350
31
0.0
0
LINE
8
0
6
CONTINUOUS
10
-0.022303
20
-0.038848
30
0.0
11
-0.021857
21
-0.045742
31
0.0
0
LINE
8
0
6
CONTINUOUS
10
-0.020995
20
-0.051573
30
0.0
11
-0.020428
21
-0.052770
31
0.0
0
LINE
8
0
6
CONTINUOUS
10
0.000000
20
-0.011669
30
0.0
11
-0.004749
21
-0.011797
31
0.0
0
LINE
8
0
6
CONTINUOUS
10
0.018671
20
-0.054527
30
0.0
11
0.019666
21
-0.053765
31
0.0
0
LINE
8
0
6
CONTINUOUS
10
0.020995
20
-0.016625
30
0.0
11
0.020428
21
-0.015429
31
0.0
0
LINE
8
0
6
CONTINUOUS
10
0.017474
20
-0.055094
30
0.0
11
0.018671
21
-0.054527
31
0.0
0
LINE
8
0
6
CONTINUOUS
10
-0.017474
20
-0.013104
30
0.0
11
-0.018671
21
-0.013671
31
0.0
0
LINE
8
0
6
CONTINUOUS
10
0.015682
20
-0.055475
30
0.0
11
0.017474
21
-0.055094
31
0.0
0
LINE
8
0
6
CONTINUOUS
10
-0.021857
20
-0.045742
30
0.0
11
-0.021375
21
-0.049781
31
0.0
0
LINE
8
0
6
CONTINUOUS
10
-0.018671
20
-0.013671
30
0.0
11
-0.019666
21
-0.014433
31
0.0
0
LINE
8
0
6
CONTINUOUS
10
0.004851
20
-0.056395
30
0.0
11
0.011643
21
-0.055956
31
0.0
0
LINE
8
0
6
CONTINUOUS
10
0.020428
20
-0.015429
30
0.0
11
0.019666
21
-0.014433
31
0.0
0
LINE
8
0
6
CONTINUOUS
10
0.021375
20
-0.018418
30
0.0
11
0.020995
21
-0.016625
31
0.0
0
LINE
8
0
6
CONTINUOUS
10
0.011643
20
-0.055956
30
0.0
11
0.015682
21
-0.055475
31
0.0
0
LINE
8
0
6
CONTINUOUS
10
-0.004851
20
-0.059800
30
0.0
11
-0.004851
21
-0.060000
31
0.0
0
LINE
8
0
6
CONTINUOUS
10
0.004851
20
-0.059800
30
0.0
11
0.004851
21
-0.056110
31
0.0
0
LINE
8
0
6
CONTINUOUS
10
-0.014020
20
0.054023
30
0.0
11
-0.014564
21
0.053313
31
0.0
0
LINE
8
0
6
CONTINUOUS
10
0.014020
20
0.025982
30
0.0
11
0.014564
21
0.026691
31
0.0
0
LINE
8
0
6
CONTINUOUS
10
0.014564
20
0.026691
30
0.0
11
0.014968
21
0.027545
31
0.0
0
LINE
8
0
6
CONTINUOUS
10
-0.014020
20
0.025982
30
0.0
11
-0.013311
21
0.025439
31
0.0
0
LINE
8
0
6
CONTINUOUS
10
0.014968
20
0.052460
30
0.0
11
0.014564
21
0.053313
31
0.0
0
LINE
8
0
6
CONTINUOUS
10
-0.003386
20
0.055903
30
0.0
11
-0.008300
21
0.055585
31
0.0
0
LINE
8
0
6
CONTINUOUS
10
0.003386
20
0.055903
30
0.0
11
0.000000
21
0.055993
31
0.0
0
LINE
8
0
6
CONTINUOUS
10
0.015900
20
0.043388
30
0.0
11
0.015583
21
0.048303
31
0.0
0
LINE
8
0
6
CONTINUOUS
10
0.013311
20
0.025439
30
0.0
11
0.014020
21
0.025982
31
0.0
0
LINE
8
0
6
CONTINUOUS
10
0.011146
20
0.024828
30
0.0
11
0.008259
21
0.024495
31
0.0
0
LINE
8
0
6
CONTINUOUS
10
0.008300
20
0.024420
30
0.0
11
0.011180
21
0.024763
31
0.0
0
LINE
8
0
6
CONTINUOUS
10
-0.015582
20
0.048303
30
0.0
11
-0.015900
21
0.043388
31
0.0
0
LINE
8
0
6
CONTINUOUS
10
0.015175
20
0.051148
30
0.0
11
0.015507
21
0.048261
31
0.0
0
LINE
8
0
6
CONTINUOUS
10
0.015583
20
0.048303
30
0.0
11
0.015239
21
0.051182
31
0.0
0
LINE
8
0
6
CONTINUOUS
10
-0.012409
20
0.054915
30
0.0
11
-0.011145
21
0.055177
31
0.0
0
LINE
8
0
6
CONTINUOUS
10
-0.011180
20
0.055241
30
0.0
11
-0.012457
21
0.054970
31
0.0
0
LINE
8
0
6
CONTINUOUS
10
0.012458
20
0.054970
30
0.0
11
0.011180
21
0.055241
31
0.0
0
LINE
8
0
6
CONTINUOUS
10
0.011146
20
0.055177
30
0.0
11
0.012409
21
0.054915
31
0.0
0
LINE
8
0
6
CONTINUOUS
10
-0.015582
20
0.031702
30
0.0
11
-0.015239
21
0.028823
31
0.0
0
LINE
8
0
6
CONTINUOUS
10
-0.015175
20
0.028857
30
0.0
11
-0.015507
21
0.031744
31
0.0
0
LINE
8
0
6
CONTINUOUS
10
-0.014968
20
0.052460
30
0.0
11
-0.015239
21
0.051182
31
0.0
0
LINE
8
0
6
CONTINUOUS
10
-0.014913
20
0.027593
30
0.0
11
-0.015175
21
0.028857
31
0.0
0
LINE
8
0
6
CONTINUOUS
10
-0.015239
20
0.028823
30
0.0
11
-0.014968
21
0.027545
31
0.0
0
LINE
8
0
6
CONTINUOUS
10
0.013266
20
0.025484
30
0.0
11
0.012409
21
0.025089
31
0.0
0
LINE
8
0
6
CONTINUOUS
10
0.012458
20
0.025034
30
0.0
11
0.013311
21
0.025439
31
0.0
0
LINE
8
0
6
CONTINUOUS
10
0.012409
20
0.025089
30
0.0
11
0.011146
21
0.024828
31
0.0
0
LINE
8
0
6
CONTINUOUS
10
0.011180
20
0.024763
30
0.0
11
0.012458
21
0.025034
31
0.0
0
LINE
8
0
6
CONTINUOUS
10
0.003374
20
0.055833
30
0.0
11
0.000000
21
0.055932
31
0.0
0
LINE
8
0
6
CONTINUOUS
10
-0.012457
20
0.025034
30
0.0
11
-0.011180
21
0.024763
31
0.0
0
LINE
8
0
6
CONTINUOUS
10
-0.013266
20
0.054521
30
0.0
11
-0.012409
21
0.054915
31
0.0
0
LINE
8
0
6
CONTINUOUS
10
-0.012457
20
0.054970
30
0.0
11
-0.013311
21
0.054566
31
0.0
0
LINE
8
0
6
CONTINUOUS
10
-0.013969
20
0.053971
30
0.0
11
-0.013266
21
0.054521
31
0.0
0
LINE
8
0
6
CONTINUOUS
10
-0.013311
20
0.054566
30
0.0
11
-0.014020
21
0.054023
31
0.0
0
LINE
8
0
6
CONTINUOUS
10
-0.015404
20
0.052822
30
0.0
11
-0.015683
21
0.051507
31
0.0
0
LINE
8
0
6
CONTINUOUS
10
0.015929
20
0.040002
30
0.0
11
0.015831
21
0.036628
31
0.0
0
LINE
8
0
6
CONTINUOUS
10
0.015900
20
0.036617
30
0.0
11
0.015991
21
0.040002
31
0.0
0
LINE
8
0
6
CONTINUOUS
10
0.012409
20
0.054915
30
0.0
11
0.013266
21
0.054521
31
0.0
0
LINE
8
0
6
CONTINUOUS
10
0.013311
20
0.054566
30
0.0
11
0.012458
21
0.054970
31
0.0
0
LINE
8
0
6
CONTINUOUS
10
0.014519
20
0.026736
30
0.0
11
0.014913
21
0.027593
31
0.0
0
LINE
8
0
6
CONTINUOUS
10
-0.008300
20
0.024420
30
0.0
11
-0.003386
21
0.024102
31
0.0
0
LINE
8
0
6
CONTINUOUS
10
0.014564
20
0.053313
30
0.0
11
0.014020
21
0.054023
31
0.0
0
LINE
8
0
6
CONTINUOUS
10
0.014913
20
0.052412
30
0.0
11
0.014519
21
0.053268
31
0.0
0
LINE
8
0
6
CONTINUOUS
10
-0.014564
20
0.053313
30
0.0
11
-0.014968
21
0.052460
31
0.0
0
LINE
8
0
6
CONTINUOUS
10
0.015175
20
0.028857
30
0.0
11
0.014913
21
0.027593
31
0.0
0
LINE
8
0
6
CONTINUOUS
10
0.014968
20
0.027545
30
0.0
11
0.015239
21
0.028823
31
0.0
0
LINE
8
0
6
CONTINUOUS
10
-0.008300
20
0.055585
30
0.0
11
-0.011180
21
0.055241
31
0.0
0
LINE
8
0
6
CONTINUOUS
10
-0.011145
20
0.055177
30
0.0
11
-0.008258
21
0.055510
31
0.0
0
LINE
8
0
6
CONTINUOUS
10
-0.014519
20
0.053268
30
0.0
11
-0.014913
21
0.052412
31
0.0
0
LINE
8
0
6
CONTINUOUS
10
0.008259
20
0.055510
30
0.0
11
0.011146
21
0.055177
31
0.0
0
LINE
8
0
6
CONTINUOUS
10
0.011180
20
0.055241
30
0.0
11
0.008300
21
0.055585
31
0.0
0
LINE
8
0
6
CONTINUOUS
10
-0.014913
20
0.052412
30
0.0
11
-0.015175
21
0.051148
31
0.0
0
LINE
8
0
6
CONTINUOUS
10
0.013266
20
0.025484
30
0.0
11
0.013969
21
0.026034
31
0.0
0
LINE
8
0
6
CONTINUOUS
10
0.000000
20
0.024073
30
0.0
11
-0.003374
21
0.024171
31
0.0
0
LINE
8
0
6
CONTINUOUS
10
-0.003386
20
0.024102
30
0.0
11
0.000000
21
0.024011
31
0.0
0
LINE
8
0
6
CONTINUOUS
10
-0.013969
20
0.053971
30
0.0
11
-0.014519
21
0.053268
31
0.0
0
LINE
8
0
6
CONTINUOUS
10
0.015507
20
0.031744
30
0.0
11
0.015175
21
0.028857
31
0.0
0
LINE
8
0
6
CONTINUOUS
10
0.015239
20
0.028823
30
0.0
11
0.015583
21
0.031702
31
0.0
0
LINE
8
0
6
CONTINUOUS
10
-0.003374
20
0.055833
30
0.0
11
0.000000
21
0.055932
31
0.0
0
LINE
8
0
6
CONTINUOUS
10
0.000000
20
0.055993
30
0.0
11
-0.003386
21
0.055903
31
0.0
0
LINE
8
0
6
CONTINUOUS
10
0.013266
20
0.054521
30
0.0
11
0.013969
21
0.053971
31
0.0
0
LINE
8
0
6
CONTINUOUS
10
0.014020
20
0.054023
30
0.0
11
0.013311
21
0.054566
31
0.0
0
LINE
8
0
6
CONTINUOUS
10
-0.011180
20
0.024763
30
0.0
11
-0.008300
21
0.024420
31
0.0
0
LINE
8
0
6
CONTINUOUS
10
-0.008258
20
0.024495
30
0.0
11
-0.011145
21
0.024828
31
0.0
0
LINE
8
0
6
CONTINUOUS
10
-0.015507
20
0.048261
30
0.0
11
-0.015175
21
0.051148
31
0.0
0
LINE
8
0
6
CONTINUOUS
10
-0.015239
20
0.051182
30
0.0
11
-0.015582
21
0.048303
31
0.0
0
LINE
8
0
6
CONTINUOUS
10
-0.014968
20
0.027545
30
0.0
11
-0.014564
21
0.026691
31
0.0
0
LINE
8
0
6
CONTINUOUS
10
-0.014519
20
0.026736
30
0.0
11
-0.014913
21
0.027593
31
0.0
0
LINE
8
0
6
CONTINUOUS
10
0.014913
20
0.052412
30
0.0
11
0.015175
21
0.051148
31
0.0
0
LINE
8
0
6
CONTINUOUS
10
0.015239
20
0.051182
30
0.0
11
0.014968
21
0.052460
31
0.0
0
LINE
8
0
6
CONTINUOUS
10
0.008300
20
0.055585
30
0.0
11
0.003386
21
0.055903
31
0.0
0
LINE
8
0
6
CONTINUOUS
10
0.015583
20
0.031702
30
0.0
11
0.015900
21
0.036617
31
0.0
0
LINE
8
0
6
CONTINUOUS
10
0.015991
20
0.040002
30
0.0
11
0.015900
21
0.043388
31
0.0
0
LINE
8
0
6
CONTINUOUS
10
-0.013969
20
0.026034
30
0.0
11
-0.013266
21
0.025484
31
0.0
0
LINE
8
0
6
CONTINUOUS
10
-0.012409
20
0.025089
30
0.0
11
-0.011145
21
0.024828
31
0.0
0
LINE
8
0
6
CONTINUOUS
10
0.013969
20
0.026034
30
0.0
11
0.014519
21
0.026736
31
0.0
0
LINE
8
0
6
CONTINUOUS
10
-0.015831
20
0.036628
30
0.0
11
-0.015929
21
0.040002
31
0.0
0
LINE
8
0
6
CONTINUOUS
10
-0.015991
20
0.040002
30
0.0
11
-0.015900
21
0.036617
31
0.0
0
LINE
8
0
6
CONTINUOUS
10
-0.015900
20
0.036617
30
0.0
11
-0.015582
21
0.031702
31
0.0
0
LINE
8
0
6
CONTINUOUS
10
0.015929
20
0.040002
30
0.0
11
0.015831
21
0.043377
31
0.0
0
LINE
8
0
6
CONTINUOUS
10
-0.012409
20
0.025089
30
0.0
11
-0.013266
21
0.025484
31
0.0
0
LINE
8
0
6
CONTINUOUS
10
-0.013311
20
0.025439
30
0.0
11
-0.012457
21
0.025034
31
0.0
0
LINE
8
0
6
CONTINUOUS
10
-0.014564
20
0.026691
30
0.0
11
-0.014020
21
0.025982
31
0.0
0
LINE
8
0
6
CONTINUOUS
10
-0.013969
20
0.026034
30
0.0
11
-0.014519
21
0.026736
31
0.0
0
LINE
8
0
6
CONTINUOUS
10
0.014519
20
0.053268
30
0.0
11
0.013969
21
0.053971
31
0.0
0
LINE
8
0
6
CONTINUOUS
10
0.003386
20
0.024102
30
0.0
11
0.008300
21
0.024420
31
0.0
0
LINE
8
0
6
CONTINUOUS
10
-0.015900
20
0.043388
30
0.0
11
-0.015991
21
0.040002
31
0.0
0
LINE
8
0
6
CONTINUOUS
10
-0.015929
20
0.040002
30
0.0
11
-0.015831
21
0.043377
31
0.0
0
LINE
8
0
6
CONTINUOUS
10
0.000000
20
0.024011
30
0.0
11
0.003386
21
0.024102
31
0.0
0
LINE
8
0
6
CONTINUOUS
10
0.003374
20
0.024171
30
0.0
11
0.000000
21
0.024073
31
0.0
0
LINE
8
0
6
CONTINUOUS
10
0.008542
20
0.056038
30
0.0
11
0.003484
21
0.056365
31
0.0
0
LINE
8
0
6
CONTINUOUS
10
0.014428
20
0.025574
30
0.0
11
0.014988
21
0.026304
31
0.0
0
LINE
8
0
6
CONTINUOUS
10
0.015404
20
0.027182
30
0.0
11
0.015682
21
0.028497
31
0.0
0
LINE
8
0
6
CONTINUOUS
10
0.016363
20
0.036518
30
0.0
11
0.016456
21
0.040002
31
0.0
0
LINE
8
0
6
CONTINUOUS
10
-0.016036
20
0.048544
30
0.0
11
-0.016363
21
0.043487
31
0.0
0
LINE
8
0
6
CONTINUOUS
10
-0.014987
20
0.053700
30
0.0
11
-0.015404
21
0.052822
31
0.0
0
LINE
8
0
6
CONTINUOUS
10
-0.012820
20
0.024599
30
0.0
11
-0.011505
21
0.024320
31
0.0
0
LINE
8
0
6
CONTINUOUS
10
-0.013698
20
0.025015
30
0.0
11
-0.012820
21
0.024599
31
0.0
0
LINE
8
0
6
CONTINUOUS
10
0.003484
20
0.056365
30
0.0
11
0.000000
21
0.056458
31
0.0
0
LINE
8
0
6
CONTINUOUS
10
0.014988
20
0.026304
30
0.0
11
0.015404
21
0.027182
31
0.0
0
LINE
8
0
6
CONTINUOUS
10
0.015682
20
0.028497
30
0.0
11
0.016036
21
0.031461
31
0.0
0
LINE
8
0
6
CONTINUOUS
10
0.014428
20
0.054430
30
0.0
11
0.013698
21
0.054990
31
0.0
0
LINE
8
0
6
CONTINUOUS
10
0.013698
20
0.054990
30
0.0
11
0.012820
21
0.055406
31
0.0
0
LINE
8
0
6
CONTINUOUS
10
0.011505
20
0.055685
30
0.0
11
0.008542
21
0.056038
31
0.0
0
LINE
8
0
6
CONTINUOUS
10
0.012820
20
0.055406
30
0.0
11
0.011505
21
0.055685
31
0.0
0
LINE
8
0
6
CONTINUOUS
10
-0.003484
20
0.023639
30
0.0
11
0.000000
21
0.023546
31
0.0
0
LINE
8
0
6
CONTINUOUS
10
-0.008542
20
0.023967
30
0.0
11
-0.003484
21
0.023639
31
0.0
0
LINE
8
0
6
CONTINUOUS
10
-0.011505
20
0.024320
30
0.0
11
-0.008542
21
0.023967
31
0.0
0
LINE
8
0
6
CONTINUOUS
10
0.016036
20
0.031461
30
0.0
11
0.016363
21
0.036518
31
0.0
0
LINE
8
0
6
CONTINUOUS
10
-0.015683
20
0.051507
30
0.0
11
-0.016036
21
0.048544
31
0.0
0
LINE
8
0
6
CONTINUOUS
10
-0.014428
20
0.054430
30
0.0
11
-0.014987
21
0.053700
31
0.0
0
LINE
8
0
6
CONTINUOUS
10
-0.014428
20
0.025574
30
0.0
11
-0.013698
21
0.025015
31
0.0
0
LINE
8
0
6
CONTINUOUS
10
0.016363
20
0.043487
30
0.0
11
0.016036
21
0.048544
31
0.0
0
LINE
8
0
6
CONTINUOUS
10
-0.016363
20
0.043487
30
0.0
11
-0.016456
21
0.040002
31
0.0
0
LINE
8
0
6
CONTINUOUS
10
-0.014987
20
0.026304
30
0.0
11
-0.014428
21
0.025574
31
0.0
0
LINE
8
0
6
CONTINUOUS
10
-0.008542
20
0.056038
30
0.0
11
-0.011505
21
0.055685
31
0.0
0
LINE
8
0
6
CONTINUOUS
10
-0.003484
20
0.056365
30
0.0
11
-0.008542
21
0.056038
31
0.0
0
LINE
8
0
6
CONTINUOUS
10
-0.015683
20
0.028497
30
0.0
11
-0.015404
21
0.027182
31
0.0
0
LINE
8
0
6
CONTINUOUS
10
0.016036
20
0.048544
30
0.0
11
0.015682
21
0.051507
31
0.0
0
LINE
8
0
6
CONTINUOUS
10
-0.011505
20
0.055685
30
0.0
11
-0.012820
21
0.055406
31
0.0
0
LINE
8
0
6
CONTINUOUS
10
-0.016456
20
0.040002
30
0.0
11
-0.016363
21
0.036518
31
0.0
0
LINE
8
0
6
CONTINUOUS
10
0.016456
20
0.040002
30
0.0
11
0.016363
21
0.043487
31
0.0
0
LINE
8
0
6
CONTINUOUS
10
-0.016363
20
0.036518
30
0.0
11
-0.016036
21
0.031461
31
0.0
0
LINE
8
0
6
CONTINUOUS
10
-0.015404
20
0.027182
30
0.0
11
-0.014987
21
0.026304
31
0.0
0
LINE
8
0
6
CONTINUOUS
10
0.000000
20
0.056458
30
0.0
11
-0.003484
21
0.056365
31
0.0
0
LINE
8
0
6
CONTINUOUS
10
0.013698
20
0.025015
30
0.0
11
0.014428
21
0.025574
31
0.0
0
LINE
8
0
6
CONTINUOUS
10
0.015404
20
0.052822
30
0.0
11
0.014988
21
0.053700
31
0.0
0
LINE
8
0
6
CONTINUOUS
10
0.012820
20
0.024599
30
0.0
11
0.013698
21
0.025015
31
0.0
0
LINE
8
0
6
CONTINUOUS
10
-0.012820
20
0.055406
30
0.0
11
-0.013698
21
0.054990
31
0.0
0
LINE
8
0
6
CONTINUOUS
10
0.011505
20
0.024320
30
0.0
11
0.012820
21
0.024599
31
0.0
0
LINE
8
0
6
CONTINUOUS
10
-0.016036
20
0.031461
30
0.0
11
-0.015683
21
0.028497
31
0.0
0
LINE
8
0
6
CONTINUOUS
10
-0.013698
20
0.054990
30
0.0
11
-0.014428
21
0.054430
31
0.0
0
LINE
8
0
6
CONTINUOUS
10
0.003484
20
0.023639
30
0.0
11
0.008542
21
0.023967
31
0.0
0
LINE
8
0
6
CONTINUOUS
10
0.014988
20
0.053700
30
0.0
11
0.014428
21
0.054430
31
0.0
0
LINE
8
0
6
CONTINUOUS
10
0.000000
20
0.023546
30
0.0
11
0.003484
21
0.023639
31
0.0
0
LINE
8
0
6
CONTINUOUS
10
0.015682
20
0.051507
30
0.0
11
0.015404
21
0.052822
31
0.0
0
LINE
8
0
6
CONTINUOUS
10
0.008542
20
0.023967
30
0.0
11
0.011505
21
0.024320
31
0.0
0
LINE
8
0
6
CONTINUOUS
10
0.000000
20
-0.077500
30
0.0
11
0.008204
21
-0.077401
31
0.0
0
LINE
8
0
6
CONTINUOUS
10
0.040227
20
-0.076189
30
0.0
11
0.047903
21
-0.075240
31
0.0
0
LINE
8
0
6
CONTINUOUS
10
0.047903
20
-0.075240
30
0.0
11
0.052068
21
-0.074481
31
0.0
0
LINE
8
0
6
CONTINUOUS
10
0.076171
20
-0.040227
30
0.0
11
0.076873
21
-0.029102
31
0.0
0
LINE
8
0
6
CONTINUOUS
10
0.075247
20
-0.047903
30
0.0
11
0.076171
21
-0.040227
31
0.0
0
LINE
8
0
6
CONTINUOUS
10
0.075806
20
-0.040025
30
0.0
11
0.074923
21
-0.047743
31
0.0
0
LINE
8
0
6
CONTINUOUS
10
0.074454
20
-0.052060
30
0.0
11
0.075247
21
-0.047903
31
0.0
0
LINE
8
0
6
CONTINUOUS
10
0.073306
20
-0.056131
30
0.0
11
0.074454
21
-0.052060
31
0.0
0
LINE
8
0
6
CONTINUOUS
10
0.028962
20
-0.076555
30
0.0
11
0.016353
21
-0.076967
31
0.0
0
LINE
8
0
6
CONTINUOUS
10
0.016409
20
-0.077302
30
0.0
11
0.029102
21
-0.076863
31
0.0
0
LINE
8
0
6
CONTINUOUS
10
0.040025
20
-0.075824
30
0.0
11
0.028962
21
-0.076555
31
0.0
0
LINE
8
0
6
CONTINUOUS
10
0.029102
20
-0.076863
30
0.0
11
0.040227
21
-0.076189
31
0.0
0
LINE
8
0
6
CONTINUOUS
10
0.052068
20
-0.074481
30
0.0
11
0.056144
21
-0.073359
31
0.0
0
LINE
8
0
6
CONTINUOUS
10
0.059870
20
-0.071534
30
0.0
11
0.055946
21
-0.073062
31
0.0
0
LINE
8
0
6
CONTINUOUS
10
0.056144
20
-0.073359
30
0.0
11
0.060091
21
-0.071823
31
0.0
0
LINE
8
0
6
CONTINUOUS
10
0.063759
20
-0.069723
30
0.0
11
0.067038
21
-0.067050
31
0.0
0
LINE
8
0
6
CONTINUOUS
10
0.077200
20
0.000000
30
0.0
11
0.076935
21
-0.016353
31
0.0
0
LINE
8
0
6
CONTINUOUS
10
0.077270
20
-0.016409
30
0.0
11
0.077500
21
0.000000
31
0.0
0
LINE
8
0
6
CONTINUOUS
10
0.047743
20
-0.074916
30
0.0
11
0.051888
21
-0.074168
31
0.0
0
LINE
8
0
6
CONTINUOUS
10
0.051888
20
-0.074168
30
0.0
11
0.055946
21
-0.073062
31
0.0
0
LINE
8
0
6
CONTINUOUS
10
0.069697
20
-0.063759
30
0.0
11
0.071798
21
-0.060084
31
0.0
0
LINE
8
0
6
CONTINUOUS
10
0.063551
20
-0.069494
30
0.0
11
0.066776
21
-0.066794
31
0.0
0
LINE
8
0
6
CONTINUOUS
10
0.075806
20
-0.040025
30
0.0
11
0.076565
21
-0.028962
31
0.0
0
LINE
8
0
6
CONTINUOUS
10
0.074143
20
-0.051880
30
0.0
11
0.074923
21
-0.047743
31
0.0
0
LINE
8
0
6
CONTINUOUS
10
0.073009
20
-0.055933
30
0.0
11
0.074143
21
-0.051880
31
0.0
0
LINE
8
0
6
CONTINUOUS
10
0.076873
20
-0.029102
30
0.0
11
0.077270
21
-0.016409
31
0.0
0
LINE
8
0
6
CONTINUOUS
10
0.076935
20
-0.016353
30
0.0
11
0.076565
21
-0.028962
31
0.0
0
LINE
8
0
6
CONTINUOUS
10
0.071798
20
-0.060084
30
0.0
11
0.073306
21
-0.056131
31
0.0
0
LINE
8
0
6
CONTINUOUS
10
0.073009
20
-0.055933
30
0.0
11
0.071521
21
-0.059870
31
0.0
0
LINE
8
0
6
CONTINUOUS
10
0.069428
20
-0.063525
30
0.0
11
0.071521
21
-0.059870
31
0.0
0
LINE
8
0
6
CONTINUOUS
10
0.067038
20
-0.067050
30
0.0
11
0.069697
21
-0.063759
31
0.0
0
LINE
8
0
6
CONTINUOUS
10
0.069428
20
-0.063525
30
0.0
11
0.066776
21
-0.066794
31
0.0
0
LINE
8
0
6
CONTINUOUS
10
0.063551
20
-0.069494
30
0.0
11
0.059870
21
-0.071534
31
0.0
0
LINE
8
0
6
CONTINUOUS
10
0.060091
20
-0.071823
30
0.0
11
0.063759
21
-0.069723
31
0.0
0
LINE
8
0
6
CONTINUOUS
10
0.018396
20
0.021777
30
0.0
11
0.014454
21
0.018541
31
0.0
0
LINE
8
0
6
CONTINUOUS
10
0.006578
20
-0.067103
30
0.0
11
0.003289
21
-0.067427
31
0.0
0
LINE
8
0
6
CONTINUOUS
10
0.012903
20
-0.065184
30
0.0
11
0.006578
21
-0.067103
31
0.0
0
LINE
8
0
6
CONTINUOUS
10
0.018733
20
-0.062068
30
0.0
11
0.012903
21
-0.065184
31
0.0
0
LINE
8
0
6
CONTINUOUS
10
0.023842
20
-0.057875
30
0.0
11
0.018733
21
-0.062068
31
0.0
0
LINE
8
0
6
CONTINUOUS
10
0.028036
20
-0.052765
30
0.0
11
0.023842
21
-0.057875
31
0.0
0
LINE
8
0
6
CONTINUOUS
10
0.031152
20
-0.046936
30
0.0
11
0.028036
21
-0.052765
31
0.0
0
LINE
8
0
6
CONTINUOUS
10
0.033070
20
-0.040610
30
0.0
11
0.031152
21
-0.046936
31
0.0
0
LINE
8
0
6
CONTINUOUS
10
0.033718
20
-0.034032
30
0.0
11
0.033070
21
-0.040610
31
0.0
0
LINE
8
0
6
CONTINUOUS
10
-0.008204
20
-0.077401
30
0.0
11
0.000000
21
-0.077500
31
0.0
0
LINE
8
0
6
CONTINUOUS
10
-0.047903
20
-0.075240
30
0.0
11
-0.040227
21
-0.076189
31
0.0
0
LINE
8
0
6
CONTINUOUS
10
-0.052068
20
-0.074481
30
0.0
11
-0.047903
21
-0.075240
31
0.0
0
LINE
8
0
6
CONTINUOUS
10
-0.076873
20
-0.029102
30
0.0
11
-0.076171
21
-0.040227
31
0.0
0
LINE
8
0
6
CONTINUOUS
10
-0.074923
20
-0.047743
30
0.0
11
-0.075806
21
-0.040025
31
0.0
0
LINE
8
0
6
CONTINUOUS
10
-0.076171
20
-0.040227
30
0.0
11
-0.075247
21
-0.047903
31
0.0
0
LINE
8
0
6
CONTINUOUS
10
-0.075247
20
-0.047903
30
0.0
11
-0.074454
21
-0.052060
31
0.0
0
LINE
8
0
6
CONTINUOUS
10
-0.074454
20
-0.052060
30
0.0
11
-0.073306
21
-0.056131
31
0.0
0
LINE
8
0
6
CONTINUOUS
10
-0.029102
20
-0.076863
30
0.0
11
-0.016409
21
-0.077302
31
0.0
0
LINE
8
0
6
CONTINUOUS
10
-0.016353
20
-0.076967
30
0.0
11
-0.028962
21
-0.076555
31
0.0
0
LINE
8
0
6
CONTINUOUS
10
-0.040227
20
-0.076189
30
0.0
11
-0.029102
21
-0.076863
31
0.0
0
LINE
8
0
6
CONTINUOUS
10
-0.028962
20
-0.076555
30
0.0
11
-0.040025
21
-0.075824
31
0.0
0
LINE
8
0
6
CONTINUOUS
10
-0.056144
20
-0.073359
30
0.0
11
-0.052068
21
-0.074481
31
0.0
0
LINE
8
0
6
CONTINUOUS
10
-0.060091
20
-0.071823
30
0.0
11
-0.056144
21
-0.073359
31
0.0
0
LINE
8
0
6
CONTINUOUS
10
-0.055946
20
-0.073062
30
0.0
11
-0.059870
21
-0.071534
31
0.0
0
LINE
8
0
6
CONTINUOUS
10
-0.067038
20
-0.067050
30
0.0
11
-0.063759
21
-0.069723
31
0.0
0
LINE
8
0
6
CONTINUOUS
10
-0.077500
20
0.000000
30
0.0
11
-0.077270
21
-0.016409
31
0.0
0
LINE
8
0
6
CONTINUOUS
10
-0.076935
20
-0.016353
30
0.0
11
-0.077200
21
0.000000
31
0.0
0
LINE
8
0
6
CONTINUOUS
10
-0.051888
20
-0.074168
30
0.0
11
-0.047743
21
-0.074916
31
0.0
0
LINE
8
0
6
CONTINUOUS
10
-0.055946
20
-0.073062
30
0.0
11
-0.051888
21
-0.074168
31
0.0
0
LINE
8
0
6
CONTINUOUS
10
-0.071798
20
-0.060084
30
0.0
11
-0.069697
21
-0.063759
31
0.0
0
LINE
8
0
6
CONTINUOUS
10
-0.066776
20
-0.066794
30
0.0
11
-0.063551
21
-0.069494
31
0.0
0
LINE
8
0
6
CONTINUOUS
10
-0.076565
20
-0.028962
30
0.0
11
-0.075806
21
-0.040025
31
0.0
0
LINE
8
0
6
CONTINUOUS
10
-0.074923
20
-0.047743
30
0.0
11
-0.074143
21
-0.051880
31
0.0
0
LINE
8
0
6
CONTINUOUS
10
-0.074143
20
-0.051880
30
0.0
11
-0.073009
21
-0.055933
31
0.0
0
LINE
8
0
6
CONTINUOUS
10
-0.076565
20
-0.028962
30
0.0
11
-0.076935
21
-0.016353
31
0.0
0
LINE
8
0
6
CONTINUOUS
10
-0.077270
20
-0.016409
30
0.0
11
-0.076873
21
-0.029102
31
0.0
0
LINE
8
0
6
CONTINUOUS
10
-0.071521
20
-0.059870
30
0.0
11
-0.073009
21
-0.055933
31
0.0
0
LINE
8
0
6
CONTINUOUS
10
-0.073306
20
-0.056131
30
0.0
11
-0.071798
21
-0.060084
31
0.0
0
LINE
8
0
6
CONTINUOUS
10
-0.071521
20
-0.059870
30
0.0
11
-0.069428
21
-0.063525
31
0.0
0
LINE
8
0
6
CONTINUOUS
10
-0.066776
20
-0.066794
30
0.0
11
-0.069428
21
-0.063525
31
0.0
0
LINE
8
0
6
CONTINUOUS
10
-0.069697
20
-0.063759
30
0.0
11
-0.067038
21
-0.067050
31
0.0
0
LINE
8
0
6
CONTINUOUS
10
-0.063759
20
-0.069723
30
0.0
11
-0.060091
21
-0.071823
31
0.0
0
LINE
8
0
6
CONTINUOUS
10
-0.059870
20
-0.071534
30
0.0
11
-0.063551
21
-0.069494
31
0.0
0
LINE
8
0
6
CONTINUOUS
10
-0.003289
20
-0.067427
30
0.0
11
-0.006578
21
-0.067103
31
0.0
0
LINE
8
0
6
CONTINUOUS
10
-0.006578
20
-0.067103
30
0.0
11
-0.012903
21
-0.065184
31
0.0
0
LINE
8
0
6
CONTINUOUS
10
-0.012903
20
-0.065184
30
0.0
11
-0.018733
21
-0.062068
31
0.0
0
LINE
8
0
6
CONTINUOUS
10
-0.018733
20
-0.062068
30
0.0
11
-0.023842
21
-0.057875
31
0.0
0
LINE
8
0
6
CONTINUOUS
10
-0.023842
20
-0.057875
30
0.0
11
-0.028036
21
-0.052765
31
0.0
0
LINE
8
0
6
CONTINUOUS
10
-0.028036
20
-0.052765
30
0.0
11
-0.031152
21
-0.046936
31
0.0
0
LINE
8
0
6
CONTINUOUS
10
-0.031152
20
-0.046936
30
0.0
11
-0.033070
21
-0.040610
31
0.0
0
LINE
8
0
6
CONTINUOUS
10
-0.033070
20
-0.040610
30
0.0
11
-0.033718
21
-0.034032
31
0.0
0
LINE
8
0
6
CONTINUOUS
10
0.008204
20
0.077401
30
0.0
11
0.000000
21
0.077500
31
0.0
0
LINE
8
0
6
CONTINUOUS
10
0.047903
20
0.075240
30
0.0
11
0.040227
21
0.076189
31
0.0
0
LINE
8
0
6
CONTINUOUS
10
0.052068
20
0.074481
30
0.0
11
0.047903
21
0.075240
31
0.0
0
LINE
8
0
6
CONTINUOUS
10
0.076873
20
0.029102
30
0.0
11
0.076171
21
0.040227
31
0.0
0
LINE
8
0
6
CONTINUOUS
10
0.074923
20
0.047743
30
0.0
11
0.075806
21
0.040025
31
0.0
0
LINE
8
0
6
CONTINUOUS
10
0.076171
20
0.040227
30
0.0
11
0.075247
21
0.047903
31
0.0
0
LINE
8
0
6
CONTINUOUS
10
0.075247
20
0.047903
30
0.0
11
0.074454
21
0.052060
31
0.0
0
LINE
8
0
6
CONTINUOUS
10
0.074454
20
0.052060
30
0.0
11
0.073306
21
0.056131
31
0.0
0
LINE
8
0
6
CONTINUOUS
10
0.029102
20
0.076863
30
0.0
11
0.016409
21
0.077302
31
0.0
0
LINE
8
0
6
CONTINUOUS
10
0.016353
20
0.076967
30
0.0
11
0.028962
21
0.076555
31
0.0
0
LINE
8
0
6
CONTINUOUS
10
0.040227
20
0.076189
30
0.0
11
0.029102
21
0.076863
31
0.0
0
LINE
8
0
6
CONTINUOUS
10
0.028962
20
0.076555
30
0.0
11
0.040025
21
0.075824
31
0.0
0
LINE
8
0
6
CONTINUOUS
10
0.056144
20
0.073359
30
0.0
11
0.052068
21
0.074481
31
0.0
0
LINE
8
0
6
CONTINUOUS
10
0.060091
20
0.071823
30
0.0
11
0.056144
21
0.073359
31
0.0
0
LINE
8
0
6
CONTINUOUS
10
0.055946
20
0.073062
30
0.0
11
0.059870
21
0.071534
31
0.0
0
LINE
8
0
6
CONTINUOUS
10
0.067038
20
0.067050
30
0.0
11
0.063759
21
0.069723
31
0.0
0
LINE
8
0
6
CONTINUOUS
10
0.077500
20
0.000000
30
0.0
11
0.077270
21
0.016409
31
0.0
0
LINE
8
0
6
CONTINUOUS
10
0.076935
20
0.016353
30
0.0
11
0.077200
21
0.000000
31
0.0
0
LINE
8
0
6
CONTINUOUS
10
0.051888
20
0.074168
30
0.0
11
0.047743
21
0.074916
31
0.0
0
LINE
8
0
6
CONTINUOUS
10
0.055946
20
0.073062
30
0.0
11
0.051888
21
0.074168
31
0.0
0
LINE
8
0
6
CONTINUOUS
10
0.071798
20
0.060084
30
0.0
11
0.069697
21
0.063759
31
0.0
0
LINE
8
0
6
CONTINUOUS
10
0.066776
20
0.066794
30
0.0
11
0.063551
21
0.069494
31
0.0
0
LINE
8
0
6
CONTINUOUS
10
0.076565
20
0.028962
30
0.0
11
0.075806
21
0.040025
31
0.0
0
LINE
8
0
6
CONTINUOUS
10
0.074923
20
0.047743
30
0.0
11
0.074143
21
0.051880
31
0.0
0
LINE
8
0
6
CONTINUOUS
10
0.074143
20
0.051880
30
0.0
11
0.073009
21
0.055933
31
0.0
0
LINE
8
0
6
CONTINUOUS
10
0.076565
20
0.028962
30
0.0
11
0.076935
21
0.016353
31
0.0
0
LINE
8
0
6
CONTINUOUS
10
0.077270
20
0.016409
30
0.0
11
0.076873
21
0.029102
31
0.0
0
LINE
8
0
6
CONTINUOUS
10
0.071521
20
0.059870
30
0.0
11
0.073009
21
0.055933
31
0.0
0
LINE
8
0
6
CONTINUOUS
10
0.073306
20
0.056131
30
0.0
11
0.071798
21
0.060084
31
0.0
0
LINE
8
0
6
CONTINUOUS
10
0.071521
20
0.059870
30
0.0
11
0.069428
21
0.063525
31
0.0
0
LINE
8
0
6
CONTINUOUS
10
0.066776
20
0.066794
30
0.0
11
0.069428
21
0.063525
31
0.0
0
LINE
8
0
6
CONTINUOUS
10
0.069697
20
0.063759
30
0.0
11
0.067038
21
0.067050
31
0.0
0
LINE
8
0
6
CONTINUOUS
10
0.026016
20
0.040172
30
0.0
11
0.025516
21
0.035097
31
0.0
0
LINE
8
0
6
CONTINUOUS
10
0.063759
20
0.069723
30
0.0
11
0.060091
21
0.071823
31
0.0
0
LINE
8
0
6
CONTINUOUS
10
0.059870
20
0.071534
30
0.0
11
0.063551
21
0.069494
31
0.0
0
LINE
8
0
6
CONTINUOUS
10
0.005075
20
0.014657
30
0.0
11
0.000000
21
0.014157
31
0.0
0
LINE
8
0
6
CONTINUOUS
10
0.009956
20
0.016137
30
0.0
11
0.005075
21
0.014657
31
0.0
0
LINE
8
0
6
CONTINUOUS
10
0.014454
20
0.018541
30
0.0
11
0.009956
21
0.016137
31
0.0
0
LINE
8
0
6
CONTINUOUS
10
0.025516
20
0.035097
30
0.0
11
0.024035
21
0.030217
31
0.0
0
LINE
8
0
6
CONTINUOUS
10
0.024035
20
0.030217
30
0.0
11
0.021631
21
0.025719
31
0.0
0
LINE
8
0
6
CONTINUOUS
10
0.000000
20
-0.000314
30
0.0
11
0.006578
21
-0.000962
31
0.0
0
LINE
8
0
6
CONTINUOUS
10
0.006578
20
-0.000962
30
0.0
11
0.012903
21
-0.002881
31
0.0
0
LINE
8
0
6
CONTINUOUS
10
0.012903
20
-0.002881
30
0.0
11
0.018733
21
-0.005997
31
0.0
0
LINE
8
0
6
CONTINUOUS
10
0.018733
20
-0.005997
30
0.0
11
0.023842
21
-0.010190
31
0.0
0
LINE
8
0
6
CONTINUOUS
10
0.023842
20
-0.010190
30
0.0
11
0.028036
21
-0.015299
31
0.0
0
LINE
8
0
6
CONTINUOUS
10
0.028036
20
-0.015299
30
0.0
11
0.031152
21
-0.021129
31
0.0
0
LINE
8
0
6
CONTINUOUS
10
0.031152
20
-0.021129
30
0.0
11
0.033070
21
-0.027454
31
0.0
0
LINE
8
0
6
CONTINUOUS
10
0.033070
20
-0.027454
30
0.0
11
0.033718
21
-0.034032
31
0.0
0
LINE
8
0
6
CONTINUOUS
10
0.000000
20
0.077500
30
0.0
11
-0.008204
21
0.077401
31
0.0
0
LINE
8
0
6
CONTINUOUS
10
-0.040227
20
0.076189
30
0.0
11
-0.047903
21
0.075240
31
0.0
0
LINE
8
0
6
CONTINUOUS
10
-0.047903
20
0.075240
30
0.0
11
-0.052068
21
0.074481
31
0.0
0
LINE
8
0
6
CONTINUOUS
10
-0.076171
20
0.040227
30
0.0
11
-0.076873
21
0.029102
31
0.0
0
LINE
8
0
6
CONTINUOUS
10
-0.075247
20
0.047903
30
0.0
11
-0.076171
21
0.040227
31
0.0
0
LINE
8
0
6
CONTINUOUS
10
-0.075806
20
0.040025
30
0.0
11
-0.074923
21
0.047743
31
0.0
0
LINE
8
0
6
CONTINUOUS
10
-0.074454
20
0.052060
30
0.0
11
-0.075247
21
0.047903
31
0.0
0
LINE
8
0
6
CONTINUOUS
10
-0.073306
20
0.056131
30
0.0
11
-0.074454
21
0.052060
31
0.0
0
LINE
8
0
6
CONTINUOUS
10
-0.028962
20
0.076555
30
0.0
11
-0.016353
21
0.076967
31
0.0
0
LINE
8
0
6
CONTINUOUS
10
-0.016409
20
0.077302
30
0.0
11
-0.029102
21
0.076863
31
0.0
0
LINE
8
0
6
CONTINUOUS
10
-0.040025
20
0.075824
30
0.0
11
-0.028962
21
0.076555
31
0.0
0
LINE
8
0
6
CONTINUOUS
10
-0.029102
20
0.076863
30
0.0
11
-0.040227
21
0.076189
31
0.0
0
LINE
8
0
6
CONTINUOUS
10
-0.052068
20
0.074481
30
0.0
11
-0.056144
21
0.073359
31
0.0
0
LINE
8
0
6
CONTINUOUS
10
-0.059870
20
0.071534
30
0.0
11
-0.055946
21
0.073062
31
0.0
0
LINE
8
0
6
CONTINUOUS
10
-0.056144
20
0.073359
30
0.0
11
-0.060091
21
0.071823
31
0.0
0
LINE
8
0
6
CONTINUOUS
10
-0.063759
20
0.069723
30
0.0
11
-0.067038
21
0.067050
31
0.0
0
LINE
8
0
6
CONTINUOUS
10
-0.077200
20
0.000000
30
0.0
11
-0.076935
21
0.016353
31
0.0
0
LINE
8
0
6
CONTINUOUS
10
-0.077270
20
0.016409
30
0.0
11
-0.077500
21
0.000000
31
0.0
0
LINE
8
0
6
CONTINUOUS
10
-0.047743
20
0.074916
30
0.0
11
-0.051888
21
0.074168
31
0.0
0
LINE
8
0
6
CONTINUOUS
10
-0.051888
20
0.074168
30
0.0
11
-0.055946
21
0.073062
31
0.0
0
LINE
8
0
6
CONTINUOUS
10
-0.069697
20
0.063759
30
0.0
11
-0.071798
21
0.060084
31
0.0
0
LINE
8
0
6
CONTINUOUS
10
-0.063551
20
0.069494
30
0.0
11
-0.066776
21
0.066794
31
0.0
0
LINE
8
0
6
CONTINUOUS
10
-0.075806
20
0.040025
30
0.0
11
-0.076565
21
0.028962
31
0.0
0
LINE
8
0
6
CONTINUOUS
10
-0.074143
20
0.051880
30
0.0
11
-0.074923
21
0.047743
31
0.0
0
LINE
8
0
6
CONTINUOUS
10
-0.073009
20
0.055933
30
0.0
11
-0.074143
21
0.051880
31
0.0
0
LINE
8
0
6
CONTINUOUS
10
-0.076873
20
0.029102
30
0.0
11
-0.077270
21
0.016409
31
0.0
0
LINE
8
0
6
CONTINUOUS
10
-0.076935
20
0.016353
30
0.0
11
-0.076565
21
0.028962
31
0.0
0
LINE
8
0
6
CONTINUOUS
10
-0.071798
20
0.060084
30
0.0
11
-0.073306
21
0.056131
31
0.0
0
LINE
8
0
6
CONTINUOUS
10
-0.073009
20
0.055933
30
0.0
11
-0.071521
21
0.059870
31
0.0
0
LINE
8
0
6
CONTINUOUS
10
-0.069428
20
0.063525
30
0.0
11
-0.071521
21
0.059870
31
0.0
0
LINE
8
0
6
CONTINUOUS
10
-0.067038
20
0.067050
30
0.0
11
-0.069697
21
0.063759
31
0.0
0
LINE
8
0
6
CONTINUOUS
10
-0.069428
20
0.063525
30
0.0
11
-0.066776
21
0.066794
31
0.0
0
LINE
8
0
6
CONTINUOUS
10
-0.063551
20
0.069494
30
0.0
11
-0.059870
21
0.071534
31
0.0
0
LINE
8
0
6
CONTINUOUS
10
-0.060091
20
0.071823
30
0.0
11
-0.063759
21
0.069723
31
0.0
0
LINE
8
0
6
CONTINUOUS
10
-0.006578
20
-0.000962
30
0.0
11
0.000000
21
-0.000314
31
0.0
0
LINE
8
0
6
CONTINUOUS
10
-0.012903
20
-0.002881
30
0.0
11
-0.006578
21
-0.000962
31
0.0
0
LINE
8
0
6
CONTINUOUS
10
-0.018733
20
-0.005997
30
0.0
11
-0.012903
21
-0.002881
31
0.0
0
LINE
8
0
6
CONTINUOUS
10
-0.023842
20
-0.010190
30
0.0
11
-0.018733
21
-0.005997
31
0.0
0
LINE
8
0
6
CONTINUOUS
10
-0.028036
20
-0.015299
30
0.0
11
-0.023842
21
-0.010190
31
0.0
0
LINE
8
0
6
CONTINUOUS
10
-0.031152
20
-0.021129
30
0.0
11
-0.028036
21
-0.015299
31
0.0
0
LINE
8
0
6
CONTINUOUS
10
-0.033070
20
-0.027454
30
0.0
11
-0.031152
21
-0.021129
31
0.0
0
LINE
8
0
6
CONTINUOUS
10
-0.033718
20
-0.034032
30
0.0
11
-0.033070
21
-0.027454
31
0.0
0
LINE
8
0
6
CONTINUOUS
10
0.000000
20
-0.000766
30
0.0
11
-0.006490
21
-0.001405
31
0.0
0
LINE
8
0
6
CONTINUOUS
10
-0.006490
20
-0.001405
30
0.0
11
-0.012730
21
-0.003298
31
0.0
0
LINE
8
0
6
CONTINUOUS
10
-0.012730
20
-0.003298
30
0.0
11
-0.018482
21
-0.006373
31
0.0
0
LINE
8
0
6
CONTINUOUS
10
-0.018482
20
-0.006373
30
0.0
11
-0.023523
21
-0.010510
31
0.0
0
LINE
8
0
6
CONTINUOUS
10
-0.023523
20
-0.010510
30
0.0
11
-0.027660
21
-0.015551
31
0.0
0
LINE
8
0
6
CONTINUOUS
10
-0.027660
20
-0.015551
30
0.0
11
-0.030734
21
-0.021302
31
0.0
0
LINE
8
0
6
CONTINUOUS
10
-0.030734
20
-0.021302
30
0.0
11
-0.032627
21
-0.027542
31
0.0
0
LINE
8
0
6
CONTINUOUS
10
-0.032627
20
-0.027542
30
0.0
11
-0.033266
21
-0.034032
31
0.0
0
LINE
8
0
6
CONTINUOUS
10
0.006490
20
-0.001405
30
0.0
11
0.000000
21
-0.000766
31
0.0
0
LINE
8
0
6
CONTINUOUS
10
0.012730
20
-0.003298
30
0.0
11
0.006490
21
-0.001405
31
0.0
0
LINE
8
0
6
CONTINUOUS
10
0.018482
20
-0.006373
30
0.0
11
0.012730
21
-0.003298
31
0.0
0
LINE
8
0
6
CONTINUOUS
10
0.023523
20
-0.010510
30
0.0
11
0.018482
21
-0.006373
31
0.0
0
LINE
8
0
6
CONTINUOUS
10
0.027660
20
-0.015551
30
0.0
11
0.023523
21
-0.010510
31
0.0
0
LINE
8
0
6
CONTINUOUS
10
0.030734
20
-0.021302
30
0.0
11
0.027660
21
-0.015551
31
0.0
0
LINE
8
0
6
CONTINUOUS
10
0.032627
20
-0.027542
30
0.0
11
0.030734
21
-0.021302
31
0.0
0
LINE
8
0
6
CONTINUOUS
10
0.033266
20
-0.034032
30
0.0
11
0.032627
21
-0.027542
31
0.0
0
LINE
8
0
6
CONTINUOUS
10
-0.006490
20
-0.066659
30
0.0
11
0.000000
21
-0.067298
31
0.0
0
LINE
8
0
6
CONTINUOUS
10
-0.012730
20
-0.064766
30
0.0
11
-0.006490
21
-0.066659
31
0.0
0
LINE
8
0
6
CONTINUOUS
10
-0.018482
20
-0.061692
30
0.0
11
-0.012730
21
-0.064766
31
0.0
0
LINE
8
0
6
CONTINUOUS
10
-0.023523
20
-0.057555
30
0.0
11
-0.018482
21
-0.061692
31
0.0
0
LINE
8
0
6
CONTINUOUS
10
-0.027660
20
-0.052514
30
0.0
11
-0.023523
21
-0.057555
31
0.0
0
LINE
8
0
6
CONTINUOUS
10
-0.030734
20
-0.046763
30
0.0
11
-0.027660
21
-0.052514
31
0.0
0
LINE
8
0
6
CONTINUOUS
10
-0.032627
20
-0.040522
30
0.0
11
-0.030734
21
-0.046763
31
0.0
0
LINE
8
0
6
CONTINUOUS
10
-0.033266
20
-0.034032
30
0.0
11
-0.032627
21
-0.040522
31
0.0
0
LINE
8
0
6
CONTINUOUS
10
0.000000
20
-0.067298
30
0.0
11
0.006490
21
-0.066659
31
0.0
0
LINE
8
0
6
CONTINUOUS
10
0.006490
20
-0.066659
30
0.0
11
0.012730
21
-0.064766
31
0.0
0
LINE
8
0
6
CONTINUOUS
10
0.012730
20
-0.064766
30
0.0
11
0.018482
21
-0.061692
31
0.0
0
LINE
8
0
6
CONTINUOUS
10
0.018482
20
-0.061692
30
0.0
11
0.023523
21
-0.057555
31
0.0
0
LINE
8
0
6
CONTINUOUS
10
0.023523
20
-0.057555
30
0.0
11
0.027660
21
-0.052514
31
0.0
0
LINE
8
0
6
CONTINUOUS
10
0.027660
20
-0.052514
30
0.0
11
0.030734
21
-0.046763
31
0.0
0
LINE
8
0
6
CONTINUOUS
10
0.030734
20
-0.046763
30
0.0
11
0.032627
21
-0.040522
31
0.0
0
LINE
8
0
6
CONTINUOUS
10
0.032627
20
-0.040522
30
0.0
11
0.033266
21
-0.034032
31
0.0
0
LINE
8
0
6
CONTINUOUS
10
0.021631
20
0.025719
30
0.0
11
0.018396
21
0.021777
31
0.0
0
LINE
8
0
6
CONTINUOUS
10
0.000000
20
0.014157
30
0.0
11
-0.005075
21
0.014657
31
0.0
0
LINE
8
0
6
CONTINUOUS
10
-0.005075
20
0.014657
30
0.0
11
-0.009956
21
0.016137
31
0.0
0
LINE
8
0
6
CONTINUOUS
10
-0.009956
20
0.016137
30
0.0
11
-0.014454
21
0.018541
31
0.0
0
LINE
8
0
6
CONTINUOUS
10
-0.014454
20
0.018541
30
0.0
11
-0.018396
21
0.021777
31
0.0
0
LINE
8
0
6
CONTINUOUS
10
-0.018396
20
0.021777
30
0.0
11
-0.021631
21
0.025719
31
0.0
0
LINE
8
0
6
CONTINUOUS
10
-0.021631
20
0.025719
30
0.0
11
-0.024035
21
0.030217
31
0.0
0
LINE
8
0
6
CONTINUOUS
10
-0.024035
20
0.030217
30
0.0
11
-0.025516
21
0.035097
31
0.0
0
LINE
8
0
6
CONTINUOUS
10
-0.025516
20
0.035097
30
0.0
11
-0.026016
21
0.040172
31
0.0
0
LINE
8
0
6
CONTINUOUS
10
0.000000
20
0.066188
30
0.0
11
0.005075
21
0.065688
31
0.0
0
LINE
8
0
6
CONTINUOUS
10
0.005075
20
0.065688
30
0.0
11
0.009956
21
0.064208
31
0.0
0
LINE
8
0
6
CONTINUOUS
10
0.009956
20
0.064208
30
0.0
11
0.014454
21
0.061804
31
0.0
0
LINE
8
0
6
CONTINUOUS
10
0.014454
20
0.061804
30
0.0
11
0.018396
21
0.058568
31
0.0
0
LINE
8
0
6
CONTINUOUS
10
0.018396
20
0.058568
30
0.0
11
0.021631
21
0.054626
31
0.0
0
LINE
8
0
6
CONTINUOUS
10
0.021631
20
0.054626
30
0.0
11
0.024035
21
0.050128
31
0.0
0
LINE
8
0
6
CONTINUOUS
10
0.024035
20
0.050128
30
0.0
11
0.025516
21
0.045248
31
0.0
0
LINE
8
0
6
CONTINUOUS
10
0.025516
20
0.045248
30
0.0
11
0.026016
21
0.040172
31
0.0
0
LINE
8
0
6
CONTINUOUS
10
-0.005075
20
0.065688
30
0.0
11
0.000000
21
0.066188
31
0.0
0
LINE
8
0
6
CONTINUOUS
10
-0.009956
20
0.064208
30
0.0
11
-0.005075
21
0.065688
31
0.0
0
LINE
8
0
6
CONTINUOUS
10
-0.014454
20
0.061804
30
0.0
11
-0.009956
21
0.064208
31
0.0
0
LINE
8
0
6
CONTINUOUS
10
-0.018396
20
0.058568
30
0.0
11
-0.014454
21
0.061804
31
0.0
0
LINE
8
0
6
CONTINUOUS
10
-0.021631
20
0.054626
30
0.0
11
-0.018396
21
0.058568
31
0.0
0
LINE
8
0
6
CONTINUOUS
10
-0.024035
20
0.050128
30
0.0
11
-0.021631
21
0.054626
31
0.0
0
LINE
8
0
6
CONTINUOUS
10
-0.025516
20
0.045248
30
0.0
11
-0.024035
21
0.050128
31
0.0
0
LINE
8
0
6
CONTINUOUS
10
-0.026016
20
0.040172
30
0.0
11
-0.025516
21
0.045248
31
0.0
0
LINE
8
0
6
CONTINUOUS
10
0.000000
20
0.065839
30
0.0
11
-0.005007
21
0.065346
31
0.0
0
LINE
8
0
6
CONTINUOUS
10
-0.005007
20
0.065346
30
0.0
11
-0.009822
21
0.063886
31
0.0
0
LINE
8
0
6
CONTINUOUS
10
-0.009822
20
0.063886
30
0.0
11
-0.014260
21
0.061514
31
0.0
0
LINE
8
0
6
CONTINUOUS
10
-0.014260
20
0.061514
30
0.0
11
-0.018149
21
0.058322
31
0.0
0
LINE
8
0
6
CONTINUOUS
10
-0.018149
20
0.058322
30
0.0
11
-0.021341
21
0.054432
31
0.0
0
LINE
8
0
6
CONTINUOUS
10
-0.021341
20
0.054432
30
0.0
11
-0.023713
21
0.049995
31
0.0
0
LINE
8
0
6
CONTINUOUS
10
-0.023713
20
0.049995
30
0.0
11
-0.025174
21
0.045180
31
0.0
0
LINE
8
0
6
CONTINUOUS
10
-0.025174
20
0.045180
30
0.0
11
-0.025667
21
0.040172
31
0.0
0
LINE
8
0
6
CONTINUOUS
10
0.005007
20
0.065346
30
0.0
11
0.000000
21
0.065839
31
0.0
0
LINE
8
0
6
CONTINUOUS
10
0.009822
20
0.063886
30
0.0
11
0.005007
21
0.065346
31
0.0
0
LINE
8
0
6
CONTINUOUS
10
0.014260
20
0.061514
30
0.0
11
0.009822
21
0.063886
31
0.0
0
LINE
8
0
6
CONTINUOUS
10
0.018149
20
0.058322
30
0.0
11
0.014260
21
0.061514
31
0.0
0
LINE
8
0
6
CONTINUOUS
10
0.021341
20
0.054432
30
0.0
11
0.018149
21
0.058322
31
0.0
0
LINE
8
0
6
CONTINUOUS
10
0.023713
20
0.049995
30
0.0
11
0.021341
21
0.054432
31
0.0
0
LINE
8
0
6
CONTINUOUS
10
0.025174
20
0.045180
30
0.0
11
0.023713
21
0.049995
31
0.0
0
LINE
8
0
6
CONTINUOUS
10
0.025667
20
0.040172
30
0.0
11
0.025174
21
0.045180
31
0.0
0
LINE
8
0
6
CONTINUOUS
10
-0.005007
20
0.014999
30
0.0
11
0.000000
21
0.014506
31
0.0
0
LINE
8
0
6
CONTINUOUS
10
-0.009822
20
0.016459
30
0.0
11
-0.005007
21
0.014999
31
0.0
0
LINE
8
0
6
CONTINUOUS
10
-0.014260
20
0.018831
30
0.0
11
-0.009822
21
0.016459
31
0.0
0
LINE
8
0
6
CONTINUOUS
10
-0.018149
20
0.022023
30
0.0
11
-0.014260
21
0.018831
31
0.0
0
LINE
8
0
6
CONTINUOUS
10
-0.021341
20
0.025913
30
0.0
11
-0.018149
21
0.022023
31
0.0
0
LINE
8
0
6
CONTINUOUS
10
-0.023713
20
0.030350
30
0.0
11
-0.021341
21
0.025913
31
0.0
0
LINE
8
0
6
CONTINUOUS
10
-0.025174
20
0.035165
30
0.0
11
-0.023713
21
0.030350
31
0.0
0
LINE
8
0
6
CONTINUOUS
10
-0.025667
20
0.040172
30
0.0
11
-0.025174
21
0.035165
31
0.0
0
LINE
8
0
6
CONTINUOUS
10
0.000000
20
0.014506
30
0.0
11
0.005007
21
0.014999
31
0.0
0
LINE
8
0
6
CONTINUOUS
10
0.005007
20
0.014999
30
0.0
11
0.009822
21
0.016459
31
0.0
0
LINE
8
0
6
CONTINUOUS
10
0.009822
20
0.016459
30
0.0
11
0.014260
21
0.018831
31
0.0
0
LINE
8
0
6
CONTINUOUS
10
0.014260
20
0.018831
30
0.0
11
0.018149
21
0.022023
31
0.0
0
LINE
8
0
6
CONTINUOUS
10
0.018149
20
0.022023
30
0.0
11
0.021341
21
0.025913
31
0.0
0
LINE
8
0
6
CONTINUOUS
10
0.021341
20
0.025913
30
0.0
11
0.023713
21
0.030350
31
0.0
0
LINE
8
0
6
CONTINUOUS
10
0.023713
20
0.030350
30
0.0
11
0.025174
21
0.035165
31
0.0
0
LINE
8
0
6
CONTINUOUS
10
0.025174
20
0.035165
30
0.0
11
0.025667
21
0.040172
31
0.0
0
LINE
8
0
6
CONTINUOUS
10
0.008204
20
-0.077401
30
0.0
11
0.016409
21
-0.077302
31
0.0
0
LINE
8
0
6
CONTINUOUS
10
0.016353
20
-0.076967
30
0.0
11
0.008176
21
-0.077083
31
0.0
0
LINE
8
0
6
CONTINUOUS
10
-0.008176
20
-0.077083
30
0.0
11
-0.016353
21
-0.076967
31
0.0
0
LINE
8
0
6
CONTINUOUS
10
-0.016409
20
-0.077302
30
0.0
11
-0.008204
21
-0.077401
31
0.0
0
LINE
8
0
6
CONTINUOUS
10
-0.008176
20
-0.077083
30
0.0
11
0.000000
21
-0.077200
31
0.0
0
LINE
8
0
6
CONTINUOUS
10
0.000000
20
-0.067750
30
0.0
11
-0.003289
21
-0.067427
31
0.0
0
LINE
8
0
6
CONTINUOUS
10
-0.008204
20
0.077401
30
0.0
11
-0.016409
21
0.077302
31
0.0
0
LINE
8
0
6
CONTINUOUS
10
-0.016353
20
0.076967
30
0.0
11
-0.008176
21
0.077083
31
0.0
0
LINE
8
0
6
CONTINUOUS
10
0.000000
20
0.077200
30
0.0
11
-0.008176
21
0.077083
31
0.0
0
LINE
8
0
6
CONTINUOUS
10
0.000000
20
-0.077200
30
0.0
11
0.008176
21
-0.077083
31
0.0
0
LINE
8
0
6
CONTINUOUS
10
0.003289
20
-0.067427
30
0.0
11
0.000000
21
-0.067750
31
0.0
0
LINE
8
0
6
CONTINUOUS
10
0.008176
20
0.077083
30
0.0
11
0.016353
21
0.076967
31
0.0
0
LINE
8
0
6
CONTINUOUS
10
0.016409
20
0.077302
30
0.0
11
0.008204
21
0.077401
31
0.0
0
LINE
8
0
6
CONTINUOUS
10
0.008176
20
0.077083
30
0.0
11
0.000000
21
0.077200
31
0.0
0
ENDSEC
0
EOF
