999
unknown String-ID: 20550
0
SECTION
2
HEADER
9
$ACADVER
1
AC1009
9
$DWGCODEPAGE
3
unknown String-ID: 20561
0
ENDSEC
0
SECTION
2
TABLES
0
TABLE
2
LAYER
70
1
0
LAYER
2
0
70
0
62
7
6
CONTINUOUS
0
ENDTAB
0
ENDSEC
0
SECTION
2
ENTITIES
0
LINE
8
0
6
CONTINUOUS
10
0.004682
20
-0.032912
30
0.0
11
0.004797
21
-0.032552
31
0.0
0
LINE
8
0
6
CONTINUOUS
10
0.004048
20
-0.032912
30
0.0
11
0.004682
21
-0.032912
31
0.0
0
LINE
8
0
6
CONTINUOUS
10
-0.004797
20
-0.027444
30
0.0
11
-0.004797
21
-0.032354
31
0.0
0
LINE
8
0
6
CONTINUOUS
10
0.004797
20
-0.032552
30
0.0
11
0.004797
21
-0.032354
31
0.0
0
LINE
8
0
6
CONTINUOUS
10
-0.002322
20
-0.032912
30
0.0
11
0.000000
21
-0.032912
31
0.0
0
LINE
8
0
6
CONTINUOUS
10
-0.004048
20
-0.032912
30
0.0
11
-0.002322
21
-0.032912
31
0.0
0
LINE
8
0
6
CONTINUOUS
10
-0.004797
20
-0.032552
30
0.0
11
-0.004682
21
-0.032912
31
0.0
0
LINE
8
0
6
CONTINUOUS
10
-0.004682
20
-0.032912
30
0.0
11
-0.004048
21
-0.032912
31
0.0
0
LINE
8
0
6
CONTINUOUS
10
0.000000
20
-0.032912
30
0.0
11
0.002322
21
-0.032912
31
0.0
0
LINE
8
0
6
CONTINUOUS
10
0.002322
20
-0.032912
30
0.0
11
0.004048
21
-0.032912
31
0.0
0
LINE
8
0
6
CONTINUOUS
10
-0.023491
20
0.023491
30
0.0
11
-0.024401
21
0.022303
31
0.0
0
LINE
8
0
6
CONTINUOUS
10
0.023491
20
-0.023491
30
0.0
11
0.024402
21
-0.022303
31
0.0
0
LINE
8
0
6
CONTINUOUS
10
0.024402
20
-0.022303
30
0.0
11
0.025079
21
-0.020873
31
0.0
0
LINE
8
0
6
CONTINUOUS
10
-0.023491
20
-0.023491
30
0.0
11
-0.022303
21
-0.024401
31
0.0
0
LINE
8
0
6
CONTINUOUS
10
0.025079
20
0.020873
30
0.0
11
0.024402
21
0.022303
31
0.0
0
LINE
8
0
6
CONTINUOUS
10
-0.005672
20
0.026641
30
0.0
11
-0.013907
21
0.026109
31
0.0
0
LINE
8
0
6
CONTINUOUS
10
0.005673
20
0.026641
30
0.0
11
0.000000
21
0.026793
31
0.0
0
LINE
8
0
6
CONTINUOUS
10
0.026641
20
0.005673
30
0.0
11
0.026109
21
0.013907
31
0.0
0
LINE
8
0
6
CONTINUOUS
10
0.022303
20
-0.024401
30
0.0
11
0.023491
21
-0.023491
31
0.0
0
LINE
8
0
6
CONTINUOUS
10
0.018675
20
-0.025425
30
0.0
11
0.013837
21
-0.025982
31
0.0
0
LINE
8
0
6
CONTINUOUS
10
0.013907
20
-0.026108
30
0.0
11
0.018732
21
-0.025533
31
0.0
0
LINE
8
0
6
CONTINUOUS
10
-0.026108
20
0.013907
30
0.0
11
-0.026641
21
0.005673
31
0.0
0
LINE
8
0
6
CONTINUOUS
10
0.025425
20
0.018675
30
0.0
11
0.025982
21
0.013837
31
0.0
0
LINE
8
0
6
CONTINUOUS
10
0.026109
20
0.013907
30
0.0
11
0.025533
21
0.018732
31
0.0
0
LINE
8
0
6
CONTINUOUS
10
-0.020791
20
0.024987
30
0.0
11
-0.018674
21
0.025425
31
0.0
0
LINE
8
0
6
CONTINUOUS
10
-0.018732
20
0.025533
30
0.0
11
-0.020873
21
0.025079
31
0.0
0
LINE
8
0
6
CONTINUOUS
10
0.020873
20
0.025079
30
0.0
11
0.018732
21
0.025533
31
0.0
0
LINE
8
0
6
CONTINUOUS
10
0.018675
20
0.025425
30
0.0
11
0.020792
21
0.024987
31
0.0
0
LINE
8
0
6
CONTINUOUS
10
-0.026108
20
-0.013907
30
0.0
11
-0.025533
21
-0.018732
31
0.0
0
LINE
8
0
6
CONTINUOUS
10
-0.025425
20
-0.018674
30
0.0
11
-0.025982
21
-0.013837
31
0.0
0
LINE
8
0
6
CONTINUOUS
10
-0.025079
20
0.020873
30
0.0
11
-0.025533
21
0.018732
31
0.0
0
LINE
8
0
6
CONTINUOUS
10
-0.024986
20
-0.020792
30
0.0
11
-0.025425
21
-0.018674
31
0.0
0
LINE
8
0
6
CONTINUOUS
10
-0.025533
20
-0.018732
30
0.0
11
-0.025079
21
-0.020873
31
0.0
0
LINE
8
0
6
CONTINUOUS
10
0.022227
20
-0.024326
30
0.0
11
0.020792
21
-0.024986
31
0.0
0
LINE
8
0
6
CONTINUOUS
10
0.020873
20
-0.025079
30
0.0
11
0.022303
21
-0.024401
31
0.0
0
LINE
8
0
6
CONTINUOUS
10
0.020792
20
-0.024986
30
0.0
11
0.018675
21
-0.025425
31
0.0
0
LINE
8
0
6
CONTINUOUS
10
0.018732
20
-0.025533
30
0.0
11
0.020873
21
-0.025079
31
0.0
0
LINE
8
0
6
CONTINUOUS
10
0.005654
20
0.026525
30
0.0
11
0.000000
21
0.026690
31
0.0
0
LINE
8
0
6
CONTINUOUS
10
-0.020873
20
-0.025079
30
0.0
11
-0.018732
21
-0.025533
31
0.0
0
LINE
8
0
6
CONTINUOUS
10
-0.022227
20
0.024326
30
0.0
11
-0.020791
21
0.024987
31
0.0
0
LINE
8
0
6
CONTINUOUS
10
-0.020873
20
0.025079
30
0.0
11
-0.022303
21
0.024402
31
0.0
0
LINE
8
0
6
CONTINUOUS
10
-0.023405
20
0.023405
30
0.0
11
-0.022227
21
0.024326
31
0.0
0
LINE
8
0
6
CONTINUOUS
10
-0.022303
20
0.024402
30
0.0
11
-0.023491
21
0.023491
31
0.0
0
LINE
8
0
6
CONTINUOUS
10
-0.025809
20
0.021480
30
0.0
11
-0.026276
21
0.019277
31
0.0
0
LINE
8
0
6
CONTINUOUS
10
0.026690
20
0.000000
30
0.0
11
0.026525
21
-0.005653
31
0.0
0
LINE
8
0
6
CONTINUOUS
10
0.026641
20
-0.005672
30
0.0
11
0.026793
21
0.000000
31
0.0
0
LINE
8
0
6
CONTINUOUS
10
0.020792
20
0.024987
30
0.0
11
0.022227
21
0.024326
31
0.0
0
LINE
8
0
6
CONTINUOUS
10
0.022303
20
0.024402
30
0.0
11
0.020873
21
0.025079
31
0.0
0
LINE
8
0
6
CONTINUOUS
10
0.024326
20
-0.022227
30
0.0
11
0.024987
21
-0.020792
31
0.0
0
LINE
8
0
6
CONTINUOUS
10
-0.005653
20
-0.026525
30
0.0
11
-0.013837
21
-0.025982
31
0.0
0
LINE
8
0
6
CONTINUOUS
10
-0.013907
20
-0.026108
30
0.0
11
-0.005672
21
-0.026641
31
0.0
0
LINE
8
0
6
CONTINUOUS
10
0.024402
20
0.022303
30
0.0
11
0.023491
21
0.023491
31
0.0
0
LINE
8
0
6
CONTINUOUS
10
0.024987
20
0.020792
30
0.0
11
0.024326
21
0.022227
31
0.0
0
LINE
8
0
6
CONTINUOUS
10
-0.025982
20
0.013837
30
0.0
11
-0.026525
21
0.005654
31
0.0
0
LINE
8
0
6
CONTINUOUS
10
-0.024401
20
0.022303
30
0.0
11
-0.025079
21
0.020873
31
0.0
0
LINE
8
0
6
CONTINUOUS
10
0.025425
20
-0.018674
30
0.0
11
0.024987
21
-0.020792
31
0.0
0
LINE
8
0
6
CONTINUOUS
10
0.025079
20
-0.020873
30
0.0
11
0.025533
21
-0.018732
31
0.0
0
LINE
8
0
6
CONTINUOUS
10
-0.013907
20
0.026109
30
0.0
11
-0.018732
21
0.025533
31
0.0
0
LINE
8
0
6
CONTINUOUS
10
-0.018674
20
0.025425
30
0.0
11
-0.013837
21
0.025982
31
0.0
0
LINE
8
0
6
CONTINUOUS
10
-0.024326
20
0.022227
30
0.0
11
-0.024986
21
0.020792
31
0.0
0
LINE
8
0
6
CONTINUOUS
10
0.013837
20
0.025982
30
0.0
11
0.018675
21
0.025425
31
0.0
0
LINE
8
0
6
CONTINUOUS
10
0.018732
20
0.025533
30
0.0
11
0.013907
21
0.026109
31
0.0
0
LINE
8
0
6
CONTINUOUS
10
-0.024986
20
0.020792
30
0.0
11
-0.025425
21
0.018675
31
0.0
0
LINE
8
0
6
CONTINUOUS
10
0.022227
20
-0.024326
30
0.0
11
0.023405
21
-0.023405
31
0.0
0
LINE
8
0
6
CONTINUOUS
10
0.000000
20
-0.026689
30
0.0
11
-0.005653
21
-0.026525
31
0.0
0
LINE
8
0
6
CONTINUOUS
10
-0.005672
20
-0.026641
30
0.0
11
0.000000
21
-0.026793
31
0.0
0
LINE
8
0
6
CONTINUOUS
10
-0.023405
20
0.023405
30
0.0
11
-0.024326
21
0.022227
31
0.0
0
LINE
8
0
6
CONTINUOUS
10
0.025982
20
-0.013837
30
0.0
11
0.025425
21
-0.018674
31
0.0
0
LINE
8
0
6
CONTINUOUS
10
0.025533
20
-0.018732
30
0.0
11
0.026109
21
-0.013907
31
0.0
0
LINE
8
0
6
CONTINUOUS
10
-0.005653
20
0.026525
30
0.0
11
0.000000
21
0.026690
31
0.0
0
LINE
8
0
6
CONTINUOUS
10
0.000000
20
0.026793
30
0.0
11
-0.005672
21
0.026641
31
0.0
0
LINE
8
0
6
CONTINUOUS
10
0.022227
20
0.024326
30
0.0
11
0.023405
21
0.023405
31
0.0
0
LINE
8
0
6
CONTINUOUS
10
0.023491
20
0.023491
30
0.0
11
0.022303
21
0.024402
31
0.0
0
LINE
8
0
6
CONTINUOUS
10
-0.018732
20
-0.025533
30
0.0
11
-0.013907
21
-0.026108
31
0.0
0
LINE
8
0
6
CONTINUOUS
10
-0.013837
20
-0.025982
30
0.0
11
-0.018674
21
-0.025425
31
0.0
0
LINE
8
0
6
CONTINUOUS
10
-0.025982
20
0.013837
30
0.0
11
-0.025425
21
0.018675
31
0.0
0
LINE
8
0
6
CONTINUOUS
10
-0.025533
20
0.018732
30
0.0
11
-0.026108
21
0.013907
31
0.0
0
LINE
8
0
6
CONTINUOUS
10
-0.025079
20
-0.020873
30
0.0
11
-0.024401
21
-0.022303
31
0.0
0
LINE
8
0
6
CONTINUOUS
10
-0.024326
20
-0.022227
30
0.0
11
-0.024986
21
-0.020792
31
0.0
0
LINE
8
0
6
CONTINUOUS
10
0.024987
20
0.020792
30
0.0
11
0.025425
21
0.018675
31
0.0
0
LINE
8
0
6
CONTINUOUS
10
0.025533
20
0.018732
30
0.0
11
0.025079
21
0.020873
31
0.0
0
LINE
8
0
6
CONTINUOUS
10
0.005654
20
0.026525
30
0.0
11
0.013837
21
0.025982
31
0.0
0
LINE
8
0
6
CONTINUOUS
10
0.013907
20
0.026109
30
0.0
11
0.005673
21
0.026641
31
0.0
0
LINE
8
0
6
CONTINUOUS
10
0.026109
20
-0.013907
30
0.0
11
0.026641
21
-0.005672
31
0.0
0
LINE
8
0
6
CONTINUOUS
10
0.026793
20
0.000000
30
0.0
11
0.026641
21
0.005673
31
0.0
0
LINE
8
0
6
CONTINUOUS
10
-0.023405
20
-0.023405
30
0.0
11
-0.022227
21
-0.024326
31
0.0
0
LINE
8
0
6
CONTINUOUS
10
-0.020791
20
-0.024986
30
0.0
11
-0.018674
21
-0.025425
31
0.0
0
LINE
8
0
6
CONTINUOUS
10
0.023405
20
-0.023405
30
0.0
11
0.024326
21
-0.022227
31
0.0
0
LINE
8
0
6
CONTINUOUS
10
0.025982
20
-0.013837
30
0.0
11
0.026525
21
-0.005653
31
0.0
0
LINE
8
0
6
CONTINUOUS
10
-0.026525
20
-0.005653
30
0.0
11
-0.026689
21
0.000000
31
0.0
0
LINE
8
0
6
CONTINUOUS
10
-0.026793
20
0.000000
30
0.0
11
-0.026641
21
-0.005672
31
0.0
0
LINE
8
0
6
CONTINUOUS
10
0.026525
20
0.005654
30
0.0
11
0.025982
21
0.013837
31
0.0
0
LINE
8
0
6
CONTINUOUS
10
-0.026641
20
-0.005672
30
0.0
11
-0.026108
21
-0.013907
31
0.0
0
LINE
8
0
6
CONTINUOUS
10
-0.025982
20
-0.013837
30
0.0
11
-0.026525
21
-0.005653
31
0.0
0
LINE
8
0
6
CONTINUOUS
10
0.026690
20
0.000000
30
0.0
11
0.026525
21
0.005654
31
0.0
0
LINE
8
0
6
CONTINUOUS
10
-0.020791
20
-0.024986
30
0.0
11
-0.022227
21
-0.024326
31
0.0
0
LINE
8
0
6
CONTINUOUS
10
-0.022303
20
-0.024401
30
0.0
11
-0.020873
21
-0.025079
31
0.0
0
LINE
8
0
6
CONTINUOUS
10
-0.024401
20
-0.022303
30
0.0
11
-0.023491
21
-0.023491
31
0.0
0
LINE
8
0
6
CONTINUOUS
10
-0.023405
20
-0.023405
30
0.0
11
-0.024326
21
-0.022227
31
0.0
0
LINE
8
0
6
CONTINUOUS
10
-0.005653
20
0.026525
30
0.0
11
-0.013837
21
0.025982
31
0.0
0
LINE
8
0
6
CONTINUOUS
10
0.024326
20
0.022227
30
0.0
11
0.023405
21
0.023405
31
0.0
0
LINE
8
0
6
CONTINUOUS
10
0.013837
20
-0.025982
30
0.0
11
0.005654
21
-0.026525
31
0.0
0
LINE
8
0
6
CONTINUOUS
10
0.005673
20
-0.026641
30
0.0
11
0.013907
21
-0.026108
31
0.0
0
LINE
8
0
6
CONTINUOUS
10
-0.026641
20
0.005673
30
0.0
11
-0.026793
21
0.000000
31
0.0
0
LINE
8
0
6
CONTINUOUS
10
-0.026689
20
0.000000
30
0.0
11
-0.026525
21
0.005654
31
0.0
0
LINE
8
0
6
CONTINUOUS
10
0.000000
20
-0.026793
30
0.0
11
0.005673
21
-0.026641
31
0.0
0
LINE
8
0
6
CONTINUOUS
10
0.005654
20
-0.026525
30
0.0
11
0.000000
21
-0.026689
31
0.0
0
LINE
8
0
6
CONTINUOUS
10
0.014312
20
0.026869
30
0.0
11
0.005838
21
0.027416
31
0.0
0
LINE
8
0
6
CONTINUOUS
10
0.024175
20
-0.024174
30
0.0
11
0.025112
21
-0.022951
31
0.0
0
LINE
8
0
6
CONTINUOUS
10
0.025809
20
-0.021480
30
0.0
11
0.026276
21
-0.019277
31
0.0
0
LINE
8
0
6
CONTINUOUS
10
0.027416
20
-0.005838
30
0.0
11
0.027572
21
0.000000
31
0.0
0
LINE
8
0
6
CONTINUOUS
10
-0.026868
20
0.014312
30
0.0
11
-0.027416
21
0.005838
31
0.0
0
LINE
8
0
6
CONTINUOUS
10
-0.025111
20
0.022951
30
0.0
11
-0.025809
21
0.021480
31
0.0
0
LINE
8
0
6
CONTINUOUS
10
-0.021480
20
-0.025809
30
0.0
11
-0.019276
21
-0.026276
31
0.0
0
LINE
8
0
6
CONTINUOUS
10
-0.024401
20
-0.022303
30
0.0
11
-0.025079
21
-0.020873
31
0.0
0
LINE
8
0
6
CONTINUOUS
10
-0.022951
20
-0.025111
30
0.0
11
-0.021480
21
-0.025809
31
0.0
0
LINE
8
0
6
CONTINUOUS
10
0.005838
20
0.027416
30
0.0
11
0.000000
21
0.027572
31
0.0
0
LINE
8
0
6
CONTINUOUS
10
0.025112
20
-0.022951
30
0.0
11
0.025809
21
-0.021480
31
0.0
0
LINE
8
0
6
CONTINUOUS
10
0.026276
20
-0.019277
30
0.0
11
0.026869
21
-0.014311
31
0.0
0
LINE
8
0
6
CONTINUOUS
10
0.024175
20
0.024174
30
0.0
11
0.022951
21
0.025112
31
0.0
0
LINE
8
0
6
CONTINUOUS
10
0.022951
20
0.025112
30
0.0
11
0.021480
21
0.025809
31
0.0
0
LINE
8
0
6
CONTINUOUS
10
0.019277
20
0.026276
30
0.0
11
0.014312
21
0.026869
31
0.0
0
LINE
8
0
6
CONTINUOUS
10
0.021480
20
0.025809
30
0.0
11
0.019277
21
0.026276
31
0.0
0
LINE
8
0
6
CONTINUOUS
10
-0.005837
20
-0.027416
30
0.0
11
-0.004797
21
-0.027444
31
0.0
0
LINE
8
0
6
CONTINUOUS
10
-0.014311
20
-0.026868
30
0.0
11
-0.005837
21
-0.027416
31
0.0
0
LINE
8
0
6
CONTINUOUS
10
-0.019276
20
-0.026276
30
0.0
11
-0.014311
21
-0.026868
31
0.0
0
LINE
8
0
6
CONTINUOUS
10
0.026869
20
-0.014311
30
0.0
11
0.027416
21
-0.005838
31
0.0
0
LINE
8
0
6
CONTINUOUS
10
-0.026276
20
0.019277
30
0.0
11
-0.026868
21
0.014312
31
0.0
0
LINE
8
0
6
CONTINUOUS
10
-0.024174
20
0.024174
30
0.0
11
-0.025111
21
0.022951
31
0.0
0
LINE
8
0
6
CONTINUOUS
10
-0.024174
20
-0.024174
30
0.0
11
-0.022951
21
-0.025111
31
0.0
0
LINE
8
0
6
CONTINUOUS
10
0.027416
20
0.005838
30
0.0
11
0.026869
21
0.014312
31
0.0
0
LINE
8
0
6
CONTINUOUS
10
-0.027416
20
0.005838
30
0.0
11
-0.027572
21
0.000000
31
0.0
0
LINE
8
0
6
CONTINUOUS
10
-0.025111
20
-0.022951
30
0.0
11
-0.024174
21
-0.024174
31
0.0
0
LINE
8
0
6
CONTINUOUS
10
-0.014311
20
0.026869
30
0.0
11
-0.019276
21
0.026276
31
0.0
0
LINE
8
0
6
CONTINUOUS
10
-0.005837
20
0.027416
30
0.0
11
-0.014311
21
0.026869
31
0.0
0
LINE
8
0
6
CONTINUOUS
10
-0.026276
20
-0.019277
30
0.0
11
-0.025809
21
-0.021480
31
0.0
0
LINE
8
0
6
CONTINUOUS
10
0.026869
20
0.014312
30
0.0
11
0.026276
21
0.019277
31
0.0
0
LINE
8
0
6
CONTINUOUS
10
-0.019276
20
0.026276
30
0.0
11
-0.021480
21
0.025809
31
0.0
0
LINE
8
0
6
CONTINUOUS
10
-0.027572
20
0.000000
30
0.0
11
-0.027416
21
-0.005838
31
0.0
0
LINE
8
0
6
CONTINUOUS
10
0.027572
20
0.000000
30
0.0
11
0.027416
21
0.005838
31
0.0
0
LINE
8
0
6
CONTINUOUS
10
-0.027416
20
-0.005838
30
0.0
11
-0.026868
21
-0.014311
31
0.0
0
LINE
8
0
6
CONTINUOUS
10
-0.025809
20
-0.021480
30
0.0
11
-0.025111
21
-0.022951
31
0.0
0
LINE
8
0
6
CONTINUOUS
10
0.000000
20
0.027572
30
0.0
11
-0.005837
21
0.027416
31
0.0
0
LINE
8
0
6
CONTINUOUS
10
0.022951
20
-0.025111
30
0.0
11
0.024175
21
-0.024174
31
0.0
0
LINE
8
0
6
CONTINUOUS
10
0.025809
20
0.021480
30
0.0
11
0.025112
21
0.022951
31
0.0
0
LINE
8
0
6
CONTINUOUS
10
0.021480
20
-0.025809
30
0.0
11
0.022951
21
-0.025111
31
0.0
0
LINE
8
0
6
CONTINUOUS
10
-0.021480
20
0.025809
30
0.0
11
-0.022951
21
0.025112
31
0.0
0
LINE
8
0
6
CONTINUOUS
10
0.019277
20
-0.026276
30
0.0
11
0.021480
21
-0.025809
31
0.0
0
LINE
8
0
6
CONTINUOUS
10
-0.026868
20
-0.014311
30
0.0
11
-0.026276
21
-0.019277
31
0.0
0
LINE
8
0
6
CONTINUOUS
10
-0.022951
20
0.025112
30
0.0
11
-0.024174
21
0.024174
31
0.0
0
LINE
8
0
6
CONTINUOUS
10
-0.004797
20
-0.026664
30
0.0
11
-0.005672
21
-0.026641
31
0.0
0
LINE
8
0
6
CONTINUOUS
10
0.005838
20
-0.027416
30
0.0
11
0.014312
21
-0.026868
31
0.0
0
LINE
8
0
6
CONTINUOUS
10
0.025112
20
0.022951
30
0.0
11
0.024175
21
0.024174
31
0.0
0
LINE
8
0
6
CONTINUOUS
10
0.004797
20
-0.027444
30
0.0
11
0.005838
21
-0.027416
31
0.0
0
LINE
8
0
6
CONTINUOUS
10
0.026276
20
0.019277
30
0.0
11
0.025809
21
0.021480
31
0.0
0
LINE
8
0
6
CONTINUOUS
10
0.014312
20
-0.026868
30
0.0
11
0.019277
21
-0.026276
31
0.0
0
LINE
8
0
6
CONTINUOUS
10
-0.004797
20
-0.032354
30
0.0
11
-0.004797
21
-0.032552
31
0.0
0
LINE
8
0
6
CONTINUOUS
10
0.004797
20
-0.032354
30
0.0
11
0.004797
21
-0.027444
31
0.0
0
LINE
8
0
6
CONTINUOUS
10
0.000000
20
-0.077500
30
0.0
11
0.016409
21
-0.077302
31
0.0
0
LINE
8
0
6
CONTINUOUS
10
0.040227
20
-0.076189
30
0.0
11
0.047903
21
-0.075240
31
0.0
0
LINE
8
0
6
CONTINUOUS
10
0.047903
20
-0.075240
30
0.0
11
0.052068
21
-0.074481
31
0.0
0
LINE
8
0
6
CONTINUOUS
10
0.076171
20
-0.040227
30
0.0
11
0.076873
21
-0.029102
31
0.0
0
LINE
8
0
6
CONTINUOUS
10
0.075247
20
-0.047903
30
0.0
11
0.076171
21
-0.040227
31
0.0
0
LINE
8
0
6
CONTINUOUS
10
0.075806
20
-0.040025
30
0.0
11
0.074923
21
-0.047743
31
0.0
0
LINE
8
0
6
CONTINUOUS
10
0.074454
20
-0.052060
30
0.0
11
0.075247
21
-0.047903
31
0.0
0
LINE
8
0
6
CONTINUOUS
10
0.073306
20
-0.056131
30
0.0
11
0.074454
21
-0.052060
31
0.0
0
LINE
8
0
6
CONTINUOUS
10
0.000000
20
-0.077200
30
0.0
11
0.016353
21
-0.076967
31
0.0
0
LINE
8
0
6
CONTINUOUS
10
0.028962
20
-0.076555
30
0.0
11
0.016353
21
-0.076967
31
0.0
0
LINE
8
0
6
CONTINUOUS
10
0.016409
20
-0.077302
30
0.0
11
0.029102
21
-0.076863
31
0.0
0
LINE
8
0
6
CONTINUOUS
10
0.040025
20
-0.075824
30
0.0
11
0.028962
21
-0.076555
31
0.0
0
LINE
8
0
6
CONTINUOUS
10
0.029102
20
-0.076863
30
0.0
11
0.040227
21
-0.076189
31
0.0
0
LINE
8
0
6
CONTINUOUS
10
0.052068
20
-0.074481
30
0.0
11
0.056144
21
-0.073359
31
0.0
0
LINE
8
0
6
CONTINUOUS
10
0.059870
20
-0.071534
30
0.0
11
0.055946
21
-0.073062
31
0.0
0
LINE
8
0
6
CONTINUOUS
10
0.056144
20
-0.073359
30
0.0
11
0.060091
21
-0.071823
31
0.0
0
LINE
8
0
6
CONTINUOUS
10
0.063759
20
-0.069723
30
0.0
11
0.067038
21
-0.067050
31
0.0
0
LINE
8
0
6
CONTINUOUS
10
0.077200
20
0.000000
30
0.0
11
0.076935
21
-0.016353
31
0.0
0
LINE
8
0
6
CONTINUOUS
10
0.077270
20
-0.016409
30
0.0
11
0.077500
21
0.000000
31
0.0
0
LINE
8
0
6
CONTINUOUS
10
0.047743
20
-0.074916
30
0.0
11
0.051888
21
-0.074168
31
0.0
0
LINE
8
0
6
CONTINUOUS
10
0.051888
20
-0.074168
30
0.0
11
0.055946
21
-0.073062
31
0.0
0
LINE
8
0
6
CONTINUOUS
10
0.069697
20
-0.063759
30
0.0
11
0.071798
21
-0.060084
31
0.0
0
LINE
8
0
6
CONTINUOUS
10
0.063551
20
-0.069494
30
0.0
11
0.066776
21
-0.066794
31
0.0
0
LINE
8
0
6
CONTINUOUS
10
0.075806
20
-0.040025
30
0.0
11
0.076565
21
-0.028962
31
0.0
0
LINE
8
0
6
CONTINUOUS
10
0.074143
20
-0.051880
30
0.0
11
0.074923
21
-0.047743
31
0.0
0
LINE
8
0
6
CONTINUOUS
10
0.073009
20
-0.055933
30
0.0
11
0.074143
21
-0.051880
31
0.0
0
LINE
8
0
6
CONTINUOUS
10
0.076873
20
-0.029102
30
0.0
11
0.077270
21
-0.016409
31
0.0
0
LINE
8
0
6
CONTINUOUS
10
0.076935
20
-0.016353
30
0.0
11
0.076565
21
-0.028962
31
0.0
0
LINE
8
0
6
CONTINUOUS
10
0.071798
20
-0.060084
30
0.0
11
0.073306
21
-0.056131
31
0.0
0
LINE
8
0
6
CONTINUOUS
10
0.073009
20
-0.055933
30
0.0
11
0.071521
21
-0.059870
31
0.0
0
LINE
8
0
6
CONTINUOUS
10
0.069428
20
-0.063525
30
0.0
11
0.071521
21
-0.059870
31
0.0
0
LINE
8
0
6
CONTINUOUS
10
0.067038
20
-0.067050
30
0.0
11
0.069697
21
-0.063759
31
0.0
0
LINE
8
0
6
CONTINUOUS
10
0.069428
20
-0.063525
30
0.0
11
0.066776
21
-0.066794
31
0.0
0
LINE
8
0
6
CONTINUOUS
10
0.063551
20
-0.069494
30
0.0
11
0.059870
21
-0.071534
31
0.0
0
LINE
8
0
6
CONTINUOUS
10
0.060091
20
-0.071823
30
0.0
11
0.063759
21
-0.069723
31
0.0
0
LINE
8
0
6
CONTINUOUS
10
0.006968
20
-0.035028
30
0.0
11
0.000000
21
-0.035714
31
0.0
0
LINE
8
0
6
CONTINUOUS
10
0.013667
20
-0.032996
30
0.0
11
0.006968
21
-0.035028
31
0.0
0
LINE
8
0
6
CONTINUOUS
10
0.019842
20
-0.029695
30
0.0
11
0.013667
21
-0.032996
31
0.0
0
LINE
8
0
6
CONTINUOUS
10
0.025254
20
-0.025254
30
0.0
11
0.019842
21
-0.029695
31
0.0
0
LINE
8
0
6
CONTINUOUS
10
0.029695
20
-0.019842
30
0.0
11
0.025254
21
-0.025254
31
0.0
0
LINE
8
0
6
CONTINUOUS
10
0.032996
20
-0.013667
30
0.0
11
0.029695
21
-0.019842
31
0.0
0
LINE
8
0
6
CONTINUOUS
10
0.035028
20
-0.006968
30
0.0
11
0.032996
21
-0.013667
31
0.0
0
LINE
8
0
6
CONTINUOUS
10
0.035714
20
0.000000
30
0.0
11
0.035028
21
-0.006968
31
0.0
0
LINE
8
0
6
CONTINUOUS
10
-0.016409
20
-0.077302
30
0.0
11
0.000000
21
-0.077500
31
0.0
0
LINE
8
0
6
CONTINUOUS
10
-0.047903
20
-0.075240
30
0.0
11
-0.040227
21
-0.076189
31
0.0
0
LINE
8
0
6
CONTINUOUS
10
-0.052068
20
-0.074481
30
0.0
11
-0.047903
21
-0.075240
31
0.0
0
LINE
8
0
6
CONTINUOUS
10
-0.076873
20
-0.029102
30
0.0
11
-0.076171
21
-0.040227
31
0.0
0
LINE
8
0
6
CONTINUOUS
10
-0.074923
20
-0.047743
30
0.0
11
-0.075806
21
-0.040025
31
0.0
0
LINE
8
0
6
CONTINUOUS
10
-0.076171
20
-0.040227
30
0.0
11
-0.075247
21
-0.047903
31
0.0
0
LINE
8
0
6
CONTINUOUS
10
-0.075247
20
-0.047903
30
0.0
11
-0.074454
21
-0.052060
31
0.0
0
LINE
8
0
6
CONTINUOUS
10
-0.074454
20
-0.052060
30
0.0
11
-0.073306
21
-0.056131
31
0.0
0
LINE
8
0
6
CONTINUOUS
10
-0.016353
20
-0.076967
30
0.0
11
0.000000
21
-0.077200
31
0.0
0
LINE
8
0
6
CONTINUOUS
10
-0.029102
20
-0.076863
30
0.0
11
-0.016409
21
-0.077302
31
0.0
0
LINE
8
0
6
CONTINUOUS
10
-0.016353
20
-0.076967
30
0.0
11
-0.028962
21
-0.076555
31
0.0
0
LINE
8
0
6
CONTINUOUS
10
-0.040227
20
-0.076189
30
0.0
11
-0.029102
21
-0.076863
31
0.0
0
LINE
8
0
6
CONTINUOUS
10
-0.028962
20
-0.076555
30
0.0
11
-0.040025
21
-0.075824
31
0.0
0
LINE
8
0
6
CONTINUOUS
10
-0.056144
20
-0.073359
30
0.0
11
-0.052068
21
-0.074481
31
0.0
0
LINE
8
0
6
CONTINUOUS
10
-0.060091
20
-0.071823
30
0.0
11
-0.056144
21
-0.073359
31
0.0
0
LINE
8
0
6
CONTINUOUS
10
-0.055946
20
-0.073062
30
0.0
11
-0.059870
21
-0.071534
31
0.0
0
LINE
8
0
6
CONTINUOUS
10
-0.067038
20
-0.067050
30
0.0
11
-0.063759
21
-0.069723
31
0.0
0
LINE
8
0
6
CONTINUOUS
10
-0.077500
20
0.000000
30
0.0
11
-0.077270
21
-0.016409
31
0.0
0
LINE
8
0
6
CONTINUOUS
10
-0.076935
20
-0.016353
30
0.0
11
-0.077200
21
0.000000
31
0.0
0
LINE
8
0
6
CONTINUOUS
10
-0.051888
20
-0.074168
30
0.0
11
-0.047743
21
-0.074916
31
0.0
0
LINE
8
0
6
CONTINUOUS
10
-0.055946
20
-0.073062
30
0.0
11
-0.051888
21
-0.074168
31
0.0
0
LINE
8
0
6
CONTINUOUS
10
-0.071798
20
-0.060084
30
0.0
11
-0.069697
21
-0.063759
31
0.0
0
LINE
8
0
6
CONTINUOUS
10
-0.066776
20
-0.066794
30
0.0
11
-0.063551
21
-0.069494
31
0.0
0
LINE
8
0
6
CONTINUOUS
10
-0.076565
20
-0.028962
30
0.0
11
-0.075806
21
-0.040025
31
0.0
0
LINE
8
0
6
CONTINUOUS
10
-0.074923
20
-0.047743
30
0.0
11
-0.074143
21
-0.051880
31
0.0
0
LINE
8
0
6
CONTINUOUS
10
-0.074143
20
-0.051880
30
0.0
11
-0.073009
21
-0.055933
31
0.0
0
LINE
8
0
6
CONTINUOUS
10
-0.076565
20
-0.028962
30
0.0
11
-0.076935
21
-0.016353
31
0.0
0
LINE
8
0
6
CONTINUOUS
10
-0.077270
20
-0.016409
30
0.0
11
-0.076873
21
-0.029102
31
0.0
0
LINE
8
0
6
CONTINUOUS
10
-0.071521
20
-0.059870
30
0.0
11
-0.073009
21
-0.055933
31
0.0
0
LINE
8
0
6
CONTINUOUS
10
-0.073306
20
-0.056131
30
0.0
11
-0.071798
21
-0.060084
31
0.0
0
LINE
8
0
6
CONTINUOUS
10
-0.071521
20
-0.059870
30
0.0
11
-0.069428
21
-0.063525
31
0.0
0
LINE
8
0
6
CONTINUOUS
10
-0.066776
20
-0.066794
30
0.0
11
-0.069428
21
-0.063525
31
0.0
0
LINE
8
0
6
CONTINUOUS
10
-0.069697
20
-0.063759
30
0.0
11
-0.067038
21
-0.067050
31
0.0
0
LINE
8
0
6
CONTINUOUS
10
-0.063759
20
-0.069723
30
0.0
11
-0.060091
21
-0.071823
31
0.0
0
LINE
8
0
6
CONTINUOUS
10
-0.059870
20
-0.071534
30
0.0
11
-0.063551
21
-0.069494
31
0.0
0
LINE
8
0
6
CONTINUOUS
10
0.000000
20
-0.035714
30
0.0
11
-0.006968
21
-0.035028
31
0.0
0
LINE
8
0
6
CONTINUOUS
10
-0.006968
20
-0.035028
30
0.0
11
-0.013667
21
-0.032996
31
0.0
0
LINE
8
0
6
CONTINUOUS
10
-0.013667
20
-0.032996
30
0.0
11
-0.019842
21
-0.029695
31
0.0
0
LINE
8
0
6
CONTINUOUS
10
-0.019842
20
-0.029695
30
0.0
11
-0.025254
21
-0.025254
31
0.0
0
LINE
8
0
6
CONTINUOUS
10
-0.025254
20
-0.025254
30
0.0
11
-0.029695
21
-0.019842
31
0.0
0
LINE
8
0
6
CONTINUOUS
10
-0.029695
20
-0.019842
30
0.0
11
-0.032996
21
-0.013667
31
0.0
0
LINE
8
0
6
CONTINUOUS
10
-0.032996
20
-0.013667
30
0.0
11
-0.035028
21
-0.006968
31
0.0
0
LINE
8
0
6
CONTINUOUS
10
-0.035028
20
-0.006968
30
0.0
11
-0.035714
21
0.000000
31
0.0
0
LINE
8
0
6
CONTINUOUS
10
0.016409
20
0.077302
30
0.0
11
0.000000
21
0.077500
31
0.0
0
LINE
8
0
6
CONTINUOUS
10
0.047903
20
0.075240
30
0.0
11
0.040227
21
0.076189
31
0.0
0
LINE
8
0
6
CONTINUOUS
10
0.052068
20
0.074481
30
0.0
11
0.047903
21
0.075240
31
0.0
0
LINE
8
0
6
CONTINUOUS
10
0.076873
20
0.029102
30
0.0
11
0.076171
21
0.040227
31
0.0
0
LINE
8
0
6
CONTINUOUS
10
0.074923
20
0.047743
30
0.0
11
0.075806
21
0.040025
31
0.0
0
LINE
8
0
6
CONTINUOUS
10
0.076171
20
0.040227
30
0.0
11
0.075247
21
0.047903
31
0.0
0
LINE
8
0
6
CONTINUOUS
10
0.075247
20
0.047903
30
0.0
11
0.074454
21
0.052060
31
0.0
0
LINE
8
0
6
CONTINUOUS
10
0.074454
20
0.052060
30
0.0
11
0.073306
21
0.056131
31
0.0
0
LINE
8
0
6
CONTINUOUS
10
0.016353
20
0.076967
30
0.0
11
0.000000
21
0.077200
31
0.0
0
LINE
8
0
6
CONTINUOUS
10
0.029102
20
0.076863
30
0.0
11
0.016409
21
0.077302
31
0.0
0
LINE
8
0
6
CONTINUOUS
10
0.016353
20
0.076967
30
0.0
11
0.028962
21
0.076555
31
0.0
0
LINE
8
0
6
CONTINUOUS
10
0.040227
20
0.076189
30
0.0
11
0.029102
21
0.076863
31
0.0
0
LINE
8
0
6
CONTINUOUS
10
0.028962
20
0.076555
30
0.0
11
0.040025
21
0.075824
31
0.0
0
LINE
8
0
6
CONTINUOUS
10
0.056144
20
0.073359
30
0.0
11
0.052068
21
0.074481
31
0.0
0
LINE
8
0
6
CONTINUOUS
10
0.060091
20
0.071823
30
0.0
11
0.056144
21
0.073359
31
0.0
0
LINE
8
0
6
CONTINUOUS
10
0.055946
20
0.073062
30
0.0
11
0.059870
21
0.071534
31
0.0
0
LINE
8
0
6
CONTINUOUS
10
0.067038
20
0.067050
30
0.0
11
0.063759
21
0.069723
31
0.0
0
LINE
8
0
6
CONTINUOUS
10
0.077500
20
0.000000
30
0.0
11
0.077270
21
0.016409
31
0.0
0
LINE
8
0
6
CONTINUOUS
10
0.076935
20
0.016353
30
0.0
11
0.077200
21
0.000000
31
0.0
0
LINE
8
0
6
CONTINUOUS
10
0.051888
20
0.074168
30
0.0
11
0.047743
21
0.074916
31
0.0
0
LINE
8
0
6
CONTINUOUS
10
0.055946
20
0.073062
30
0.0
11
0.051888
21
0.074168
31
0.0
0
LINE
8
0
6
CONTINUOUS
10
0.071798
20
0.060084
30
0.0
11
0.069697
21
0.063759
31
0.0
0
LINE
8
0
6
CONTINUOUS
10
0.066776
20
0.066794
30
0.0
11
0.063551
21
0.069494
31
0.0
0
LINE
8
0
6
CONTINUOUS
10
0.076565
20
0.028962
30
0.0
11
0.075806
21
0.040025
31
0.0
0
LINE
8
0
6
CONTINUOUS
10
0.074923
20
0.047743
30
0.0
11
0.074143
21
0.051880
31
0.0
0
LINE
8
0
6
CONTINUOUS
10
0.074143
20
0.051880
30
0.0
11
0.073009
21
0.055933
31
0.0
0
LINE
8
0
6
CONTINUOUS
10
0.076565
20
0.028962
30
0.0
11
0.076935
21
0.016353
31
0.0
0
LINE
8
0
6
CONTINUOUS
10
0.077270
20
0.016409
30
0.0
11
0.076873
21
0.029102
31
0.0
0
LINE
8
0
6
CONTINUOUS
10
0.071521
20
0.059870
30
0.0
11
0.073009
21
0.055933
31
0.0
0
LINE
8
0
6
CONTINUOUS
10
0.073306
20
0.056131
30
0.0
11
0.071798
21
0.060084
31
0.0
0
LINE
8
0
6
CONTINUOUS
10
0.071521
20
0.059870
30
0.0
11
0.069428
21
0.063525
31
0.0
0
LINE
8
0
6
CONTINUOUS
10
0.066776
20
0.066794
30
0.0
11
0.069428
21
0.063525
31
0.0
0
LINE
8
0
6
CONTINUOUS
10
0.069697
20
0.063759
30
0.0
11
0.067038
21
0.067050
31
0.0
0
LINE
8
0
6
CONTINUOUS
10
0.063759
20
0.069723
30
0.0
11
0.060091
21
0.071823
31
0.0
0
LINE
8
0
6
CONTINUOUS
10
0.059870
20
0.071534
30
0.0
11
0.063551
21
0.069494
31
0.0
0
LINE
8
0
6
CONTINUOUS
10
0.000000
20
0.035714
30
0.0
11
0.006968
21
0.035028
31
0.0
0
LINE
8
0
6
CONTINUOUS
10
0.006968
20
0.035028
30
0.0
11
0.013667
21
0.032996
31
0.0
0
LINE
8
0
6
CONTINUOUS
10
0.013667
20
0.032996
30
0.0
11
0.019842
21
0.029695
31
0.0
0
LINE
8
0
6
CONTINUOUS
10
0.019842
20
0.029695
30
0.0
11
0.025254
21
0.025254
31
0.0
0
LINE
8
0
6
CONTINUOUS
10
0.025254
20
0.025254
30
0.0
11
0.029695
21
0.019842
31
0.0
0
LINE
8
0
6
CONTINUOUS
10
0.029695
20
0.019842
30
0.0
11
0.032996
21
0.013667
31
0.0
0
LINE
8
0
6
CONTINUOUS
10
0.032996
20
0.013667
30
0.0
11
0.035028
21
0.006968
31
0.0
0
LINE
8
0
6
CONTINUOUS
10
0.035028
20
0.006968
30
0.0
11
0.035714
21
0.000000
31
0.0
0
LINE
8
0
6
CONTINUOUS
10
0.000000
20
0.077500
30
0.0
11
-0.016409
21
0.077302
31
0.0
0
LINE
8
0
6
CONTINUOUS
10
-0.040227
20
0.076189
30
0.0
11
-0.047903
21
0.075240
31
0.0
0
LINE
8
0
6
CONTINUOUS
10
-0.047903
20
0.075240
30
0.0
11
-0.052068
21
0.074481
31
0.0
0
LINE
8
0
6
CONTINUOUS
10
-0.076171
20
0.040227
30
0.0
11
-0.076873
21
0.029102
31
0.0
0
LINE
8
0
6
CONTINUOUS
10
-0.075247
20
0.047903
30
0.0
11
-0.076171
21
0.040227
31
0.0
0
LINE
8
0
6
CONTINUOUS
10
-0.075806
20
0.040025
30
0.0
11
-0.074923
21
0.047743
31
0.0
0
LINE
8
0
6
CONTINUOUS
10
-0.074454
20
0.052060
30
0.0
11
-0.075247
21
0.047903
31
0.0
0
LINE
8
0
6
CONTINUOUS
10
-0.073306
20
0.056131
30
0.0
11
-0.074454
21
0.052060
31
0.0
0
LINE
8
0
6
CONTINUOUS
10
0.000000
20
0.077200
30
0.0
11
-0.016353
21
0.076967
31
0.0
0
LINE
8
0
6
CONTINUOUS
10
-0.028962
20
0.076555
30
0.0
11
-0.016353
21
0.076967
31
0.0
0
LINE
8
0
6
CONTINUOUS
10
-0.016409
20
0.077302
30
0.0
11
-0.029102
21
0.076863
31
0.0
0
LINE
8
0
6
CONTINUOUS
10
-0.040025
20
0.075824
30
0.0
11
-0.028962
21
0.076555
31
0.0
0
LINE
8
0
6
CONTINUOUS
10
-0.029102
20
0.076863
30
0.0
11
-0.040227
21
0.076189
31
0.0
0
LINE
8
0
6
CONTINUOUS
10
-0.052068
20
0.074481
30
0.0
11
-0.056144
21
0.073359
31
0.0
0
LINE
8
0
6
CONTINUOUS
10
-0.059870
20
0.071534
30
0.0
11
-0.055946
21
0.073062
31
0.0
0
LINE
8
0
6
CONTINUOUS
10
-0.056144
20
0.073359
30
0.0
11
-0.060091
21
0.071823
31
0.0
0
LINE
8
0
6
CONTINUOUS
10
-0.063759
20
0.069723
30
0.0
11
-0.067038
21
0.067050
31
0.0
0
LINE
8
0
6
CONTINUOUS
10
-0.077200
20
0.000000
30
0.0
11
-0.076935
21
0.016353
31
0.0
0
LINE
8
0
6
CONTINUOUS
10
-0.077270
20
0.016409
30
0.0
11
-0.077500
21
0.000000
31
0.0
0
LINE
8
0
6
CONTINUOUS
10
-0.047743
20
0.074916
30
0.0
11
-0.051888
21
0.074168
31
0.0
0
LINE
8
0
6
CONTINUOUS
10
-0.051888
20
0.074168
30
0.0
11
-0.055946
21
0.073062
31
0.0
0
LINE
8
0
6
CONTINUOUS
10
-0.069697
20
0.063759
30
0.0
11
-0.071798
21
0.060084
31
0.0
0
LINE
8
0
6
CONTINUOUS
10
-0.063551
20
0.069494
30
0.0
11
-0.066776
21
0.066794
31
0.0
0
LINE
8
0
6
CONTINUOUS
10
-0.075806
20
0.040025
30
0.0
11
-0.076565
21
0.028962
31
0.0
0
LINE
8
0
6
CONTINUOUS
10
-0.074143
20
0.051880
30
0.0
11
-0.074923
21
0.047743
31
0.0
0
LINE
8
0
6
CONTINUOUS
10
-0.073009
20
0.055933
30
0.0
11
-0.074143
21
0.051880
31
0.0
0
LINE
8
0
6
CONTINUOUS
10
-0.076873
20
0.029102
30
0.0
11
-0.077270
21
0.016409
31
0.0
0
LINE
8
0
6
CONTINUOUS
10
-0.076935
20
0.016353
30
0.0
11
-0.076565
21
0.028962
31
0.0
0
LINE
8
0
6
CONTINUOUS
10
-0.071798
20
0.060084
30
0.0
11
-0.073306
21
0.056131
31
0.0
0
LINE
8
0
6
CONTINUOUS
10
-0.073009
20
0.055933
30
0.0
11
-0.071521
21
0.059870
31
0.0
0
LINE
8
0
6
CONTINUOUS
10
-0.069428
20
0.063525
30
0.0
11
-0.071521
21
0.059870
31
0.0
0
LINE
8
0
6
CONTINUOUS
10
-0.067038
20
0.067050
30
0.0
11
-0.069697
21
0.063759
31
0.0
0
LINE
8
0
6
CONTINUOUS
10
-0.069428
20
0.063525
30
0.0
11
-0.066776
21
0.066794
31
0.0
0
LINE
8
0
6
CONTINUOUS
10
-0.063551
20
0.069494
30
0.0
11
-0.059870
21
0.071534
31
0.0
0
LINE
8
0
6
CONTINUOUS
10
-0.060091
20
0.071823
30
0.0
11
-0.063759
21
0.069723
31
0.0
0
LINE
8
0
6
CONTINUOUS
10
-0.006968
20
0.035028
30
0.0
11
0.000000
21
0.035714
31
0.0
0
LINE
8
0
6
CONTINUOUS
10
-0.013667
20
0.032996
30
0.0
11
-0.006968
21
0.035028
31
0.0
0
LINE
8
0
6
CONTINUOUS
10
-0.019842
20
0.029695
30
0.0
11
-0.013667
21
0.032996
31
0.0
0
LINE
8
0
6
CONTINUOUS
10
-0.025254
20
0.025254
30
0.0
11
-0.019842
21
0.029695
31
0.0
0
LINE
8
0
6
CONTINUOUS
10
-0.029695
20
0.019842
30
0.0
11
-0.025254
21
0.025254
31
0.0
0
LINE
8
0
6
CONTINUOUS
10
-0.032996
20
0.013667
30
0.0
11
-0.029695
21
0.019842
31
0.0
0
LINE
8
0
6
CONTINUOUS
10
-0.035028
20
0.006968
30
0.0
11
-0.032996
21
0.013667
31
0.0
0
LINE
8
0
6
CONTINUOUS
10
-0.035714
20
0.000000
30
0.0
11
-0.035028
21
0.006968
31
0.0
0
LINE
8
0
6
CONTINUOUS
10
0.000000
20
0.035235
30
0.0
11
-0.006874
21
0.034558
31
0.0
0
LINE
8
0
6
CONTINUOUS
10
-0.006874
20
0.034558
30
0.0
11
-0.013484
21
0.032553
31
0.0
0
LINE
8
0
6
CONTINUOUS
10
-0.013484
20
0.032553
30
0.0
11
-0.019576
21
0.029297
31
0.0
0
LINE
8
0
6
CONTINUOUS
10
-0.019576
20
0.029297
30
0.0
11
-0.024915
21
0.024915
31
0.0
0
LINE
8
0
6
CONTINUOUS
10
-0.024915
20
0.024915
30
0.0
11
-0.029297
21
0.019576
31
0.0
0
LINE
8
0
6
CONTINUOUS
10
-0.029297
20
0.019576
30
0.0
11
-0.032553
21
0.013484
31
0.0
0
LINE
8
0
6
CONTINUOUS
10
-0.032553
20
0.013484
30
0.0
11
-0.034558
21
0.006874
31
0.0
0
LINE
8
0
6
CONTINUOUS
10
-0.034558
20
0.006874
30
0.0
11
-0.035235
21
0.000000
31
0.0
0
LINE
8
0
6
CONTINUOUS
10
0.006874
20
0.034558
30
0.0
11
0.000000
21
0.035235
31
0.0
0
LINE
8
0
6
CONTINUOUS
10
0.013484
20
0.032553
30
0.0
11
0.006874
21
0.034558
31
0.0
0
LINE
8
0
6
CONTINUOUS
10
0.019576
20
0.029297
30
0.0
11
0.013484
21
0.032553
31
0.0
0
LINE
8
0
6
CONTINUOUS
10
0.024915
20
0.024915
30
0.0
11
0.019576
21
0.029297
31
0.0
0
LINE
8
0
6
CONTINUOUS
10
0.029297
20
0.019576
30
0.0
11
0.024915
21
0.024915
31
0.0
0
LINE
8
0
6
CONTINUOUS
10
0.032553
20
0.013484
30
0.0
11
0.029297
21
0.019576
31
0.0
0
LINE
8
0
6
CONTINUOUS
10
0.034558
20
0.006874
30
0.0
11
0.032553
21
0.013484
31
0.0
0
LINE
8
0
6
CONTINUOUS
10
0.035235
20
0.000000
30
0.0
11
0.034558
21
0.006874
31
0.0
0
LINE
8
0
6
CONTINUOUS
10
-0.006874
20
-0.034558
30
0.0
11
0.000000
21
-0.035235
31
0.0
0
LINE
8
0
6
CONTINUOUS
10
-0.013484
20
-0.032553
30
0.0
11
-0.006874
21
-0.034558
31
0.0
0
LINE
8
0
6
CONTINUOUS
10
-0.019576
20
-0.029297
30
0.0
11
-0.013484
21
-0.032553
31
0.0
0
LINE
8
0
6
CONTINUOUS
10
-0.024915
20
-0.024915
30
0.0
11
-0.019576
21
-0.029297
31
0.0
0
LINE
8
0
6
CONTINUOUS
10
-0.029297
20
-0.019576
30
0.0
11
-0.024915
21
-0.024915
31
0.0
0
LINE
8
0
6
CONTINUOUS
10
-0.032553
20
-0.013484
30
0.0
11
-0.029297
21
-0.019576
31
0.0
0
LINE
8
0
6
CONTINUOUS
10
-0.034558
20
-0.006874
30
0.0
11
-0.032553
21
-0.013484
31
0.0
0
LINE
8
0
6
CONTINUOUS
10
-0.035235
20
0.000000
30
0.0
11
-0.034558
21
-0.006874
31
0.0
0
LINE
8
0
6
CONTINUOUS
10
0.000000
20
-0.035235
30
0.0
11
0.006874
21
-0.034558
31
0.0
0
LINE
8
0
6
CONTINUOUS
10
0.006874
20
-0.034558
30
0.0
11
0.013484
21
-0.032553
31
0.0
0
LINE
8
0
6
CONTINUOUS
10
0.013484
20
-0.032553
30
0.0
11
0.019576
21
-0.029297
31
0.0
0
LINE
8
0
6
CONTINUOUS
10
0.019576
20
-0.029297
30
0.0
11
0.024915
21
-0.024915
31
0.0
0
LINE
8
0
6
CONTINUOUS
10
0.024915
20
-0.024915
30
0.0
11
0.029297
21
-0.019576
31
0.0
0
LINE
8
0
6
CONTINUOUS
10
0.029297
20
-0.019576
30
0.0
11
0.032553
21
-0.013484
31
0.0
0
LINE
8
0
6
CONTINUOUS
10
0.032553
20
-0.013484
30
0.0
11
0.034558
21
-0.006874
31
0.0
0
LINE
8
0
6
CONTINUOUS
10
0.034558
20
-0.006874
30
0.0
11
0.035235
21
0.000000
31
0.0
0
ENDSEC
0
EOF
