999
unknown String-ID: 20550
0
SECTION
2
HEADER
9
$ACADVER
1
AC1009
9
$DWGCODEPAGE
3
unknown String-ID: 20561
0
ENDSEC
0
SECTION
2
TABLES
0
TABLE
2
LAYER
70
1
0
LAYER
2
0
70
0
62
7
6
CONTINUOUS
0
ENDTAB
0
ENDSEC
0
SECTION
2
ENTITIES
0
LINE
8
0
6
CONTINUOUS
10
-0.006008
20
0.002353
30
0.0
11
-0.006008
21
0.001879
31
0.0
0
LINE
8
0
6
CONTINUOUS
10
0.006008
20
0.001879
30
0.0
11
0.006008
21
0.002353
31
0.0
0
LINE
8
0
6
CONTINUOUS
10
-0.006008
20
0.001879
30
0.0
11
-0.006008
21
-0.021788
31
0.0
0
LINE
8
0
6
CONTINUOUS
10
0.006008
20
-0.021788
30
0.0
11
0.006008
21
0.001879
31
0.0
0
LINE
8
0
6
CONTINUOUS
10
-0.005104
20
-0.022354
30
0.0
11
-0.004214
21
-0.022354
31
0.0
0
LINE
8
0
6
CONTINUOUS
10
-0.006008
20
-0.022354
30
0.0
11
-0.005724
21
-0.022354
31
0.0
0
LINE
8
0
6
CONTINUOUS
10
-0.006008
20
-0.021788
30
0.0
11
-0.006008
21
-0.022354
31
0.0
0
LINE
8
0
6
CONTINUOUS
10
-0.002963
20
-0.022354
30
0.0
11
-0.001537
21
-0.022354
31
0.0
0
LINE
8
0
6
CONTINUOUS
10
-0.001537
20
-0.022354
30
0.0
11
0.000000
21
-0.022354
31
0.0
0
LINE
8
0
6
CONTINUOUS
10
-0.004214
20
-0.022354
30
0.0
11
-0.002963
21
-0.022354
31
0.0
0
LINE
8
0
6
CONTINUOUS
10
-0.005724
20
-0.022354
30
0.0
11
-0.005104
21
-0.022354
31
0.0
0
LINE
8
0
6
CONTINUOUS
10
0.004214
20
-0.022354
30
0.0
11
0.005104
21
-0.022354
31
0.0
0
LINE
8
0
6
CONTINUOUS
10
0.006008
20
-0.022354
30
0.0
11
0.006008
21
-0.021788
31
0.0
0
LINE
8
0
6
CONTINUOUS
10
0.005724
20
-0.022354
30
0.0
11
0.006008
21
-0.022354
31
0.0
0
LINE
8
0
6
CONTINUOUS
10
0.001537
20
-0.022354
30
0.0
11
0.002963
21
-0.022354
31
0.0
0
LINE
8
0
6
CONTINUOUS
10
0.000000
20
-0.022354
30
0.0
11
0.001537
21
-0.022354
31
0.0
0
LINE
8
0
6
CONTINUOUS
10
0.002963
20
-0.022354
30
0.0
11
0.004214
21
-0.022354
31
0.0
0
LINE
8
0
6
CONTINUOUS
10
0.005104
20
-0.022354
30
0.0
11
0.005724
21
-0.022354
31
0.0
0
LINE
8
0
6
CONTINUOUS
10
-0.074704
20
0.004873
30
0.0
11
-0.074693
21
0.004354
31
0.0
0
LINE
8
0
6
CONTINUOUS
10
-0.069355
20
0.022354
30
0.0
11
-0.073627
21
0.022354
31
0.0
0
LINE
8
0
6
CONTINUOUS
10
-0.028728
20
0.022354
30
0.0
11
-0.041706
21
0.022354
31
0.0
0
LINE
8
0
6
CONTINUOUS
10
-0.075069
20
0.022354
30
0.0
11
-0.075048
21
0.021379
31
0.0
0
LINE
8
0
6
CONTINUOUS
10
-0.073627
20
0.022354
30
0.0
11
-0.075069
21
0.022354
31
0.0
0
LINE
8
0
6
CONTINUOUS
10
-0.041706
20
0.022354
30
0.0
11
-0.053082
21
0.022354
31
0.0
0
LINE
8
0
6
CONTINUOUS
10
-0.053082
20
0.022354
30
0.0
11
-0.062418
21
0.022354
31
0.0
0
LINE
8
0
6
CONTINUOUS
10
0.000000
20
0.022354
30
0.0
11
-0.014645
21
0.022354
31
0.0
0
LINE
8
0
6
CONTINUOUS
10
-0.062418
20
0.022354
30
0.0
11
-0.069355
21
0.022354
31
0.0
0
LINE
8
0
6
CONTINUOUS
10
-0.014645
20
0.022354
30
0.0
11
-0.028728
21
0.022354
31
0.0
0
LINE
8
0
6
CONTINUOUS
10
-0.013758
20
0.002353
30
0.0
11
0.000000
21
0.002353
31
0.0
0
LINE
8
0
6
CONTINUOUS
10
-0.026998
20
0.002353
30
0.0
11
-0.013758
21
0.002353
31
0.0
0
LINE
8
0
6
CONTINUOUS
10
-0.039221
20
0.002353
30
0.0
11
-0.026998
21
0.002353
31
0.0
0
LINE
8
0
6
CONTINUOUS
10
-0.049957
20
0.002353
30
0.0
11
-0.039221
21
0.002353
31
0.0
0
LINE
8
0
6
CONTINUOUS
10
-0.058782
20
0.002353
30
0.0
11
-0.049957
21
0.002353
31
0.0
0
LINE
8
0
6
CONTINUOUS
10
-0.065351
20
0.002353
30
0.0
11
-0.058782
21
0.002353
31
0.0
0
LINE
8
0
6
CONTINUOUS
10
-0.069402
20
0.002353
30
0.0
11
-0.065351
21
0.002353
31
0.0
0
LINE
8
0
6
CONTINUOUS
10
-0.072758
20
0.002622
30
0.0
11
-0.070853
21
0.002353
31
0.0
0
LINE
8
0
6
CONTINUOUS
10
-0.070853
20
0.002353
30
0.0
11
-0.069402
21
0.002353
31
0.0
0
LINE
8
0
6
CONTINUOUS
10
-0.074163
20
0.003354
30
0.0
11
-0.072758
21
0.002622
31
0.0
0
LINE
8
0
6
CONTINUOUS
10
-0.074693
20
0.004354
30
0.0
11
-0.074163
21
0.003354
31
0.0
0
LINE
8
0
6
CONTINUOUS
10
-0.075048
20
0.021379
30
0.0
11
-0.074704
21
0.004873
31
0.0
0
LINE
8
0
6
CONTINUOUS
10
0.074693
20
0.004354
30
0.0
11
0.074704
21
0.004873
31
0.0
0
LINE
8
0
6
CONTINUOUS
10
0.073627
20
0.022354
30
0.0
11
0.069355
21
0.022354
31
0.0
0
LINE
8
0
6
CONTINUOUS
10
0.041706
20
0.022354
30
0.0
11
0.028728
21
0.022354
31
0.0
0
LINE
8
0
6
CONTINUOUS
10
0.075069
20
0.022354
30
0.0
11
0.073627
21
0.022354
31
0.0
0
LINE
8
0
6
CONTINUOUS
10
0.075048
20
0.021379
30
0.0
11
0.075069
21
0.022354
31
0.0
0
LINE
8
0
6
CONTINUOUS
10
0.053082
20
0.022354
30
0.0
11
0.041706
21
0.022354
31
0.0
0
LINE
8
0
6
CONTINUOUS
10
0.062418
20
0.022354
30
0.0
11
0.053082
21
0.022354
31
0.0
0
LINE
8
0
6
CONTINUOUS
10
0.014645
20
0.022354
30
0.0
11
0.000000
21
0.022354
31
0.0
0
LINE
8
0
6
CONTINUOUS
10
0.069355
20
0.022354
30
0.0
11
0.062418
21
0.022354
31
0.0
0
LINE
8
0
6
CONTINUOUS
10
0.028728
20
0.022354
30
0.0
11
0.014645
21
0.022354
31
0.0
0
LINE
8
0
6
CONTINUOUS
10
0.000000
20
0.002353
30
0.0
11
0.013758
21
0.002353
31
0.0
0
LINE
8
0
6
CONTINUOUS
10
0.013758
20
0.002353
30
0.0
11
0.026998
21
0.002353
31
0.0
0
LINE
8
0
6
CONTINUOUS
10
0.026998
20
0.002353
30
0.0
11
0.039221
21
0.002353
31
0.0
0
LINE
8
0
6
CONTINUOUS
10
0.039221
20
0.002353
30
0.0
11
0.049957
21
0.002353
31
0.0
0
LINE
8
0
6
CONTINUOUS
10
0.049957
20
0.002353
30
0.0
11
0.058782
21
0.002353
31
0.0
0
LINE
8
0
6
CONTINUOUS
10
0.058782
20
0.002353
30
0.0
11
0.065351
21
0.002353
31
0.0
0
LINE
8
0
6
CONTINUOUS
10
0.065351
20
0.002353
30
0.0
11
0.069402
21
0.002353
31
0.0
0
LINE
8
0
6
CONTINUOUS
10
0.069402
20
0.002353
30
0.0
11
0.070853
21
0.002353
31
0.0
0
LINE
8
0
6
CONTINUOUS
10
0.070853
20
0.002353
30
0.0
11
0.072758
21
0.002622
31
0.0
0
LINE
8
0
6
CONTINUOUS
10
0.072758
20
0.002622
30
0.0
11
0.074163
21
0.003354
31
0.0
0
LINE
8
0
6
CONTINUOUS
10
0.074163
20
0.003354
30
0.0
11
0.074693
21
0.004354
31
0.0
0
LINE
8
0
6
CONTINUOUS
10
0.074704
20
0.004873
30
0.0
11
0.075048
21
0.021379
31
0.0
0
ENDSEC
0
EOF
