999
unknown String-ID: 20550
0
SECTION
2
HEADER
9
$ACADVER
1
AC1009
9
$DWGCODEPAGE
3
unknown String-ID: 20561
0
ENDSEC
0
SECTION
2
TABLES
0
TABLE
2
LAYER
70
1
0
LAYER
2
0
70
0
62
7
6
CONTINUOUS
0
ENDTAB
0
ENDSEC
0
SECTION
2
ENTITIES
0
LINE
8
0
6
CONTINUOUS
10
-0.001879
20
-0.012812
30
0.0
11
-0.002353
21
-0.012812
31
0.0
0
LINE
8
0
6
CONTINUOUS
10
-0.002353
20
-0.055784
30
0.0
11
-0.001879
21
-0.055784
31
0.0
0
LINE
8
0
6
CONTINUOUS
10
0.021788
20
-0.012812
30
0.0
11
-0.001879
21
-0.012812
31
0.0
0
LINE
8
0
6
CONTINUOUS
10
-0.001879
20
-0.055784
30
0.0
11
0.021788
21
-0.055784
31
0.0
0
LINE
8
0
6
CONTINUOUS
10
0.022354
20
-0.015757
30
0.0
11
0.022354
21
-0.014515
31
0.0
0
LINE
8
0
6
CONTINUOUS
10
0.022354
20
-0.018702
30
0.0
11
0.022354
21
-0.017184
31
0.0
0
LINE
8
0
6
CONTINUOUS
10
0.022354
20
-0.034298
30
0.0
11
0.022354
21
-0.018702
31
0.0
0
LINE
8
0
6
CONTINUOUS
10
0.022354
20
-0.013574
30
0.0
11
0.022354
21
-0.012986
31
0.0
0
LINE
8
0
6
CONTINUOUS
10
0.022354
20
-0.012812
30
0.0
11
0.021788
21
-0.012812
31
0.0
0
LINE
8
0
6
CONTINUOUS
10
0.022354
20
-0.012986
30
0.0
11
0.022354
21
-0.012812
31
0.0
0
LINE
8
0
6
CONTINUOUS
10
0.022354
20
-0.014515
30
0.0
11
0.022354
21
-0.013574
31
0.0
0
LINE
8
0
6
CONTINUOUS
10
0.022354
20
-0.017184
30
0.0
11
0.022354
21
-0.015757
31
0.0
0
LINE
8
0
6
CONTINUOUS
10
0.022354
20
-0.054081
30
0.0
11
0.022354
21
-0.052839
31
0.0
0
LINE
8
0
6
CONTINUOUS
10
0.022354
20
-0.051413
30
0.0
11
0.022354
21
-0.049894
31
0.0
0
LINE
8
0
6
CONTINUOUS
10
0.022354
20
-0.049894
30
0.0
11
0.022354
21
-0.034298
31
0.0
0
LINE
8
0
6
CONTINUOUS
10
0.022354
20
-0.055611
30
0.0
11
0.022354
21
-0.055022
31
0.0
0
LINE
8
0
6
CONTINUOUS
10
0.022354
20
-0.055784
30
0.0
11
0.022354
21
-0.055611
31
0.0
0
LINE
8
0
6
CONTINUOUS
10
0.021788
20
-0.055784
30
0.0
11
0.022354
21
-0.055784
31
0.0
0
LINE
8
0
6
CONTINUOUS
10
0.022354
20
-0.055022
30
0.0
11
0.022354
21
-0.054081
31
0.0
0
LINE
8
0
6
CONTINUOUS
10
0.022354
20
-0.052839
30
0.0
11
0.022354
21
-0.051413
31
0.0
0
LINE
8
0
6
CONTINUOUS
10
-0.004873
20
0.074704
30
0.0
11
-0.021379
21
0.075048
31
0.0
0
LINE
8
0
6
CONTINUOUS
10
-0.004354
20
0.074693
30
0.0
11
-0.004873
21
0.074704
31
0.0
0
LINE
8
0
6
CONTINUOUS
10
-0.004873
20
-0.074704
30
0.0
11
-0.004354
21
-0.074693
31
0.0
0
LINE
8
0
6
CONTINUOUS
10
-0.022354
20
-0.069355
30
0.0
11
-0.022354
21
-0.073627
31
0.0
0
LINE
8
0
6
CONTINUOUS
10
-0.022354
20
-0.028728
30
0.0
11
-0.022354
21
-0.041706
31
0.0
0
LINE
8
0
6
CONTINUOUS
10
-0.022354
20
0.028728
30
0.0
11
-0.022354
21
0.014645
31
0.0
0
LINE
8
0
6
CONTINUOUS
10
-0.022354
20
0.069355
30
0.0
11
-0.022354
21
0.062418
31
0.0
0
LINE
8
0
6
CONTINUOUS
10
-0.022354
20
-0.075069
30
0.0
11
-0.021379
21
-0.075048
31
0.0
0
LINE
8
0
6
CONTINUOUS
10
-0.022354
20
-0.073627
30
0.0
11
-0.022354
21
-0.075069
31
0.0
0
LINE
8
0
6
CONTINUOUS
10
-0.022354
20
-0.041706
30
0.0
11
-0.022354
21
-0.053082
31
0.0
0
LINE
8
0
6
CONTINUOUS
10
-0.022354
20
0.014645
30
0.0
11
-0.022354
21
0.000000
31
0.0
0
LINE
8
0
6
CONTINUOUS
10
-0.022354
20
0.062418
30
0.0
11
-0.022354
21
0.053082
31
0.0
0
LINE
8
0
6
CONTINUOUS
10
-0.022354
20
0.053082
30
0.0
11
-0.022354
21
0.041706
31
0.0
0
LINE
8
0
6
CONTINUOUS
10
-0.021379
20
0.075048
30
0.0
11
-0.022354
21
0.075069
31
0.0
0
LINE
8
0
6
CONTINUOUS
10
-0.022354
20
0.075069
30
0.0
11
-0.022354
21
0.073627
31
0.0
0
LINE
8
0
6
CONTINUOUS
10
-0.022354
20
-0.053082
30
0.0
11
-0.022354
21
-0.062418
31
0.0
0
LINE
8
0
6
CONTINUOUS
10
-0.022354
20
0.000000
30
0.0
11
-0.022354
21
-0.014645
31
0.0
0
LINE
8
0
6
CONTINUOUS
10
-0.022354
20
-0.014645
30
0.0
11
-0.022354
21
-0.028728
31
0.0
0
LINE
8
0
6
CONTINUOUS
10
-0.022354
20
0.041706
30
0.0
11
-0.022354
21
0.028728
31
0.0
0
LINE
8
0
6
CONTINUOUS
10
-0.022354
20
0.073627
30
0.0
11
-0.022354
21
0.069355
31
0.0
0
LINE
8
0
6
CONTINUOUS
10
-0.022354
20
-0.062418
30
0.0
11
-0.022354
21
-0.069355
31
0.0
0
LINE
8
0
6
CONTINUOUS
10
-0.002353
20
0.072684
30
0.0
11
-0.002622
21
0.073673
31
0.0
0
LINE
8
0
6
CONTINUOUS
10
-0.002353
20
0.071329
30
0.0
11
-0.002353
21
0.072684
31
0.0
0
LINE
8
0
6
CONTINUOUS
10
-0.002622
20
0.073673
30
0.0
11
-0.003354
21
0.074409
31
0.0
0
LINE
8
0
6
CONTINUOUS
10
-0.003354
20
0.074409
30
0.0
11
-0.004354
21
0.074693
31
0.0
0
LINE
8
0
6
CONTINUOUS
10
-0.002353
20
0.067313
30
0.0
11
-0.002353
21
0.071329
31
0.0
0
LINE
8
0
6
CONTINUOUS
10
-0.002353
20
0.060779
30
0.0
11
-0.002353
21
0.067313
31
0.0
0
LINE
8
0
6
CONTINUOUS
10
-0.002353
20
0.051969
30
0.0
11
-0.002353
21
0.060779
31
0.0
0
LINE
8
0
6
CONTINUOUS
10
-0.002353
20
0.041215
30
0.0
11
-0.002353
21
0.051969
31
0.0
0
LINE
8
0
6
CONTINUOUS
10
-0.002353
20
0.028925
30
0.0
11
-0.002353
21
0.041215
31
0.0
0
LINE
8
0
6
CONTINUOUS
10
-0.002353
20
0.015570
30
0.0
11
-0.002353
21
0.028925
31
0.0
0
LINE
8
0
6
CONTINUOUS
10
-0.002353
20
0.000842
30
0.0
11
-0.002353
21
0.015570
31
0.0
0
LINE
8
0
6
CONTINUOUS
10
-0.002353
20
-0.014745
30
0.0
11
-0.002353
21
0.000842
31
0.0
0
LINE
8
0
6
CONTINUOUS
10
-0.002353
20
-0.028204
30
0.0
11
-0.002353
21
-0.014745
31
0.0
0
LINE
8
0
6
CONTINUOUS
10
-0.002353
20
-0.040579
30
0.0
11
-0.002353
21
-0.028204
31
0.0
0
LINE
8
0
6
CONTINUOUS
10
-0.002353
20
-0.051384
30
0.0
11
-0.002353
21
-0.040579
31
0.0
0
LINE
8
0
6
CONTINUOUS
10
-0.002353
20
-0.060213
30
0.0
11
-0.002353
21
-0.051384
31
0.0
0
LINE
8
0
6
CONTINUOUS
10
-0.002353
20
-0.066734
30
0.0
11
-0.002353
21
-0.060213
31
0.0
0
LINE
8
0
6
CONTINUOUS
10
-0.002353
20
-0.070725
30
0.0
11
-0.002353
21
-0.066734
31
0.0
0
LINE
8
0
6
CONTINUOUS
10
-0.002622
20
-0.073365
30
0.0
11
-0.002353
21
-0.072068
31
0.0
0
LINE
8
0
6
CONTINUOUS
10
-0.002353
20
-0.072068
30
0.0
11
-0.002353
21
-0.070725
31
0.0
0
LINE
8
0
6
CONTINUOUS
10
-0.003354
20
-0.074326
30
0.0
11
-0.002622
21
-0.073365
31
0.0
0
LINE
8
0
6
CONTINUOUS
10
-0.004354
20
-0.074693
30
0.0
11
-0.003354
21
-0.074326
31
0.0
0
LINE
8
0
6
CONTINUOUS
10
-0.021379
20
-0.075048
30
0.0
11
-0.004873
21
-0.074704
31
0.0
0
ENDSEC
0
EOF
