999
unknown String-ID: 20550
0
SECTION
2
HEADER
9
$ACADVER
1
AC1009
9
$DWGCODEPAGE
3
unknown String-ID: 20561
0
ENDSEC
0
SECTION
2
TABLES
0
TABLE
2
LAYER
70
1
0
LAYER
2
0
70
0
62
7
6
CONTINUOUS
0
ENDTAB
0
ENDSEC
0
SECTION
2
ENTITIES
0
LINE
8
0
6
CONTINUOUS
10
0.003253
20
-0.008984
30
0.0
11
0.003253
21
-0.008907
31
0.0
0
LINE
8
0
6
CONTINUOUS
10
-0.002254
20
-0.027204
30
0.0
11
-0.001976
21
-0.027204
31
0.0
0
LINE
8
0
6
CONTINUOUS
10
-0.002752
20
-0.027013
30
0.0
11
-0.002358
21
-0.027204
31
0.0
0
LINE
8
0
6
CONTINUOUS
10
-0.002358
20
-0.027204
30
0.0
11
-0.002254
21
-0.027204
31
0.0
0
LINE
8
0
6
CONTINUOUS
10
-0.003062
20
-0.026703
30
0.0
11
-0.002752
21
-0.027013
31
0.0
0
LINE
8
0
6
CONTINUOUS
10
-0.003253
20
-0.026309
30
0.0
11
-0.003062
21
-0.026703
31
0.0
0
LINE
8
0
6
CONTINUOUS
10
-0.001976
20
-0.027204
30
0.0
11
-0.001538
21
-0.027204
31
0.0
0
LINE
8
0
6
CONTINUOUS
10
0.003062
20
-0.026703
30
0.0
11
0.003253
21
-0.026309
31
0.0
0
LINE
8
0
6
CONTINUOUS
10
0.002752
20
-0.027013
30
0.0
11
0.003062
21
-0.026703
31
0.0
0
LINE
8
0
6
CONTINUOUS
10
0.002358
20
-0.027204
30
0.0
11
0.002752
21
-0.027013
31
0.0
0
LINE
8
0
6
CONTINUOUS
10
0.002254
20
-0.027204
30
0.0
11
0.002358
21
-0.027204
31
0.0
0
LINE
8
0
6
CONTINUOUS
10
0.001976
20
-0.027204
30
0.0
11
0.002254
21
-0.027204
31
0.0
0
LINE
8
0
6
CONTINUOUS
10
0.001538
20
-0.027204
30
0.0
11
0.001976
21
-0.027204
31
0.0
0
LINE
8
0
6
CONTINUOUS
10
-0.000976
20
-0.027204
30
0.0
11
-0.000334
21
-0.027204
31
0.0
0
LINE
8
0
6
CONTINUOUS
10
0.000000
20
-0.027204
30
0.0
11
0.000334
21
-0.027204
31
0.0
0
LINE
8
0
6
CONTINUOUS
10
-0.001538
20
-0.027204
30
0.0
11
-0.000976
21
-0.027204
31
0.0
0
LINE
8
0
6
CONTINUOUS
10
0.000976
20
-0.027204
30
0.0
11
0.001538
21
-0.027204
31
0.0
0
LINE
8
0
6
CONTINUOUS
10
0.000334
20
-0.027204
30
0.0
11
0.000976
21
-0.027204
31
0.0
0
LINE
8
0
6
CONTINUOUS
10
-0.001976
20
-0.008013
30
0.0
11
-0.002254
21
-0.008013
31
0.0
0
LINE
8
0
6
CONTINUOUS
10
-0.002254
20
-0.008013
30
0.0
11
-0.002358
21
-0.008013
31
0.0
0
LINE
8
0
6
CONTINUOUS
10
-0.001538
20
-0.008013
30
0.0
11
-0.001976
21
-0.008013
31
0.0
0
LINE
8
0
6
CONTINUOUS
10
0.002752
20
-0.008204
30
0.0
11
0.002358
21
-0.008013
31
0.0
0
LINE
8
0
6
CONTINUOUS
10
0.002358
20
-0.008013
30
0.0
11
0.002254
21
-0.008013
31
0.0
0
LINE
8
0
6
CONTINUOUS
10
0.003062
20
-0.008513
30
0.0
11
0.002752
21
-0.008204
31
0.0
0
LINE
8
0
6
CONTINUOUS
10
0.003253
20
-0.008907
30
0.0
11
0.003062
21
-0.008513
31
0.0
0
LINE
8
0
6
CONTINUOUS
10
0.002254
20
-0.008013
30
0.0
11
0.001976
21
-0.008013
31
0.0
0
LINE
8
0
6
CONTINUOUS
10
0.001976
20
-0.008013
30
0.0
11
0.001538
21
-0.008013
31
0.0
0
LINE
8
0
6
CONTINUOUS
10
-0.000334
20
-0.008013
30
0.0
11
-0.000976
21
-0.008013
31
0.0
0
LINE
8
0
6
CONTINUOUS
10
0.000334
20
-0.008013
30
0.0
11
0.000000
21
-0.008013
31
0.0
0
LINE
8
0
6
CONTINUOUS
10
-0.000976
20
-0.008013
30
0.0
11
-0.001538
21
-0.008013
31
0.0
0
LINE
8
0
6
CONTINUOUS
10
0.001538
20
-0.008013
30
0.0
11
0.000976
21
-0.008013
31
0.0
0
LINE
8
0
6
CONTINUOUS
10
0.000976
20
-0.008013
30
0.0
11
0.000334
21
-0.008013
31
0.0
0
LINE
8
0
6
CONTINUOUS
10
-0.003253
20
-0.026114
30
0.0
11
-0.003253
21
-0.026309
31
0.0
0
LINE
8
0
6
CONTINUOUS
10
0.003253
20
-0.026309
30
0.0
11
0.003253
21
-0.026114
31
0.0
0
LINE
8
0
6
CONTINUOUS
10
0.003253
20
-0.026114
30
0.0
11
0.003253
21
-0.008984
31
0.0
0
LINE
8
0
6
CONTINUOUS
10
0.004709
20
-0.027206
30
0.0
11
0.009182
21
-0.027206
31
0.0
0
LINE
8
0
6
CONTINUOUS
10
0.009182
20
-0.027206
30
0.0
11
0.013195
21
-0.027206
31
0.0
0
LINE
8
0
6
CONTINUOUS
10
0.013195
20
-0.027206
30
0.0
11
0.016545
21
-0.027206
31
0.0
0
LINE
8
0
6
CONTINUOUS
10
0.016545
20
-0.027206
30
0.0
11
0.019067
21
-0.027206
31
0.0
0
LINE
8
0
6
CONTINUOUS
10
0.019067
20
-0.027206
30
0.0
11
0.020632
21
-0.027206
31
0.0
0
LINE
8
0
6
CONTINUOUS
10
0.021162
20
-0.027206
30
0.0
11
0.021525
21
-0.027039
31
0.0
0
LINE
8
0
6
CONTINUOUS
10
0.020632
20
-0.027206
30
0.0
11
0.021162
21
-0.027206
31
0.0
0
LINE
8
0
6
CONTINUOUS
10
-0.021525
20
-0.027039
30
0.0
11
-0.021162
21
-0.027206
31
0.0
0
LINE
8
0
6
CONTINUOUS
10
-0.021162
20
-0.027206
30
0.0
11
-0.020632
21
-0.027206
31
0.0
0
LINE
8
0
6
CONTINUOUS
10
-0.020632
20
-0.027206
30
0.0
11
-0.019067
21
-0.027206
31
0.0
0
LINE
8
0
6
CONTINUOUS
10
-0.019067
20
-0.027206
30
0.0
11
-0.016545
21
-0.027206
31
0.0
0
LINE
8
0
6
CONTINUOUS
10
-0.016545
20
-0.027206
30
0.0
11
-0.013195
21
-0.027206
31
0.0
0
LINE
8
0
6
CONTINUOUS
10
-0.013195
20
-0.027206
30
0.0
11
-0.009182
21
-0.027206
31
0.0
0
LINE
8
0
6
CONTINUOUS
10
-0.009182
20
-0.027206
30
0.0
11
-0.004709
21
-0.027206
31
0.0
0
LINE
8
0
6
CONTINUOUS
10
-0.012428
20
0.004979
30
0.0
11
-0.008649
21
0.004979
31
0.0
0
LINE
8
0
6
CONTINUOUS
10
-0.015585
20
0.004979
30
0.0
11
-0.012428
21
0.004979
31
0.0
0
LINE
8
0
6
CONTINUOUS
10
0.012428
20
0.004979
30
0.0
11
0.015585
21
0.004979
31
0.0
0
LINE
8
0
6
CONTINUOUS
10
0.019933
20
0.004979
30
0.0
11
0.019933
21
0.005288
31
0.0
0
LINE
8
0
6
CONTINUOUS
10
0.008649
20
0.004979
30
0.0
11
0.012428
21
0.004979
31
0.0
0
LINE
8
0
6
CONTINUOUS
10
0.021867
20
-0.026303
30
0.0
11
0.021867
21
0.004736
31
0.0
0
LINE
8
0
6
CONTINUOUS
10
-0.021867
20
0.004736
30
0.0
11
-0.021867
21
-0.026303
31
0.0
0
LINE
8
0
6
CONTINUOUS
10
0.009301
20
0.004979
30
0.0
11
0.008649
21
0.004979
31
0.0
0
LINE
8
0
6
CONTINUOUS
10
0.015585
20
0.004979
30
0.0
11
0.016759
21
0.004979
31
0.0
0
LINE
8
0
6
CONTINUOUS
10
0.017959
20
0.004979
30
0.0
11
0.015585
21
0.004979
31
0.0
0
LINE
8
0
6
CONTINUOUS
10
0.021436
20
0.004979
30
0.0
11
0.019933
21
0.004979
31
0.0
0
LINE
8
0
6
CONTINUOUS
10
0.019933
20
0.004979
30
0.0
11
0.019434
21
0.004979
31
0.0
0
LINE
8
0
6
CONTINUOUS
10
-0.019933
20
0.004979
30
0.0
11
-0.021436
21
0.004979
31
0.0
0
LINE
8
0
6
CONTINUOUS
10
-0.016759
20
0.004979
30
0.0
11
-0.015585
21
0.004979
31
0.0
0
LINE
8
0
6
CONTINUOUS
10
-0.015585
20
0.004979
30
0.0
11
-0.017959
21
0.004979
31
0.0
0
LINE
8
0
6
CONTINUOUS
10
-0.008649
20
0.004979
30
0.0
11
-0.009301
21
0.004979
31
0.0
0
LINE
8
0
6
CONTINUOUS
10
-0.000000
20
0.004979
30
0.0
11
-0.004436
21
0.004979
31
0.0
0
LINE
8
0
6
CONTINUOUS
10
0.004866
20
0.004979
30
0.0
11
-0.000000
21
0.004979
31
0.0
0
LINE
8
0
6
CONTINUOUS
10
-0.004866
20
0.004979
30
0.0
11
-0.009488
21
0.004979
31
0.0
0
LINE
8
0
6
CONTINUOUS
10
-0.019702
20
0.004979
30
0.0
11
-0.021319
21
0.004979
31
0.0
0
LINE
8
0
6
CONTINUOUS
10
0.021867
20
0.004736
30
0.0
11
0.021867
21
0.004979
31
0.0
0
LINE
8
0
6
CONTINUOUS
10
0.013634
20
0.004979
30
0.0
11
0.009488
21
0.004979
31
0.0
0
LINE
8
0
6
CONTINUOUS
10
0.017097
20
0.004979
30
0.0
11
0.013634
21
0.004979
31
0.0
0
LINE
8
0
6
CONTINUOUS
10
-0.000000
20
0.004979
30
0.0
11
-0.004866
21
0.004979
31
0.0
0
LINE
8
0
6
CONTINUOUS
10
-0.013634
20
0.004979
30
0.0
11
-0.017097
21
0.004979
31
0.0
0
LINE
8
0
6
CONTINUOUS
10
-0.021867
20
0.004979
30
0.0
11
-0.021867
21
0.004736
31
0.0
0
LINE
8
0
6
CONTINUOUS
10
-0.009488
20
0.004979
30
0.0
11
-0.013634
21
0.004979
31
0.0
0
LINE
8
0
6
CONTINUOUS
10
0.021319
20
0.004979
30
0.0
11
0.019702
21
0.004979
31
0.0
0
LINE
8
0
6
CONTINUOUS
10
0.009488
20
0.004979
30
0.0
11
0.004866
21
0.004979
31
0.0
0
LINE
8
0
6
CONTINUOUS
10
0.021782
20
-0.026748
30
0.0
11
0.021867
21
-0.026370
31
0.0
0
LINE
8
0
6
CONTINUOUS
10
0.021525
20
-0.027039
30
0.0
11
0.021782
21
-0.026748
31
0.0
0
LINE
8
0
6
CONTINUOUS
10
-0.021867
20
-0.026370
30
0.0
11
-0.021782
21
-0.026748
31
0.0
0
LINE
8
0
6
CONTINUOUS
10
-0.021782
20
-0.026748
30
0.0
11
-0.021525
21
-0.027039
31
0.0
0
LINE
8
0
6
CONTINUOUS
10
0.017097
20
0.004979
30
0.0
11
0.019702
21
0.004979
31
0.0
0
LINE
8
0
6
CONTINUOUS
10
0.016759
20
0.004979
30
0.0
11
0.017097
21
0.004979
31
0.0
0
LINE
8
0
6
CONTINUOUS
10
0.021867
20
0.004979
30
0.0
11
0.021436
21
0.004979
31
0.0
0
LINE
8
0
6
CONTINUOUS
10
0.021319
20
0.004979
30
0.0
11
0.021867
21
0.004979
31
0.0
0
LINE
8
0
6
CONTINUOUS
10
-0.021867
20
0.004979
30
0.0
11
-0.021319
21
0.004979
31
0.0
0
LINE
8
0
6
CONTINUOUS
10
-0.021436
20
0.004979
30
0.0
11
-0.021867
21
0.004979
31
0.0
0
LINE
8
0
6
CONTINUOUS
10
-0.017097
20
0.004979
30
0.0
11
-0.016759
21
0.004979
31
0.0
0
LINE
8
0
6
CONTINUOUS
10
-0.019702
20
0.004979
30
0.0
11
-0.017097
21
0.004979
31
0.0
0
LINE
8
0
6
CONTINUOUS
10
0.021867
20
-0.026370
30
0.0
11
0.021867
21
-0.026303
31
0.0
0
LINE
8
0
6
CONTINUOUS
10
-0.021867
20
-0.026303
30
0.0
11
-0.021867
21
-0.026370
31
0.0
0
LINE
8
0
6
CONTINUOUS
10
-0.000000
20
0.004979
30
0.0
11
0.004436
21
0.004979
31
0.0
0
LINE
8
0
6
CONTINUOUS
10
-0.008649
20
0.004979
30
0.0
11
-0.004436
21
0.004979
31
0.0
0
LINE
8
0
6
CONTINUOUS
10
-0.019933
20
0.004979
30
0.0
11
-0.019434
21
0.004979
31
0.0
0
LINE
8
0
6
CONTINUOUS
10
-0.019933
20
0.005288
30
0.0
11
-0.019933
21
0.004979
31
0.0
0
LINE
8
0
6
CONTINUOUS
10
0.004436
20
0.004979
30
0.0
11
0.008649
21
0.004979
31
0.0
0
LINE
8
0
6
CONTINUOUS
10
0.017098
20
0.005288
30
0.0
11
0.019703
21
0.005288
31
0.0
0
LINE
8
0
6
CONTINUOUS
10
0.021869
20
0.005288
30
0.0
11
0.021869
21
0.005603
31
0.0
0
LINE
8
0
6
CONTINUOUS
10
0.021321
20
0.005288
30
0.0
11
0.021869
21
0.005288
31
0.0
0
LINE
8
0
6
CONTINUOUS
10
0.019703
20
0.005288
30
0.0
11
0.021321
21
0.005288
31
0.0
0
LINE
8
0
6
CONTINUOUS
10
-0.009489
20
0.005288
30
0.0
11
-0.004866
21
0.005288
31
0.0
0
LINE
8
0
6
CONTINUOUS
10
-0.017098
20
0.005288
30
0.0
11
-0.013635
21
0.005288
31
0.0
0
LINE
8
0
6
CONTINUOUS
10
-0.021321
20
0.005288
30
0.0
11
-0.019703
21
0.005288
31
0.0
0
LINE
8
0
6
CONTINUOUS
10
0.013635
20
0.005288
30
0.0
11
0.017098
21
0.005288
31
0.0
0
LINE
8
0
6
CONTINUOUS
10
-0.019703
20
0.005288
30
0.0
11
-0.017098
21
0.005288
31
0.0
0
LINE
8
0
6
CONTINUOUS
10
0.004866
20
0.005288
30
0.0
11
0.009489
21
0.005288
31
0.0
0
LINE
8
0
6
CONTINUOUS
10
-0.000000
20
0.005288
30
0.0
11
0.004866
21
0.005288
31
0.0
0
LINE
8
0
6
CONTINUOUS
10
0.009489
20
0.005288
30
0.0
11
0.013635
21
0.005288
31
0.0
0
LINE
8
0
6
CONTINUOUS
10
-0.013635
20
0.005288
30
0.0
11
-0.009489
21
0.005288
31
0.0
0
LINE
8
0
6
CONTINUOUS
10
-0.004866
20
0.005288
30
0.0
11
-0.000000
21
0.005288
31
0.0
0
LINE
8
0
6
CONTINUOUS
10
-0.021869
20
0.005603
30
0.0
11
-0.021869
21
0.005288
31
0.0
0
LINE
8
0
6
CONTINUOUS
10
-0.021869
20
0.005288
30
0.0
11
-0.021321
21
0.005288
31
0.0
0
LINE
8
0
6
CONTINUOUS
10
0.021869
20
0.005603
30
0.0
11
0.021869
21
0.007206
31
0.0
0
LINE
8
0
6
CONTINUOUS
10
-0.021869
20
0.007206
30
0.0
11
-0.021869
21
0.005603
31
0.0
0
LINE
8
0
6
CONTINUOUS
10
-0.000334
20
-0.027204
30
0.0
11
0.000000
21
-0.027204
31
0.0
0
LINE
8
0
6
CONTINUOUS
10
0.000000
20
-0.008013
30
0.0
11
-0.000334
21
-0.008013
31
0.0
0
LINE
8
0
6
CONTINUOUS
10
-0.074704
20
0.009724
30
0.0
11
-0.074693
21
0.009205
31
0.0
0
LINE
8
0
6
CONTINUOUS
10
0.069355
20
0.027206
30
0.0
11
0.062418
21
0.027206
31
0.0
0
LINE
8
0
6
CONTINUOUS
10
0.028728
20
0.027206
30
0.0
11
0.014645
21
0.027206
31
0.0
0
LINE
8
0
6
CONTINUOUS
10
0.074693
20
0.009205
30
0.0
11
0.074704
21
0.009724
31
0.0
0
LINE
8
0
6
CONTINUOUS
10
-0.069355
20
0.027206
30
0.0
11
-0.073627
21
0.027206
31
0.0
0
LINE
8
0
6
CONTINUOUS
10
-0.028728
20
0.027206
30
0.0
11
-0.041706
21
0.027206
31
0.0
0
LINE
8
0
6
CONTINUOUS
10
0.014645
20
0.027206
30
0.0
11
0.000000
21
0.027206
31
0.0
0
LINE
8
0
6
CONTINUOUS
10
0.062418
20
0.027206
30
0.0
11
0.053082
21
0.027206
31
0.0
0
LINE
8
0
6
CONTINUOUS
10
-0.075069
20
0.027206
30
0.0
11
-0.075048
21
0.026231
31
0.0
0
LINE
8
0
6
CONTINUOUS
10
-0.073627
20
0.027206
30
0.0
11
-0.075069
21
0.027206
31
0.0
0
LINE
8
0
6
CONTINUOUS
10
-0.041706
20
0.027206
30
0.0
11
-0.053082
21
0.027206
31
0.0
0
LINE
8
0
6
CONTINUOUS
10
0.053082
20
0.027206
30
0.0
11
0.041706
21
0.027206
31
0.0
0
LINE
8
0
6
CONTINUOUS
10
0.075048
20
0.026231
30
0.0
11
0.075069
21
0.027206
31
0.0
0
LINE
8
0
6
CONTINUOUS
10
0.075069
20
0.027206
30
0.0
11
0.073627
21
0.027206
31
0.0
0
LINE
8
0
6
CONTINUOUS
10
-0.053082
20
0.027206
30
0.0
11
-0.062418
21
0.027206
31
0.0
0
LINE
8
0
6
CONTINUOUS
10
0.000000
20
0.027206
30
0.0
11
-0.014645
21
0.027206
31
0.0
0
LINE
8
0
6
CONTINUOUS
10
0.041706
20
0.027206
30
0.0
11
0.028728
21
0.027206
31
0.0
0
LINE
8
0
6
CONTINUOUS
10
0.073627
20
0.027206
30
0.0
11
0.069355
21
0.027206
31
0.0
0
LINE
8
0
6
CONTINUOUS
10
-0.062418
20
0.027206
30
0.0
11
-0.069355
21
0.027206
31
0.0
0
LINE
8
0
6
CONTINUOUS
10
-0.014645
20
0.027206
30
0.0
11
-0.028728
21
0.027206
31
0.0
0
LINE
8
0
6
CONTINUOUS
10
-0.013758
20
0.007206
30
0.0
11
0.000000
21
0.007206
31
0.0
0
LINE
8
0
6
CONTINUOUS
10
-0.026998
20
0.007206
30
0.0
11
-0.013758
21
0.007206
31
0.0
0
LINE
8
0
6
CONTINUOUS
10
-0.039221
20
0.007206
30
0.0
11
-0.026998
21
0.007206
31
0.0
0
LINE
8
0
6
CONTINUOUS
10
-0.049957
20
0.007206
30
0.0
11
-0.039221
21
0.007206
31
0.0
0
LINE
8
0
6
CONTINUOUS
10
-0.058782
20
0.007206
30
0.0
11
-0.049957
21
0.007206
31
0.0
0
LINE
8
0
6
CONTINUOUS
10
-0.065351
20
0.007206
30
0.0
11
-0.058782
21
0.007206
31
0.0
0
LINE
8
0
6
CONTINUOUS
10
-0.069402
20
0.007206
30
0.0
11
-0.065351
21
0.007206
31
0.0
0
LINE
8
0
6
CONTINUOUS
10
-0.072758
20
0.007474
30
0.0
11
-0.070853
21
0.007206
31
0.0
0
LINE
8
0
6
CONTINUOUS
10
-0.070853
20
0.007206
30
0.0
11
-0.069402
21
0.007206
31
0.0
0
LINE
8
0
6
CONTINUOUS
10
-0.074163
20
0.008206
30
0.0
11
-0.072758
21
0.007474
31
0.0
0
LINE
8
0
6
CONTINUOUS
10
-0.074693
20
0.009205
30
0.0
11
-0.074163
21
0.008206
31
0.0
0
LINE
8
0
6
CONTINUOUS
10
0.070853
20
0.007206
30
0.0
11
0.072758
21
0.007474
31
0.0
0
LINE
8
0
6
CONTINUOUS
10
0.069402
20
0.007206
30
0.0
11
0.070853
21
0.007206
31
0.0
0
LINE
8
0
6
CONTINUOUS
10
0.072758
20
0.007474
30
0.0
11
0.074163
21
0.008206
31
0.0
0
LINE
8
0
6
CONTINUOUS
10
0.074163
20
0.008206
30
0.0
11
0.074693
21
0.009205
31
0.0
0
LINE
8
0
6
CONTINUOUS
10
0.065351
20
0.007206
30
0.0
11
0.069402
21
0.007206
31
0.0
0
LINE
8
0
6
CONTINUOUS
10
0.058782
20
0.007206
30
0.0
11
0.065351
21
0.007206
31
0.0
0
LINE
8
0
6
CONTINUOUS
10
0.049956
20
0.007206
30
0.0
11
0.058782
21
0.007206
31
0.0
0
LINE
8
0
6
CONTINUOUS
10
0.039221
20
0.007206
30
0.0
11
0.049956
21
0.007206
31
0.0
0
LINE
8
0
6
CONTINUOUS
10
0.026998
20
0.007206
30
0.0
11
0.039221
21
0.007206
31
0.0
0
LINE
8
0
6
CONTINUOUS
10
0.013758
20
0.007206
30
0.0
11
0.026998
21
0.007206
31
0.0
0
LINE
8
0
6
CONTINUOUS
10
0.000000
20
0.007206
30
0.0
11
0.013758
21
0.007206
31
0.0
0
LINE
8
0
6
CONTINUOUS
10
-0.075048
20
0.026231
30
0.0
11
-0.074704
21
0.009724
31
0.0
0
LINE
8
0
6
CONTINUOUS
10
0.074704
20
0.009724
30
0.0
11
0.075048
21
0.026231
31
0.0
0
ENDSEC
0
EOF
