999
unknown String-ID: 20550
0
SECTION
2
HEADER
9
$ACADVER
1
AC1009
9
$DWGCODEPAGE
3
unknown String-ID: 20561
0
ENDSEC
0
SECTION
2
TABLES
0
TABLE
2
LAYER
70
1
0
LAYER
2
0
70
0
62
7
6
CONTINUOUS
0
ENDTAB
0
ENDSEC
0
SECTION
2
ENTITIES
0
LINE
8
0
6
CONTINUOUS
10
-0.004939
20
-0.055132
30
0.0
11
-0.004939
21
-0.059704
31
0.0
0
LINE
8
0
6
CONTINUOUS
10
0.004939
20
-0.059704
30
0.0
11
0.004939
21
-0.055133
31
0.0
0
LINE
8
0
6
CONTINUOUS
10
-0.001149
20
-0.060257
30
0.0
11
0.000000
21
-0.060257
31
0.0
0
LINE
8
0
6
CONTINUOUS
10
-0.002220
20
-0.060257
30
0.0
11
-0.001149
21
-0.060257
31
0.0
0
LINE
8
0
6
CONTINUOUS
10
-0.003140
20
-0.060257
30
0.0
11
-0.002220
21
-0.060257
31
0.0
0
LINE
8
0
6
CONTINUOUS
10
-0.003846
20
-0.060257
30
0.0
11
-0.003140
21
-0.060257
31
0.0
0
LINE
8
0
6
CONTINUOUS
10
-0.004289
20
-0.060257
30
0.0
11
-0.003846
21
-0.060257
31
0.0
0
LINE
8
0
6
CONTINUOUS
10
-0.004441
20
-0.060257
30
0.0
11
-0.004289
21
-0.060257
31
0.0
0
LINE
8
0
6
CONTINUOUS
10
-0.004690
20
-0.060191
30
0.0
11
-0.004441
21
-0.060257
31
0.0
0
LINE
8
0
6
CONTINUOUS
10
-0.004872
20
-0.060010
30
0.0
11
-0.004690
21
-0.060191
31
0.0
0
LINE
8
0
6
CONTINUOUS
10
-0.004939
20
-0.059763
30
0.0
11
-0.004872
21
-0.060010
31
0.0
0
LINE
8
0
6
CONTINUOUS
10
0.004441
20
-0.060257
30
0.0
11
0.004690
21
-0.060191
31
0.0
0
LINE
8
0
6
CONTINUOUS
10
0.004289
20
-0.060257
30
0.0
11
0.004441
21
-0.060257
31
0.0
0
LINE
8
0
6
CONTINUOUS
10
0.004690
20
-0.060191
30
0.0
11
0.004872
21
-0.060010
31
0.0
0
LINE
8
0
6
CONTINUOUS
10
0.004872
20
-0.060010
30
0.0
11
0.004939
21
-0.059763
31
0.0
0
LINE
8
0
6
CONTINUOUS
10
0.003846
20
-0.060257
30
0.0
11
0.004289
21
-0.060257
31
0.0
0
LINE
8
0
6
CONTINUOUS
10
0.003140
20
-0.060257
30
0.0
11
0.003846
21
-0.060257
31
0.0
0
LINE
8
0
6
CONTINUOUS
10
0.002220
20
-0.060257
30
0.0
11
0.003140
21
-0.060257
31
0.0
0
LINE
8
0
6
CONTINUOUS
10
0.001149
20
-0.060257
30
0.0
11
0.002220
21
-0.060257
31
0.0
0
LINE
8
0
6
CONTINUOUS
10
0.000000
20
-0.060257
30
0.0
11
0.001149
21
-0.060257
31
0.0
0
LINE
8
0
6
CONTINUOUS
10
-0.004939
20
-0.059704
30
0.0
11
-0.004939
21
-0.059763
31
0.0
0
LINE
8
0
6
CONTINUOUS
10
0.004939
20
-0.059763
30
0.0
11
0.004939
21
-0.059704
31
0.0
0
LINE
8
0
6
CONTINUOUS
10
-0.002736
20
0.000091
30
0.0
11
-0.003121
21
-0.000751
31
0.0
0
LINE
8
0
6
CONTINUOUS
10
-0.003121
20
-0.000751
30
0.0
11
-0.003253
21
-0.001667
31
0.0
0
LINE
8
0
6
CONTINUOUS
10
-0.002130
20
0.000791
30
0.0
11
-0.002736
21
0.000091
31
0.0
0
LINE
8
0
6
CONTINUOUS
10
0.003253
20
-0.001667
30
0.0
11
0.003121
21
-0.000751
31
0.0
0
LINE
8
0
6
CONTINUOUS
10
0.003121
20
-0.000751
30
0.0
11
0.002736
21
0.000091
31
0.0
0
LINE
8
0
6
CONTINUOUS
10
0.002736
20
0.000091
30
0.0
11
0.002130
21
0.000791
31
0.0
0
LINE
8
0
6
CONTINUOUS
10
-0.000463
20
0.001552
30
0.0
11
-0.001351
21
0.001292
31
0.0
0
LINE
8
0
6
CONTINUOUS
10
0.000463
20
0.001552
30
0.0
11
0.000000
21
0.001552
31
0.0
0
LINE
8
0
6
CONTINUOUS
10
-0.001351
20
0.001292
30
0.0
11
-0.002130
21
0.000791
31
0.0
0
LINE
8
0
6
CONTINUOUS
10
0.002130
20
0.000791
30
0.0
11
0.001351
21
0.001292
31
0.0
0
LINE
8
0
6
CONTINUOUS
10
0.001351
20
0.001292
30
0.0
11
0.000463
21
0.001552
31
0.0
0
LINE
8
0
6
CONTINUOUS
10
-0.003253
20
-0.001667
30
0.0
11
-0.003253
21
-0.012335
31
0.0
0
LINE
8
0
6
CONTINUOUS
10
0.003253
20
-0.012337
30
0.0
11
0.003253
21
-0.001701
31
0.0
0
LINE
8
0
6
CONTINUOUS
10
0.002259
20
-0.013017
30
0.0
11
0.002358
21
-0.013027
31
0.0
0
LINE
8
0
6
CONTINUOUS
10
-0.002358
20
-0.013029
30
0.0
11
-0.002259
21
-0.013016
31
0.0
0
LINE
8
0
6
CONTINUOUS
10
-0.000000
20
-0.012763
30
0.0
11
0.002259
21
-0.013017
31
0.0
0
LINE
8
0
6
CONTINUOUS
10
0.004866
20
-0.012519
30
0.0
11
0.003253
21
-0.012337
31
0.0
0
LINE
8
0
6
CONTINUOUS
10
0.009488
20
-0.014136
30
0.0
11
0.004866
21
-0.012519
31
0.0
0
LINE
8
0
6
CONTINUOUS
10
0.013634
20
-0.016741
30
0.0
11
0.009488
21
-0.014136
31
0.0
0
LINE
8
0
6
CONTINUOUS
10
0.017097
20
-0.020204
30
0.0
11
0.013634
21
-0.016741
31
0.0
0
LINE
8
0
6
CONTINUOUS
10
0.019702
20
-0.024350
30
0.0
11
0.017097
21
-0.020204
31
0.0
0
LINE
8
0
6
CONTINUOUS
10
0.021319
20
-0.028972
30
0.0
11
0.019702
21
-0.024350
31
0.0
0
LINE
8
0
6
CONTINUOUS
10
0.021867
20
-0.033838
30
0.0
11
0.021319
21
-0.028972
31
0.0
0
LINE
8
0
6
CONTINUOUS
10
0.021319
20
-0.038704
30
0.0
11
0.021867
21
-0.033838
31
0.0
0
LINE
8
0
6
CONTINUOUS
10
0.019702
20
-0.043326
30
0.0
11
0.021319
21
-0.038704
31
0.0
0
LINE
8
0
6
CONTINUOUS
10
0.017097
20
-0.047472
30
0.0
11
0.019702
21
-0.043326
31
0.0
0
LINE
8
0
6
CONTINUOUS
10
0.013634
20
-0.050935
30
0.0
11
0.017097
21
-0.047472
31
0.0
0
LINE
8
0
6
CONTINUOUS
10
0.009488
20
-0.053540
30
0.0
11
0.013634
21
-0.050935
31
0.0
0
LINE
8
0
6
CONTINUOUS
10
0.004866
20
-0.055157
30
0.0
11
0.009488
21
-0.053540
31
0.0
0
LINE
8
0
6
CONTINUOUS
10
0.000000
20
-0.055706
30
0.0
11
0.004866
21
-0.055157
31
0.0
0
LINE
8
0
6
CONTINUOUS
10
-0.004866
20
-0.055157
30
0.0
11
0.000000
21
-0.055706
31
0.0
0
LINE
8
0
6
CONTINUOUS
10
-0.009488
20
-0.053540
30
0.0
11
-0.004866
21
-0.055157
31
0.0
0
LINE
8
0
6
CONTINUOUS
10
-0.013634
20
-0.050935
30
0.0
11
-0.009488
21
-0.053540
31
0.0
0
LINE
8
0
6
CONTINUOUS
10
-0.017097
20
-0.047472
30
0.0
11
-0.013634
21
-0.050935
31
0.0
0
LINE
8
0
6
CONTINUOUS
10
-0.019702
20
-0.043326
30
0.0
11
-0.017097
21
-0.047472
31
0.0
0
LINE
8
0
6
CONTINUOUS
10
-0.021319
20
-0.038704
30
0.0
11
-0.019702
21
-0.043326
31
0.0
0
LINE
8
0
6
CONTINUOUS
10
-0.021867
20
-0.033838
30
0.0
11
-0.021319
21
-0.038704
31
0.0
0
LINE
8
0
6
CONTINUOUS
10
-0.021319
20
-0.028972
30
0.0
11
-0.021867
21
-0.033838
31
0.0
0
LINE
8
0
6
CONTINUOUS
10
-0.019702
20
-0.024350
30
0.0
11
-0.021319
21
-0.028972
31
0.0
0
LINE
8
0
6
CONTINUOUS
10
-0.017097
20
-0.020204
30
0.0
11
-0.019702
21
-0.024350
31
0.0
0
LINE
8
0
6
CONTINUOUS
10
-0.013634
20
-0.016741
30
0.0
11
-0.017097
21
-0.020204
31
0.0
0
LINE
8
0
6
CONTINUOUS
10
-0.009488
20
-0.014136
30
0.0
11
-0.013634
21
-0.016741
31
0.0
0
LINE
8
0
6
CONTINUOUS
10
-0.004866
20
-0.012519
30
0.0
11
-0.009488
21
-0.014136
31
0.0
0
LINE
8
0
6
CONTINUOUS
10
-0.003253
20
-0.012337
30
0.0
11
-0.004866
21
-0.012519
31
0.0
0
LINE
8
0
6
CONTINUOUS
10
0.000000
20
0.001552
30
0.0
11
-0.000463
21
0.001552
31
0.0
0
LINE
8
0
6
CONTINUOUS
10
-0.002259
20
-0.013016
30
0.0
11
-0.000000
21
-0.012763
31
0.0
0
LINE
8
0
6
CONTINUOUS
10
-0.022893
20
-0.011033
30
0.0
11
-0.027968
21
-0.017801
31
0.0
0
LINE
8
0
6
CONTINUOUS
10
-0.003253
20
-0.002044
30
0.0
11
-0.008360
21
-0.002774
31
0.0
0
LINE
8
0
6
CONTINUOUS
10
-0.016124
20
-0.005957
30
0.0
11
-0.022893
21
-0.011033
31
0.0
0
LINE
8
0
6
CONTINUOUS
10
-0.027968
20
-0.050051
30
0.0
11
-0.022893
21
-0.056820
31
0.0
0
LINE
8
0
6
CONTINUOUS
10
-0.008360
20
-0.065079
30
0.0
11
-0.000000
21
-0.066274
31
0.0
0
LINE
8
0
6
CONTINUOUS
10
-0.008360
20
-0.002774
30
0.0
11
-0.016124
21
-0.005957
31
0.0
0
LINE
8
0
6
CONTINUOUS
10
-0.016124
20
-0.061894
30
0.0
11
-0.008360
21
-0.065079
31
0.0
0
LINE
8
0
6
CONTINUOUS
10
-0.031153
20
-0.025565
30
0.0
11
-0.032348
21
-0.033926
31
0.0
0
LINE
8
0
6
CONTINUOUS
10
-0.022893
20
-0.056820
30
0.0
11
-0.016124
21
-0.061894
31
0.0
0
LINE
8
0
6
CONTINUOUS
10
-0.027968
20
-0.017801
30
0.0
11
-0.031153
21
-0.025565
31
0.0
0
LINE
8
0
6
CONTINUOUS
10
-0.031153
20
-0.042287
30
0.0
11
-0.027968
21
-0.050051
31
0.0
0
LINE
8
0
6
CONTINUOUS
10
-0.032348
20
-0.033926
30
0.0
11
-0.031153
21
-0.042287
31
0.0
0
LINE
8
0
6
CONTINUOUS
10
0.069355
20
0.028728
30
0.0
11
0.062418
21
0.041706
31
0.0
0
LINE
8
0
6
CONTINUOUS
10
0.027968
20
-0.017801
30
0.0
11
0.022893
21
-0.011033
31
0.0
0
LINE
8
0
6
CONTINUOUS
10
0.008360
20
-0.002774
30
0.0
11
0.003253
21
-0.002044
31
0.0
0
LINE
8
0
6
CONTINUOUS
10
0.022893
20
-0.011033
30
0.0
11
0.016124
21
-0.005957
31
0.0
0
LINE
8
0
6
CONTINUOUS
10
0.022893
20
-0.056820
30
0.0
11
0.027968
21
-0.050051
31
0.0
0
LINE
8
0
6
CONTINUOUS
10
-0.000000
20
-0.066274
30
0.0
11
0.008360
21
-0.065079
31
0.0
0
LINE
8
0
6
CONTINUOUS
10
0.016124
20
-0.005957
30
0.0
11
0.008360
21
-0.002774
31
0.0
0
LINE
8
0
6
CONTINUOUS
10
0.008360
20
-0.065079
30
0.0
11
0.016124
21
-0.061894
31
0.0
0
LINE
8
0
6
CONTINUOUS
10
0.032348
20
-0.033926
30
0.0
11
0.031153
21
-0.025565
31
0.0
0
LINE
8
0
6
CONTINUOUS
10
0.016124
20
-0.061894
30
0.0
11
0.022893
21
-0.056820
31
0.0
0
LINE
8
0
6
CONTINUOUS
10
0.031153
20
-0.025565
30
0.0
11
0.027968
21
-0.017801
31
0.0
0
LINE
8
0
6
CONTINUOUS
10
0.027968
20
-0.050051
30
0.0
11
0.031153
21
-0.042287
31
0.0
0
LINE
8
0
6
CONTINUOUS
10
0.031153
20
-0.042287
30
0.0
11
0.032348
21
-0.033926
31
0.0
0
LINE
8
0
6
CONTINUOUS
10
0.028728
20
-0.069355
30
0.0
11
0.041706
21
-0.062418
31
0.0
0
LINE
8
0
6
CONTINUOUS
10
0.069355
20
-0.028728
30
0.0
11
0.073627
21
-0.014645
31
0.0
0
LINE
8
0
6
CONTINUOUS
10
0.028728
20
0.069355
30
0.0
11
0.014645
21
0.073627
31
0.0
0
LINE
8
0
6
CONTINUOUS
10
-0.028728
20
-0.069355
30
0.0
11
-0.014645
21
-0.073627
31
0.0
0
LINE
8
0
6
CONTINUOUS
10
-0.069355
20
-0.028728
30
0.0
11
-0.062418
21
-0.041706
31
0.0
0
LINE
8
0
6
CONTINUOUS
10
-0.069355
20
0.028728
30
0.0
11
-0.073627
21
0.014645
31
0.0
0
LINE
8
0
6
CONTINUOUS
10
-0.028728
20
0.069355
30
0.0
11
-0.041706
21
0.062418
31
0.0
0
LINE
8
0
6
CONTINUOUS
10
0.014645
20
0.073627
30
0.0
11
0.000000
21
0.075069
31
0.0
0
LINE
8
0
6
CONTINUOUS
10
0.062418
20
0.041706
30
0.0
11
0.053082
21
0.053082
31
0.0
0
LINE
8
0
6
CONTINUOUS
10
0.073627
20
-0.014645
30
0.0
11
0.075069
21
0.000000
31
0.0
0
LINE
8
0
6
CONTINUOUS
10
0.041706
20
-0.062418
30
0.0
11
0.053082
21
-0.053082
31
0.0
0
LINE
8
0
6
CONTINUOUS
10
-0.014645
20
-0.073627
30
0.0
11
0.000000
21
-0.075069
31
0.0
0
LINE
8
0
6
CONTINUOUS
10
-0.062418
20
-0.041706
30
0.0
11
-0.053082
21
-0.053082
31
0.0
0
LINE
8
0
6
CONTINUOUS
10
-0.073627
20
0.014645
30
0.0
11
-0.075069
21
0.000000
31
0.0
0
LINE
8
0
6
CONTINUOUS
10
-0.041706
20
0.062418
30
0.0
11
-0.053082
21
0.053082
31
0.0
0
LINE
8
0
6
CONTINUOUS
10
0.053082
20
0.053082
30
0.0
11
0.041706
21
0.062418
31
0.0
0
LINE
8
0
6
CONTINUOUS
10
0.075069
20
0.000000
30
0.0
11
0.073627
21
0.014645
31
0.0
0
LINE
8
0
6
CONTINUOUS
10
0.053082
20
-0.053082
30
0.0
11
0.062418
21
-0.041706
31
0.0
0
LINE
8
0
6
CONTINUOUS
10
0.000000
20
-0.075069
30
0.0
11
0.014645
21
-0.073627
31
0.0
0
LINE
8
0
6
CONTINUOUS
10
-0.053082
20
0.053082
30
0.0
11
-0.062418
21
0.041706
31
0.0
0
LINE
8
0
6
CONTINUOUS
10
0.000000
20
0.075069
30
0.0
11
-0.014645
21
0.073627
31
0.0
0
LINE
8
0
6
CONTINUOUS
10
-0.053082
20
-0.053082
30
0.0
11
-0.041706
21
-0.062418
31
0.0
0
LINE
8
0
6
CONTINUOUS
10
-0.075069
20
0.000000
30
0.0
11
-0.073627
21
-0.014645
31
0.0
0
LINE
8
0
6
CONTINUOUS
10
0.041706
20
0.062418
30
0.0
11
0.028728
21
0.069355
31
0.0
0
LINE
8
0
6
CONTINUOUS
10
0.073627
20
0.014645
30
0.0
11
0.069355
21
0.028728
31
0.0
0
LINE
8
0
6
CONTINUOUS
10
0.062418
20
-0.041706
30
0.0
11
0.069355
21
-0.028728
31
0.0
0
LINE
8
0
6
CONTINUOUS
10
0.014645
20
-0.073627
30
0.0
11
0.028728
21
-0.069355
31
0.0
0
LINE
8
0
6
CONTINUOUS
10
-0.073627
20
-0.014645
30
0.0
11
-0.069355
21
-0.028728
31
0.0
0
LINE
8
0
6
CONTINUOUS
10
-0.062418
20
0.041706
30
0.0
11
-0.069355
21
0.028728
31
0.0
0
LINE
8
0
6
CONTINUOUS
10
-0.014645
20
0.073627
30
0.0
11
-0.028728
21
0.069355
31
0.0
0
LINE
8
0
6
CONTINUOUS
10
-0.041706
20
-0.062418
30
0.0
11
-0.028728
21
-0.069355
31
0.0
0
LINE
8
0
6
CONTINUOUS
10
-0.028265
20
-0.017630
30
0.0
11
-0.023136
21
-0.010790
31
0.0
0
LINE
8
0
6
CONTINUOUS
10
-0.008449
20
-0.002443
30
0.0
11
-0.003253
21
-0.001701
31
0.0
0
LINE
8
0
6
CONTINUOUS
10
-0.023136
20
-0.010790
30
0.0
11
-0.016295
21
-0.005661
31
0.0
0
LINE
8
0
6
CONTINUOUS
10
-0.023136
20
-0.057063
30
0.0
11
-0.028265
21
-0.050222
31
0.0
0
LINE
8
0
6
CONTINUOUS
10
-0.000000
20
-0.066617
30
0.0
11
-0.008449
21
-0.065410
31
0.0
0
LINE
8
0
6
CONTINUOUS
10
-0.016295
20
-0.005661
30
0.0
11
-0.008449
21
-0.002443
31
0.0
0
LINE
8
0
6
CONTINUOUS
10
-0.008449
20
-0.065410
30
0.0
11
-0.016295
21
-0.062191
31
0.0
0
LINE
8
0
6
CONTINUOUS
10
-0.032691
20
-0.033926
30
0.0
11
-0.031483
21
-0.025477
31
0.0
0
LINE
8
0
6
CONTINUOUS
10
-0.016295
20
-0.062191
30
0.0
11
-0.023136
21
-0.057063
31
0.0
0
LINE
8
0
6
CONTINUOUS
10
-0.031483
20
-0.025477
30
0.0
11
-0.028265
21
-0.017630
31
0.0
0
LINE
8
0
6
CONTINUOUS
10
-0.028265
20
-0.050222
30
0.0
11
-0.031483
21
-0.042376
31
0.0
0
LINE
8
0
6
CONTINUOUS
10
-0.031483
20
-0.042376
30
0.0
11
-0.032691
21
-0.033926
31
0.0
0
LINE
8
0
6
CONTINUOUS
10
-0.009778
20
0.024377
30
0.0
11
-0.011945
21
0.027269
31
0.0
0
LINE
8
0
6
CONTINUOUS
10
-0.003571
20
0.047461
30
0.0
11
-0.000000
21
0.047972
31
0.0
0
LINE
8
0
6
CONTINUOUS
10
-0.011945
20
0.041043
30
0.0
11
-0.009778
21
0.043934
31
0.0
0
LINE
8
0
6
CONTINUOUS
10
-0.006887
20
0.046102
30
0.0
11
-0.003571
21
0.047461
31
0.0
0
LINE
8
0
6
CONTINUOUS
10
-0.003571
20
0.020850
30
0.0
11
-0.006887
21
0.022211
31
0.0
0
LINE
8
0
6
CONTINUOUS
10
-0.013306
20
0.037727
30
0.0
11
-0.011945
21
0.041043
31
0.0
0
LINE
8
0
6
CONTINUOUS
10
-0.011945
20
0.027269
30
0.0
11
-0.013306
21
0.030585
31
0.0
0
LINE
8
0
6
CONTINUOUS
10
-0.013816
20
0.034156
30
0.0
11
-0.013306
21
0.037727
31
0.0
0
LINE
8
0
6
CONTINUOUS
10
-0.000000
20
0.020340
30
0.0
11
-0.003571
21
0.020850
31
0.0
0
LINE
8
0
6
CONTINUOUS
10
-0.006887
20
0.022211
30
0.0
11
-0.009778
21
0.024377
31
0.0
0
LINE
8
0
6
CONTINUOUS
10
-0.013306
20
0.030585
30
0.0
11
-0.013816
21
0.034156
31
0.0
0
LINE
8
0
6
CONTINUOUS
10
-0.009778
20
0.043934
30
0.0
11
-0.006887
21
0.046102
31
0.0
0
LINE
8
0
6
CONTINUOUS
10
0.023136
20
-0.010790
30
0.0
11
0.028265
21
-0.017630
31
0.0
0
LINE
8
0
6
CONTINUOUS
10
0.003253
20
-0.001701
30
0.0
11
0.008449
21
-0.002443
31
0.0
0
LINE
8
0
6
CONTINUOUS
10
0.016295
20
-0.005661
30
0.0
11
0.023136
21
-0.010790
31
0.0
0
LINE
8
0
6
CONTINUOUS
10
0.028265
20
-0.050222
30
0.0
11
0.023136
21
-0.057063
31
0.0
0
LINE
8
0
6
CONTINUOUS
10
0.008449
20
-0.065410
30
0.0
11
-0.000000
21
-0.066617
31
0.0
0
LINE
8
0
6
CONTINUOUS
10
0.008449
20
-0.002443
30
0.0
11
0.016295
21
-0.005661
31
0.0
0
LINE
8
0
6
CONTINUOUS
10
0.016295
20
-0.062191
30
0.0
11
0.008449
21
-0.065410
31
0.0
0
LINE
8
0
6
CONTINUOUS
10
0.031483
20
-0.025477
30
0.0
11
0.032691
21
-0.033926
31
0.0
0
LINE
8
0
6
CONTINUOUS
10
0.023136
20
-0.057063
30
0.0
11
0.016295
21
-0.062191
31
0.0
0
LINE
8
0
6
CONTINUOUS
10
0.028265
20
-0.017630
30
0.0
11
0.031483
21
-0.025477
31
0.0
0
LINE
8
0
6
CONTINUOUS
10
0.031483
20
-0.042376
30
0.0
11
0.028265
21
-0.050222
31
0.0
0
LINE
8
0
6
CONTINUOUS
10
0.032691
20
-0.033926
30
0.0
11
0.031483
21
-0.042376
31
0.0
0
LINE
8
0
6
CONTINUOUS
10
0.011945
20
0.027269
30
0.0
11
0.009778
21
0.024377
31
0.0
0
LINE
8
0
6
CONTINUOUS
10
-0.000000
20
0.047972
30
0.0
11
0.003571
21
0.047461
31
0.0
0
LINE
8
0
6
CONTINUOUS
10
0.009778
20
0.043934
30
0.0
11
0.011945
21
0.041043
31
0.0
0
LINE
8
0
6
CONTINUOUS
10
0.003571
20
0.047461
30
0.0
11
0.006887
21
0.046102
31
0.0
0
LINE
8
0
6
CONTINUOUS
10
0.006887
20
0.022211
30
0.0
11
0.003571
21
0.020850
31
0.0
0
LINE
8
0
6
CONTINUOUS
10
0.011945
20
0.041043
30
0.0
11
0.013306
21
0.037727
31
0.0
0
LINE
8
0
6
CONTINUOUS
10
0.013306
20
0.030585
30
0.0
11
0.011945
21
0.027269
31
0.0
0
LINE
8
0
6
CONTINUOUS
10
0.013306
20
0.037727
30
0.0
11
0.013816
21
0.034156
31
0.0
0
LINE
8
0
6
CONTINUOUS
10
0.003571
20
0.020850
30
0.0
11
-0.000000
21
0.020340
31
0.0
0
LINE
8
0
6
CONTINUOUS
10
0.009778
20
0.024377
30
0.0
11
0.006887
21
0.022211
31
0.0
0
LINE
8
0
6
CONTINUOUS
10
0.013816
20
0.034156
30
0.0
11
0.013306
21
0.030585
31
0.0
0
LINE
8
0
6
CONTINUOUS
10
0.006887
20
0.046102
30
0.0
11
0.009778
21
0.043934
31
0.0
0
LINE
8
0
6
CONTINUOUS
10
-0.006783
20
0.022390
30
0.0
11
-0.003517
21
0.021050
31
0.0
0
LINE
8
0
6
CONTINUOUS
10
-0.009631
20
0.043788
30
0.0
11
-0.011766
21
0.040940
31
0.0
0
LINE
8
0
6
CONTINUOUS
10
-0.011766
20
0.027372
30
0.0
11
-0.009631
21
0.024524
31
0.0
0
LINE
8
0
6
CONTINUOUS
10
-0.006783
20
0.045922
30
0.0
11
-0.009631
21
0.043788
31
0.0
0
LINE
8
0
6
CONTINUOUS
10
-0.013609
20
0.034156
30
0.0
11
-0.013106
21
0.030638
31
0.0
0
LINE
8
0
6
CONTINUOUS
10
-0.013106
20
0.030638
30
0.0
11
-0.011766
21
0.027372
31
0.0
0
LINE
8
0
6
CONTINUOUS
10
-0.013106
20
0.037673
30
0.0
11
-0.013609
21
0.034156
31
0.0
0
LINE
8
0
6
CONTINUOUS
10
-0.003517
20
0.021050
30
0.0
11
-0.000000
21
0.020547
31
0.0
0
LINE
8
0
6
CONTINUOUS
10
-0.009631
20
0.024524
30
0.0
11
-0.006783
21
0.022390
31
0.0
0
LINE
8
0
6
CONTINUOUS
10
-0.011766
20
0.040940
30
0.0
11
-0.013106
21
0.037673
31
0.0
0
LINE
8
0
6
CONTINUOUS
10
-0.003517
20
0.047262
30
0.0
11
-0.006783
21
0.045922
31
0.0
0
LINE
8
0
6
CONTINUOUS
10
-0.000000
20
0.047765
30
0.0
11
-0.003517
21
0.047262
31
0.0
0
LINE
8
0
6
CONTINUOUS
10
0.003517
20
0.021050
30
0.0
11
0.006783
21
0.022390
31
0.0
0
LINE
8
0
6
CONTINUOUS
10
0.011766
20
0.040940
30
0.0
11
0.009631
21
0.043788
31
0.0
0
LINE
8
0
6
CONTINUOUS
10
0.009631
20
0.024524
30
0.0
11
0.011766
21
0.027372
31
0.0
0
LINE
8
0
6
CONTINUOUS
10
0.009631
20
0.043788
30
0.0
11
0.006783
21
0.045922
31
0.0
0
LINE
8
0
6
CONTINUOUS
10
0.013106
20
0.030638
30
0.0
11
0.013609
21
0.034156
31
0.0
0
LINE
8
0
6
CONTINUOUS
10
0.011766
20
0.027372
30
0.0
11
0.013106
21
0.030638
31
0.0
0
LINE
8
0
6
CONTINUOUS
10
0.013609
20
0.034156
30
0.0
11
0.013106
21
0.037673
31
0.0
0
LINE
8
0
6
CONTINUOUS
10
-0.000000
20
0.020547
30
0.0
11
0.003517
21
0.021050
31
0.0
0
LINE
8
0
6
CONTINUOUS
10
0.006783
20
0.022390
30
0.0
11
0.009631
21
0.024524
31
0.0
0
LINE
8
0
6
CONTINUOUS
10
0.013106
20
0.037673
30
0.0
11
0.011766
21
0.040940
31
0.0
0
LINE
8
0
6
CONTINUOUS
10
0.006783
20
0.045922
30
0.0
11
0.003517
21
0.047262
31
0.0
0
LINE
8
0
6
CONTINUOUS
10
0.003517
20
0.047262
30
0.0
11
-0.000000
21
0.047765
31
0.0
0
ENDSEC
0
EOF
