999
unknown String-ID: 20550
0
SECTION
2
HEADER
9
$ACADVER
1
AC1009
9
$DWGCODEPAGE
3
unknown String-ID: 20561
0
ENDSEC
0
SECTION
2
TABLES
0
TABLE
2
LAYER
70
1
0
LAYER
2
0
70
0
62
7
6
CONTINUOUS
0
ENDTAB
0
ENDSEC
0
SECTION
2
ENTITIES
0
LINE
8
0
6
CONTINUOUS
10
0.005171
20
-0.052817
30
0.0
11
0.005171
21
-0.056816
31
0.0
0
LINE
8
0
6
CONTINUOUS
10
0.015049
20
-0.056816
30
0.0
11
0.015049
21
-0.052817
31
0.0
0
LINE
8
0
6
CONTINUOUS
10
0.014551
20
-0.057369
30
0.0
11
0.014800
21
-0.057302
31
0.0
0
LINE
8
0
6
CONTINUOUS
10
0.014399
20
-0.057369
30
0.0
11
0.014551
21
-0.057369
31
0.0
0
LINE
8
0
6
CONTINUOUS
10
0.014800
20
-0.057302
30
0.0
11
0.014982
21
-0.057122
31
0.0
0
LINE
8
0
6
CONTINUOUS
10
0.014982
20
-0.057122
30
0.0
11
0.015049
21
-0.056875
31
0.0
0
LINE
8
0
6
CONTINUOUS
10
0.013956
20
-0.057369
30
0.0
11
0.014399
21
-0.057369
31
0.0
0
LINE
8
0
6
CONTINUOUS
10
0.013250
20
-0.057369
30
0.0
11
0.013956
21
-0.057369
31
0.0
0
LINE
8
0
6
CONTINUOUS
10
0.012330
20
-0.057369
30
0.0
11
0.013250
21
-0.057369
31
0.0
0
LINE
8
0
6
CONTINUOUS
10
0.011259
20
-0.057369
30
0.0
11
0.012330
21
-0.057369
31
0.0
0
LINE
8
0
6
CONTINUOUS
10
0.010110
20
-0.057369
30
0.0
11
0.011259
21
-0.057369
31
0.0
0
LINE
8
0
6
CONTINUOUS
10
0.008961
20
-0.057369
30
0.0
11
0.010110
21
-0.057369
31
0.0
0
LINE
8
0
6
CONTINUOUS
10
0.007890
20
-0.057369
30
0.0
11
0.008961
21
-0.057369
31
0.0
0
LINE
8
0
6
CONTINUOUS
10
0.006970
20
-0.057369
30
0.0
11
0.007890
21
-0.057369
31
0.0
0
LINE
8
0
6
CONTINUOUS
10
0.006264
20
-0.057369
30
0.0
11
0.006970
21
-0.057369
31
0.0
0
LINE
8
0
6
CONTINUOUS
10
0.005821
20
-0.057369
30
0.0
11
0.006264
21
-0.057369
31
0.0
0
LINE
8
0
6
CONTINUOUS
10
0.005669
20
-0.057369
30
0.0
11
0.005821
21
-0.057369
31
0.0
0
LINE
8
0
6
CONTINUOUS
10
0.005420
20
-0.057302
30
0.0
11
0.005669
21
-0.057369
31
0.0
0
LINE
8
0
6
CONTINUOUS
10
0.005238
20
-0.057122
30
0.0
11
0.005420
21
-0.057302
31
0.0
0
LINE
8
0
6
CONTINUOUS
10
0.005171
20
-0.056875
30
0.0
11
0.005238
21
-0.057122
31
0.0
0
LINE
8
0
6
CONTINUOUS
10
0.005171
20
-0.056816
30
0.0
11
0.005171
21
-0.056875
31
0.0
0
LINE
8
0
6
CONTINUOUS
10
0.015049
20
-0.056875
30
0.0
11
0.015049
21
-0.056816
31
0.0
0
LINE
8
0
6
CONTINUOUS
10
0.008621
20
0.004441
30
0.0
11
0.008544
21
0.004441
31
0.0
0
LINE
8
0
6
CONTINUOUS
10
0.026841
20
0.001883
30
0.0
11
0.026841
21
0.002491
31
0.0
0
LINE
8
0
6
CONTINUOUS
10
0.026841
20
0.001157
30
0.0
11
0.026841
21
0.001883
31
0.0
0
LINE
8
0
6
CONTINUOUS
10
0.026841
20
0.002491
30
0.0
11
0.026841
21
0.002997
31
0.0
0
LINE
8
0
6
CONTINUOUS
10
0.026841
20
0.003546
30
0.0
11
0.026650
21
0.003940
31
0.0
0
LINE
8
0
6
CONTINUOUS
10
0.026841
20
0.003358
30
0.0
11
0.026841
21
0.003546
31
0.0
0
LINE
8
0
6
CONTINUOUS
10
0.026650
20
0.003940
30
0.0
11
0.026340
21
0.004250
31
0.0
0
LINE
8
0
6
CONTINUOUS
10
0.026340
20
0.004250
30
0.0
11
0.025946
21
0.004441
31
0.0
0
LINE
8
0
6
CONTINUOUS
10
0.026841
20
0.002997
30
0.0
11
0.026841
21
0.003358
31
0.0
0
LINE
8
0
6
CONTINUOUS
10
0.007650
20
0.002491
30
0.0
11
0.007650
21
0.001883
31
0.0
0
LINE
8
0
6
CONTINUOUS
10
0.007650
20
0.001883
30
0.0
11
0.007650
21
0.001157
31
0.0
0
LINE
8
0
6
CONTINUOUS
10
0.007650
20
0.002997
30
0.0
11
0.007650
21
0.002491
31
0.0
0
LINE
8
0
6
CONTINUOUS
10
0.008544
20
0.004441
30
0.0
11
0.008150
21
0.004250
31
0.0
0
LINE
8
0
6
CONTINUOUS
10
0.008150
20
0.004250
30
0.0
11
0.007841
21
0.003940
31
0.0
0
LINE
8
0
6
CONTINUOUS
10
0.007650
20
0.003546
30
0.0
11
0.007650
21
0.003358
31
0.0
0
LINE
8
0
6
CONTINUOUS
10
0.007841
20
0.003940
30
0.0
11
0.007650
21
0.003546
31
0.0
0
LINE
8
0
6
CONTINUOUS
10
0.007650
20
0.003358
30
0.0
11
0.007650
21
0.002997
31
0.0
0
LINE
8
0
6
CONTINUOUS
10
0.007650
20
0.001157
30
0.0
11
0.007650
21
-0.009082
31
0.0
0
LINE
8
0
6
CONTINUOUS
10
0.026841
20
-0.010048
30
0.0
11
0.026841
21
0.001157
31
0.0
0
LINE
8
0
6
CONTINUOUS
10
0.025946
20
0.004441
30
0.0
11
0.025752
21
0.004441
31
0.0
0
LINE
8
0
6
CONTINUOUS
10
0.025752
20
0.004441
30
0.0
11
0.008621
21
0.004441
31
0.0
0
LINE
8
0
6
CONTINUOUS
10
0.026677
20
-0.052475
30
0.0
11
0.026843
21
-0.052112
31
0.0
0
LINE
8
0
6
CONTINUOUS
10
0.026843
20
-0.052112
30
0.0
11
0.026843
21
-0.051582
31
0.0
0
LINE
8
0
6
CONTINUOUS
10
0.026843
20
-0.051582
30
0.0
11
0.026843
21
-0.050016
31
0.0
0
LINE
8
0
6
CONTINUOUS
10
0.026843
20
-0.047495
30
0.0
11
0.026843
21
-0.044144
31
0.0
0
LINE
8
0
6
CONTINUOUS
10
0.026843
20
-0.044144
30
0.0
11
0.026843
21
-0.040132
31
0.0
0
LINE
8
0
6
CONTINUOUS
10
0.026843
20
-0.040132
30
0.0
11
0.026843
21
-0.035659
31
0.0
0
LINE
8
0
6
CONTINUOUS
10
0.026843
20
-0.035659
30
0.0
11
0.026843
21
-0.030950
31
0.0
0
LINE
8
0
6
CONTINUOUS
10
0.026843
20
-0.030950
30
0.0
11
0.026843
21
-0.026241
31
0.0
0
LINE
8
0
6
CONTINUOUS
10
0.026843
20
-0.026241
30
0.0
11
0.026843
21
-0.021768
31
0.0
0
LINE
8
0
6
CONTINUOUS
10
0.026843
20
-0.021768
30
0.0
11
0.026843
21
-0.017755
31
0.0
0
LINE
8
0
6
CONTINUOUS
10
0.026843
20
-0.017755
30
0.0
11
0.026843
21
-0.014404
31
0.0
0
LINE
8
0
6
CONTINUOUS
10
0.026843
20
-0.014404
30
0.0
11
0.026843
21
-0.011883
31
0.0
0
LINE
8
0
6
CONTINUOUS
10
-0.005342
20
-0.011016
30
0.0
11
-0.005650
21
-0.011016
31
0.0
0
LINE
8
0
6
CONTINUOUS
10
-0.005099
20
-0.052817
30
0.0
11
0.005171
21
-0.052817
31
0.0
0
LINE
8
0
6
CONTINUOUS
10
0.015049
20
-0.052817
30
0.0
11
0.025940
21
-0.052817
31
0.0
0
LINE
8
0
6
CONTINUOUS
10
0.007650
20
-0.009082
30
0.0
11
-0.005099
21
-0.009082
31
0.0
0
LINE
8
0
6
CONTINUOUS
10
-0.005342
20
-0.009630
30
0.0
11
-0.005342
21
-0.011248
31
0.0
0
LINE
8
0
6
CONTINUOUS
10
-0.005342
20
-0.021462
30
0.0
11
-0.005342
21
-0.026084
31
0.0
0
LINE
8
0
6
CONTINUOUS
10
-0.005342
20
-0.017316
30
0.0
11
-0.005342
21
-0.021462
31
0.0
0
LINE
8
0
6
CONTINUOUS
10
-0.005342
20
-0.035816
30
0.0
11
-0.005342
21
-0.040438
31
0.0
0
LINE
8
0
6
CONTINUOUS
10
-0.005342
20
-0.050652
30
0.0
11
-0.005342
21
-0.052269
31
0.0
0
LINE
8
0
6
CONTINUOUS
10
-0.005099
20
-0.009082
30
0.0
11
-0.005342
21
-0.009082
31
0.0
0
LINE
8
0
6
CONTINUOUS
10
-0.005342
20
-0.009082
30
0.0
11
-0.005342
21
-0.009630
31
0.0
0
LINE
8
0
6
CONTINUOUS
10
-0.005342
20
-0.013853
30
0.0
11
-0.005342
21
-0.017316
31
0.0
0
LINE
8
0
6
CONTINUOUS
10
-0.005342
20
-0.030950
30
0.0
11
-0.005342
21
-0.035816
31
0.0
0
LINE
8
0
6
CONTINUOUS
10
-0.005342
20
-0.026084
30
0.0
11
-0.005342
21
-0.030950
31
0.0
0
LINE
8
0
6
CONTINUOUS
10
-0.005342
20
-0.044584
30
0.0
11
-0.005342
21
-0.048046
31
0.0
0
LINE
8
0
6
CONTINUOUS
10
-0.005342
20
-0.011248
30
0.0
11
-0.005342
21
-0.013853
31
0.0
0
LINE
8
0
6
CONTINUOUS
10
-0.005342
20
-0.052817
30
0.0
11
-0.005099
21
-0.052817
31
0.0
0
LINE
8
0
6
CONTINUOUS
10
-0.005342
20
-0.052269
30
0.0
11
-0.005342
21
-0.052817
31
0.0
0
LINE
8
0
6
CONTINUOUS
10
0.026008
20
-0.052817
30
0.0
11
0.026385
21
-0.052732
31
0.0
0
LINE
8
0
6
CONTINUOUS
10
0.026385
20
-0.052732
30
0.0
11
0.026677
21
-0.052475
31
0.0
0
LINE
8
0
6
CONTINUOUS
10
0.026843
20
-0.050016
30
0.0
11
0.026843
21
-0.047495
31
0.0
0
LINE
8
0
6
CONTINUOUS
10
-0.005342
20
-0.044584
30
0.0
11
-0.005342
21
-0.040438
31
0.0
0
LINE
8
0
6
CONTINUOUS
10
-0.005342
20
-0.048046
30
0.0
11
-0.005342
21
-0.050652
31
0.0
0
LINE
8
0
6
CONTINUOUS
10
0.025940
20
-0.052817
30
0.0
11
0.026008
21
-0.052817
31
0.0
0
LINE
8
0
6
CONTINUOUS
10
-0.005650
20
-0.050883
30
0.0
11
-0.005342
21
-0.050883
31
0.0
0
LINE
8
0
6
CONTINUOUS
10
-0.005650
20
-0.011246
30
0.0
11
-0.005650
21
-0.009629
31
0.0
0
LINE
8
0
6
CONTINUOUS
10
-0.005650
20
-0.017315
30
0.0
11
-0.005650
21
-0.013852
31
0.0
0
LINE
8
0
6
CONTINUOUS
10
-0.005650
20
-0.026083
30
0.0
11
-0.005650
21
-0.021461
31
0.0
0
LINE
8
0
6
CONTINUOUS
10
-0.005650
20
-0.048048
30
0.0
11
-0.005650
21
-0.044585
31
0.0
0
LINE
8
0
6
CONTINUOUS
10
-0.005650
20
-0.052270
30
0.0
11
-0.005650
21
-0.050653
31
0.0
0
LINE
8
0
6
CONTINUOUS
10
-0.005650
20
-0.035816
30
0.0
11
-0.005650
21
-0.030950
31
0.0
0
LINE
8
0
6
CONTINUOUS
10
-0.005650
20
-0.044585
30
0.0
11
-0.005650
21
-0.040438
31
0.0
0
LINE
8
0
6
CONTINUOUS
10
-0.005650
20
-0.040438
30
0.0
11
-0.005650
21
-0.035816
31
0.0
0
LINE
8
0
6
CONTINUOUS
10
-0.005650
20
-0.021461
30
0.0
11
-0.005650
21
-0.017315
31
0.0
0
LINE
8
0
6
CONTINUOUS
10
-0.005966
20
-0.052819
30
0.0
11
-0.005650
21
-0.052819
31
0.0
0
LINE
8
0
6
CONTINUOUS
10
-0.005650
20
-0.052819
30
0.0
11
-0.005650
21
-0.052270
31
0.0
0
LINE
8
0
6
CONTINUOUS
10
-0.005650
20
-0.050653
30
0.0
11
-0.005650
21
-0.048048
31
0.0
0
LINE
8
0
6
CONTINUOUS
10
-0.005650
20
-0.013852
30
0.0
11
-0.005650
21
-0.011246
31
0.0
0
LINE
8
0
6
CONTINUOUS
10
-0.005650
20
-0.009081
30
0.0
11
-0.005966
21
-0.009081
31
0.0
0
LINE
8
0
6
CONTINUOUS
10
-0.005650
20
-0.009629
30
0.0
11
-0.005650
21
-0.009081
31
0.0
0
LINE
8
0
6
CONTINUOUS
10
-0.005650
20
-0.030950
30
0.0
11
-0.005650
21
-0.026083
31
0.0
0
LINE
8
0
6
CONTINUOUS
10
-0.006841
20
-0.052819
30
0.0
11
-0.005966
21
-0.052819
31
0.0
0
LINE
8
0
6
CONTINUOUS
10
-0.005966
20
-0.009081
30
0.0
11
-0.006841
21
-0.009081
31
0.0
0
LINE
8
0
6
CONTINUOUS
10
-0.009361
20
0.074704
30
0.0
11
-0.025868
21
0.075048
31
0.0
0
LINE
8
0
6
CONTINUOUS
10
-0.008843
20
0.074693
30
0.0
11
-0.009361
21
0.074704
31
0.0
0
LINE
8
0
6
CONTINUOUS
10
-0.009361
20
-0.074704
30
0.0
11
-0.008843
21
-0.074693
31
0.0
0
LINE
8
0
6
CONTINUOUS
10
-0.026843
20
-0.069355
30
0.0
11
-0.026843
21
-0.073627
31
0.0
0
LINE
8
0
6
CONTINUOUS
10
-0.026843
20
-0.028728
30
0.0
11
-0.026843
21
-0.041706
31
0.0
0
LINE
8
0
6
CONTINUOUS
10
-0.026843
20
0.028728
30
0.0
11
-0.026843
21
0.014645
31
0.0
0
LINE
8
0
6
CONTINUOUS
10
-0.026843
20
0.069355
30
0.0
11
-0.026843
21
0.062418
31
0.0
0
LINE
8
0
6
CONTINUOUS
10
-0.026843
20
-0.075069
30
0.0
11
-0.025868
21
-0.075048
31
0.0
0
LINE
8
0
6
CONTINUOUS
10
-0.026843
20
-0.073627
30
0.0
11
-0.026843
21
-0.075069
31
0.0
0
LINE
8
0
6
CONTINUOUS
10
-0.026843
20
-0.041706
30
0.0
11
-0.026843
21
-0.053082
31
0.0
0
LINE
8
0
6
CONTINUOUS
10
-0.026843
20
0.014645
30
0.0
11
-0.026843
21
0.000000
31
0.0
0
LINE
8
0
6
CONTINUOUS
10
-0.026843
20
0.062418
30
0.0
11
-0.026843
21
0.053082
31
0.0
0
LINE
8
0
6
CONTINUOUS
10
-0.026843
20
0.053082
30
0.0
11
-0.026843
21
0.041706
31
0.0
0
LINE
8
0
6
CONTINUOUS
10
-0.025868
20
0.075048
30
0.0
11
-0.026843
21
0.075069
31
0.0
0
LINE
8
0
6
CONTINUOUS
10
-0.026843
20
0.075069
30
0.0
11
-0.026843
21
0.073627
31
0.0
0
LINE
8
0
6
CONTINUOUS
10
-0.026843
20
-0.053082
30
0.0
11
-0.026843
21
-0.062418
31
0.0
0
LINE
8
0
6
CONTINUOUS
10
-0.026843
20
0.000000
30
0.0
11
-0.026843
21
-0.014645
31
0.0
0
LINE
8
0
6
CONTINUOUS
10
-0.026843
20
-0.014645
30
0.0
11
-0.026843
21
-0.028728
31
0.0
0
LINE
8
0
6
CONTINUOUS
10
-0.026843
20
0.041706
30
0.0
11
-0.026843
21
0.028728
31
0.0
0
LINE
8
0
6
CONTINUOUS
10
-0.026843
20
0.073627
30
0.0
11
-0.026843
21
0.069355
31
0.0
0
LINE
8
0
6
CONTINUOUS
10
-0.026843
20
-0.062418
30
0.0
11
-0.026843
21
-0.069355
31
0.0
0
LINE
8
0
6
CONTINUOUS
10
-0.006841
20
0.072684
30
0.0
11
-0.007111
21
0.073673
31
0.0
0
LINE
8
0
6
CONTINUOUS
10
-0.006841
20
0.071329
30
0.0
11
-0.006841
21
0.072684
31
0.0
0
LINE
8
0
6
CONTINUOUS
10
-0.007111
20
0.073673
30
0.0
11
-0.007843
21
0.074409
31
0.0
0
LINE
8
0
6
CONTINUOUS
10
-0.007843
20
0.074409
30
0.0
11
-0.008843
21
0.074693
31
0.0
0
LINE
8
0
6
CONTINUOUS
10
-0.006841
20
0.067313
30
0.0
11
-0.006841
21
0.071329
31
0.0
0
LINE
8
0
6
CONTINUOUS
10
-0.006841
20
0.060779
30
0.0
11
-0.006841
21
0.067313
31
0.0
0
LINE
8
0
6
CONTINUOUS
10
-0.006841
20
0.051969
30
0.0
11
-0.006841
21
0.060779
31
0.0
0
LINE
8
0
6
CONTINUOUS
10
-0.006841
20
0.041215
30
0.0
11
-0.006841
21
0.051969
31
0.0
0
LINE
8
0
6
CONTINUOUS
10
-0.006841
20
0.028925
30
0.0
11
-0.006841
21
0.041215
31
0.0
0
LINE
8
0
6
CONTINUOUS
10
-0.006841
20
0.015570
30
0.0
11
-0.006841
21
0.028925
31
0.0
0
LINE
8
0
6
CONTINUOUS
10
-0.006841
20
0.000842
30
0.0
11
-0.006841
21
0.015570
31
0.0
0
LINE
8
0
6
CONTINUOUS
10
-0.006841
20
-0.014745
30
0.0
11
-0.006841
21
0.000842
31
0.0
0
LINE
8
0
6
CONTINUOUS
10
-0.006841
20
-0.028204
30
0.0
11
-0.006841
21
-0.014745
31
0.0
0
LINE
8
0
6
CONTINUOUS
10
-0.006841
20
-0.040579
30
0.0
11
-0.006841
21
-0.028204
31
0.0
0
LINE
8
0
6
CONTINUOUS
10
-0.006841
20
-0.051384
30
0.0
11
-0.006841
21
-0.040579
31
0.0
0
LINE
8
0
6
CONTINUOUS
10
-0.006841
20
-0.060213
30
0.0
11
-0.006841
21
-0.051384
31
0.0
0
LINE
8
0
6
CONTINUOUS
10
-0.006841
20
-0.066734
30
0.0
11
-0.006841
21
-0.060213
31
0.0
0
LINE
8
0
6
CONTINUOUS
10
-0.006841
20
-0.070725
30
0.0
11
-0.006841
21
-0.066734
31
0.0
0
LINE
8
0
6
CONTINUOUS
10
-0.007111
20
-0.073365
30
0.0
11
-0.006841
21
-0.072068
31
0.0
0
LINE
8
0
6
CONTINUOUS
10
-0.006841
20
-0.072068
30
0.0
11
-0.006841
21
-0.070725
31
0.0
0
LINE
8
0
6
CONTINUOUS
10
-0.007843
20
-0.074326
30
0.0
11
-0.007111
21
-0.073365
31
0.0
0
LINE
8
0
6
CONTINUOUS
10
-0.008843
20
-0.074693
30
0.0
11
-0.007843
21
-0.074326
31
0.0
0
LINE
8
0
6
CONTINUOUS
10
-0.025868
20
-0.075048
30
0.0
11
-0.009361
21
-0.074704
31
0.0
0
ENDSEC
0
EOF
