999
unknown String-ID: 20550
0
SECTION
2
HEADER
9
$ACADVER
1
AC1009
9
$DWGCODEPAGE
3
unknown String-ID: 20561
0
ENDSEC
0
SECTION
2
TABLES
0
TABLE
2
LAYER
70
1
0
LAYER
2
0
70
0
62
7
6
CONTINUOUS
0
ENDTAB
0
ENDSEC
0
SECTION
2
ENTITIES
0
LINE
8
0
6
CONTINUOUS
10
-0.004939
20
-0.052243
30
0.0
11
-0.004939
21
-0.056816
31
0.0
0
LINE
8
0
6
CONTINUOUS
10
0.004939
20
-0.056816
30
0.0
11
0.004939
21
-0.052245
31
0.0
0
LINE
8
0
6
CONTINUOUS
10
-0.001149
20
-0.057369
30
0.0
11
0.000000
21
-0.057369
31
0.0
0
LINE
8
0
6
CONTINUOUS
10
-0.002220
20
-0.057369
30
0.0
11
-0.001149
21
-0.057369
31
0.0
0
LINE
8
0
6
CONTINUOUS
10
-0.003140
20
-0.057369
30
0.0
11
-0.002220
21
-0.057369
31
0.0
0
LINE
8
0
6
CONTINUOUS
10
-0.003846
20
-0.057369
30
0.0
11
-0.003140
21
-0.057369
31
0.0
0
LINE
8
0
6
CONTINUOUS
10
-0.004289
20
-0.057369
30
0.0
11
-0.003846
21
-0.057369
31
0.0
0
LINE
8
0
6
CONTINUOUS
10
-0.004441
20
-0.057369
30
0.0
11
-0.004289
21
-0.057369
31
0.0
0
LINE
8
0
6
CONTINUOUS
10
-0.004690
20
-0.057302
30
0.0
11
-0.004441
21
-0.057369
31
0.0
0
LINE
8
0
6
CONTINUOUS
10
-0.004872
20
-0.057122
30
0.0
11
-0.004690
21
-0.057302
31
0.0
0
LINE
8
0
6
CONTINUOUS
10
-0.004939
20
-0.056875
30
0.0
11
-0.004872
21
-0.057122
31
0.0
0
LINE
8
0
6
CONTINUOUS
10
0.004441
20
-0.057369
30
0.0
11
0.004690
21
-0.057302
31
0.0
0
LINE
8
0
6
CONTINUOUS
10
0.004289
20
-0.057369
30
0.0
11
0.004441
21
-0.057369
31
0.0
0
LINE
8
0
6
CONTINUOUS
10
0.004690
20
-0.057302
30
0.0
11
0.004872
21
-0.057122
31
0.0
0
LINE
8
0
6
CONTINUOUS
10
0.004872
20
-0.057122
30
0.0
11
0.004939
21
-0.056875
31
0.0
0
LINE
8
0
6
CONTINUOUS
10
0.003846
20
-0.057369
30
0.0
11
0.004289
21
-0.057369
31
0.0
0
LINE
8
0
6
CONTINUOUS
10
0.003140
20
-0.057369
30
0.0
11
0.003846
21
-0.057369
31
0.0
0
LINE
8
0
6
CONTINUOUS
10
0.002220
20
-0.057369
30
0.0
11
0.003140
21
-0.057369
31
0.0
0
LINE
8
0
6
CONTINUOUS
10
0.001149
20
-0.057369
30
0.0
11
0.002220
21
-0.057369
31
0.0
0
LINE
8
0
6
CONTINUOUS
10
0.000000
20
-0.057369
30
0.0
11
0.001149
21
-0.057369
31
0.0
0
LINE
8
0
6
CONTINUOUS
10
-0.004939
20
-0.056816
30
0.0
11
-0.004939
21
-0.056875
31
0.0
0
LINE
8
0
6
CONTINUOUS
10
0.004939
20
-0.056875
30
0.0
11
0.004939
21
-0.056816
31
0.0
0
LINE
8
0
6
CONTINUOUS
10
-0.002736
20
0.002980
30
0.0
11
-0.003121
21
0.002138
31
0.0
0
LINE
8
0
6
CONTINUOUS
10
-0.003121
20
0.002138
30
0.0
11
-0.003253
21
0.001221
31
0.0
0
LINE
8
0
6
CONTINUOUS
10
-0.002130
20
0.003680
30
0.0
11
-0.002736
21
0.002980
31
0.0
0
LINE
8
0
6
CONTINUOUS
10
0.003253
20
0.001221
30
0.0
11
0.003121
21
0.002138
31
0.0
0
LINE
8
0
6
CONTINUOUS
10
0.003121
20
0.002138
30
0.0
11
0.002736
21
0.002980
31
0.0
0
LINE
8
0
6
CONTINUOUS
10
0.002736
20
0.002980
30
0.0
11
0.002130
21
0.003679
31
0.0
0
LINE
8
0
6
CONTINUOUS
10
-0.000463
20
0.004441
30
0.0
11
-0.001351
21
0.004180
31
0.0
0
LINE
8
0
6
CONTINUOUS
10
0.000463
20
0.004441
30
0.0
11
-0.000000
21
0.004441
31
0.0
0
LINE
8
0
6
CONTINUOUS
10
-0.001351
20
0.004180
30
0.0
11
-0.002130
21
0.003680
31
0.0
0
LINE
8
0
6
CONTINUOUS
10
0.002130
20
0.003679
30
0.0
11
0.001351
21
0.004180
31
0.0
0
LINE
8
0
6
CONTINUOUS
10
0.001351
20
0.004180
30
0.0
11
0.000463
21
0.004441
31
0.0
0
LINE
8
0
6
CONTINUOUS
10
-0.003253
20
0.001221
30
0.0
11
-0.003253
21
-0.009447
31
0.0
0
LINE
8
0
6
CONTINUOUS
10
0.003253
20
-0.009449
30
0.0
11
0.003253
21
0.001221
31
0.0
0
LINE
8
0
6
CONTINUOUS
10
0.002259
20
-0.010129
30
0.0
11
0.002358
21
-0.010139
31
0.0
0
LINE
8
0
6
CONTINUOUS
10
-0.002358
20
-0.010141
30
0.0
11
-0.002259
21
-0.010128
31
0.0
0
LINE
8
0
6
CONTINUOUS
10
-0.000000
20
-0.009874
30
0.0
11
0.002259
21
-0.010129
31
0.0
0
LINE
8
0
6
CONTINUOUS
10
0.004866
20
-0.009631
30
0.0
11
0.003253
21
-0.009449
31
0.0
0
LINE
8
0
6
CONTINUOUS
10
0.009488
20
-0.011248
30
0.0
11
0.004866
21
-0.009631
31
0.0
0
LINE
8
0
6
CONTINUOUS
10
0.013634
20
-0.013853
30
0.0
11
0.009488
21
-0.011248
31
0.0
0
LINE
8
0
6
CONTINUOUS
10
0.017097
20
-0.017316
30
0.0
11
0.013634
21
-0.013853
31
0.0
0
LINE
8
0
6
CONTINUOUS
10
0.019702
20
-0.021462
30
0.0
11
0.017097
21
-0.017316
31
0.0
0
LINE
8
0
6
CONTINUOUS
10
0.021319
20
-0.026084
30
0.0
11
0.019702
21
-0.021462
31
0.0
0
LINE
8
0
6
CONTINUOUS
10
0.021867
20
-0.030950
30
0.0
11
0.021319
21
-0.026084
31
0.0
0
LINE
8
0
6
CONTINUOUS
10
0.021319
20
-0.035816
30
0.0
11
0.021867
21
-0.030950
31
0.0
0
LINE
8
0
6
CONTINUOUS
10
0.019702
20
-0.040438
30
0.0
11
0.021319
21
-0.035816
31
0.0
0
LINE
8
0
6
CONTINUOUS
10
0.017097
20
-0.044584
30
0.0
11
0.019702
21
-0.040438
31
0.0
0
LINE
8
0
6
CONTINUOUS
10
0.013634
20
-0.048046
30
0.0
11
0.017097
21
-0.044584
31
0.0
0
LINE
8
0
6
CONTINUOUS
10
0.009488
20
-0.050652
30
0.0
11
0.013634
21
-0.048046
31
0.0
0
LINE
8
0
6
CONTINUOUS
10
0.004866
20
-0.052269
30
0.0
11
0.009488
21
-0.050652
31
0.0
0
LINE
8
0
6
CONTINUOUS
10
0.000000
20
-0.052817
30
0.0
11
0.004866
21
-0.052269
31
0.0
0
LINE
8
0
6
CONTINUOUS
10
-0.004866
20
-0.052269
30
0.0
11
0.000000
21
-0.052817
31
0.0
0
LINE
8
0
6
CONTINUOUS
10
-0.009488
20
-0.050652
30
0.0
11
-0.004866
21
-0.052269
31
0.0
0
LINE
8
0
6
CONTINUOUS
10
-0.013634
20
-0.048046
30
0.0
11
-0.009488
21
-0.050652
31
0.0
0
LINE
8
0
6
CONTINUOUS
10
-0.017097
20
-0.044584
30
0.0
11
-0.013634
21
-0.048046
31
0.0
0
LINE
8
0
6
CONTINUOUS
10
-0.019702
20
-0.040438
30
0.0
11
-0.017097
21
-0.044584
31
0.0
0
LINE
8
0
6
CONTINUOUS
10
-0.021319
20
-0.035816
30
0.0
11
-0.019702
21
-0.040438
31
0.0
0
LINE
8
0
6
CONTINUOUS
10
-0.021867
20
-0.030950
30
0.0
11
-0.021319
21
-0.035816
31
0.0
0
LINE
8
0
6
CONTINUOUS
10
-0.021319
20
-0.026084
30
0.0
11
-0.021867
21
-0.030950
31
0.0
0
LINE
8
0
6
CONTINUOUS
10
-0.019702
20
-0.021462
30
0.0
11
-0.021319
21
-0.026084
31
0.0
0
LINE
8
0
6
CONTINUOUS
10
-0.017097
20
-0.017316
30
0.0
11
-0.019702
21
-0.021462
31
0.0
0
LINE
8
0
6
CONTINUOUS
10
-0.013634
20
-0.013853
30
0.0
11
-0.017097
21
-0.017316
31
0.0
0
LINE
8
0
6
CONTINUOUS
10
-0.009488
20
-0.011248
30
0.0
11
-0.013634
21
-0.013853
31
0.0
0
LINE
8
0
6
CONTINUOUS
10
-0.004866
20
-0.009631
30
0.0
11
-0.009488
21
-0.011248
31
0.0
0
LINE
8
0
6
CONTINUOUS
10
-0.003253
20
-0.009449
30
0.0
11
-0.004866
21
-0.009631
31
0.0
0
LINE
8
0
6
CONTINUOUS
10
-0.000000
20
0.004441
30
0.0
11
-0.000463
21
0.004441
31
0.0
0
LINE
8
0
6
CONTINUOUS
10
-0.002259
20
-0.010128
30
0.0
11
-0.000000
21
-0.009874
31
0.0
0
LINE
8
0
6
CONTINUOUS
10
-0.027968
20
-0.046992
30
0.0
11
-0.022893
21
-0.053760
31
0.0
0
LINE
8
0
6
CONTINUOUS
10
-0.022893
20
-0.053760
30
0.0
11
-0.016124
21
-0.058835
31
0.0
0
LINE
8
0
6
CONTINUOUS
10
-0.022893
20
-0.007973
30
0.0
11
-0.027968
21
-0.014742
31
0.0
0
LINE
8
0
6
CONTINUOUS
10
-0.003253
20
0.001015
30
0.0
11
-0.008360
21
0.000285
31
0.0
0
LINE
8
0
6
CONTINUOUS
10
-0.016124
20
-0.002898
30
0.0
11
-0.022893
21
-0.007973
31
0.0
0
LINE
8
0
6
CONTINUOUS
10
-0.008360
20
-0.062020
30
0.0
11
0.000000
21
-0.063215
31
0.0
0
LINE
8
0
6
CONTINUOUS
10
-0.008360
20
0.000285
30
0.0
11
-0.016124
21
-0.002898
31
0.0
0
LINE
8
0
6
CONTINUOUS
10
-0.016124
20
-0.058835
30
0.0
11
-0.008360
21
-0.062020
31
0.0
0
LINE
8
0
6
CONTINUOUS
10
-0.031153
20
-0.022506
30
0.0
11
-0.032348
21
-0.030867
31
0.0
0
LINE
8
0
6
CONTINUOUS
10
-0.027968
20
-0.014742
30
0.0
11
-0.031153
21
-0.022506
31
0.0
0
LINE
8
0
6
CONTINUOUS
10
-0.031153
20
-0.039228
30
0.0
11
-0.027968
21
-0.046992
31
0.0
0
LINE
8
0
6
CONTINUOUS
10
-0.032348
20
-0.030867
30
0.0
11
-0.031153
21
-0.039228
31
0.0
0
LINE
8
0
6
CONTINUOUS
10
0.022893
20
-0.053760
30
0.0
11
0.027968
21
-0.046992
31
0.0
0
LINE
8
0
6
CONTINUOUS
10
0.016124
20
-0.058835
30
0.0
11
0.022893
21
-0.053760
31
0.0
0
LINE
8
0
6
CONTINUOUS
10
0.027968
20
-0.014742
30
0.0
11
0.022893
21
-0.007973
31
0.0
0
LINE
8
0
6
CONTINUOUS
10
0.008360
20
0.000285
30
0.0
11
0.003253
21
0.001015
31
0.0
0
LINE
8
0
6
CONTINUOUS
10
0.022893
20
-0.007973
30
0.0
11
0.016124
21
-0.002898
31
0.0
0
LINE
8
0
6
CONTINUOUS
10
0.000000
20
-0.063215
30
0.0
11
0.008360
21
-0.062020
31
0.0
0
LINE
8
0
6
CONTINUOUS
10
0.016124
20
-0.002898
30
0.0
11
0.008360
21
0.000285
31
0.0
0
LINE
8
0
6
CONTINUOUS
10
0.008360
20
-0.062020
30
0.0
11
0.016124
21
-0.058835
31
0.0
0
LINE
8
0
6
CONTINUOUS
10
0.032348
20
-0.030867
30
0.0
11
0.031153
21
-0.022506
31
0.0
0
LINE
8
0
6
CONTINUOUS
10
0.031153
20
-0.022506
30
0.0
11
0.027968
21
-0.014742
31
0.0
0
LINE
8
0
6
CONTINUOUS
10
0.027968
20
-0.046992
30
0.0
11
0.031153
21
-0.039228
31
0.0
0
LINE
8
0
6
CONTINUOUS
10
0.031153
20
-0.039228
30
0.0
11
0.032348
21
-0.030867
31
0.0
0
LINE
8
0
6
CONTINUOUS
10
-0.028265
20
-0.014571
30
0.0
11
-0.023136
21
-0.007730
31
0.0
0
LINE
8
0
6
CONTINUOUS
10
-0.008449
20
0.000616
30
0.0
11
0.000000
21
0.001823
31
0.0
0
LINE
8
0
6
CONTINUOUS
10
-0.023136
20
-0.007730
30
0.0
11
-0.016295
21
-0.002601
31
0.0
0
LINE
8
0
6
CONTINUOUS
10
-0.023136
20
-0.054003
30
0.0
11
-0.028265
21
-0.047163
31
0.0
0
LINE
8
0
6
CONTINUOUS
10
0.000000
20
-0.063558
30
0.0
11
-0.008449
21
-0.062350
31
0.0
0
LINE
8
0
6
CONTINUOUS
10
-0.016295
20
-0.002601
30
0.0
11
-0.008449
21
0.000616
31
0.0
0
LINE
8
0
6
CONTINUOUS
10
-0.008449
20
-0.062350
30
0.0
11
-0.016295
21
-0.059132
31
0.0
0
LINE
8
0
6
CONTINUOUS
10
-0.032691
20
-0.030867
30
0.0
11
-0.031483
21
-0.022417
31
0.0
0
LINE
8
0
6
CONTINUOUS
10
-0.016295
20
-0.059132
30
0.0
11
-0.023136
21
-0.054003
31
0.0
0
LINE
8
0
6
CONTINUOUS
10
-0.031483
20
-0.022417
30
0.0
11
-0.028265
21
-0.014571
31
0.0
0
LINE
8
0
6
CONTINUOUS
10
-0.028265
20
-0.047163
30
0.0
11
-0.031483
21
-0.039317
31
0.0
0
LINE
8
0
6
CONTINUOUS
10
-0.031483
20
-0.039317
30
0.0
11
-0.032691
21
-0.030867
31
0.0
0
LINE
8
0
6
CONTINUOUS
10
-0.029607
20
0.014357
30
0.0
11
-0.031774
21
0.017249
31
0.0
0
LINE
8
0
6
CONTINUOUS
10
-0.023399
20
0.037441
30
0.0
11
-0.019829
21
0.037952
31
0.0
0
LINE
8
0
6
CONTINUOUS
10
-0.031774
20
0.031023
30
0.0
11
-0.029607
21
0.033914
31
0.0
0
LINE
8
0
6
CONTINUOUS
10
-0.026715
20
0.036082
30
0.0
11
-0.023399
21
0.037441
31
0.0
0
LINE
8
0
6
CONTINUOUS
10
-0.023399
20
0.010830
30
0.0
11
-0.026715
21
0.012190
31
0.0
0
LINE
8
0
6
CONTINUOUS
10
-0.033134
20
0.027707
30
0.0
11
-0.031774
21
0.031023
31
0.0
0
LINE
8
0
6
CONTINUOUS
10
-0.031774
20
0.017249
30
0.0
11
-0.033134
21
0.020565
31
0.0
0
LINE
8
0
6
CONTINUOUS
10
-0.033645
20
0.024136
30
0.0
11
-0.033134
21
0.027707
31
0.0
0
LINE
8
0
6
CONTINUOUS
10
-0.019829
20
0.010319
30
0.0
11
-0.023399
21
0.010830
31
0.0
0
LINE
8
0
6
CONTINUOUS
10
-0.026715
20
0.012190
30
0.0
11
-0.029607
21
0.014357
31
0.0
0
LINE
8
0
6
CONTINUOUS
10
-0.033390
20
0.022350
30
0.0
11
-0.033645
21
0.024136
31
0.0
0
LINE
8
0
6
CONTINUOUS
10
-0.029607
20
0.033914
30
0.0
11
-0.026715
21
0.036082
31
0.0
0
LINE
8
0
6
CONTINUOUS
10
-0.019829
20
0.037952
30
0.0
11
-0.016258
21
0.037441
31
0.0
0
LINE
8
0
6
CONTINUOUS
10
-0.010051
20
0.033914
30
0.0
11
-0.007883
21
0.031023
31
0.0
0
LINE
8
0
6
CONTINUOUS
10
-0.016258
20
0.037441
30
0.0
11
-0.012942
21
0.036082
31
0.0
0
LINE
8
0
6
CONTINUOUS
10
-0.012942
20
0.012190
30
0.0
11
-0.016258
21
0.010830
31
0.0
0
LINE
8
0
6
CONTINUOUS
10
-0.007883
20
0.031023
30
0.0
11
-0.006523
21
0.027707
31
0.0
0
LINE
8
0
6
CONTINUOUS
10
-0.006523
20
0.027707
30
0.0
11
-0.006012
21
0.024136
31
0.0
0
LINE
8
0
6
CONTINUOUS
10
-0.016258
20
0.010830
30
0.0
11
-0.019829
21
0.010319
31
0.0
0
LINE
8
0
6
CONTINUOUS
10
-0.010051
20
0.014357
30
0.0
11
-0.012942
21
0.012190
31
0.0
0
LINE
8
0
6
CONTINUOUS
10
-0.006012
20
0.024136
30
0.0
11
-0.006523
21
0.020565
31
0.0
0
LINE
8
0
6
CONTINUOUS
10
-0.012942
20
0.036082
30
0.0
11
-0.010051
21
0.033914
31
0.0
0
LINE
8
0
6
CONTINUOUS
10
-0.007883
20
0.017249
30
0.0
11
-0.010051
21
0.014357
31
0.0
0
LINE
8
0
6
CONTINUOUS
10
-0.006523
20
0.020565
30
0.0
11
-0.007883
21
0.017249
31
0.0
0
LINE
8
0
6
CONTINUOUS
10
-0.028728
20
-0.069355
30
0.0
11
-0.014645
21
-0.073627
31
0.0
0
LINE
8
0
6
CONTINUOUS
10
-0.069355
20
-0.028728
30
0.0
11
-0.062418
21
-0.041706
31
0.0
0
LINE
8
0
6
CONTINUOUS
10
-0.069355
20
0.028728
30
0.0
11
-0.073627
21
0.014645
31
0.0
0
LINE
8
0
6
CONTINUOUS
10
-0.028728
20
0.069355
30
0.0
11
-0.041706
21
0.062418
31
0.0
0
LINE
8
0
6
CONTINUOUS
10
-0.014645
20
-0.073627
30
0.0
11
0.000000
21
-0.075069
31
0.0
0
LINE
8
0
6
CONTINUOUS
10
-0.062418
20
-0.041706
30
0.0
11
-0.053082
21
-0.053082
31
0.0
0
LINE
8
0
6
CONTINUOUS
10
-0.073627
20
0.014645
30
0.0
11
-0.075069
21
0.000000
31
0.0
0
LINE
8
0
6
CONTINUOUS
10
-0.041706
20
0.062418
30
0.0
11
-0.053082
21
0.053082
31
0.0
0
LINE
8
0
6
CONTINUOUS
10
-0.053082
20
0.053082
30
0.0
11
-0.062418
21
0.041706
31
0.0
0
LINE
8
0
6
CONTINUOUS
10
0.000000
20
0.075069
30
0.0
11
-0.014645
21
0.073627
31
0.0
0
LINE
8
0
6
CONTINUOUS
10
-0.053082
20
-0.053082
30
0.0
11
-0.041706
21
-0.062418
31
0.0
0
LINE
8
0
6
CONTINUOUS
10
-0.075069
20
0.000000
30
0.0
11
-0.073627
21
-0.014645
31
0.0
0
LINE
8
0
6
CONTINUOUS
10
-0.073627
20
-0.014645
30
0.0
11
-0.069355
21
-0.028728
31
0.0
0
LINE
8
0
6
CONTINUOUS
10
-0.062418
20
0.041706
30
0.0
11
-0.069355
21
0.028728
31
0.0
0
LINE
8
0
6
CONTINUOUS
10
-0.014645
20
0.073627
30
0.0
11
-0.028728
21
0.069355
31
0.0
0
LINE
8
0
6
CONTINUOUS
10
-0.041706
20
-0.062418
30
0.0
11
-0.028728
21
-0.069355
31
0.0
0
LINE
8
0
6
CONTINUOUS
10
-0.033134
20
0.020565
30
0.0
11
-0.033390
21
0.022350
31
0.0
0
LINE
8
0
6
CONTINUOUS
10
0.023136
20
-0.007730
30
0.0
11
0.028265
21
-0.014571
31
0.0
0
LINE
8
0
6
CONTINUOUS
10
0.000000
20
0.001823
30
0.0
11
0.008449
21
0.000616
31
0.0
0
LINE
8
0
6
CONTINUOUS
10
0.016295
20
-0.002601
30
0.0
11
0.023136
21
-0.007730
31
0.0
0
LINE
8
0
6
CONTINUOUS
10
0.028265
20
-0.047163
30
0.0
11
0.023136
21
-0.054003
31
0.0
0
LINE
8
0
6
CONTINUOUS
10
0.008449
20
-0.062350
30
0.0
11
0.000000
21
-0.063558
31
0.0
0
LINE
8
0
6
CONTINUOUS
10
0.008449
20
0.000616
30
0.0
11
0.016295
21
-0.002601
31
0.0
0
LINE
8
0
6
CONTINUOUS
10
0.016295
20
-0.059132
30
0.0
11
0.008449
21
-0.062350
31
0.0
0
LINE
8
0
6
CONTINUOUS
10
0.031483
20
-0.022417
30
0.0
11
0.032691
21
-0.030867
31
0.0
0
LINE
8
0
6
CONTINUOUS
10
0.023136
20
-0.054003
30
0.0
11
0.016295
21
-0.059132
31
0.0
0
LINE
8
0
6
CONTINUOUS
10
0.028265
20
-0.014571
30
0.0
11
0.031483
21
-0.022417
31
0.0
0
LINE
8
0
6
CONTINUOUS
10
0.031483
20
-0.039317
30
0.0
11
0.028265
21
-0.047163
31
0.0
0
LINE
8
0
6
CONTINUOUS
10
0.032691
20
-0.030867
30
0.0
11
0.031483
21
-0.039317
31
0.0
0
LINE
8
0
6
CONTINUOUS
10
0.031774
20
0.017249
30
0.0
11
0.029607
21
0.014357
31
0.0
0
LINE
8
0
6
CONTINUOUS
10
0.019829
20
0.037952
30
0.0
11
0.023399
21
0.037441
31
0.0
0
LINE
8
0
6
CONTINUOUS
10
0.029607
20
0.033914
30
0.0
11
0.031774
21
0.031023
31
0.0
0
LINE
8
0
6
CONTINUOUS
10
0.023399
20
0.037441
30
0.0
11
0.026715
21
0.036082
31
0.0
0
LINE
8
0
6
CONTINUOUS
10
0.026715
20
0.012190
30
0.0
11
0.023399
21
0.010830
31
0.0
0
LINE
8
0
6
CONTINUOUS
10
0.031774
20
0.031023
30
0.0
11
0.033134
21
0.027707
31
0.0
0
LINE
8
0
6
CONTINUOUS
10
0.033134
20
0.020565
30
0.0
11
0.031774
21
0.017249
31
0.0
0
LINE
8
0
6
CONTINUOUS
10
0.033134
20
0.027707
30
0.0
11
0.033645
21
0.024136
31
0.0
0
LINE
8
0
6
CONTINUOUS
10
0.023399
20
0.010830
30
0.0
11
0.019829
21
0.010319
31
0.0
0
LINE
8
0
6
CONTINUOUS
10
0.029607
20
0.014357
30
0.0
11
0.026715
21
0.012190
31
0.0
0
LINE
8
0
6
CONTINUOUS
10
0.033645
20
0.024136
30
0.0
11
0.033390
21
0.022350
31
0.0
0
LINE
8
0
6
CONTINUOUS
10
0.026715
20
0.036082
30
0.0
11
0.029607
21
0.033914
31
0.0
0
LINE
8
0
6
CONTINUOUS
10
0.016258
20
0.037441
30
0.0
11
0.019829
21
0.037952
31
0.0
0
LINE
8
0
6
CONTINUOUS
10
0.007883
20
0.031023
30
0.0
11
0.010051
21
0.033914
31
0.0
0
LINE
8
0
6
CONTINUOUS
10
0.012942
20
0.036082
30
0.0
11
0.016258
21
0.037441
31
0.0
0
LINE
8
0
6
CONTINUOUS
10
0.016258
20
0.010830
30
0.0
11
0.012942
21
0.012190
31
0.0
0
LINE
8
0
6
CONTINUOUS
10
0.006523
20
0.027707
30
0.0
11
0.007883
21
0.031023
31
0.0
0
LINE
8
0
6
CONTINUOUS
10
0.006012
20
0.024136
30
0.0
11
0.006523
21
0.027707
31
0.0
0
LINE
8
0
6
CONTINUOUS
10
0.019829
20
0.010319
30
0.0
11
0.016258
21
0.010830
31
0.0
0
LINE
8
0
6
CONTINUOUS
10
0.012942
20
0.012190
30
0.0
11
0.010051
21
0.014357
31
0.0
0
LINE
8
0
6
CONTINUOUS
10
0.006523
20
0.020565
30
0.0
11
0.006012
21
0.024136
31
0.0
0
LINE
8
0
6
CONTINUOUS
10
0.010051
20
0.033914
30
0.0
11
0.012942
21
0.036082
31
0.0
0
LINE
8
0
6
CONTINUOUS
10
0.010051
20
0.014357
30
0.0
11
0.007883
21
0.017249
31
0.0
0
LINE
8
0
6
CONTINUOUS
10
0.007883
20
0.017249
30
0.0
11
0.006523
21
0.020565
31
0.0
0
LINE
8
0
6
CONTINUOUS
10
0.014645
20
-0.073627
30
0.0
11
0.028728
21
-0.069355
31
0.0
0
LINE
8
0
6
CONTINUOUS
10
0.062418
20
-0.041706
30
0.0
11
0.069355
21
-0.028728
31
0.0
0
LINE
8
0
6
CONTINUOUS
10
0.073627
20
0.014645
30
0.0
11
0.069355
21
0.028728
31
0.0
0
LINE
8
0
6
CONTINUOUS
10
0.041706
20
0.062418
30
0.0
11
0.028728
21
0.069355
31
0.0
0
LINE
8
0
6
CONTINUOUS
10
0.000000
20
-0.075069
30
0.0
11
0.014645
21
-0.073627
31
0.0
0
LINE
8
0
6
CONTINUOUS
10
0.053082
20
-0.053082
30
0.0
11
0.062418
21
-0.041706
31
0.0
0
LINE
8
0
6
CONTINUOUS
10
0.075069
20
0.000000
30
0.0
11
0.073627
21
0.014645
31
0.0
0
LINE
8
0
6
CONTINUOUS
10
0.053082
20
0.053082
30
0.0
11
0.041706
21
0.062418
31
0.0
0
LINE
8
0
6
CONTINUOUS
10
0.062418
20
0.041706
30
0.0
11
0.053082
21
0.053082
31
0.0
0
LINE
8
0
6
CONTINUOUS
10
0.014645
20
0.073627
30
0.0
11
0.000000
21
0.075069
31
0.0
0
LINE
8
0
6
CONTINUOUS
10
0.041706
20
-0.062418
30
0.0
11
0.053082
21
-0.053082
31
0.0
0
LINE
8
0
6
CONTINUOUS
10
0.073627
20
-0.014645
30
0.0
11
0.075069
21
0.000000
31
0.0
0
LINE
8
0
6
CONTINUOUS
10
0.069355
20
-0.028728
30
0.0
11
0.073627
21
-0.014645
31
0.0
0
LINE
8
0
6
CONTINUOUS
10
0.069355
20
0.028728
30
0.0
11
0.062418
21
0.041706
31
0.0
0
LINE
8
0
6
CONTINUOUS
10
0.028728
20
0.069355
30
0.0
11
0.014645
21
0.073627
31
0.0
0
LINE
8
0
6
CONTINUOUS
10
0.028728
20
-0.069355
30
0.0
11
0.041706
21
-0.062418
31
0.0
0
LINE
8
0
6
CONTINUOUS
10
0.033390
20
0.022350
30
0.0
11
0.033134
21
0.020565
31
0.0
0
LINE
8
0
6
CONTINUOUS
10
-0.026612
20
0.012370
30
0.0
11
-0.023346
21
0.011030
31
0.0
0
LINE
8
0
6
CONTINUOUS
10
-0.029460
20
0.033768
30
0.0
11
-0.031595
21
0.030920
31
0.0
0
LINE
8
0
6
CONTINUOUS
10
-0.031595
20
0.017352
30
0.0
11
-0.029460
21
0.014504
31
0.0
0
LINE
8
0
6
CONTINUOUS
10
-0.026612
20
0.035902
30
0.0
11
-0.029460
21
0.033768
31
0.0
0
LINE
8
0
6
CONTINUOUS
10
-0.033438
20
0.024136
30
0.0
11
-0.032935
21
0.020618
31
0.0
0
LINE
8
0
6
CONTINUOUS
10
-0.032935
20
0.020618
30
0.0
11
-0.031595
21
0.017352
31
0.0
0
LINE
8
0
6
CONTINUOUS
10
-0.032935
20
0.027653
30
0.0
11
-0.033438
21
0.024136
31
0.0
0
LINE
8
0
6
CONTINUOUS
10
-0.023346
20
0.011030
30
0.0
11
-0.019829
21
0.010527
31
0.0
0
LINE
8
0
6
CONTINUOUS
10
-0.029460
20
0.014504
30
0.0
11
-0.026612
21
0.012370
31
0.0
0
LINE
8
0
6
CONTINUOUS
10
-0.031595
20
0.030920
30
0.0
11
-0.032935
21
0.027653
31
0.0
0
LINE
8
0
6
CONTINUOUS
10
-0.023346
20
0.037242
30
0.0
11
-0.026612
21
0.035902
31
0.0
0
LINE
8
0
6
CONTINUOUS
10
-0.019829
20
0.037744
30
0.0
11
-0.023346
21
0.037242
31
0.0
0
LINE
8
0
6
CONTINUOUS
10
-0.016311
20
0.011030
30
0.0
11
-0.013045
21
0.012370
31
0.0
0
LINE
8
0
6
CONTINUOUS
10
-0.008062
20
0.030920
30
0.0
11
-0.010197
21
0.033768
31
0.0
0
LINE
8
0
6
CONTINUOUS
10
-0.010197
20
0.014504
30
0.0
11
-0.008062
21
0.017352
31
0.0
0
LINE
8
0
6
CONTINUOUS
10
-0.010197
20
0.033768
30
0.0
11
-0.013045
21
0.035902
31
0.0
0
LINE
8
0
6
CONTINUOUS
10
-0.006723
20
0.020618
30
0.0
11
-0.006220
21
0.024136
31
0.0
0
LINE
8
0
6
CONTINUOUS
10
-0.008062
20
0.017352
30
0.0
11
-0.006723
21
0.020618
31
0.0
0
LINE
8
0
6
CONTINUOUS
10
-0.006220
20
0.024136
30
0.0
11
-0.006723
21
0.027653
31
0.0
0
LINE
8
0
6
CONTINUOUS
10
-0.019829
20
0.010527
30
0.0
11
-0.016311
21
0.011030
31
0.0
0
LINE
8
0
6
CONTINUOUS
10
-0.013045
20
0.012370
30
0.0
11
-0.010197
21
0.014504
31
0.0
0
LINE
8
0
6
CONTINUOUS
10
-0.006723
20
0.027653
30
0.0
11
-0.008062
21
0.030920
31
0.0
0
LINE
8
0
6
CONTINUOUS
10
-0.013045
20
0.035902
30
0.0
11
-0.016311
21
0.037242
31
0.0
0
LINE
8
0
6
CONTINUOUS
10
-0.016311
20
0.037242
30
0.0
11
-0.019829
21
0.037744
31
0.0
0
LINE
8
0
6
CONTINUOUS
10
0.023346
20
0.011030
30
0.0
11
0.026612
21
0.012370
31
0.0
0
LINE
8
0
6
CONTINUOUS
10
0.031595
20
0.030920
30
0.0
11
0.029460
21
0.033768
31
0.0
0
LINE
8
0
6
CONTINUOUS
10
0.029460
20
0.014504
30
0.0
11
0.031595
21
0.017352
31
0.0
0
LINE
8
0
6
CONTINUOUS
10
0.029460
20
0.033768
30
0.0
11
0.026612
21
0.035902
31
0.0
0
LINE
8
0
6
CONTINUOUS
10
0.032935
20
0.020618
30
0.0
11
0.033438
21
0.024136
31
0.0
0
LINE
8
0
6
CONTINUOUS
10
0.031595
20
0.017352
30
0.0
11
0.032935
21
0.020618
31
0.0
0
LINE
8
0
6
CONTINUOUS
10
0.033438
20
0.024136
30
0.0
11
0.032935
21
0.027653
31
0.0
0
LINE
8
0
6
CONTINUOUS
10
0.019829
20
0.010527
30
0.0
11
0.023346
21
0.011030
31
0.0
0
LINE
8
0
6
CONTINUOUS
10
0.026612
20
0.012370
30
0.0
11
0.029460
21
0.014504
31
0.0
0
LINE
8
0
6
CONTINUOUS
10
0.032935
20
0.027653
30
0.0
11
0.031595
21
0.030920
31
0.0
0
LINE
8
0
6
CONTINUOUS
10
0.026612
20
0.035902
30
0.0
11
0.023346
21
0.037242
31
0.0
0
LINE
8
0
6
CONTINUOUS
10
0.023346
20
0.037242
30
0.0
11
0.019829
21
0.037744
31
0.0
0
LINE
8
0
6
CONTINUOUS
10
0.013045
20
0.012370
30
0.0
11
0.016311
21
0.011030
31
0.0
0
LINE
8
0
6
CONTINUOUS
10
0.010197
20
0.033768
30
0.0
11
0.008062
21
0.030920
31
0.0
0
LINE
8
0
6
CONTINUOUS
10
0.008062
20
0.017352
30
0.0
11
0.010197
21
0.014504
31
0.0
0
LINE
8
0
6
CONTINUOUS
10
0.013045
20
0.035902
30
0.0
11
0.010197
21
0.033768
31
0.0
0
LINE
8
0
6
CONTINUOUS
10
0.006220
20
0.024136
30
0.0
11
0.006723
21
0.020618
31
0.0
0
LINE
8
0
6
CONTINUOUS
10
0.006723
20
0.020618
30
0.0
11
0.008062
21
0.017352
31
0.0
0
LINE
8
0
6
CONTINUOUS
10
0.006723
20
0.027653
30
0.0
11
0.006220
21
0.024136
31
0.0
0
LINE
8
0
6
CONTINUOUS
10
0.016311
20
0.011030
30
0.0
11
0.019829
21
0.010527
31
0.0
0
LINE
8
0
6
CONTINUOUS
10
0.010197
20
0.014504
30
0.0
11
0.013045
21
0.012370
31
0.0
0
LINE
8
0
6
CONTINUOUS
10
0.008062
20
0.030920
30
0.0
11
0.006723
21
0.027653
31
0.0
0
LINE
8
0
6
CONTINUOUS
10
0.016311
20
0.037242
30
0.0
11
0.013045
21
0.035902
31
0.0
0
LINE
8
0
6
CONTINUOUS
10
0.019829
20
0.037744
30
0.0
11
0.016311
21
0.037242
31
0.0
0
ENDSEC
0
EOF
