999
unknown String-ID: 20550
0
SECTION
2
HEADER
9
$ACADVER
1
AC1009
9
$DWGCODEPAGE
3
unknown String-ID: 20561
0
ENDSEC
0
SECTION
2
TABLES
0
TABLE
2
LAYER
70
1
0
LAYER
2
0
70
0
62
7
6
CONTINUOUS
0
ENDTAB
0
ENDSEC
0
SECTION
2
ENTITIES
0
LINE
8
0
6
CONTINUOUS
10
0.004000
20
-0.014215
30
0.0
11
0.004000
21
-0.014120
31
0.0
0
LINE
8
0
6
CONTINUOUS
10
-0.002772
20
-0.034020
30
0.0
11
-0.002430
21
-0.034020
31
0.0
0
LINE
8
0
6
CONTINUOUS
10
-0.003385
20
-0.033785
30
0.0
11
-0.002900
21
-0.034020
31
0.0
0
LINE
8
0
6
CONTINUOUS
10
-0.002900
20
-0.034020
30
0.0
11
-0.002772
21
-0.034020
31
0.0
0
LINE
8
0
6
CONTINUOUS
10
-0.002430
20
-0.034020
30
0.0
11
-0.001892
21
-0.034020
31
0.0
0
LINE
8
0
6
CONTINUOUS
10
0.003765
20
-0.033405
30
0.0
11
0.004000
21
-0.032920
31
0.0
0
LINE
8
0
6
CONTINUOUS
10
0.003384
20
-0.033785
30
0.0
11
0.003765
21
-0.033405
31
0.0
0
LINE
8
0
6
CONTINUOUS
10
0.002900
20
-0.034020
30
0.0
11
0.003384
21
-0.033785
31
0.0
0
LINE
8
0
6
CONTINUOUS
10
0.002772
20
-0.034020
30
0.0
11
0.002900
21
-0.034020
31
0.0
0
LINE
8
0
6
CONTINUOUS
10
0.002430
20
-0.034020
30
0.0
11
0.002772
21
-0.034020
31
0.0
0
LINE
8
0
6
CONTINUOUS
10
0.001892
20
-0.034020
30
0.0
11
0.002430
21
-0.034020
31
0.0
0
LINE
8
0
6
CONTINUOUS
10
-0.001200
20
-0.034020
30
0.0
11
-0.000411
21
-0.034020
31
0.0
0
LINE
8
0
6
CONTINUOUS
10
-0.000000
20
-0.034020
30
0.0
11
0.000411
21
-0.034020
31
0.0
0
LINE
8
0
6
CONTINUOUS
10
-0.001892
20
-0.034020
30
0.0
11
-0.001200
21
-0.034020
31
0.0
0
LINE
8
0
6
CONTINUOUS
10
0.001200
20
-0.034020
30
0.0
11
0.001892
21
-0.034020
31
0.0
0
LINE
8
0
6
CONTINUOUS
10
0.000411
20
-0.034020
30
0.0
11
0.001200
21
-0.034020
31
0.0
0
LINE
8
0
6
CONTINUOUS
10
-0.002430
20
-0.013020
30
0.0
11
-0.002772
21
-0.013020
31
0.0
0
LINE
8
0
6
CONTINUOUS
10
-0.002772
20
-0.013020
30
0.0
11
-0.002900
21
-0.013020
31
0.0
0
LINE
8
0
6
CONTINUOUS
10
-0.001892
20
-0.013020
30
0.0
11
-0.002430
21
-0.013020
31
0.0
0
LINE
8
0
6
CONTINUOUS
10
0.003384
20
-0.013255
30
0.0
11
0.002900
21
-0.013020
31
0.0
0
LINE
8
0
6
CONTINUOUS
10
0.002900
20
-0.013020
30
0.0
11
0.002772
21
-0.013020
31
0.0
0
LINE
8
0
6
CONTINUOUS
10
0.003765
20
-0.013635
30
0.0
11
0.003384
21
-0.013255
31
0.0
0
LINE
8
0
6
CONTINUOUS
10
0.004000
20
-0.014120
30
0.0
11
0.003765
21
-0.013635
31
0.0
0
LINE
8
0
6
CONTINUOUS
10
0.002772
20
-0.013020
30
0.0
11
0.002430
21
-0.013020
31
0.0
0
LINE
8
0
6
CONTINUOUS
10
0.002430
20
-0.013020
30
0.0
11
0.001892
21
-0.013020
31
0.0
0
LINE
8
0
6
CONTINUOUS
10
-0.000411
20
-0.013020
30
0.0
11
-0.001200
21
-0.013020
31
0.0
0
LINE
8
0
6
CONTINUOUS
10
0.000411
20
-0.013020
30
0.0
11
-0.000000
21
-0.013020
31
0.0
0
LINE
8
0
6
CONTINUOUS
10
-0.001200
20
-0.013020
30
0.0
11
-0.001892
21
-0.013020
31
0.0
0
LINE
8
0
6
CONTINUOUS
10
0.001892
20
-0.013020
30
0.0
11
0.001200
21
-0.013020
31
0.0
0
LINE
8
0
6
CONTINUOUS
10
0.001200
20
-0.013020
30
0.0
11
0.000411
21
-0.013020
31
0.0
0
LINE
8
0
6
CONTINUOUS
10
0.004000
20
-0.032920
30
0.0
11
0.004000
21
-0.032681
31
0.0
0
LINE
8
0
6
CONTINUOUS
10
0.004000
20
-0.032681
30
0.0
11
0.004000
21
-0.014215
31
0.0
0
LINE
8
0
6
CONTINUOUS
10
0.005791
20
-0.034023
30
0.0
11
0.011292
21
-0.034023
31
0.0
0
LINE
8
0
6
CONTINUOUS
10
0.011292
20
-0.034023
30
0.0
11
0.016226
21
-0.034023
31
0.0
0
LINE
8
0
6
CONTINUOUS
10
0.016226
20
-0.034023
30
0.0
11
0.020347
21
-0.034023
31
0.0
0
LINE
8
0
6
CONTINUOUS
10
0.020347
20
-0.034023
30
0.0
11
0.023448
21
-0.034023
31
0.0
0
LINE
8
0
6
CONTINUOUS
10
0.023448
20
-0.034023
30
0.0
11
0.025373
21
-0.034023
31
0.0
0
LINE
8
0
6
CONTINUOUS
10
0.026025
20
-0.034023
30
0.0
11
0.026471
21
-0.033818
31
0.0
0
LINE
8
0
6
CONTINUOUS
10
0.025373
20
-0.034023
30
0.0
11
0.026025
21
-0.034023
31
0.0
0
LINE
8
0
6
CONTINUOUS
10
-0.026471
20
-0.033818
30
0.0
11
-0.026025
21
-0.034023
31
0.0
0
LINE
8
0
6
CONTINUOUS
10
-0.026025
20
-0.034023
30
0.0
11
-0.025373
21
-0.034023
31
0.0
0
LINE
8
0
6
CONTINUOUS
10
-0.025373
20
-0.034023
30
0.0
11
-0.023448
21
-0.034023
31
0.0
0
LINE
8
0
6
CONTINUOUS
10
-0.023448
20
-0.034023
30
0.0
11
-0.020347
21
-0.034023
31
0.0
0
LINE
8
0
6
CONTINUOUS
10
-0.020347
20
-0.034023
30
0.0
11
-0.016226
21
-0.034023
31
0.0
0
LINE
8
0
6
CONTINUOUS
10
-0.016226
20
-0.034023
30
0.0
11
-0.011292
21
-0.034023
31
0.0
0
LINE
8
0
6
CONTINUOUS
10
-0.011292
20
-0.034023
30
0.0
11
-0.005791
21
-0.034023
31
0.0
0
LINE
8
0
6
CONTINUOUS
10
-0.024514
20
0.014023
30
0.0
11
-0.024514
21
0.013106
31
0.0
0
LINE
8
0
6
CONTINUOUS
10
0.024514
20
0.012777
30
0.0
11
0.024514
21
0.013106
31
0.0
0
LINE
8
0
6
CONTINUOUS
10
0.026892
20
-0.032912
30
0.0
11
0.026892
21
0.012478
31
0.0
0
LINE
8
0
6
CONTINUOUS
10
-0.026892
20
0.012478
30
0.0
11
-0.026892
21
-0.032912
31
0.0
0
LINE
8
0
6
CONTINUOUS
10
-0.000000
20
0.012777
30
0.0
11
0.005866
21
0.012777
31
0.0
0
LINE
8
0
6
CONTINUOUS
10
0.022086
20
0.012777
30
0.0
11
0.019166
21
0.012777
31
0.0
0
LINE
8
0
6
CONTINUOUS
10
0.026362
20
0.012777
30
0.0
11
0.024514
21
0.012777
31
0.0
0
LINE
8
0
6
CONTINUOUS
10
0.024514
20
0.012777
30
0.0
11
0.023899
21
0.012777
31
0.0
0
LINE
8
0
6
CONTINUOUS
10
-0.024514
20
0.012777
30
0.0
11
-0.026362
21
0.012777
31
0.0
0
LINE
8
0
6
CONTINUOUS
10
-0.019166
20
0.012777
30
0.0
11
-0.022086
21
0.012777
31
0.0
0
LINE
8
0
6
CONTINUOUS
10
-0.005866
20
0.012777
30
0.0
11
-0.000000
21
0.012777
31
0.0
0
LINE
8
0
6
CONTINUOUS
10
-0.000000
20
0.012777
30
0.0
11
-0.005455
21
0.012777
31
0.0
0
LINE
8
0
6
CONTINUOUS
10
0.005984
20
0.012777
30
0.0
11
-0.000000
21
0.012777
31
0.0
0
LINE
8
0
6
CONTINUOUS
10
-0.005984
20
0.012777
30
0.0
11
-0.011668
21
0.012777
31
0.0
0
LINE
8
0
6
CONTINUOUS
10
-0.024229
20
0.012777
30
0.0
11
-0.026218
21
0.012777
31
0.0
0
LINE
8
0
6
CONTINUOUS
10
0.026892
20
0.012478
30
0.0
11
0.026892
21
0.012777
31
0.0
0
LINE
8
0
6
CONTINUOUS
10
0.016767
20
0.012777
30
0.0
11
0.011668
21
0.012777
31
0.0
0
LINE
8
0
6
CONTINUOUS
10
0.021025
20
0.012777
30
0.0
11
0.016767
21
0.012777
31
0.0
0
LINE
8
0
6
CONTINUOUS
10
-0.000000
20
0.012777
30
0.0
11
-0.005984
21
0.012777
31
0.0
0
LINE
8
0
6
CONTINUOUS
10
-0.016767
20
0.012777
30
0.0
11
-0.021025
21
0.012777
31
0.0
0
LINE
8
0
6
CONTINUOUS
10
-0.026892
20
0.012777
30
0.0
11
-0.026892
21
0.012478
31
0.0
0
LINE
8
0
6
CONTINUOUS
10
-0.011668
20
0.012777
30
0.0
11
-0.016767
21
0.012777
31
0.0
0
LINE
8
0
6
CONTINUOUS
10
0.026218
20
0.012777
30
0.0
11
0.024229
21
0.012777
31
0.0
0
LINE
8
0
6
CONTINUOUS
10
0.011668
20
0.012777
30
0.0
11
0.005984
21
0.012777
31
0.0
0
LINE
8
0
6
CONTINUOUS
10
0.026787
20
-0.033459
30
0.0
11
0.026892
21
-0.032995
31
0.0
0
LINE
8
0
6
CONTINUOUS
10
0.026471
20
-0.033818
30
0.0
11
0.026787
21
-0.033459
31
0.0
0
LINE
8
0
6
CONTINUOUS
10
-0.026892
20
-0.032995
30
0.0
11
-0.026787
21
-0.033459
31
0.0
0
LINE
8
0
6
CONTINUOUS
10
-0.026787
20
-0.033459
30
0.0
11
-0.026471
21
-0.033818
31
0.0
0
LINE
8
0
6
CONTINUOUS
10
0.021025
20
0.012777
30
0.0
11
0.024229
21
0.012777
31
0.0
0
LINE
8
0
6
CONTINUOUS
10
0.026892
20
0.012777
30
0.0
11
0.026362
21
0.012777
31
0.0
0
LINE
8
0
6
CONTINUOUS
10
0.026218
20
0.012777
30
0.0
11
0.026892
21
0.012777
31
0.0
0
LINE
8
0
6
CONTINUOUS
10
-0.026892
20
0.012777
30
0.0
11
-0.026218
21
0.012777
31
0.0
0
LINE
8
0
6
CONTINUOUS
10
-0.026362
20
0.012777
30
0.0
11
-0.026892
21
0.012777
31
0.0
0
LINE
8
0
6
CONTINUOUS
10
-0.024229
20
0.012777
30
0.0
11
-0.021025
21
0.012777
31
0.0
0
LINE
8
0
6
CONTINUOUS
10
0.026892
20
-0.032995
30
0.0
11
0.026892
21
-0.032912
31
0.0
0
LINE
8
0
6
CONTINUOUS
10
-0.026892
20
-0.032912
30
0.0
11
-0.026892
21
-0.032995
31
0.0
0
LINE
8
0
6
CONTINUOUS
10
-0.000000
20
0.012777
30
0.0
11
0.005455
21
0.012777
31
0.0
0
LINE
8
0
6
CONTINUOUS
10
-0.024514
20
0.012777
30
0.0
11
-0.023899
21
0.012777
31
0.0
0
LINE
8
0
6
CONTINUOUS
10
-0.024514
20
0.013106
30
0.0
11
-0.024514
21
0.012777
31
0.0
0
LINE
8
0
6
CONTINUOUS
10
0.024514
20
0.013106
30
0.0
11
0.024514
21
0.014023
31
0.0
0
LINE
8
0
6
CONTINUOUS
10
-0.000411
20
-0.034020
30
0.0
11
-0.000000
21
-0.034020
31
0.0
0
LINE
8
0
6
CONTINUOUS
10
-0.000000
20
-0.013020
30
0.0
11
-0.000411
21
-0.013020
31
0.0
0
LINE
8
0
6
CONTINUOUS
10
-0.074704
20
0.016541
30
0.0
11
-0.074693
21
0.016022
31
0.0
0
LINE
8
0
6
CONTINUOUS
10
0.069355
20
0.034023
30
0.0
11
0.062418
21
0.034023
31
0.0
0
LINE
8
0
6
CONTINUOUS
10
0.028728
20
0.034023
30
0.0
11
0.014645
21
0.034023
31
0.0
0
LINE
8
0
6
CONTINUOUS
10
0.074693
20
0.016022
30
0.0
11
0.074704
21
0.016541
31
0.0
0
LINE
8
0
6
CONTINUOUS
10
-0.069355
20
0.034023
30
0.0
11
-0.073627
21
0.034023
31
0.0
0
LINE
8
0
6
CONTINUOUS
10
-0.028728
20
0.034023
30
0.0
11
-0.041706
21
0.034023
31
0.0
0
LINE
8
0
6
CONTINUOUS
10
0.014645
20
0.034023
30
0.0
11
0.000000
21
0.034023
31
0.0
0
LINE
8
0
6
CONTINUOUS
10
0.062418
20
0.034023
30
0.0
11
0.053082
21
0.034023
31
0.0
0
LINE
8
0
6
CONTINUOUS
10
-0.075069
20
0.034023
30
0.0
11
-0.075048
21
0.033048
31
0.0
0
LINE
8
0
6
CONTINUOUS
10
-0.073627
20
0.034023
30
0.0
11
-0.075069
21
0.034023
31
0.0
0
LINE
8
0
6
CONTINUOUS
10
-0.041706
20
0.034023
30
0.0
11
-0.053082
21
0.034023
31
0.0
0
LINE
8
0
6
CONTINUOUS
10
0.053082
20
0.034023
30
0.0
11
0.041706
21
0.034023
31
0.0
0
LINE
8
0
6
CONTINUOUS
10
0.075048
20
0.033048
30
0.0
11
0.075069
21
0.034023
31
0.0
0
LINE
8
0
6
CONTINUOUS
10
0.075069
20
0.034023
30
0.0
11
0.073627
21
0.034023
31
0.0
0
LINE
8
0
6
CONTINUOUS
10
-0.053082
20
0.034023
30
0.0
11
-0.062418
21
0.034023
31
0.0
0
LINE
8
0
6
CONTINUOUS
10
0.000000
20
0.034023
30
0.0
11
-0.014645
21
0.034023
31
0.0
0
LINE
8
0
6
CONTINUOUS
10
0.041706
20
0.034023
30
0.0
11
0.028728
21
0.034023
31
0.0
0
LINE
8
0
6
CONTINUOUS
10
0.073627
20
0.034023
30
0.0
11
0.069355
21
0.034023
31
0.0
0
LINE
8
0
6
CONTINUOUS
10
-0.062418
20
0.034023
30
0.0
11
-0.069355
21
0.034023
31
0.0
0
LINE
8
0
6
CONTINUOUS
10
-0.014645
20
0.034023
30
0.0
11
-0.028728
21
0.034023
31
0.0
0
LINE
8
0
6
CONTINUOUS
10
-0.013758
20
0.014023
30
0.0
11
0.000000
21
0.014023
31
0.0
0
LINE
8
0
6
CONTINUOUS
10
-0.026998
20
0.014023
30
0.0
11
-0.013758
21
0.014023
31
0.0
0
LINE
8
0
6
CONTINUOUS
10
-0.039221
20
0.014023
30
0.0
11
-0.026998
21
0.014023
31
0.0
0
LINE
8
0
6
CONTINUOUS
10
-0.049957
20
0.014023
30
0.0
11
-0.039221
21
0.014023
31
0.0
0
LINE
8
0
6
CONTINUOUS
10
-0.058782
20
0.014023
30
0.0
11
-0.049957
21
0.014023
31
0.0
0
LINE
8
0
6
CONTINUOUS
10
-0.065351
20
0.014023
30
0.0
11
-0.058782
21
0.014023
31
0.0
0
LINE
8
0
6
CONTINUOUS
10
-0.069402
20
0.014023
30
0.0
11
-0.065351
21
0.014023
31
0.0
0
LINE
8
0
6
CONTINUOUS
10
-0.072758
20
0.014291
30
0.0
11
-0.070853
21
0.014023
31
0.0
0
LINE
8
0
6
CONTINUOUS
10
-0.070853
20
0.014023
30
0.0
11
-0.069402
21
0.014023
31
0.0
0
LINE
8
0
6
CONTINUOUS
10
-0.074163
20
0.015023
30
0.0
11
-0.072758
21
0.014291
31
0.0
0
LINE
8
0
6
CONTINUOUS
10
-0.074693
20
0.016022
30
0.0
11
-0.074163
21
0.015023
31
0.0
0
LINE
8
0
6
CONTINUOUS
10
0.070853
20
0.014023
30
0.0
11
0.072758
21
0.014291
31
0.0
0
LINE
8
0
6
CONTINUOUS
10
0.069402
20
0.014023
30
0.0
11
0.070853
21
0.014023
31
0.0
0
LINE
8
0
6
CONTINUOUS
10
0.072758
20
0.014291
30
0.0
11
0.074163
21
0.015023
31
0.0
0
LINE
8
0
6
CONTINUOUS
10
0.074163
20
0.015023
30
0.0
11
0.074693
21
0.016022
31
0.0
0
LINE
8
0
6
CONTINUOUS
10
0.065351
20
0.014023
30
0.0
11
0.069402
21
0.014023
31
0.0
0
LINE
8
0
6
CONTINUOUS
10
0.058782
20
0.014023
30
0.0
11
0.065351
21
0.014023
31
0.0
0
LINE
8
0
6
CONTINUOUS
10
0.049956
20
0.014023
30
0.0
11
0.058782
21
0.014023
31
0.0
0
LINE
8
0
6
CONTINUOUS
10
0.039221
20
0.014023
30
0.0
11
0.049956
21
0.014023
31
0.0
0
LINE
8
0
6
CONTINUOUS
10
0.026998
20
0.014023
30
0.0
11
0.039221
21
0.014023
31
0.0
0
LINE
8
0
6
CONTINUOUS
10
0.013758
20
0.014023
30
0.0
11
0.026998
21
0.014023
31
0.0
0
LINE
8
0
6
CONTINUOUS
10
0.000000
20
0.014023
30
0.0
11
0.013758
21
0.014023
31
0.0
0
LINE
8
0
6
CONTINUOUS
10
-0.075048
20
0.033048
30
0.0
11
-0.074704
21
0.016541
31
0.0
0
LINE
8
0
6
CONTINUOUS
10
0.074704
20
0.016541
30
0.0
11
0.075048
21
0.033048
31
0.0
0
ENDSEC
0
EOF
