999
unknown String-ID: 20550
0
SECTION
2
HEADER
9
$ACADVER
1
AC1009
9
$DWGCODEPAGE
3
unknown String-ID: 20561
0
ENDSEC
0
SECTION
2
TABLES
0
TABLE
2
LAYER
70
1
0
LAYER
2
0
70
0
62
7
6
CONTINUOUS
0
ENDTAB
0
ENDSEC
0
SECTION
2
ENTITIES
0
LINE
8
0
6
CONTINUOUS
10
0.000093
20
-0.051980
30
0.0
11
0.000093
21
-0.057368
31
0.0
0
LINE
8
0
6
CONTINUOUS
10
0.009971
20
-0.057368
30
0.0
11
0.009971
21
-0.051980
31
0.0
0
LINE
8
0
6
CONTINUOUS
10
0.009473
20
-0.057921
30
0.0
11
0.009722
21
-0.057855
31
0.0
0
LINE
8
0
6
CONTINUOUS
10
0.009322
20
-0.057921
30
0.0
11
0.009473
21
-0.057921
31
0.0
0
LINE
8
0
6
CONTINUOUS
10
0.009722
20
-0.057855
30
0.0
11
0.009904
21
-0.057674
31
0.0
0
LINE
8
0
6
CONTINUOUS
10
0.009904
20
-0.057674
30
0.0
11
0.009971
21
-0.057427
31
0.0
0
LINE
8
0
6
CONTINUOUS
10
0.008878
20
-0.057921
30
0.0
11
0.009322
21
-0.057921
31
0.0
0
LINE
8
0
6
CONTINUOUS
10
0.008172
20
-0.057921
30
0.0
11
0.008878
21
-0.057921
31
0.0
0
LINE
8
0
6
CONTINUOUS
10
0.007253
20
-0.057921
30
0.0
11
0.008172
21
-0.057921
31
0.0
0
LINE
8
0
6
CONTINUOUS
10
0.006182
20
-0.057921
30
0.0
11
0.007253
21
-0.057921
31
0.0
0
LINE
8
0
6
CONTINUOUS
10
0.005032
20
-0.057921
30
0.0
11
0.006182
21
-0.057921
31
0.0
0
LINE
8
0
6
CONTINUOUS
10
0.003883
20
-0.057921
30
0.0
11
0.005032
21
-0.057921
31
0.0
0
LINE
8
0
6
CONTINUOUS
10
0.002812
20
-0.057921
30
0.0
11
0.003883
21
-0.057921
31
0.0
0
LINE
8
0
6
CONTINUOUS
10
0.001892
20
-0.057921
30
0.0
11
0.002812
21
-0.057921
31
0.0
0
LINE
8
0
6
CONTINUOUS
10
0.001186
20
-0.057921
30
0.0
11
0.001892
21
-0.057921
31
0.0
0
LINE
8
0
6
CONTINUOUS
10
0.000743
20
-0.057921
30
0.0
11
0.001186
21
-0.057921
31
0.0
0
LINE
8
0
6
CONTINUOUS
10
0.000592
20
-0.057921
30
0.0
11
0.000743
21
-0.057921
31
0.0
0
LINE
8
0
6
CONTINUOUS
10
0.000342
20
-0.057855
30
0.0
11
0.000592
21
-0.057921
31
0.0
0
LINE
8
0
6
CONTINUOUS
10
0.000160
20
-0.057674
30
0.0
11
0.000342
21
-0.057855
31
0.0
0
LINE
8
0
6
CONTINUOUS
10
0.000093
20
-0.057427
30
0.0
11
0.000160
21
-0.057674
31
0.0
0
LINE
8
0
6
CONTINUOUS
10
0.000093
20
-0.057368
30
0.0
11
0.000093
21
-0.057427
31
0.0
0
LINE
8
0
6
CONTINUOUS
10
0.009971
20
-0.057427
30
0.0
11
0.009971
21
-0.057368
31
0.0
0
LINE
8
0
6
CONTINUOUS
10
0.014215
20
0.020831
30
0.0
11
0.014120
21
0.020831
31
0.0
0
LINE
8
0
6
CONTINUOUS
10
0.034020
20
0.017685
30
0.0
11
0.034020
21
0.018433
31
0.0
0
LINE
8
0
6
CONTINUOUS
10
0.034020
20
0.016793
30
0.0
11
0.034020
21
0.017685
31
0.0
0
LINE
8
0
6
CONTINUOUS
10
0.034020
20
0.018433
30
0.0
11
0.034020
21
0.019055
31
0.0
0
LINE
8
0
6
CONTINUOUS
10
0.034020
20
0.019731
30
0.0
11
0.033785
21
0.020215
31
0.0
0
LINE
8
0
6
CONTINUOUS
10
0.034020
20
0.019499
30
0.0
11
0.034020
21
0.019731
31
0.0
0
LINE
8
0
6
CONTINUOUS
10
0.033785
20
0.020215
30
0.0
11
0.033405
21
0.020596
31
0.0
0
LINE
8
0
6
CONTINUOUS
10
0.033405
20
0.020596
30
0.0
11
0.032920
21
0.020831
31
0.0
0
LINE
8
0
6
CONTINUOUS
10
0.034020
20
0.019055
30
0.0
11
0.034020
21
0.019499
31
0.0
0
LINE
8
0
6
CONTINUOUS
10
0.013020
20
0.018433
30
0.0
11
0.013020
21
0.017685
31
0.0
0
LINE
8
0
6
CONTINUOUS
10
0.013020
20
0.017685
30
0.0
11
0.013020
21
0.016793
31
0.0
0
LINE
8
0
6
CONTINUOUS
10
0.013020
20
0.019055
30
0.0
11
0.013020
21
0.018433
31
0.0
0
LINE
8
0
6
CONTINUOUS
10
0.014120
20
0.020831
30
0.0
11
0.013635
21
0.020596
31
0.0
0
LINE
8
0
6
CONTINUOUS
10
0.013635
20
0.020596
30
0.0
11
0.013255
21
0.020215
31
0.0
0
LINE
8
0
6
CONTINUOUS
10
0.013020
20
0.019731
30
0.0
11
0.013020
21
0.019499
31
0.0
0
LINE
8
0
6
CONTINUOUS
10
0.013255
20
0.020215
30
0.0
11
0.013020
21
0.019731
31
0.0
0
LINE
8
0
6
CONTINUOUS
10
0.013020
20
0.019499
30
0.0
11
0.013020
21
0.019055
31
0.0
0
LINE
8
0
6
CONTINUOUS
10
0.013020
20
0.016793
30
0.0
11
0.013020
21
0.001804
31
0.0
0
LINE
8
0
6
CONTINUOUS
10
0.034020
20
0.000616
30
0.0
11
0.034020
21
0.016793
31
0.0
0
LINE
8
0
6
CONTINUOUS
10
0.032920
20
0.020831
30
0.0
11
0.032681
21
0.020831
31
0.0
0
LINE
8
0
6
CONTINUOUS
10
0.032681
20
0.020831
30
0.0
11
0.014215
21
0.020831
31
0.0
0
LINE
8
0
6
CONTINUOUS
10
0.033818
20
-0.051560
30
0.0
11
0.034023
21
-0.051114
31
0.0
0
LINE
8
0
6
CONTINUOUS
10
0.034023
20
-0.051114
30
0.0
11
0.034023
21
-0.050461
31
0.0
0
LINE
8
0
6
CONTINUOUS
10
0.034023
20
-0.050461
30
0.0
11
0.034023
21
-0.048536
31
0.0
0
LINE
8
0
6
CONTINUOUS
10
0.034023
20
-0.045436
30
0.0
11
0.034023
21
-0.041315
31
0.0
0
LINE
8
0
6
CONTINUOUS
10
0.034023
20
-0.041315
30
0.0
11
0.034023
21
-0.036380
31
0.0
0
LINE
8
0
6
CONTINUOUS
10
0.034023
20
-0.036380
30
0.0
11
0.034023
21
-0.030880
31
0.0
0
LINE
8
0
6
CONTINUOUS
10
0.034023
20
-0.030880
30
0.0
11
0.034023
21
-0.025088
31
0.0
0
LINE
8
0
6
CONTINUOUS
10
0.034023
20
-0.025088
30
0.0
11
0.034023
21
-0.019297
31
0.0
0
LINE
8
0
6
CONTINUOUS
10
0.034023
20
-0.019297
30
0.0
11
0.034023
21
-0.013797
31
0.0
0
LINE
8
0
6
CONTINUOUS
10
0.034023
20
-0.013797
30
0.0
11
0.034023
21
-0.008862
31
0.0
0
LINE
8
0
6
CONTINUOUS
10
0.034023
20
-0.008862
30
0.0
11
0.034023
21
-0.004741
31
0.0
0
LINE
8
0
6
CONTINUOUS
10
0.034023
20
-0.004741
30
0.0
11
0.034023
21
-0.001641
31
0.0
0
LINE
8
0
6
CONTINUOUS
10
-0.012777
20
-0.000575
30
0.0
11
-0.013106
21
-0.000575
31
0.0
0
LINE
8
0
6
CONTINUOUS
10
-0.014023
20
-0.049602
30
0.0
11
-0.013106
21
-0.049602
31
0.0
0
LINE
8
0
6
CONTINUOUS
10
-0.012478
20
-0.051980
30
0.0
11
0.000093
21
-0.051980
31
0.0
0
LINE
8
0
6
CONTINUOUS
10
0.009971
20
-0.051980
30
0.0
11
0.032912
21
-0.051981
31
0.0
0
LINE
8
0
6
CONTINUOUS
10
0.013020
20
0.001804
30
0.0
11
-0.012478
21
0.001804
31
0.0
0
LINE
8
0
6
CONTINUOUS
10
-0.012777
20
0.001130
30
0.0
11
-0.012777
21
-0.000859
31
0.0
0
LINE
8
0
6
CONTINUOUS
10
-0.012777
20
-0.013420
30
0.0
11
-0.012777
21
-0.019104
31
0.0
0
LINE
8
0
6
CONTINUOUS
10
-0.012777
20
-0.036756
30
0.0
11
-0.012777
21
-0.041855
31
0.0
0
LINE
8
0
6
CONTINUOUS
10
-0.012777
20
-0.008321
30
0.0
11
-0.012777
21
-0.013420
31
0.0
0
LINE
8
0
6
CONTINUOUS
10
-0.012777
20
-0.031072
30
0.0
11
-0.012777
21
-0.036756
31
0.0
0
LINE
8
0
6
CONTINUOUS
10
-0.012777
20
-0.049317
30
0.0
11
-0.012777
21
-0.051306
31
0.0
0
LINE
8
0
6
CONTINUOUS
10
-0.012478
20
0.001804
30
0.0
11
-0.012777
21
0.001804
31
0.0
0
LINE
8
0
6
CONTINUOUS
10
-0.012777
20
0.001804
30
0.0
11
-0.012777
21
0.001130
31
0.0
0
LINE
8
0
6
CONTINUOUS
10
-0.012777
20
-0.004063
30
0.0
11
-0.012777
21
-0.008321
31
0.0
0
LINE
8
0
6
CONTINUOUS
10
-0.012777
20
-0.025088
30
0.0
11
-0.012777
21
-0.031072
31
0.0
0
LINE
8
0
6
CONTINUOUS
10
-0.012777
20
-0.019104
30
0.0
11
-0.012777
21
-0.025088
31
0.0
0
LINE
8
0
6
CONTINUOUS
10
-0.012777
20
-0.041855
30
0.0
11
-0.012777
21
-0.046114
31
0.0
0
LINE
8
0
6
CONTINUOUS
10
-0.012777
20
-0.000859
30
0.0
11
-0.012777
21
-0.004063
31
0.0
0
LINE
8
0
6
CONTINUOUS
10
-0.012777
20
-0.051980
30
0.0
11
-0.012478
21
-0.051980
31
0.0
0
LINE
8
0
6
CONTINUOUS
10
-0.012777
20
-0.051306
30
0.0
11
-0.012777
21
-0.051980
31
0.0
0
LINE
8
0
6
CONTINUOUS
10
0.032995
20
-0.051981
30
0.0
11
0.033459
21
-0.051875
31
0.0
0
LINE
8
0
6
CONTINUOUS
10
0.033459
20
-0.051875
30
0.0
11
0.033818
21
-0.051560
31
0.0
0
LINE
8
0
6
CONTINUOUS
10
0.034023
20
-0.048536
30
0.0
11
0.034023
21
-0.045436
31
0.0
0
LINE
8
0
6
CONTINUOUS
10
-0.012777
20
-0.046114
30
0.0
11
-0.012777
21
-0.049317
31
0.0
0
LINE
8
0
6
CONTINUOUS
10
0.032912
20
-0.051981
30
0.0
11
0.032995
21
-0.051981
31
0.0
0
LINE
8
0
6
CONTINUOUS
10
-0.013106
20
-0.000575
30
0.0
11
-0.014023
21
-0.000575
31
0.0
0
LINE
8
0
6
CONTINUOUS
10
-0.013106
20
-0.049602
30
0.0
11
-0.012777
21
-0.049602
31
0.0
0
LINE
8
0
6
CONTINUOUS
10
-0.016541
20
0.074704
30
0.0
11
-0.033048
21
0.075048
31
0.0
0
LINE
8
0
6
CONTINUOUS
10
-0.016022
20
0.074693
30
0.0
11
-0.016541
21
0.074704
31
0.0
0
LINE
8
0
6
CONTINUOUS
10
-0.016541
20
-0.074704
30
0.0
11
-0.016022
21
-0.074693
31
0.0
0
LINE
8
0
6
CONTINUOUS
10
-0.034023
20
-0.069355
30
0.0
11
-0.034023
21
-0.073627
31
0.0
0
LINE
8
0
6
CONTINUOUS
10
-0.034023
20
-0.028728
30
0.0
11
-0.034023
21
-0.041706
31
0.0
0
LINE
8
0
6
CONTINUOUS
10
-0.034023
20
0.028728
30
0.0
11
-0.034023
21
0.014645
31
0.0
0
LINE
8
0
6
CONTINUOUS
10
-0.034023
20
0.069355
30
0.0
11
-0.034023
21
0.062418
31
0.0
0
LINE
8
0
6
CONTINUOUS
10
-0.034023
20
-0.075069
30
0.0
11
-0.033048
21
-0.075048
31
0.0
0
LINE
8
0
6
CONTINUOUS
10
-0.034023
20
-0.073627
30
0.0
11
-0.034023
21
-0.075069
31
0.0
0
LINE
8
0
6
CONTINUOUS
10
-0.034023
20
-0.041706
30
0.0
11
-0.034023
21
-0.053082
31
0.0
0
LINE
8
0
6
CONTINUOUS
10
-0.034023
20
0.014645
30
0.0
11
-0.034023
21
0.000000
31
0.0
0
LINE
8
0
6
CONTINUOUS
10
-0.034023
20
0.062418
30
0.0
11
-0.034023
21
0.053082
31
0.0
0
LINE
8
0
6
CONTINUOUS
10
-0.034023
20
0.053082
30
0.0
11
-0.034023
21
0.041706
31
0.0
0
LINE
8
0
6
CONTINUOUS
10
-0.033048
20
0.075048
30
0.0
11
-0.034023
21
0.075069
31
0.0
0
LINE
8
0
6
CONTINUOUS
10
-0.034023
20
0.075069
30
0.0
11
-0.034023
21
0.073627
31
0.0
0
LINE
8
0
6
CONTINUOUS
10
-0.034023
20
-0.053082
30
0.0
11
-0.034023
21
-0.062418
31
0.0
0
LINE
8
0
6
CONTINUOUS
10
-0.034023
20
0.000000
30
0.0
11
-0.034023
21
-0.014645
31
0.0
0
LINE
8
0
6
CONTINUOUS
10
-0.034023
20
-0.014645
30
0.0
11
-0.034023
21
-0.028728
31
0.0
0
LINE
8
0
6
CONTINUOUS
10
-0.034023
20
0.041706
30
0.0
11
-0.034023
21
0.028728
31
0.0
0
LINE
8
0
6
CONTINUOUS
10
-0.034023
20
0.073627
30
0.0
11
-0.034023
21
0.069355
31
0.0
0
LINE
8
0
6
CONTINUOUS
10
-0.034023
20
-0.062418
30
0.0
11
-0.034023
21
-0.069355
31
0.0
0
LINE
8
0
6
CONTINUOUS
10
-0.014023
20
0.072684
30
0.0
11
-0.014291
21
0.073673
31
0.0
0
LINE
8
0
6
CONTINUOUS
10
-0.014023
20
0.071329
30
0.0
11
-0.014023
21
0.072684
31
0.0
0
LINE
8
0
6
CONTINUOUS
10
-0.014291
20
0.073673
30
0.0
11
-0.015023
21
0.074409
31
0.0
0
LINE
8
0
6
CONTINUOUS
10
-0.015023
20
0.074409
30
0.0
11
-0.016022
21
0.074693
31
0.0
0
LINE
8
0
6
CONTINUOUS
10
-0.014023
20
0.067313
30
0.0
11
-0.014023
21
0.071329
31
0.0
0
LINE
8
0
6
CONTINUOUS
10
-0.014023
20
0.060779
30
0.0
11
-0.014023
21
0.067313
31
0.0
0
LINE
8
0
6
CONTINUOUS
10
-0.014023
20
0.051969
30
0.0
11
-0.014023
21
0.060779
31
0.0
0
LINE
8
0
6
CONTINUOUS
10
-0.014023
20
0.041215
30
0.0
11
-0.014023
21
0.051969
31
0.0
0
LINE
8
0
6
CONTINUOUS
10
-0.014023
20
0.028925
30
0.0
11
-0.014023
21
0.041215
31
0.0
0
LINE
8
0
6
CONTINUOUS
10
-0.014023
20
0.015570
30
0.0
11
-0.014023
21
0.028925
31
0.0
0
LINE
8
0
6
CONTINUOUS
10
-0.014023
20
0.000842
30
0.0
11
-0.014023
21
0.015570
31
0.0
0
LINE
8
0
6
CONTINUOUS
10
-0.014023
20
-0.014745
30
0.0
11
-0.014023
21
0.000842
31
0.0
0
LINE
8
0
6
CONTINUOUS
10
-0.014023
20
-0.028204
30
0.0
11
-0.014023
21
-0.014745
31
0.0
0
LINE
8
0
6
CONTINUOUS
10
-0.014023
20
-0.040579
30
0.0
11
-0.014023
21
-0.028204
31
0.0
0
LINE
8
0
6
CONTINUOUS
10
-0.014023
20
-0.051384
30
0.0
11
-0.014023
21
-0.040579
31
0.0
0
LINE
8
0
6
CONTINUOUS
10
-0.014023
20
-0.060213
30
0.0
11
-0.014023
21
-0.051384
31
0.0
0
LINE
8
0
6
CONTINUOUS
10
-0.014023
20
-0.066734
30
0.0
11
-0.014023
21
-0.060213
31
0.0
0
LINE
8
0
6
CONTINUOUS
10
-0.014023
20
-0.070725
30
0.0
11
-0.014023
21
-0.066734
31
0.0
0
LINE
8
0
6
CONTINUOUS
10
-0.014291
20
-0.073365
30
0.0
11
-0.014023
21
-0.072068
31
0.0
0
LINE
8
0
6
CONTINUOUS
10
-0.014023
20
-0.072068
30
0.0
11
-0.014023
21
-0.070725
31
0.0
0
LINE
8
0
6
CONTINUOUS
10
-0.015023
20
-0.074326
30
0.0
11
-0.014291
21
-0.073365
31
0.0
0
LINE
8
0
6
CONTINUOUS
10
-0.016022
20
-0.074693
30
0.0
11
-0.015023
21
-0.074326
31
0.0
0
LINE
8
0
6
CONTINUOUS
10
-0.033048
20
-0.075048
30
0.0
11
-0.016541
21
-0.074704
31
0.0
0
LINE
8
0
6
CONTINUOUS
10
0.013635
20
0.001380
30
0.0
11
0.013255
21
0.001422
31
0.0
0
LINE
8
0
6
CONTINUOUS
10
0.014120
20
0.001353
30
0.0
11
0.013635
21
0.001380
31
0.0
0
ENDSEC
0
EOF
