999
unknown String-ID: 20550
0
SECTION
2
HEADER
9
$ACADVER
1
AC1009
9
$DWGCODEPAGE
3
unknown String-ID: 20561
0
ENDSEC
0
SECTION
2
TABLES
0
TABLE
2
LAYER
70
1
0
LAYER
2
0
70
0
62
7
6
CONTINUOUS
0
ENDTAB
0
ENDSEC
0
SECTION
2
ENTITIES
0
LINE
8
0
6
CONTINUOUS
10
0.028696
20
-0.012005
30
0.0
11
0.027737
21
-0.012005
31
0.0
0
LINE
8
0
6
CONTINUOUS
10
0.029105
20
-0.012005
30
0.0
11
0.028696
21
-0.012005
31
0.0
0
LINE
8
0
6
CONTINUOUS
10
0.033098
20
-0.012005
30
0.0
11
0.032552
21
-0.012005
31
0.0
0
LINE
8
0
6
CONTINUOUS
10
0.033098
20
-0.013271
30
0.0
11
0.033098
21
-0.012005
31
0.0
0
LINE
8
0
6
CONTINUOUS
10
0.032552
20
-0.012005
30
0.0
11
0.030954
21
-0.012005
31
0.0
0
LINE
8
0
6
CONTINUOUS
10
0.030954
20
-0.012005
30
0.0
11
0.028411
21
-0.012005
31
0.0
0
LINE
8
0
6
CONTINUOUS
10
0.028411
20
-0.012005
30
0.0
11
0.025098
21
-0.012005
31
0.0
0
LINE
8
0
6
CONTINUOUS
10
0.025098
20
-0.012005
30
0.0
11
0.021239
21
-0.012005
31
0.0
0
LINE
8
0
6
CONTINUOUS
10
0.021239
20
-0.012005
30
0.0
11
0.020089
21
-0.012005
31
0.0
0
LINE
8
0
6
CONTINUOUS
10
0.028148
20
-0.012005
30
0.0
11
0.027959
21
-0.012005
31
0.0
0
LINE
8
0
6
CONTINUOUS
10
0.031274
20
-0.012005
30
0.0
11
0.028148
21
-0.012005
31
0.0
0
LINE
8
0
6
CONTINUOUS
10
0.032552
20
-0.012005
30
0.0
11
0.031274
21
-0.012005
31
0.0
0
LINE
8
0
6
CONTINUOUS
10
0.032148
20
-0.012005
30
0.0
11
0.032552
21
-0.012005
31
0.0
0
LINE
8
0
6
CONTINUOUS
10
0.025349
20
-0.012005
30
0.0
11
0.025022
21
-0.012005
31
0.0
0
LINE
8
0
6
CONTINUOUS
10
0.027737
20
-0.012005
30
0.0
11
0.026379
21
-0.012005
31
0.0
0
LINE
8
0
6
CONTINUOUS
10
0.033098
20
-0.070904
30
0.0
11
0.033098
21
-0.013271
31
0.0
0
LINE
8
0
6
CONTINUOUS
10
0.032552
20
-0.072005
30
0.0
11
0.033098
21
-0.072005
31
0.0
0
LINE
8
0
6
CONTINUOUS
10
0.033098
20
-0.072005
30
0.0
11
0.033098
21
-0.070904
31
0.0
0
LINE
8
0
6
CONTINUOUS
10
0.030954
20
-0.072005
30
0.0
11
0.032552
21
-0.072005
31
0.0
0
LINE
8
0
6
CONTINUOUS
10
0.028411
20
-0.072005
30
0.0
11
0.030954
21
-0.072005
31
0.0
0
LINE
8
0
6
CONTINUOUS
10
0.025098
20
-0.072005
30
0.0
11
0.028411
21
-0.072005
31
0.0
0
LINE
8
0
6
CONTINUOUS
10
0.021239
20
-0.072005
30
0.0
11
0.025098
21
-0.072005
31
0.0
0
LINE
8
0
6
CONTINUOUS
10
0.017098
20
-0.072005
30
0.0
11
0.021239
21
-0.072005
31
0.0
0
LINE
8
0
6
CONTINUOUS
10
0.011800
20
-0.071940
30
0.0
11
0.017098
21
-0.072005
31
0.0
0
LINE
8
0
6
CONTINUOUS
10
0.006503
20
-0.071875
30
0.0
11
0.011800
21
-0.071940
31
0.0
0
LINE
8
0
6
CONTINUOUS
10
0.001206
20
-0.071810
30
0.0
11
0.006503
21
-0.071875
31
0.0
0
LINE
8
0
6
CONTINUOUS
10
0.007351
20
-0.071997
30
0.0
11
0.007742
21
-0.072005
31
0.0
0
LINE
8
0
6
CONTINUOUS
10
0.007742
20
-0.072005
30
0.0
11
0.008061
21
-0.072005
31
0.0
0
LINE
8
0
6
CONTINUOUS
10
0.029074
20
-0.012005
30
0.0
11
0.028696
21
-0.012005
31
0.0
0
LINE
8
0
6
CONTINUOUS
10
0.027496
20
-0.012005
30
0.0
11
0.027836
21
-0.012005
31
0.0
0
LINE
8
0
6
CONTINUOUS
10
0.028696
20
-0.012005
30
0.0
11
0.027496
21
-0.012005
31
0.0
0
LINE
8
0
6
CONTINUOUS
10
0.025865
20
-0.012005
30
0.0
11
0.025588
21
-0.012005
31
0.0
0
LINE
8
0
6
CONTINUOUS
10
0.023101
20
-0.012005
30
0.0
11
0.023297
21
-0.012005
31
0.0
0
LINE
8
0
6
CONTINUOUS
10
0.025588
20
-0.012005
30
0.0
11
0.023101
21
-0.012005
31
0.0
0
LINE
8
0
6
CONTINUOUS
10
0.012420
20
-0.072005
30
0.0
11
0.014676
21
-0.072005
31
0.0
0
LINE
8
0
6
CONTINUOUS
10
0.010482
20
-0.072005
30
0.0
11
0.012420
21
-0.072005
31
0.0
0
LINE
8
0
6
CONTINUOUS
10
0.014676
20
-0.072005
30
0.0
11
0.017098
21
-0.072005
31
0.0
0
LINE
8
0
6
CONTINUOUS
10
0.008995
20
-0.072005
30
0.0
11
0.010482
21
-0.072005
31
0.0
0
LINE
8
0
6
CONTINUOUS
10
0.008061
20
-0.072005
30
0.0
11
0.008995
21
-0.072005
31
0.0
0
LINE
8
0
6
CONTINUOUS
10
-0.001348
20
-0.071805
30
0.0
11
0.007351
21
-0.071997
31
0.0
0
LINE
8
0
6
CONTINUOUS
10
0.032148
20
-0.012005
30
0.0
11
0.029074
21
-0.012005
31
0.0
0
LINE
8
0
6
CONTINUOUS
10
0.030592
20
-0.012005
30
0.0
11
0.032148
21
-0.012005
31
0.0
0
LINE
8
0
6
CONTINUOUS
10
0.027836
20
-0.012005
30
0.0
11
0.030592
21
-0.012005
31
0.0
0
LINE
8
0
6
CONTINUOUS
10
0.028115
20
-0.012005
30
0.0
11
0.025865
21
-0.012005
31
0.0
0
LINE
8
0
6
CONTINUOUS
10
0.024888
20
-0.012005
30
0.0
11
0.028115
21
-0.012005
31
0.0
0
LINE
8
0
6
CONTINUOUS
10
0.023297
20
-0.012005
30
0.0
11
0.024888
21
-0.012005
31
0.0
0
LINE
8
0
6
CONTINUOUS
10
0.014531
20
-0.072002
30
0.0
11
0.017098
21
-0.072005
31
0.0
0
LINE
8
0
6
CONTINUOUS
10
-0.001348
20
-0.071803
30
0.0
11
0.007709
21
-0.071998
31
0.0
0
LINE
8
0
6
CONTINUOUS
10
0.026379
20
-0.012005
30
0.0
11
0.025349
21
-0.012005
31
0.0
0
LINE
8
0
6
CONTINUOUS
10
0.001206
20
-0.071810
30
0.0
11
-0.004092
21
-0.071745
31
0.0
0
LINE
8
0
6
CONTINUOUS
10
-0.014881
20
0.083255
30
0.0
11
-0.032328
21
0.083255
31
0.0
0
LINE
8
0
6
CONTINUOUS
10
-0.032328
20
0.083255
30
0.0
11
-0.014881
21
0.083255
31
0.0
0
LINE
8
0
6
CONTINUOUS
10
-0.014881
20
0.083255
30
0.0
11
-0.032328
21
0.083255
31
0.0
0
LINE
8
0
6
CONTINUOUS
10
-0.032328
20
0.083255
30
0.0
11
-0.014881
21
0.083255
31
0.0
0
LINE
8
0
6
CONTINUOUS
10
-0.014881
20
0.083255
30
0.0
11
-0.032328
21
0.083255
31
0.0
0
LINE
8
0
6
CONTINUOUS
10
-0.032328
20
0.083255
30
0.0
11
-0.014881
21
0.083255
31
0.0
0
LINE
8
0
6
CONTINUOUS
10
-0.014881
20
0.083255
30
0.0
11
-0.032328
21
0.083255
31
0.0
0
LINE
8
0
6
CONTINUOUS
10
-0.032328
20
0.083255
30
0.0
11
-0.014881
21
0.083255
31
0.0
0
LINE
8
0
6
CONTINUOUS
10
-0.014881
20
0.083255
30
0.0
11
-0.032328
21
0.083255
31
0.0
0
LINE
8
0
6
CONTINUOUS
10
-0.032328
20
0.083255
30
0.0
11
-0.014881
21
0.083255
31
0.0
0
LINE
8
0
6
CONTINUOUS
10
-0.032328
20
0.083255
30
0.0
11
-0.033098
21
0.083255
31
0.0
0
LINE
8
0
6
CONTINUOUS
10
-0.033098
20
0.083255
30
0.0
11
-0.033098
21
0.082551
31
0.0
0
LINE
8
0
6
CONTINUOUS
10
-0.014881
20
0.083255
30
0.0
11
-0.032328
21
0.083255
31
0.0
0
LINE
8
0
6
CONTINUOUS
10
-0.033098
20
0.083255
30
0.0
11
-0.032328
21
0.083255
31
0.0
0
LINE
8
0
6
CONTINUOUS
10
-0.032328
20
0.083255
30
0.0
11
-0.033098
21
0.083255
31
0.0
0
LINE
8
0
6
CONTINUOUS
10
-0.013596
20
0.083255
30
0.0
11
-0.014881
21
0.083255
31
0.0
0
LINE
8
0
6
CONTINUOUS
10
-0.014881
20
0.083255
30
0.0
11
-0.013596
21
0.083255
31
0.0
0
LINE
8
0
6
CONTINUOUS
10
-0.013596
20
0.083255
30
0.0
11
-0.014881
21
0.083255
31
0.0
0
LINE
8
0
6
CONTINUOUS
10
-0.014881
20
0.083255
30
0.0
11
-0.013596
21
0.083255
31
0.0
0
LINE
8
0
6
CONTINUOUS
10
-0.033098
20
0.083255
30
0.0
11
-0.032328
21
0.083255
31
0.0
0
LINE
8
0
6
CONTINUOUS
10
-0.032328
20
0.083255
30
0.0
11
-0.033098
21
0.083255
31
0.0
0
LINE
8
0
6
CONTINUOUS
10
-0.033098
20
0.083255
30
0.0
11
-0.032328
21
0.083255
31
0.0
0
LINE
8
0
6
CONTINUOUS
10
-0.032328
20
0.083255
30
0.0
11
-0.033098
21
0.083255
31
0.0
0
LINE
8
0
6
CONTINUOUS
10
-0.033098
20
0.083255
30
0.0
11
-0.032328
21
0.083255
31
0.0
0
LINE
8
0
6
CONTINUOUS
10
-0.032328
20
0.083255
30
0.0
11
-0.033098
21
0.083255
31
0.0
0
LINE
8
0
6
CONTINUOUS
10
-0.013596
20
0.071198
30
0.0
11
-0.013596
21
0.082554
31
0.0
0
LINE
8
0
6
CONTINUOUS
10
-0.033098
20
-0.012106
30
0.0
11
-0.033098
21
-0.071041
31
0.0
0
LINE
8
0
6
CONTINUOUS
10
-0.013596
20
-0.010793
30
0.0
11
-0.013596
21
-0.009621
31
0.0
0
LINE
8
0
6
CONTINUOUS
10
-0.013596
20
-0.012106
30
0.0
11
-0.013596
21
-0.010793
31
0.0
0
LINE
8
0
6
CONTINUOUS
10
-0.013596
20
0.010912
30
0.0
11
-0.013596
21
0.022969
31
0.0
0
LINE
8
0
6
CONTINUOUS
10
-0.013596
20
0.022969
30
0.0
11
-0.013596
21
0.035026
31
0.0
0
LINE
8
0
6
CONTINUOUS
10
-0.013596
20
0.035026
30
0.0
11
-0.013596
21
0.047083
31
0.0
0
LINE
8
0
6
CONTINUOUS
10
-0.013596
20
0.047083
30
0.0
11
-0.013596
21
0.059141
31
0.0
0
LINE
8
0
6
CONTINUOUS
10
-0.013596
20
0.059141
30
0.0
11
-0.013596
21
0.071198
31
0.0
0
LINE
8
0
6
CONTINUOUS
10
-0.033098
20
0.022969
30
0.0
11
-0.033098
21
0.010912
31
0.0
0
LINE
8
0
6
CONTINUOUS
10
-0.033098
20
0.010912
30
0.0
11
-0.033098
21
-0.009621
31
0.0
0
LINE
8
0
6
CONTINUOUS
10
-0.033098
20
-0.010793
30
0.0
11
-0.033098
21
-0.012106
31
0.0
0
LINE
8
0
6
CONTINUOUS
10
-0.033098
20
-0.071745
30
0.0
11
-0.032328
21
-0.071745
31
0.0
0
LINE
8
0
6
CONTINUOUS
10
-0.033098
20
-0.071041
30
0.0
11
-0.033098
21
-0.071745
31
0.0
0
LINE
8
0
6
CONTINUOUS
10
-0.033098
20
0.071198
30
0.0
11
-0.033098
21
0.059141
31
0.0
0
LINE
8
0
6
CONTINUOUS
10
-0.033098
20
0.059141
30
0.0
11
-0.033098
21
0.047083
31
0.0
0
LINE
8
0
6
CONTINUOUS
10
-0.033098
20
0.047083
30
0.0
11
-0.033098
21
0.035026
31
0.0
0
LINE
8
0
6
CONTINUOUS
10
-0.033098
20
0.035026
30
0.0
11
-0.033098
21
0.022969
31
0.0
0
LINE
8
0
6
CONTINUOUS
10
-0.033098
20
0.083255
30
0.0
11
-0.032328
21
0.083255
31
0.0
0
LINE
8
0
6
CONTINUOUS
10
-0.032328
20
0.083255
30
0.0
11
-0.033098
21
0.083255
31
0.0
0
LINE
8
0
6
CONTINUOUS
10
-0.013596
20
0.083255
30
0.0
11
-0.014881
21
0.083255
31
0.0
0
LINE
8
0
6
CONTINUOUS
10
-0.013596
20
0.082554
30
0.0
11
-0.013596
21
0.083255
31
0.0
0
LINE
8
0
6
CONTINUOUS
10
-0.033098
20
0.082551
30
0.0
11
-0.033098
21
0.071198
31
0.0
0
LINE
8
0
6
CONTINUOUS
10
-0.013596
20
0.083255
30
0.0
11
-0.014881
21
0.083255
31
0.0
0
LINE
8
0
6
CONTINUOUS
10
-0.014881
20
0.083255
30
0.0
11
-0.013596
21
0.083255
31
0.0
0
LINE
8
0
6
CONTINUOUS
10
-0.013596
20
-0.071043
30
0.0
11
-0.013596
21
-0.012106
31
0.0
0
LINE
8
0
6
CONTINUOUS
10
-0.032328
20
-0.071745
30
0.0
11
-0.014881
21
-0.071745
31
0.0
0
LINE
8
0
6
CONTINUOUS
10
-0.014881
20
-0.071745
30
0.0
11
-0.013596
21
-0.071745
31
0.0
0
LINE
8
0
6
CONTINUOUS
10
-0.013596
20
-0.071745
30
0.0
11
-0.013596
21
-0.071043
31
0.0
0
LINE
8
0
6
CONTINUOUS
10
-0.014881
20
0.083255
30
0.0
11
-0.032328
21
0.083255
31
0.0
0
LINE
8
0
6
CONTINUOUS
10
-0.032328
20
0.083255
30
0.0
11
-0.014881
21
0.083255
31
0.0
0
LINE
8
0
6
CONTINUOUS
10
-0.033098
20
0.083255
30
0.0
11
-0.032328
21
0.083255
31
0.0
0
LINE
8
0
6
CONTINUOUS
10
-0.032328
20
0.083255
30
0.0
11
-0.033098
21
0.083255
31
0.0
0
LINE
8
0
6
CONTINUOUS
10
-0.014881
20
0.083255
30
0.0
11
-0.032328
21
0.083255
31
0.0
0
LINE
8
0
6
CONTINUOUS
10
-0.032328
20
0.083255
30
0.0
11
-0.033098
21
0.083255
31
0.0
0
LINE
8
0
6
CONTINUOUS
10
-0.013596
20
0.083255
30
0.0
11
-0.014881
21
0.083255
31
0.0
0
LINE
8
0
6
CONTINUOUS
10
-0.014881
20
0.083255
30
0.0
11
-0.013596
21
0.083255
31
0.0
0
LINE
8
0
6
CONTINUOUS
10
-0.013596
20
0.083255
30
0.0
11
-0.014881
21
0.083255
31
0.0
0
LINE
8
0
6
CONTINUOUS
10
-0.013470
20
-0.071745
30
0.0
11
-0.004092
21
-0.071745
31
0.0
0
LINE
8
0
6
CONTINUOUS
10
-0.014881
20
0.083255
30
0.0
11
-0.013596
21
0.083255
31
0.0
0
LINE
8
0
6
CONTINUOUS
10
-0.013596
20
-0.071745
30
0.0
11
-0.013470
21
-0.071745
31
0.0
0
LINE
8
0
6
CONTINUOUS
10
-0.013596
20
0.083255
30
0.0
11
-0.014881
21
0.083255
31
0.0
0
LINE
8
0
6
CONTINUOUS
10
-0.014881
20
0.083255
30
0.0
11
-0.013596
21
0.083255
31
0.0
0
LINE
8
0
6
CONTINUOUS
10
-0.013596
20
-0.009621
30
0.0
11
-0.013596
21
0.010912
31
0.0
0
LINE
8
0
6
CONTINUOUS
10
-0.033098
20
-0.009621
30
0.0
11
-0.033098
21
-0.010793
31
0.0
0
LINE
8
0
6
CONTINUOUS
10
-0.003849
20
-0.083255
30
0.0
11
-0.003423
21
-0.083177
31
0.0
0
LINE
8
0
6
CONTINUOUS
10
-0.004302
20
-0.083255
30
0.0
11
-0.003849
21
-0.083255
31
0.0
0
LINE
8
0
6
CONTINUOUS
10
-0.005616
20
-0.083255
30
0.0
11
-0.004302
21
-0.083255
31
0.0
0
LINE
8
0
6
CONTINUOUS
10
-0.007662
20
-0.083255
30
0.0
11
-0.005616
21
-0.083255
31
0.0
0
LINE
8
0
6
CONTINUOUS
10
-0.010240
20
-0.083255
30
0.0
11
-0.007662
21
-0.083255
31
0.0
0
LINE
8
0
6
CONTINUOUS
10
-0.007411
20
-0.083177
30
0.0
11
-0.010108
21
-0.083177
31
0.0
0
LINE
8
0
6
CONTINUOUS
10
-0.013098
20
-0.083255
30
0.0
11
-0.010240
21
-0.083255
31
0.0
0
LINE
8
0
6
CONTINUOUS
10
-0.015955
20
-0.083255
30
0.0
11
-0.013098
21
-0.083255
31
0.0
0
LINE
8
0
6
CONTINUOUS
10
-0.018534
20
-0.083255
30
0.0
11
-0.015955
21
-0.083255
31
0.0
0
LINE
8
0
6
CONTINUOUS
10
-0.016087
20
-0.083177
30
0.0
11
-0.018784
21
-0.083177
31
0.0
0
LINE
8
0
6
CONTINUOUS
10
-0.020580
20
-0.083255
30
0.0
11
-0.018534
21
-0.083255
31
0.0
0
LINE
8
0
6
CONTINUOUS
10
-0.021893
20
-0.083255
30
0.0
11
-0.020580
21
-0.083255
31
0.0
0
LINE
8
0
6
CONTINUOUS
10
-0.022346
20
-0.083255
30
0.0
11
-0.021893
21
-0.083255
31
0.0
0
LINE
8
0
6
CONTINUOUS
10
-0.022772
20
-0.083177
30
0.0
11
-0.022346
21
-0.083255
31
0.0
0
LINE
8
0
6
CONTINUOUS
10
-0.022772
20
-0.083177
30
0.0
11
-0.022298
21
-0.083177
31
0.0
0
LINE
8
0
6
CONTINUOUS
10
-0.022835
20
-0.083046
30
0.0
11
-0.022772
21
-0.083177
31
0.0
0
LINE
8
0
6
CONTINUOUS
10
-0.022298
20
-0.083177
30
0.0
11
-0.020924
21
-0.083177
31
0.0
0
LINE
8
0
6
CONTINUOUS
10
-0.020924
20
-0.083177
30
0.0
11
-0.018784
21
-0.083177
31
0.0
0
LINE
8
0
6
CONTINUOUS
10
-0.016087
20
-0.083177
30
0.0
11
-0.013098
21
-0.083177
31
0.0
0
LINE
8
0
6
CONTINUOUS
10
-0.013098
20
-0.083177
30
0.0
11
-0.010108
21
-0.083177
31
0.0
0
LINE
8
0
6
CONTINUOUS
10
-0.007411
20
-0.083177
30
0.0
11
-0.005271
21
-0.083177
31
0.0
0
LINE
8
0
6
CONTINUOUS
10
-0.005271
20
-0.083177
30
0.0
11
-0.003897
21
-0.083177
31
0.0
0
LINE
8
0
6
CONTINUOUS
10
-0.003423
20
-0.083177
30
0.0
11
-0.003360
21
-0.083046
31
0.0
0
LINE
8
0
6
CONTINUOUS
10
-0.003897
20
-0.083177
30
0.0
11
-0.003423
21
-0.083177
31
0.0
0
LINE
8
0
6
CONTINUOUS
10
-0.003860
20
-0.072319
30
0.0
11
-0.003860
21
-0.072195
31
0.0
0
LINE
8
0
6
CONTINUOUS
10
-0.022335
20
-0.072195
30
0.0
11
-0.022335
21
-0.072319
31
0.0
0
LINE
8
0
6
CONTINUOUS
10
-0.023446
20
-0.082197
30
0.0
11
-0.022835
21
-0.083046
31
0.0
0
LINE
8
0
6
CONTINUOUS
10
-0.003360
20
-0.083046
30
0.0
11
-0.002750
21
-0.082197
31
0.0
0
LINE
8
0
6
CONTINUOUS
10
-0.003770
20
-0.074282
30
0.0
11
-0.003860
21
-0.074195
31
0.0
0
LINE
8
0
6
CONTINUOUS
10
-0.023613
20
-0.075420
30
0.0
11
-0.023613
21
-0.075615
31
0.0
0
LINE
8
0
6
CONTINUOUS
10
-0.022335
20
-0.074195
30
0.0
11
-0.022425
21
-0.074282
31
0.0
0
LINE
8
0
6
CONTINUOUS
10
-0.023573
20
-0.081806
30
0.0
11
-0.023573
21
-0.082020
31
0.0
0
LINE
8
0
6
CONTINUOUS
10
-0.002623
20
-0.082020
30
0.0
11
-0.002623
21
-0.081806
31
0.0
0
LINE
8
0
6
CONTINUOUS
10
-0.023613
20
-0.075615
30
0.0
11
-0.023573
21
-0.081806
31
0.0
0
LINE
8
0
6
CONTINUOUS
10
-0.002623
20
-0.081806
30
0.0
11
-0.002582
21
-0.075615
31
0.0
0
LINE
8
0
6
CONTINUOUS
10
-0.002582
20
-0.075615
30
0.0
11
-0.002582
21
-0.075420
31
0.0
0
LINE
8
0
6
CONTINUOUS
10
-0.013098
20
-0.072195
30
0.0
11
-0.009467
21
-0.072195
31
0.0
0
LINE
8
0
6
CONTINUOUS
10
-0.024848
20
-0.072030
30
0.0
11
-0.024848
21
-0.072195
31
0.0
0
LINE
8
0
6
CONTINUOUS
10
-0.024848
20
-0.072195
30
0.0
11
-0.024272
21
-0.072195
31
0.0
0
LINE
8
0
6
CONTINUOUS
10
-0.024848
20
-0.071745
30
0.0
11
-0.024848
21
-0.072030
31
0.0
0
LINE
8
0
6
CONTINUOUS
10
-0.001348
20
-0.072195
30
0.0
11
-0.001348
21
-0.072030
31
0.0
0
LINE
8
0
6
CONTINUOUS
10
-0.001923
20
-0.072195
30
0.0
11
-0.001348
21
-0.072195
31
0.0
0
LINE
8
0
6
CONTINUOUS
10
-0.001348
20
-0.072030
30
0.0
11
-0.001348
21
-0.071809
31
0.0
0
LINE
8
0
6
CONTINUOUS
10
-0.003592
20
-0.072195
30
0.0
11
-0.001923
21
-0.072195
31
0.0
0
LINE
8
0
6
CONTINUOUS
10
-0.022604
20
-0.072195
30
0.0
11
-0.020004
21
-0.072195
31
0.0
0
LINE
8
0
6
CONTINUOUS
10
-0.009467
20
-0.072195
30
0.0
11
-0.006191
21
-0.072195
31
0.0
0
LINE
8
0
6
CONTINUOUS
10
-0.024272
20
-0.072195
30
0.0
11
-0.022604
21
-0.072195
31
0.0
0
LINE
8
0
6
CONTINUOUS
10
-0.020004
20
-0.072195
30
0.0
11
-0.016729
21
-0.072195
31
0.0
0
LINE
8
0
6
CONTINUOUS
10
-0.006191
20
-0.072195
30
0.0
11
-0.003592
21
-0.072195
31
0.0
0
LINE
8
0
6
CONTINUOUS
10
-0.016729
20
-0.072195
30
0.0
11
-0.013098
21
-0.072195
31
0.0
0
LINE
8
0
6
CONTINUOUS
10
-0.007668
20
-0.074195
30
0.0
11
-0.005624
21
-0.074195
31
0.0
0
LINE
8
0
6
CONTINUOUS
10
-0.003860
20
-0.074195
30
0.0
11
-0.003860
21
-0.074072
31
0.0
0
LINE
8
0
6
CONTINUOUS
10
-0.004312
20
-0.074195
30
0.0
11
-0.003860
21
-0.074195
31
0.0
0
LINE
8
0
6
CONTINUOUS
10
-0.003860
20
-0.074072
30
0.0
11
-0.003860
21
-0.072319
31
0.0
0
LINE
8
0
6
CONTINUOUS
10
-0.005624
20
-0.074195
30
0.0
11
-0.004312
21
-0.074195
31
0.0
0
LINE
8
0
6
CONTINUOUS
10
-0.020571
20
-0.074195
30
0.0
11
-0.018527
21
-0.074195
31
0.0
0
LINE
8
0
6
CONTINUOUS
10
-0.018527
20
-0.074195
30
0.0
11
-0.015952
21
-0.074195
31
0.0
0
LINE
8
0
6
CONTINUOUS
10
-0.010243
20
-0.074195
30
0.0
11
-0.007668
21
-0.074195
31
0.0
0
LINE
8
0
6
CONTINUOUS
10
-0.013098
20
-0.074195
30
0.0
11
-0.010243
21
-0.074195
31
0.0
0
LINE
8
0
6
CONTINUOUS
10
-0.021883
20
-0.074195
30
0.0
11
-0.020571
21
-0.074195
31
0.0
0
LINE
8
0
6
CONTINUOUS
10
-0.022335
20
-0.074072
30
0.0
11
-0.022335
21
-0.074195
31
0.0
0
LINE
8
0
6
CONTINUOUS
10
-0.022335
20
-0.074195
30
0.0
11
-0.021883
21
-0.074195
31
0.0
0
LINE
8
0
6
CONTINUOUS
10
-0.022335
20
-0.072319
30
0.0
11
-0.022335
21
-0.074072
31
0.0
0
LINE
8
0
6
CONTINUOUS
10
-0.015952
20
-0.074195
30
0.0
11
-0.013098
21
-0.074195
31
0.0
0
LINE
8
0
6
CONTINUOUS
10
-0.006917
20
-0.075420
30
0.0
11
-0.004590
21
-0.075420
31
0.0
0
LINE
8
0
6
CONTINUOUS
10
-0.009848
20
-0.075420
30
0.0
11
-0.006917
21
-0.075420
31
0.0
0
LINE
8
0
6
CONTINUOUS
10
-0.021605
20
-0.075420
30
0.0
11
-0.019278
21
-0.075420
31
0.0
0
LINE
8
0
6
CONTINUOUS
10
-0.002582
20
-0.075420
30
0.0
11
-0.002737
21
-0.075272
31
0.0
0
LINE
8
0
6
CONTINUOUS
10
-0.003097
20
-0.075420
30
0.0
11
-0.002582
21
-0.075420
31
0.0
0
LINE
8
0
6
CONTINUOUS
10
-0.004590
20
-0.075420
30
0.0
11
-0.003097
21
-0.075420
31
0.0
0
LINE
8
0
6
CONTINUOUS
10
-0.013098
20
-0.075420
30
0.0
11
-0.009848
21
-0.075420
31
0.0
0
LINE
8
0
6
CONTINUOUS
10
-0.016347
20
-0.075420
30
0.0
11
-0.013098
21
-0.075420
31
0.0
0
LINE
8
0
6
CONTINUOUS
10
-0.019278
20
-0.075420
30
0.0
11
-0.016347
21
-0.075420
31
0.0
0
LINE
8
0
6
CONTINUOUS
10
-0.023098
20
-0.075420
30
0.0
11
-0.021605
21
-0.075420
31
0.0
0
LINE
8
0
6
CONTINUOUS
10
-0.023458
20
-0.075272
30
0.0
11
-0.023613
21
-0.075420
31
0.0
0
LINE
8
0
6
CONTINUOUS
10
-0.023613
20
-0.075420
30
0.0
11
-0.023098
21
-0.075420
31
0.0
0
LINE
8
0
6
CONTINUOUS
10
-0.002737
20
-0.075272
30
0.0
11
-0.003770
21
-0.074282
31
0.0
0
LINE
8
0
6
CONTINUOUS
10
-0.022425
20
-0.074282
30
0.0
11
-0.023458
21
-0.075272
31
0.0
0
LINE
8
0
6
CONTINUOUS
10
-0.016335
20
-0.082020
30
0.0
11
-0.019255
21
-0.082020
31
0.0
0
LINE
8
0
6
CONTINUOUS
10
-0.006940
20
-0.082020
30
0.0
11
-0.009861
21
-0.082020
31
0.0
0
LINE
8
0
6
CONTINUOUS
10
-0.023573
20
-0.082020
30
0.0
11
-0.023446
21
-0.082197
31
0.0
0
LINE
8
0
6
CONTINUOUS
10
-0.023060
20
-0.082020
30
0.0
11
-0.023573
21
-0.082020
31
0.0
0
LINE
8
0
6
CONTINUOUS
10
-0.021572
20
-0.082020
30
0.0
11
-0.023060
21
-0.082020
31
0.0
0
LINE
8
0
6
CONTINUOUS
10
-0.019255
20
-0.082020
30
0.0
11
-0.021572
21
-0.082020
31
0.0
0
LINE
8
0
6
CONTINUOUS
10
-0.013098
20
-0.082020
30
0.0
11
-0.016335
21
-0.082020
31
0.0
0
LINE
8
0
6
CONTINUOUS
10
-0.009861
20
-0.082020
30
0.0
11
-0.013098
21
-0.082020
31
0.0
0
LINE
8
0
6
CONTINUOUS
10
-0.004623
20
-0.082020
30
0.0
11
-0.006940
21
-0.082020
31
0.0
0
LINE
8
0
6
CONTINUOUS
10
-0.003135
20
-0.082020
30
0.0
11
-0.004623
21
-0.082020
31
0.0
0
LINE
8
0
6
CONTINUOUS
10
-0.002750
20
-0.082197
30
0.0
11
-0.002623
21
-0.082020
31
0.0
0
LINE
8
0
6
CONTINUOUS
10
-0.002623
20
-0.082020
30
0.0
11
-0.003135
21
-0.082020
31
0.0
0
LINE
8
0
6
CONTINUOUS
10
-0.001583
20
-0.047197
30
0.0
11
-0.001583
21
-0.051196
31
0.0
0
LINE
8
0
6
CONTINUOUS
10
0.008294
20
-0.051196
30
0.0
11
0.008294
21
-0.047197
31
0.0
0
LINE
8
0
6
CONTINUOUS
10
0.007796
20
-0.051749
30
0.0
11
0.008045
21
-0.051683
31
0.0
0
LINE
8
0
6
CONTINUOUS
10
0.007645
20
-0.051749
30
0.0
11
0.007796
21
-0.051749
31
0.0
0
LINE
8
0
6
CONTINUOUS
10
0.008045
20
-0.051683
30
0.0
11
0.008228
21
-0.051502
31
0.0
0
LINE
8
0
6
CONTINUOUS
10
0.008228
20
-0.051502
30
0.0
11
0.008294
21
-0.051255
31
0.0
0
LINE
8
0
6
CONTINUOUS
10
0.007201
20
-0.051749
30
0.0
11
0.007645
21
-0.051749
31
0.0
0
LINE
8
0
6
CONTINUOUS
10
0.006496
20
-0.051749
30
0.0
11
0.007201
21
-0.051749
31
0.0
0
LINE
8
0
6
CONTINUOUS
10
0.005576
20
-0.051749
30
0.0
11
0.006496
21
-0.051749
31
0.0
0
LINE
8
0
6
CONTINUOUS
10
0.004505
20
-0.051749
30
0.0
11
0.005576
21
-0.051749
31
0.0
0
LINE
8
0
6
CONTINUOUS
10
0.003356
20
-0.051749
30
0.0
11
0.004505
21
-0.051749
31
0.0
0
LINE
8
0
6
CONTINUOUS
10
0.002206
20
-0.051749
30
0.0
11
0.003356
21
-0.051749
31
0.0
0
LINE
8
0
6
CONTINUOUS
10
0.001135
20
-0.051749
30
0.0
11
0.002206
21
-0.051749
31
0.0
0
LINE
8
0
6
CONTINUOUS
10
0.000216
20
-0.051749
30
0.0
11
0.001135
21
-0.051749
31
0.0
0
LINE
8
0
6
CONTINUOUS
10
-0.000490
20
-0.051749
30
0.0
11
0.000216
21
-0.051749
31
0.0
0
LINE
8
0
6
CONTINUOUS
10
-0.000934
20
-0.051749
30
0.0
11
-0.000490
21
-0.051749
31
0.0
0
LINE
8
0
6
CONTINUOUS
10
-0.001085
20
-0.051749
30
0.0
11
-0.000934
21
-0.051749
31
0.0
0
LINE
8
0
6
CONTINUOUS
10
-0.001334
20
-0.051683
30
0.0
11
-0.001085
21
-0.051749
31
0.0
0
LINE
8
0
6
CONTINUOUS
10
-0.001517
20
-0.051502
30
0.0
11
-0.001334
21
-0.051683
31
0.0
0
LINE
8
0
6
CONTINUOUS
10
-0.001583
20
-0.051255
30
0.0
11
-0.001517
21
-0.051502
31
0.0
0
LINE
8
0
6
CONTINUOUS
10
-0.001583
20
-0.051196
30
0.0
11
-0.001583
21
-0.051255
31
0.0
0
LINE
8
0
6
CONTINUOUS
10
0.008294
20
-0.051255
30
0.0
11
0.008294
21
-0.051196
31
0.0
0
LINE
8
0
6
CONTINUOUS
10
0.001867
20
0.010061
30
0.0
11
0.001790
21
0.010061
31
0.0
0
LINE
8
0
6
CONTINUOUS
10
0.020086
20
0.007503
30
0.0
11
0.020086
21
0.008111
31
0.0
0
LINE
8
0
6
CONTINUOUS
10
0.020086
20
0.006777
30
0.0
11
0.020086
21
0.007503
31
0.0
0
LINE
8
0
6
CONTINUOUS
10
0.020086
20
0.008111
30
0.0
11
0.020086
21
0.008616
31
0.0
0
LINE
8
0
6
CONTINUOUS
10
0.020086
20
0.009166
30
0.0
11
0.019896
21
0.009560
31
0.0
0
LINE
8
0
6
CONTINUOUS
10
0.020086
20
0.008978
30
0.0
11
0.020086
21
0.009166
31
0.0
0
LINE
8
0
6
CONTINUOUS
10
0.019896
20
0.009560
30
0.0
11
0.019586
21
0.009870
31
0.0
0
LINE
8
0
6
CONTINUOUS
10
0.019586
20
0.009870
30
0.0
11
0.019192
21
0.010061
31
0.0
0
LINE
8
0
6
CONTINUOUS
10
0.020086
20
0.008616
30
0.0
11
0.020086
21
0.008978
31
0.0
0
LINE
8
0
6
CONTINUOUS
10
0.000895
20
0.008111
30
0.0
11
0.000895
21
0.007503
31
0.0
0
LINE
8
0
6
CONTINUOUS
10
0.000895
20
0.007503
30
0.0
11
0.000895
21
0.006777
31
0.0
0
LINE
8
0
6
CONTINUOUS
10
0.000895
20
0.008616
30
0.0
11
0.000895
21
0.008111
31
0.0
0
LINE
8
0
6
CONTINUOUS
10
0.001790
20
0.010061
30
0.0
11
0.001396
21
0.009870
31
0.0
0
LINE
8
0
6
CONTINUOUS
10
0.001396
20
0.009870
30
0.0
11
0.001086
21
0.009560
31
0.0
0
LINE
8
0
6
CONTINUOUS
10
0.000895
20
0.009166
30
0.0
11
0.000895
21
0.008978
31
0.0
0
LINE
8
0
6
CONTINUOUS
10
0.001086
20
0.009560
30
0.0
11
0.000895
21
0.009166
31
0.0
0
LINE
8
0
6
CONTINUOUS
10
0.000895
20
0.008978
30
0.0
11
0.000895
21
0.008616
31
0.0
0
LINE
8
0
6
CONTINUOUS
10
0.000895
20
0.006777
30
0.0
11
0.000895
21
-0.003463
31
0.0
0
LINE
8
0
6
CONTINUOUS
10
0.020086
20
-0.004428
30
0.0
11
0.020086
21
0.006777
31
0.0
0
LINE
8
0
6
CONTINUOUS
10
0.019192
20
0.010061
30
0.0
11
0.018997
21
0.010061
31
0.0
0
LINE
8
0
6
CONTINUOUS
10
0.018997
20
0.010061
30
0.0
11
0.001867
21
0.010061
31
0.0
0
LINE
8
0
6
CONTINUOUS
10
0.019922
20
-0.046855
30
0.0
11
0.020089
21
-0.046492
31
0.0
0
LINE
8
0
6
CONTINUOUS
10
0.020089
20
-0.046492
30
0.0
11
0.020089
21
-0.045962
31
0.0
0
LINE
8
0
6
CONTINUOUS
10
0.020089
20
-0.045962
30
0.0
11
0.020089
21
-0.044397
31
0.0
0
LINE
8
0
6
CONTINUOUS
10
0.020089
20
-0.041876
30
0.0
11
0.020089
21
-0.038525
31
0.0
0
LINE
8
0
6
CONTINUOUS
10
0.020089
20
-0.038525
30
0.0
11
0.020089
21
-0.034512
31
0.0
0
LINE
8
0
6
CONTINUOUS
10
0.020089
20
-0.034512
30
0.0
11
0.020089
21
-0.030039
31
0.0
0
LINE
8
0
6
CONTINUOUS
10
0.020089
20
-0.030039
30
0.0
11
0.020089
21
-0.025330
31
0.0
0
LINE
8
0
6
CONTINUOUS
10
0.020089
20
-0.025330
30
0.0
11
0.020089
21
-0.020621
31
0.0
0
LINE
8
0
6
CONTINUOUS
10
0.020089
20
-0.020621
30
0.0
11
0.020089
21
-0.016148
31
0.0
0
LINE
8
0
6
CONTINUOUS
10
0.020089
20
-0.016148
30
0.0
11
0.020089
21
-0.012136
31
0.0
0
LINE
8
0
6
CONTINUOUS
10
0.020089
20
-0.012136
30
0.0
11
0.020089
21
-0.008785
31
0.0
0
LINE
8
0
6
CONTINUOUS
10
0.020089
20
-0.008785
30
0.0
11
0.020089
21
-0.006263
31
0.0
0
LINE
8
0
6
CONTINUOUS
10
-0.012097
20
-0.005397
30
0.0
11
-0.012405
21
-0.005397
31
0.0
0
LINE
8
0
6
CONTINUOUS
10
-0.011854
20
-0.047197
30
0.0
11
-0.001583
21
-0.047197
31
0.0
0
LINE
8
0
6
CONTINUOUS
10
0.008294
20
-0.047197
30
0.0
11
0.019185
21
-0.047198
31
0.0
0
LINE
8
0
6
CONTINUOUS
10
0.000895
20
-0.003463
30
0.0
11
-0.011854
21
-0.003463
31
0.0
0
LINE
8
0
6
CONTINUOUS
10
-0.012097
20
-0.004011
30
0.0
11
-0.012097
21
-0.005628
31
0.0
0
LINE
8
0
6
CONTINUOUS
10
-0.012097
20
-0.015842
30
0.0
11
-0.012097
21
-0.020464
31
0.0
0
LINE
8
0
6
CONTINUOUS
10
-0.012097
20
-0.011696
30
0.0
11
-0.012097
21
-0.015842
31
0.0
0
LINE
8
0
6
CONTINUOUS
10
-0.012097
20
-0.030196
30
0.0
11
-0.012097
21
-0.034818
31
0.0
0
LINE
8
0
6
CONTINUOUS
10
-0.012097
20
-0.045032
30
0.0
11
-0.012097
21
-0.046649
31
0.0
0
LINE
8
0
6
CONTINUOUS
10
-0.011854
20
-0.003463
30
0.0
11
-0.012097
21
-0.003463
31
0.0
0
LINE
8
0
6
CONTINUOUS
10
-0.012097
20
-0.003463
30
0.0
11
-0.012097
21
-0.004011
31
0.0
0
LINE
8
0
6
CONTINUOUS
10
-0.012097
20
-0.008233
30
0.0
11
-0.012097
21
-0.011696
31
0.0
0
LINE
8
0
6
CONTINUOUS
10
-0.012097
20
-0.025330
30
0.0
11
-0.012097
21
-0.030196
31
0.0
0
LINE
8
0
6
CONTINUOUS
10
-0.012097
20
-0.020464
30
0.0
11
-0.012097
21
-0.025330
31
0.0
0
LINE
8
0
6
CONTINUOUS
10
-0.012097
20
-0.038964
30
0.0
11
-0.012097
21
-0.042427
31
0.0
0
LINE
8
0
6
CONTINUOUS
10
-0.012097
20
-0.005628
30
0.0
11
-0.012097
21
-0.008233
31
0.0
0
LINE
8
0
6
CONTINUOUS
10
-0.012097
20
-0.047197
30
0.0
11
-0.011854
21
-0.047197
31
0.0
0
LINE
8
0
6
CONTINUOUS
10
-0.012097
20
-0.046649
30
0.0
11
-0.012097
21
-0.047197
31
0.0
0
LINE
8
0
6
CONTINUOUS
10
0.019253
20
-0.047198
30
0.0
11
0.019630
21
-0.047112
31
0.0
0
LINE
8
0
6
CONTINUOUS
10
0.019630
20
-0.047112
30
0.0
11
0.019922
21
-0.046855
31
0.0
0
LINE
8
0
6
CONTINUOUS
10
0.020089
20
-0.044397
30
0.0
11
0.020089
21
-0.041876
31
0.0
0
LINE
8
0
6
CONTINUOUS
10
-0.012097
20
-0.038964
30
0.0
11
-0.012097
21
-0.034818
31
0.0
0
LINE
8
0
6
CONTINUOUS
10
-0.012097
20
-0.042427
30
0.0
11
-0.012097
21
-0.045032
31
0.0
0
LINE
8
0
6
CONTINUOUS
10
0.019185
20
-0.047198
30
0.0
11
0.019253
21
-0.047198
31
0.0
0
LINE
8
0
6
CONTINUOUS
10
-0.012405
20
-0.045263
30
0.0
11
-0.012097
21
-0.045263
31
0.0
0
LINE
8
0
6
CONTINUOUS
10
-0.012405
20
-0.005627
30
0.0
11
-0.012405
21
-0.004009
31
0.0
0
LINE
8
0
6
CONTINUOUS
10
-0.012405
20
-0.011695
30
0.0
11
-0.012405
21
-0.008232
31
0.0
0
LINE
8
0
6
CONTINUOUS
10
-0.012405
20
-0.020464
30
0.0
11
-0.012405
21
-0.015841
31
0.0
0
LINE
8
0
6
CONTINUOUS
10
-0.012405
20
-0.042428
30
0.0
11
-0.012405
21
-0.038965
31
0.0
0
LINE
8
0
6
CONTINUOUS
10
-0.012405
20
-0.046651
30
0.0
11
-0.012405
21
-0.045033
31
0.0
0
LINE
8
0
6
CONTINUOUS
10
-0.012405
20
-0.030196
30
0.0
11
-0.012405
21
-0.025330
31
0.0
0
LINE
8
0
6
CONTINUOUS
10
-0.012405
20
-0.038965
30
0.0
11
-0.012405
21
-0.034819
31
0.0
0
LINE
8
0
6
CONTINUOUS
10
-0.012405
20
-0.034819
30
0.0
11
-0.012405
21
-0.030196
31
0.0
0
LINE
8
0
6
CONTINUOUS
10
-0.012405
20
-0.015841
30
0.0
11
-0.012405
21
-0.011695
31
0.0
0
LINE
8
0
6
CONTINUOUS
10
-0.012721
20
-0.047199
30
0.0
11
-0.012405
21
-0.047199
31
0.0
0
LINE
8
0
6
CONTINUOUS
10
-0.012405
20
-0.047199
30
0.0
11
-0.012405
21
-0.046651
31
0.0
0
LINE
8
0
6
CONTINUOUS
10
-0.012405
20
-0.045033
30
0.0
11
-0.012405
21
-0.042428
31
0.0
0
LINE
8
0
6
CONTINUOUS
10
-0.012405
20
-0.008232
30
0.0
11
-0.012405
21
-0.005627
31
0.0
0
LINE
8
0
6
CONTINUOUS
10
-0.012405
20
-0.003461
30
0.0
11
-0.012720
21
-0.003461
31
0.0
0
LINE
8
0
6
CONTINUOUS
10
-0.012405
20
-0.004009
30
0.0
11
-0.012405
21
-0.003461
31
0.0
0
LINE
8
0
6
CONTINUOUS
10
-0.012405
20
-0.025330
30
0.0
11
-0.012405
21
-0.020464
31
0.0
0
LINE
8
0
6
CONTINUOUS
10
-0.013596
20
-0.047199
30
0.0
11
-0.012721
21
-0.047199
31
0.0
0
LINE
8
0
6
CONTINUOUS
10
-0.012720
20
-0.003461
30
0.0
11
-0.013596
21
-0.003461
31
0.0
0
LINE
8
0
6
CONTINUOUS
10
-0.001923
20
-0.071794
30
0.0
11
-0.001348
21
-0.071809
31
0.0
0
ENDSEC
0
EOF
