999
unknown String-ID: 20550
0
SECTION
2
HEADER
9
$ACADVER
1
AC1009
9
$DWGCODEPAGE
3
unknown String-ID: 20561
0
ENDSEC
0
SECTION
2
TABLES
0
TABLE
2
LAYER
70
1
0
LAYER
2
0
70
0
62
7
6
CONTINUOUS
0
ENDTAB
0
ENDSEC
0
SECTION
2
ENTITIES
0
LINE
8
0
6
CONTINUOUS
10
0.020424
20
0.006581
30
0.0
11
0.021424
21
0.011678
31
0.0
0
LINE
8
0
6
CONTINUOUS
10
-0.021424
20
0.011678
30
0.0
11
-0.020424
21
0.006581
31
0.0
0
LINE
8
0
6
CONTINUOUS
10
-0.021994
20
-0.012644
30
0.0
11
-0.021985
21
-0.016052
31
0.0
0
LINE
8
0
6
CONTINUOUS
10
-0.021992
20
-0.019913
30
0.0
11
-0.021993
21
-0.022823
31
0.0
0
LINE
8
0
6
CONTINUOUS
10
-0.021993
20
-0.022823
30
0.0
11
-0.021988
21
-0.031068
31
0.0
0
LINE
8
0
6
CONTINUOUS
10
-0.021985
20
-0.016052
30
0.0
11
-0.021992
21
-0.019913
31
0.0
0
LINE
8
0
6
CONTINUOUS
10
-0.019609
20
-0.034522
30
0.0
11
-0.019422
21
-0.034744
31
0.0
0
LINE
8
0
6
CONTINUOUS
10
-0.019422
20
-0.034744
30
0.0
11
-0.018761
21
-0.035212
31
0.0
0
LINE
8
0
6
CONTINUOUS
10
-0.015769
20
-0.032548
30
0.0
11
-0.012722
21
-0.032548
31
0.0
0
LINE
8
0
6
CONTINUOUS
10
-0.019068
20
-0.031949
30
0.0
11
-0.016699
21
-0.031989
31
0.0
0
LINE
8
0
6
CONTINUOUS
10
-0.013522
20
-0.032030
30
0.0
11
-0.009598
21
-0.032064
31
0.0
0
LINE
8
0
6
CONTINUOUS
10
-0.009266
20
-0.032551
30
0.0
11
-0.004699
21
-0.032586
31
0.0
0
LINE
8
0
6
CONTINUOUS
10
-0.009598
20
-0.032064
30
0.0
11
-0.004878
21
-0.032076
31
0.0
0
LINE
8
0
6
CONTINUOUS
10
-0.021988
20
-0.031068
30
0.0
11
-0.021856
21
-0.031861
31
0.0
0
LINE
8
0
6
CONTINUOUS
10
-0.021574
20
-0.031868
30
0.0
11
-0.020675
21
-0.031913
31
0.0
0
LINE
8
0
6
CONTINUOUS
10
-0.020675
20
-0.031913
30
0.0
11
-0.019068
21
-0.031949
31
0.0
0
LINE
8
0
6
CONTINUOUS
10
-0.018044
20
-0.032548
30
0.0
11
-0.015769
21
-0.032548
31
0.0
0
LINE
8
0
6
CONTINUOUS
10
-0.012722
20
-0.032548
30
0.0
11
-0.009266
21
-0.032551
31
0.0
0
LINE
8
0
6
CONTINUOUS
10
-0.021328
20
-0.032321
30
0.0
11
-0.020646
21
-0.032548
31
0.0
0
LINE
8
0
6
CONTINUOUS
10
-0.020646
20
-0.032548
30
0.0
11
-0.020448
21
-0.032548
31
0.0
0
LINE
8
0
6
CONTINUOUS
10
-0.020448
20
-0.032548
30
0.0
11
-0.019604
21
-0.032548
31
0.0
0
LINE
8
0
6
CONTINUOUS
10
-0.019604
20
-0.032548
30
0.0
11
-0.018044
21
-0.032548
31
0.0
0
LINE
8
0
6
CONTINUOUS
10
-0.021958
20
0.004269
30
0.0
11
-0.021994
21
-0.012644
31
0.0
0
LINE
8
0
6
CONTINUOUS
10
-0.020027
20
-0.032632
30
0.0
11
-0.019905
21
-0.033331
31
0.0
0
LINE
8
0
6
CONTINUOUS
10
-0.019609
20
-0.034522
30
0.0
11
-0.019670
21
-0.033925
31
0.0
0
LINE
8
0
6
CONTINUOUS
10
-0.019806
20
-0.033885
30
0.0
11
-0.019609
21
-0.034522
31
0.0
0
LINE
8
0
6
CONTINUOUS
10
-0.019905
20
-0.033331
30
0.0
11
-0.019806
21
-0.033885
31
0.0
0
LINE
8
0
6
CONTINUOUS
10
-0.004699
20
-0.032586
30
0.0
11
0.000000
21
-0.032599
31
0.0
0
LINE
8
0
6
CONTINUOUS
10
0.000000
20
-0.032089
30
0.0
11
-0.004878
21
-0.032076
31
0.0
0
LINE
8
0
6
CONTINUOUS
10
-0.013522
20
-0.032030
30
0.0
11
-0.016699
21
-0.031989
31
0.0
0
LINE
8
0
6
CONTINUOUS
10
-0.013442
20
-0.036021
30
0.0
11
-0.009953
21
-0.036181
31
0.0
0
LINE
8
0
6
CONTINUOUS
10
-0.016333
20
-0.035853
30
0.0
11
-0.013442
21
-0.036021
31
0.0
0
LINE
8
0
6
CONTINUOUS
10
-0.018269
20
-0.035444
30
0.0
11
-0.017774
21
-0.035610
31
0.0
0
LINE
8
0
6
CONTINUOUS
10
-0.017774
20
-0.035610
30
0.0
11
-0.016333
21
-0.035853
31
0.0
0
LINE
8
0
6
CONTINUOUS
10
-0.018761
20
-0.035212
30
0.0
11
-0.018269
21
-0.035444
31
0.0
0
LINE
8
0
6
CONTINUOUS
10
-0.003147
20
-0.036362
30
0.0
11
0.000000
21
-0.036383
31
0.0
0
LINE
8
0
6
CONTINUOUS
10
-0.006622
20
-0.036292
30
0.0
11
-0.003147
21
-0.036362
31
0.0
0
LINE
8
0
6
CONTINUOUS
10
-0.009953
20
-0.036181
30
0.0
11
-0.006622
21
-0.036292
31
0.0
0
LINE
8
0
6
CONTINUOUS
10
-0.021956
20
0.005141
30
0.0
11
-0.021958
21
0.004269
31
0.0
0
LINE
8
0
6
CONTINUOUS
10
-0.021956
20
0.005141
30
0.0
11
-0.021826
21
0.004471
31
0.0
0
LINE
8
0
6
CONTINUOUS
10
-0.021266
20
0.005141
30
0.0
11
-0.021956
21
0.005141
31
0.0
0
LINE
8
0
6
CONTINUOUS
10
-0.005029
20
-0.001029
30
0.0
11
0.000000
21
-0.001226
31
0.0
0
LINE
8
0
6
CONTINUOUS
10
-0.021826
20
0.004471
30
0.0
11
-0.021009
21
0.003359
31
0.0
0
LINE
8
0
6
CONTINUOUS
10
-0.013899
20
0.000247
30
0.0
11
-0.009859
21
-0.000502
31
0.0
0
LINE
8
0
6
CONTINUOUS
10
-0.021009
20
0.003359
30
0.0
11
-0.019457
21
0.002257
31
0.0
0
LINE
8
0
6
CONTINUOUS
10
-0.019457
20
0.002257
30
0.0
11
-0.017136
21
0.001169
31
0.0
0
LINE
8
0
6
CONTINUOUS
10
-0.009859
20
-0.000502
30
0.0
11
-0.005029
21
-0.001029
31
0.0
0
LINE
8
0
6
CONTINUOUS
10
-0.017136
20
0.001169
30
0.0
11
-0.013899
21
0.000247
31
0.0
0
LINE
8
0
6
CONTINUOUS
10
0.021985
20
-0.016052
30
0.0
11
0.021994
21
-0.012644
31
0.0
0
LINE
8
0
6
CONTINUOUS
10
0.021993
20
-0.022823
30
0.0
11
0.021992
21
-0.019913
31
0.0
0
LINE
8
0
6
CONTINUOUS
10
0.021988
20
-0.031068
30
0.0
11
0.021993
21
-0.022823
31
0.0
0
LINE
8
0
6
CONTINUOUS
10
0.021992
20
-0.019913
30
0.0
11
0.021985
21
-0.016052
31
0.0
0
LINE
8
0
6
CONTINUOUS
10
0.018761
20
-0.035212
30
0.0
11
0.019422
21
-0.034744
31
0.0
0
LINE
8
0
6
CONTINUOUS
10
0.019422
20
-0.034744
30
0.0
11
0.019609
21
-0.034522
31
0.0
0
LINE
8
0
6
CONTINUOUS
10
0.012722
20
-0.032548
30
0.0
11
0.015769
21
-0.032548
31
0.0
0
LINE
8
0
6
CONTINUOUS
10
0.016699
20
-0.031989
30
0.0
11
0.019068
21
-0.031949
31
0.0
0
LINE
8
0
6
CONTINUOUS
10
0.009598
20
-0.032064
30
0.0
11
0.013522
21
-0.032030
31
0.0
0
LINE
8
0
6
CONTINUOUS
10
0.004699
20
-0.032586
30
0.0
11
0.009266
21
-0.032551
31
0.0
0
LINE
8
0
6
CONTINUOUS
10
0.004878
20
-0.032076
30
0.0
11
0.009598
21
-0.032064
31
0.0
0
LINE
8
0
6
CONTINUOUS
10
0.021856
20
-0.031861
30
0.0
11
0.021988
21
-0.031068
31
0.0
0
LINE
8
0
6
CONTINUOUS
10
0.019068
20
-0.031949
30
0.0
11
0.020675
21
-0.031913
31
0.0
0
LINE
8
0
6
CONTINUOUS
10
0.015769
20
-0.032548
30
0.0
11
0.018044
21
-0.032548
31
0.0
0
LINE
8
0
6
CONTINUOUS
10
0.009266
20
-0.032551
30
0.0
11
0.012722
21
-0.032548
31
0.0
0
LINE
8
0
6
CONTINUOUS
10
0.020448
20
-0.032548
30
0.0
11
0.020646
21
-0.032548
31
0.0
0
LINE
8
0
6
CONTINUOUS
10
0.020646
20
-0.032548
30
0.0
11
0.021328
21
-0.032321
31
0.0
0
LINE
8
0
6
CONTINUOUS
10
0.019604
20
-0.032548
30
0.0
11
0.020448
21
-0.032548
31
0.0
0
LINE
8
0
6
CONTINUOUS
10
0.018044
20
-0.032548
30
0.0
11
0.019604
21
-0.032548
31
0.0
0
LINE
8
0
6
CONTINUOUS
10
0.021994
20
-0.012644
30
0.0
11
0.021958
21
0.004269
31
0.0
0
LINE
8
0
6
CONTINUOUS
10
0.019905
20
-0.033331
30
0.0
11
0.020027
21
-0.032632
31
0.0
0
LINE
8
0
6
CONTINUOUS
10
0.019726
20
-0.033214
30
0.0
11
0.019670
21
-0.033925
31
0.0
0
LINE
8
0
6
CONTINUOUS
10
0.019806
20
-0.033885
30
0.0
11
0.019905
21
-0.033331
31
0.0
0
LINE
8
0
6
CONTINUOUS
10
0.019609
20
-0.034522
30
0.0
11
0.019806
21
-0.033885
31
0.0
0
LINE
8
0
6
CONTINUOUS
10
0.019670
20
-0.033925
30
0.0
11
0.019609
21
-0.034522
31
0.0
0
LINE
8
0
6
CONTINUOUS
10
0.000000
20
-0.032599
30
0.0
11
0.004699
21
-0.032586
31
0.0
0
LINE
8
0
6
CONTINUOUS
10
0.004878
20
-0.032076
30
0.0
11
0.000000
21
-0.032089
31
0.0
0
LINE
8
0
6
CONTINUOUS
10
0.016699
20
-0.031989
30
0.0
11
0.013522
21
-0.032030
31
0.0
0
LINE
8
0
6
CONTINUOUS
10
0.009953
20
-0.036181
30
0.0
11
0.013442
21
-0.036021
31
0.0
0
LINE
8
0
6
CONTINUOUS
10
0.013442
20
-0.036021
30
0.0
11
0.016333
21
-0.035853
31
0.0
0
LINE
8
0
6
CONTINUOUS
10
0.016333
20
-0.035853
30
0.0
11
0.017774
21
-0.035610
31
0.0
0
LINE
8
0
6
CONTINUOUS
10
0.017774
20
-0.035610
30
0.0
11
0.018269
21
-0.035444
31
0.0
0
LINE
8
0
6
CONTINUOUS
10
0.018269
20
-0.035444
30
0.0
11
0.018761
21
-0.035212
31
0.0
0
LINE
8
0
6
CONTINUOUS
10
0.000000
20
-0.036383
30
0.0
11
0.003147
21
-0.036362
31
0.0
0
LINE
8
0
6
CONTINUOUS
10
0.003147
20
-0.036362
30
0.0
11
0.006622
21
-0.036292
31
0.0
0
LINE
8
0
6
CONTINUOUS
10
0.006622
20
-0.036292
30
0.0
11
0.009953
21
-0.036181
31
0.0
0
LINE
8
0
6
CONTINUOUS
10
0.021958
20
0.004269
30
0.0
11
0.021956
21
0.005141
31
0.0
0
LINE
8
0
6
CONTINUOUS
10
0.021956
20
0.005141
30
0.0
11
0.021266
21
0.005141
31
0.0
0
LINE
8
0
6
CONTINUOUS
10
0.021826
20
0.004471
30
0.0
11
0.021956
21
0.005141
31
0.0
0
LINE
8
0
6
CONTINUOUS
10
0.000000
20
-0.001226
30
0.0
11
0.005029
21
-0.001029
31
0.0
0
LINE
8
0
6
CONTINUOUS
10
0.021009
20
0.003359
30
0.0
11
0.021826
21
0.004471
31
0.0
0
LINE
8
0
6
CONTINUOUS
10
0.009859
20
-0.000502
30
0.0
11
0.013899
21
0.000247
31
0.0
0
LINE
8
0
6
CONTINUOUS
10
0.019457
20
0.002257
30
0.0
11
0.021009
21
0.003359
31
0.0
0
LINE
8
0
6
CONTINUOUS
10
0.017136
20
0.001169
30
0.0
11
0.019457
21
0.002257
31
0.0
0
LINE
8
0
6
CONTINUOUS
10
0.005029
20
-0.001029
30
0.0
11
0.009859
21
-0.000502
31
0.0
0
LINE
8
0
6
CONTINUOUS
10
0.013899
20
0.000247
30
0.0
11
0.017136
21
0.001169
31
0.0
0
LINE
8
0
6
CONTINUOUS
10
-0.020321
20
0.005141
30
0.0
11
-0.021266
21
0.005141
31
0.0
0
LINE
8
0
6
CONTINUOUS
10
0.021266
20
0.005141
30
0.0
11
0.020321
21
0.005141
31
0.0
0
LINE
8
0
6
CONTINUOUS
10
-0.021856
20
-0.031861
30
0.0
11
-0.021328
21
-0.032321
31
0.0
0
LINE
8
0
6
CONTINUOUS
10
-0.021574
20
-0.031868
30
0.0
11
-0.021856
21
-0.031861
31
0.0
0
LINE
8
0
6
CONTINUOUS
10
0.021856
20
-0.031861
30
0.0
11
0.021574
21
-0.031868
31
0.0
0
LINE
8
0
6
CONTINUOUS
10
0.021328
20
-0.032321
30
0.0
11
0.021856
21
-0.031861
31
0.0
0
LINE
8
0
6
CONTINUOUS
10
0.021424
20
0.011678
30
0.0
11
0.021849
21
0.016745
31
0.0
0
LINE
8
0
6
CONTINUOUS
10
-0.021849
20
0.016745
30
0.0
11
-0.021424
21
0.011678
31
0.0
0
LINE
8
0
6
CONTINUOUS
10
0.021849
20
0.016745
30
0.0
11
0.021849
21
0.022383
31
0.0
0
LINE
8
0
6
CONTINUOUS
10
-0.021849
20
0.022383
30
0.0
11
-0.021849
21
0.016745
31
0.0
0
LINE
8
0
6
CONTINUOUS
10
0.056144
20
0.036383
30
0.0
11
0.052068
21
0.036383
31
0.0
0
LINE
8
0
6
CONTINUOUS
10
0.076873
20
0.036383
30
0.0
11
0.076171
21
0.036383
31
0.0
0
LINE
8
0
6
CONTINUOUS
10
0.074454
20
0.036383
30
0.0
11
0.073306
21
0.036383
31
0.0
0
LINE
8
0
6
CONTINUOUS
10
0.071798
20
0.036383
30
0.0
11
0.069697
21
0.036383
31
0.0
0
LINE
8
0
6
CONTINUOUS
10
0.077270
20
0.036383
30
0.0
11
0.076873
21
0.036383
31
0.0
0
LINE
8
0
6
CONTINUOUS
10
0.077500
20
0.036383
30
0.0
11
0.077270
21
0.036383
31
0.0
0
LINE
8
0
6
CONTINUOUS
10
0.077500
20
0.036007
30
0.0
11
0.077500
21
0.036383
31
0.0
0
LINE
8
0
6
CONTINUOUS
10
0.073306
20
0.036383
30
0.0
11
0.071798
21
0.036383
31
0.0
0
LINE
8
0
6
CONTINUOUS
10
0.040227
20
0.036383
30
0.0
11
0.029102
21
0.036383
31
0.0
0
LINE
8
0
6
CONTINUOUS
10
0.063759
20
0.036383
30
0.0
11
0.060091
21
0.036383
31
0.0
0
LINE
8
0
6
CONTINUOUS
10
0.067038
20
0.036383
30
0.0
11
0.063759
21
0.036383
31
0.0
0
LINE
8
0
6
CONTINUOUS
10
0.047903
20
0.036383
30
0.0
11
0.040227
21
0.036383
31
0.0
0
LINE
8
0
6
CONTINUOUS
10
0.077500
20
0.023383
30
0.0
11
0.077500
21
0.023759
31
0.0
0
LINE
8
0
6
CONTINUOUS
10
0.052068
20
0.036383
30
0.0
11
0.047903
21
0.036383
31
0.0
0
LINE
8
0
6
CONTINUOUS
10
0.075247
20
0.036383
30
0.0
11
0.074454
21
0.036383
31
0.0
0
LINE
8
0
6
CONTINUOUS
10
0.076171
20
0.036383
30
0.0
11
0.075247
21
0.036383
31
0.0
0
LINE
8
0
6
CONTINUOUS
10
0.029102
20
0.036383
30
0.0
11
0.016409
21
0.036383
31
0.0
0
LINE
8
0
6
CONTINUOUS
10
0.060091
20
0.036383
30
0.0
11
0.056144
21
0.036383
31
0.0
0
LINE
8
0
6
CONTINUOUS
10
0.069697
20
0.036383
30
0.0
11
0.067038
21
0.036383
31
0.0
0
LINE
8
0
6
CONTINUOUS
10
0.016409
20
0.036383
30
0.0
11
0.000000
21
0.036383
31
0.0
0
LINE
8
0
6
CONTINUOUS
10
0.068941
20
0.022383
30
0.0
11
0.070952
21
0.022383
31
0.0
0
LINE
8
0
6
CONTINUOUS
10
0.077500
20
0.023759
30
0.0
11
0.077500
21
0.036007
31
0.0
0
LINE
8
0
6
CONTINUOUS
10
0.070952
20
0.022383
30
0.0
11
0.072434
21
0.022383
31
0.0
0
LINE
8
0
6
CONTINUOUS
10
0.073009
20
0.022683
30
0.0
11
0.071521
21
0.022683
31
0.0
0
LINE
8
0
6
CONTINUOUS
10
0.072434
20
0.022383
30
0.0
11
0.073518
21
0.022383
31
0.0
0
LINE
8
0
6
CONTINUOUS
10
0.073518
20
0.022383
30
0.0
11
0.074407
21
0.022383
31
0.0
0
LINE
8
0
6
CONTINUOUS
10
0.075279
20
0.022383
30
0.0
11
0.075949
21
0.022383
31
0.0
0
LINE
8
0
6
CONTINUOUS
10
0.075949
20
0.022383
30
0.0
11
0.076291
21
0.022383
31
0.0
0
LINE
8
0
6
CONTINUOUS
10
0.076935
20
0.022683
30
0.0
11
0.076565
21
0.022683
31
0.0
0
LINE
8
0
6
CONTINUOUS
10
0.063070
20
0.022383
30
0.0
11
0.066330
21
0.022383
31
0.0
0
LINE
8
0
6
CONTINUOUS
10
0.069428
20
0.022683
30
0.0
11
0.071521
21
0.022683
31
0.0
0
LINE
8
0
6
CONTINUOUS
10
0.051544
20
0.022383
30
0.0
11
0.055563
21
0.022383
31
0.0
0
LINE
8
0
6
CONTINUOUS
10
0.047467
20
0.022383
30
0.0
11
0.051544
21
0.022383
31
0.0
0
LINE
8
0
6
CONTINUOUS
10
0.077200
20
0.022683
30
0.0
11
0.077500
21
0.023383
31
0.0
0
LINE
8
0
6
CONTINUOUS
10
0.063551
20
0.022683
30
0.0
11
0.066776
21
0.022683
31
0.0
0
LINE
8
0
6
CONTINUOUS
10
0.051888
20
0.022683
30
0.0
11
0.055946
21
0.022683
31
0.0
0
LINE
8
0
6
CONTINUOUS
10
0.000000
20
0.022383
30
0.0
11
0.016213
21
0.022383
31
0.0
0
LINE
8
0
6
CONTINUOUS
10
0.077200
20
0.022683
30
0.0
11
0.076935
21
0.022683
31
0.0
0
LINE
8
0
6
CONTINUOUS
10
0.076500
20
0.022383
30
0.0
11
0.077200
21
0.022683
31
0.0
0
LINE
8
0
6
CONTINUOUS
10
0.076291
20
0.022383
30
0.0
11
0.076500
21
0.022383
31
0.0
0
LINE
8
0
6
CONTINUOUS
10
0.059452
20
0.022383
30
0.0
11
0.063070
21
0.022383
31
0.0
0
LINE
8
0
6
CONTINUOUS
10
0.063551
20
0.022683
30
0.0
11
0.059870
21
0.022683
31
0.0
0
LINE
8
0
6
CONTINUOUS
10
0.073009
20
0.022683
30
0.0
11
0.074143
21
0.022683
31
0.0
0
LINE
8
0
6
CONTINUOUS
10
0.074143
20
0.022683
30
0.0
11
0.074923
21
0.022683
31
0.0
0
LINE
8
0
6
CONTINUOUS
10
0.075806
20
0.022683
30
0.0
11
0.076565
21
0.022683
31
0.0
0
LINE
8
0
6
CONTINUOUS
10
0.066330
20
0.022383
30
0.0
11
0.068941
21
0.022383
31
0.0
0
LINE
8
0
6
CONTINUOUS
10
0.069428
20
0.022683
30
0.0
11
0.066776
21
0.022683
31
0.0
0
LINE
8
0
6
CONTINUOUS
10
0.074407
20
0.022383
30
0.0
11
0.075279
21
0.022383
31
0.0
0
LINE
8
0
6
CONTINUOUS
10
0.075806
20
0.022683
30
0.0
11
0.074923
21
0.022683
31
0.0
0
LINE
8
0
6
CONTINUOUS
10
0.059870
20
0.022683
30
0.0
11
0.055946
21
0.022683
31
0.0
0
LINE
8
0
6
CONTINUOUS
10
0.055563
20
0.022383
30
0.0
11
0.059452
21
0.022383
31
0.0
0
LINE
8
0
6
CONTINUOUS
10
0.039822
20
0.022383
30
0.0
11
0.047467
21
0.022383
31
0.0
0
LINE
8
0
6
CONTINUOUS
10
0.040025
20
0.022683
30
0.0
11
0.028962
21
0.022683
31
0.0
0
LINE
8
0
6
CONTINUOUS
10
0.028654
20
0.022383
30
0.0
11
0.039822
21
0.022383
31
0.0
0
LINE
8
0
6
CONTINUOUS
10
0.028962
20
0.022683
30
0.0
11
0.016353
21
0.022683
31
0.0
0
LINE
8
0
6
CONTINUOUS
10
0.016213
20
0.022383
30
0.0
11
0.028654
21
0.022383
31
0.0
0
LINE
8
0
6
CONTINUOUS
10
0.047743
20
0.022683
30
0.0
11
0.051888
21
0.022683
31
0.0
0
LINE
8
0
6
CONTINUOUS
10
0.000000
20
0.022683
30
0.0
11
0.016353
21
0.022683
31
0.0
0
LINE
8
0
6
CONTINUOUS
10
-0.052068
20
0.036383
30
0.0
11
-0.056144
21
0.036383
31
0.0
0
LINE
8
0
6
CONTINUOUS
10
-0.076171
20
0.036383
30
0.0
11
-0.076873
21
0.036383
31
0.0
0
LINE
8
0
6
CONTINUOUS
10
-0.073306
20
0.036383
30
0.0
11
-0.074454
21
0.036383
31
0.0
0
LINE
8
0
6
CONTINUOUS
10
-0.069697
20
0.036383
30
0.0
11
-0.071798
21
0.036383
31
0.0
0
LINE
8
0
6
CONTINUOUS
10
-0.076873
20
0.036383
30
0.0
11
-0.077270
21
0.036383
31
0.0
0
LINE
8
0
6
CONTINUOUS
10
-0.077500
20
0.036383
30
0.0
11
-0.077500
21
0.036007
31
0.0
0
LINE
8
0
6
CONTINUOUS
10
-0.077270
20
0.036383
30
0.0
11
-0.077500
21
0.036383
31
0.0
0
LINE
8
0
6
CONTINUOUS
10
-0.071798
20
0.036383
30
0.0
11
-0.073306
21
0.036383
31
0.0
0
LINE
8
0
6
CONTINUOUS
10
-0.029102
20
0.036383
30
0.0
11
-0.040227
21
0.036383
31
0.0
0
LINE
8
0
6
CONTINUOUS
10
-0.060091
20
0.036383
30
0.0
11
-0.063759
21
0.036383
31
0.0
0
LINE
8
0
6
CONTINUOUS
10
-0.063759
20
0.036383
30
0.0
11
-0.067038
21
0.036383
31
0.0
0
LINE
8
0
6
CONTINUOUS
10
-0.040227
20
0.036383
30
0.0
11
-0.047903
21
0.036383
31
0.0
0
LINE
8
0
6
CONTINUOUS
10
-0.077500
20
0.023759
30
0.0
11
-0.077500
21
0.023383
31
0.0
0
LINE
8
0
6
CONTINUOUS
10
-0.047903
20
0.036383
30
0.0
11
-0.052068
21
0.036383
31
0.0
0
LINE
8
0
6
CONTINUOUS
10
-0.074454
20
0.036383
30
0.0
11
-0.075247
21
0.036383
31
0.0
0
LINE
8
0
6
CONTINUOUS
10
-0.075247
20
0.036383
30
0.0
11
-0.076171
21
0.036383
31
0.0
0
LINE
8
0
6
CONTINUOUS
10
-0.016409
20
0.036383
30
0.0
11
-0.029102
21
0.036383
31
0.0
0
LINE
8
0
6
CONTINUOUS
10
-0.056144
20
0.036383
30
0.0
11
-0.060091
21
0.036383
31
0.0
0
LINE
8
0
6
CONTINUOUS
10
-0.067038
20
0.036383
30
0.0
11
-0.069697
21
0.036383
31
0.0
0
LINE
8
0
6
CONTINUOUS
10
0.000000
20
0.036383
30
0.0
11
-0.016409
21
0.036383
31
0.0
0
LINE
8
0
6
CONTINUOUS
10
-0.070952
20
0.022383
30
0.0
11
-0.068941
21
0.022383
31
0.0
0
LINE
8
0
6
CONTINUOUS
10
-0.077500
20
0.036007
30
0.0
11
-0.077500
21
0.023759
31
0.0
0
LINE
8
0
6
CONTINUOUS
10
-0.071521
20
0.022683
30
0.0
11
-0.073009
21
0.022683
31
0.0
0
LINE
8
0
6
CONTINUOUS
10
-0.072434
20
0.022383
30
0.0
11
-0.070952
21
0.022383
31
0.0
0
LINE
8
0
6
CONTINUOUS
10
-0.073518
20
0.022383
30
0.0
11
-0.072434
21
0.022383
31
0.0
0
LINE
8
0
6
CONTINUOUS
10
-0.074407
20
0.022383
30
0.0
11
-0.073518
21
0.022383
31
0.0
0
LINE
8
0
6
CONTINUOUS
10
-0.075949
20
0.022383
30
0.0
11
-0.075279
21
0.022383
31
0.0
0
LINE
8
0
6
CONTINUOUS
10
-0.076565
20
0.022683
30
0.0
11
-0.076935
21
0.022683
31
0.0
0
LINE
8
0
6
CONTINUOUS
10
-0.076291
20
0.022383
30
0.0
11
-0.075949
21
0.022383
31
0.0
0
LINE
8
0
6
CONTINUOUS
10
-0.066330
20
0.022383
30
0.0
11
-0.063070
21
0.022383
31
0.0
0
LINE
8
0
6
CONTINUOUS
10
-0.071521
20
0.022683
30
0.0
11
-0.069428
21
0.022683
31
0.0
0
LINE
8
0
6
CONTINUOUS
10
-0.055563
20
0.022383
30
0.0
11
-0.051544
21
0.022383
31
0.0
0
LINE
8
0
6
CONTINUOUS
10
-0.051544
20
0.022383
30
0.0
11
-0.047467
21
0.022383
31
0.0
0
LINE
8
0
6
CONTINUOUS
10
-0.077500
20
0.023383
30
0.0
11
-0.077200
21
0.022683
31
0.0
0
LINE
8
0
6
CONTINUOUS
10
-0.066776
20
0.022683
30
0.0
11
-0.063551
21
0.022683
31
0.0
0
LINE
8
0
6
CONTINUOUS
10
-0.055946
20
0.022683
30
0.0
11
-0.051888
21
0.022683
31
0.0
0
LINE
8
0
6
CONTINUOUS
10
-0.016213
20
0.022383
30
0.0
11
0.000000
21
0.022383
31
0.0
0
LINE
8
0
6
CONTINUOUS
10
-0.076500
20
0.022383
30
0.0
11
-0.076291
21
0.022383
31
0.0
0
LINE
8
0
6
CONTINUOUS
10
-0.077200
20
0.022683
30
0.0
11
-0.076500
21
0.022383
31
0.0
0
LINE
8
0
6
CONTINUOUS
10
-0.076935
20
0.022683
30
0.0
11
-0.077200
21
0.022683
31
0.0
0
LINE
8
0
6
CONTINUOUS
10
-0.059870
20
0.022683
30
0.0
11
-0.063551
21
0.022683
31
0.0
0
LINE
8
0
6
CONTINUOUS
10
-0.063070
20
0.022383
30
0.0
11
-0.059452
21
0.022383
31
0.0
0
LINE
8
0
6
CONTINUOUS
10
-0.074143
20
0.022683
30
0.0
11
-0.073009
21
0.022683
31
0.0
0
LINE
8
0
6
CONTINUOUS
10
-0.074923
20
0.022683
30
0.0
11
-0.074143
21
0.022683
31
0.0
0
LINE
8
0
6
CONTINUOUS
10
-0.076565
20
0.022683
30
0.0
11
-0.075806
21
0.022683
31
0.0
0
LINE
8
0
6
CONTINUOUS
10
-0.066776
20
0.022683
30
0.0
11
-0.069428
21
0.022683
31
0.0
0
LINE
8
0
6
CONTINUOUS
10
-0.068941
20
0.022383
30
0.0
11
-0.066330
21
0.022383
31
0.0
0
LINE
8
0
6
CONTINUOUS
10
-0.074923
20
0.022683
30
0.0
11
-0.075806
21
0.022683
31
0.0
0
LINE
8
0
6
CONTINUOUS
10
-0.075279
20
0.022383
30
0.0
11
-0.074407
21
0.022383
31
0.0
0
LINE
8
0
6
CONTINUOUS
10
-0.059452
20
0.022383
30
0.0
11
-0.055563
21
0.022383
31
0.0
0
LINE
8
0
6
CONTINUOUS
10
-0.055946
20
0.022683
30
0.0
11
-0.059870
21
0.022683
31
0.0
0
LINE
8
0
6
CONTINUOUS
10
-0.047467
20
0.022383
30
0.0
11
-0.039822
21
0.022383
31
0.0
0
LINE
8
0
6
CONTINUOUS
10
-0.039822
20
0.022383
30
0.0
11
-0.028654
21
0.022383
31
0.0
0
LINE
8
0
6
CONTINUOUS
10
-0.028962
20
0.022683
30
0.0
11
-0.040025
21
0.022683
31
0.0
0
LINE
8
0
6
CONTINUOUS
10
-0.028654
20
0.022383
30
0.0
11
-0.016213
21
0.022383
31
0.0
0
LINE
8
0
6
CONTINUOUS
10
-0.016353
20
0.022683
30
0.0
11
-0.028962
21
0.022683
31
0.0
0
LINE
8
0
6
CONTINUOUS
10
-0.051888
20
0.022683
30
0.0
11
-0.047743
21
0.022683
31
0.0
0
LINE
8
0
6
CONTINUOUS
10
-0.016353
20
0.022683
30
0.0
11
0.000000
21
0.022683
31
0.0
0
LINE
8
0
6
CONTINUOUS
10
-0.015960
20
0.002070
30
0.0
11
-0.015758
21
0.001983
31
0.0
0
LINE
8
0
6
CONTINUOUS
10
-0.016474
20
0.002304
30
0.0
11
-0.015960
21
0.002070
31
0.0
0
LINE
8
0
6
CONTINUOUS
10
-0.003517
20
-0.000113
30
0.0
11
0.000000
21
-0.000205
31
0.0
0
LINE
8
0
6
CONTINUOUS
10
0.018740
20
0.003639
30
0.0
11
0.017799
21
0.002934
31
0.0
0
LINE
8
0
6
CONTINUOUS
10
0.015836
20
0.002008
30
0.0
11
0.015755
21
0.001973
31
0.0
0
LINE
8
0
6
CONTINUOUS
10
0.013356
20
0.001275
30
0.0
11
0.013162
21
0.001216
31
0.0
0
LINE
8
0
6
CONTINUOUS
10
0.015755
20
0.001973
30
0.0
11
0.013356
21
0.001275
31
0.0
0
LINE
8
0
6
CONTINUOUS
10
0.006945
20
0.000157
30
0.0
11
0.009468
21
0.000506
31
0.0
0
LINE
8
0
6
CONTINUOUS
10
0.003517
20
-0.000113
30
0.0
11
0.004826
21
-0.000009
31
0.0
0
ENDSEC
0
EOF
