999
unknown String-ID: 20550
0
SECTION
2
HEADER
9
$ACADVER
1
AC1009
9
$DWGCODEPAGE
3
unknown String-ID: 20561
0
ENDSEC
0
SECTION
2
TABLES
0
TABLE
2
LAYER
70
1
0
LAYER
2
0
70
0
62
7
6
CONTINUOUS
0
ENDTAB
0
ENDSEC
0
SECTION
2
ENTITIES
0
LINE
8
0
6
CONTINUOUS
10
-0.021829
20
-0.004772
30
0.0
11
-0.021784
21
-0.006605
31
0.0
0
LINE
8
0
6
CONTINUOUS
10
-0.021994
20
0.002107
30
0.0
11
-0.021985
21
0.001869
31
0.0
0
LINE
8
0
6
CONTINUOUS
10
-0.021992
20
0.001699
30
0.0
11
-0.021993
21
0.001651
31
0.0
0
LINE
8
0
6
CONTINUOUS
10
-0.021784
20
-0.006605
30
0.0
11
-0.021739
21
-0.008331
31
0.0
0
LINE
8
0
6
CONTINUOUS
10
-0.021739
20
-0.008331
30
0.0
11
-0.021573
21
-0.014139
31
0.0
0
LINE
8
0
6
CONTINUOUS
10
-0.021985
20
0.001869
30
0.0
11
-0.021992
21
0.001699
31
0.0
0
LINE
8
0
6
CONTINUOUS
10
-0.019068
20
0.012899
30
0.0
11
-0.016699
21
0.016295
31
0.0
0
LINE
8
0
6
CONTINUOUS
10
-0.013522
20
0.019368
30
0.0
11
-0.009598
21
0.021839
31
0.0
0
LINE
8
0
6
CONTINUOUS
10
-0.009598
20
0.021839
30
0.0
11
-0.004878
21
0.023526
31
0.0
0
LINE
8
0
6
CONTINUOUS
10
-0.021574
20
0.005515
30
0.0
11
-0.020675
21
0.009247
31
0.0
0
LINE
8
0
6
CONTINUOUS
10
-0.020675
20
0.009247
30
0.0
11
-0.019068
21
0.012899
31
0.0
0
LINE
8
0
6
CONTINUOUS
10
-0.021888
20
-0.002782
30
0.0
11
-0.021834
21
-0.004675
31
0.0
0
LINE
8
0
6
CONTINUOUS
10
-0.021634
20
-0.006539
30
0.0
11
-0.021695
21
-0.004587
31
0.0
0
LINE
8
0
6
CONTINUOUS
10
-0.021434
20
-0.015029
30
0.0
11
-0.021582
21
-0.008413
31
0.0
0
LINE
8
0
6
CONTINUOUS
10
-0.021634
20
-0.006539
30
0.0
11
-0.021582
21
-0.008413
31
0.0
0
LINE
8
0
6
CONTINUOUS
10
-0.021993
20
0.001651
30
0.0
11
-0.021888
21
-0.002782
31
0.0
0
LINE
8
0
6
CONTINUOUS
10
-0.021958
20
0.003266
30
0.0
11
-0.021994
21
0.002107
31
0.0
0
LINE
8
0
6
CONTINUOUS
10
-0.020306
20
-0.059436
30
0.0
11
-0.020055
21
-0.067799
31
0.0
0
LINE
8
0
6
CONTINUOUS
10
-0.021012
20
-0.034616
30
0.0
11
-0.020774
21
-0.042957
31
0.0
0
LINE
8
0
6
CONTINUOUS
10
-0.020774
20
-0.042957
30
0.0
11
-0.020537
21
-0.051308
31
0.0
0
LINE
8
0
6
CONTINUOUS
10
-0.020537
20
-0.051308
30
0.0
11
-0.020306
21
-0.059436
31
0.0
0
LINE
8
0
6
CONTINUOUS
10
-0.020055
20
-0.067799
30
0.0
11
-0.019925
21
-0.072069
31
0.0
0
LINE
8
0
6
CONTINUOUS
10
-0.019609
20
-0.075037
30
0.0
11
-0.019670
21
-0.072313
31
0.0
0
LINE
8
0
6
CONTINUOUS
10
-0.019925
20
-0.072069
30
0.0
11
-0.019838
21
-0.074668
31
0.0
0
LINE
8
0
6
CONTINUOUS
10
-0.004699
20
0.022713
30
0.0
11
0.000000
21
0.023257
31
0.0
0
LINE
8
0
6
CONTINUOUS
10
0.000000
20
0.024090
30
0.0
11
-0.004878
21
0.023526
31
0.0
0
LINE
8
0
6
CONTINUOUS
10
-0.020613
20
-0.042949
30
0.0
11
-0.020852
21
-0.034615
31
0.0
0
LINE
8
0
6
CONTINUOUS
10
-0.021573
20
-0.014139
30
0.0
11
-0.021012
21
-0.034616
31
0.0
0
LINE
8
0
6
CONTINUOUS
10
-0.013522
20
0.019368
30
0.0
11
-0.016699
21
0.016295
31
0.0
0
LINE
8
0
6
CONTINUOUS
10
-0.019422
20
-0.076284
30
0.0
11
-0.019609
21
-0.075037
31
0.0
0
LINE
8
0
6
CONTINUOUS
10
-0.006660
20
-0.079472
30
0.0
11
-0.009945
21
-0.079275
31
0.0
0
LINE
8
0
6
CONTINUOUS
10
-0.013676
20
-0.080115
30
0.0
11
-0.010252
21
-0.080417
31
0.0
0
LINE
8
0
6
CONTINUOUS
10
-0.017061
20
-0.079591
30
0.0
11
-0.013676
21
-0.080115
31
0.0
0
LINE
8
0
6
CONTINUOUS
10
-0.018379
20
-0.078857
30
0.0
11
-0.017061
21
-0.079591
31
0.0
0
LINE
8
0
6
CONTINUOUS
10
-0.018508
20
-0.078737
30
0.0
11
-0.018379
21
-0.078857
31
0.0
0
LINE
8
0
6
CONTINUOUS
10
-0.019838
20
-0.074668
30
0.0
11
-0.019751
21
-0.076194
31
0.0
0
LINE
8
0
6
CONTINUOUS
10
-0.019751
20
-0.076194
30
0.0
11
-0.019348
21
-0.077647
31
0.0
0
LINE
8
0
6
CONTINUOUS
10
-0.019348
20
-0.077647
30
0.0
11
-0.018508
21
-0.078737
31
0.0
0
LINE
8
0
6
CONTINUOUS
10
-0.006834
20
-0.080650
30
0.0
11
-0.003420
21
-0.080781
31
0.0
0
LINE
8
0
6
CONTINUOUS
10
-0.010252
20
-0.080417
30
0.0
11
-0.006834
21
-0.080650
31
0.0
0
LINE
8
0
6
CONTINUOUS
10
-0.003420
20
-0.080781
30
0.0
11
0.000000
21
-0.080835
31
0.0
0
LINE
8
0
6
CONTINUOUS
10
-0.018874
20
-0.077247
30
0.0
11
-0.018080
21
-0.077990
31
0.0
0
LINE
8
0
6
CONTINUOUS
10
-0.013899
20
0.020093
30
0.0
11
-0.017136
21
0.016850
31
0.0
0
LINE
8
0
6
CONTINUOUS
10
-0.017136
20
0.016850
30
0.0
11
-0.019457
21
0.013260
31
0.0
0
LINE
8
0
6
CONTINUOUS
10
-0.021956
20
0.003327
30
0.0
11
-0.021958
21
0.003266
31
0.0
0
LINE
8
0
6
CONTINUOUS
10
0.000000
20
0.025043
30
0.0
11
-0.005029
21
0.024427
31
0.0
0
LINE
8
0
6
CONTINUOUS
10
-0.005029
20
0.024427
30
0.0
11
-0.009859
21
0.022662
31
0.0
0
LINE
8
0
6
CONTINUOUS
10
-0.019457
20
0.013260
30
0.0
11
-0.021009
21
0.009463
31
0.0
0
LINE
8
0
6
CONTINUOUS
10
-0.021009
20
0.009463
30
0.0
11
-0.021826
21
0.005527
31
0.0
0
LINE
8
0
6
CONTINUOUS
10
-0.009859
20
0.022662
30
0.0
11
-0.013899
21
0.020093
31
0.0
0
LINE
8
0
6
CONTINUOUS
10
0.021985
20
0.001869
30
0.0
11
0.021994
21
0.002107
31
0.0
0
LINE
8
0
6
CONTINUOUS
10
0.021993
20
0.001651
30
0.0
11
0.021992
21
0.001699
31
0.0
0
LINE
8
0
6
CONTINUOUS
10
0.021739
20
-0.008331
30
0.0
11
0.021784
21
-0.006605
31
0.0
0
LINE
8
0
6
CONTINUOUS
10
0.021573
20
-0.014139
30
0.0
11
0.021739
21
-0.008331
31
0.0
0
LINE
8
0
6
CONTINUOUS
10
0.021992
20
0.001699
30
0.0
11
0.021985
21
0.001869
31
0.0
0
LINE
8
0
6
CONTINUOUS
10
0.016699
20
0.016295
30
0.0
11
0.019068
21
0.012899
31
0.0
0
LINE
8
0
6
CONTINUOUS
10
0.009598
20
0.021839
30
0.0
11
0.013522
21
0.019368
31
0.0
0
LINE
8
0
6
CONTINUOUS
10
0.004878
20
0.023526
30
0.0
11
0.009598
21
0.021839
31
0.0
0
LINE
8
0
6
CONTINUOUS
10
0.019068
20
0.012899
30
0.0
11
0.020675
21
0.009247
31
0.0
0
LINE
8
0
6
CONTINUOUS
10
0.021746
20
-0.002695
30
0.0
11
0.021695
21
-0.004587
31
0.0
0
LINE
8
0
6
CONTINUOUS
10
0.021834
20
-0.004675
30
0.0
11
0.021888
21
-0.002782
31
0.0
0
LINE
8
0
6
CONTINUOUS
10
0.021695
20
-0.004587
30
0.0
11
0.021634
21
-0.006539
31
0.0
0
LINE
8
0
6
CONTINUOUS
10
0.021582
20
-0.008413
30
0.0
11
0.021434
21
-0.015029
31
0.0
0
LINE
8
0
6
CONTINUOUS
10
0.021582
20
-0.008413
30
0.0
11
0.021634
21
-0.006539
31
0.0
0
LINE
8
0
6
CONTINUOUS
10
0.021888
20
-0.002782
30
0.0
11
0.021993
21
0.001651
31
0.0
0
LINE
8
0
6
CONTINUOUS
10
0.021994
20
0.002107
30
0.0
11
0.021958
21
0.003266
31
0.0
0
LINE
8
0
6
CONTINUOUS
10
0.020055
20
-0.067799
30
0.0
11
0.020306
21
-0.059436
31
0.0
0
LINE
8
0
6
CONTINUOUS
10
0.020774
20
-0.042957
30
0.0
11
0.021012
21
-0.034616
31
0.0
0
LINE
8
0
6
CONTINUOUS
10
0.020537
20
-0.051308
30
0.0
11
0.020774
21
-0.042957
31
0.0
0
LINE
8
0
6
CONTINUOUS
10
0.020306
20
-0.059436
30
0.0
11
0.020537
21
-0.051308
31
0.0
0
LINE
8
0
6
CONTINUOUS
10
0.019726
20
-0.068190
30
0.0
11
0.019670
21
-0.072313
31
0.0
0
LINE
8
0
6
CONTINUOUS
10
0.019925
20
-0.072069
30
0.0
11
0.020055
21
-0.067799
31
0.0
0
LINE
8
0
6
CONTINUOUS
10
0.019670
20
-0.072313
30
0.0
11
0.019609
21
-0.075037
31
0.0
0
LINE
8
0
6
CONTINUOUS
10
0.019838
20
-0.074668
30
0.0
11
0.019925
21
-0.072069
31
0.0
0
LINE
8
0
6
CONTINUOUS
10
0.000000
20
0.023257
30
0.0
11
0.004699
21
0.022713
31
0.0
0
LINE
8
0
6
CONTINUOUS
10
0.004878
20
0.023526
30
0.0
11
0.000000
21
0.024090
31
0.0
0
LINE
8
0
6
CONTINUOUS
10
0.020852
20
-0.034615
30
0.0
11
0.020613
21
-0.042949
31
0.0
0
LINE
8
0
6
CONTINUOUS
10
0.021012
20
-0.034616
30
0.0
11
0.021573
21
-0.014139
31
0.0
0
LINE
8
0
6
CONTINUOUS
10
0.016699
20
0.016295
30
0.0
11
0.013522
21
0.019368
31
0.0
0
LINE
8
0
6
CONTINUOUS
10
0.019609
20
-0.075037
30
0.0
11
0.019422
21
-0.076284
31
0.0
0
LINE
8
0
6
CONTINUOUS
10
0.009945
20
-0.079275
30
0.0
11
0.006660
21
-0.079472
31
0.0
0
LINE
8
0
6
CONTINUOUS
10
0.010252
20
-0.080417
30
0.0
11
0.013676
21
-0.080115
31
0.0
0
LINE
8
0
6
CONTINUOUS
10
0.013676
20
-0.080115
30
0.0
11
0.017061
21
-0.079591
31
0.0
0
LINE
8
0
6
CONTINUOUS
10
0.018379
20
-0.078857
30
0.0
11
0.018508
21
-0.078737
31
0.0
0
LINE
8
0
6
CONTINUOUS
10
0.017061
20
-0.079591
30
0.0
11
0.018379
21
-0.078857
31
0.0
0
LINE
8
0
6
CONTINUOUS
10
0.019751
20
-0.076194
30
0.0
11
0.019838
21
-0.074668
31
0.0
0
LINE
8
0
6
CONTINUOUS
10
0.019348
20
-0.077647
30
0.0
11
0.019751
21
-0.076194
31
0.0
0
LINE
8
0
6
CONTINUOUS
10
0.018508
20
-0.078737
30
0.0
11
0.019348
21
-0.077647
31
0.0
0
LINE
8
0
6
CONTINUOUS
10
0.003420
20
-0.080781
30
0.0
11
0.006834
21
-0.080650
31
0.0
0
LINE
8
0
6
CONTINUOUS
10
0.006834
20
-0.080650
30
0.0
11
0.010252
21
-0.080417
31
0.0
0
LINE
8
0
6
CONTINUOUS
10
0.000000
20
-0.080835
30
0.0
11
0.003420
21
-0.080781
31
0.0
0
LINE
8
0
6
CONTINUOUS
10
0.018080
20
-0.077990
30
0.0
11
0.018874
21
-0.077247
31
0.0
0
LINE
8
0
6
CONTINUOUS
10
0.017136
20
0.016850
30
0.0
11
0.013899
21
0.020093
31
0.0
0
LINE
8
0
6
CONTINUOUS
10
0.019457
20
0.013260
30
0.0
11
0.017136
21
0.016850
31
0.0
0
LINE
8
0
6
CONTINUOUS
10
0.021958
20
0.003266
30
0.0
11
0.021956
21
0.003327
31
0.0
0
LINE
8
0
6
CONTINUOUS
10
0.005029
20
0.024427
30
0.0
11
0.000000
21
0.025043
31
0.0
0
LINE
8
0
6
CONTINUOUS
10
0.009859
20
0.022662
30
0.0
11
0.005029
21
0.024427
31
0.0
0
LINE
8
0
6
CONTINUOUS
10
0.021009
20
0.009463
30
0.0
11
0.019457
21
0.013260
31
0.0
0
LINE
8
0
6
CONTINUOUS
10
0.021826
20
0.005527
30
0.0
11
0.021009
21
0.009463
31
0.0
0
LINE
8
0
6
CONTINUOUS
10
0.013899
20
0.020093
30
0.0
11
0.009859
21
0.022662
31
0.0
0
LINE
8
0
6
CONTINUOUS
10
-0.021746
20
-0.002695
30
0.0
11
-0.021856
21
0.001640
31
0.0
0
LINE
8
0
6
CONTINUOUS
10
-0.021574
20
0.005515
30
0.0
11
-0.021856
21
0.001640
31
0.0
0
LINE
8
0
6
CONTINUOUS
10
-0.020613
20
-0.042949
30
0.0
11
-0.020366
21
-0.051294
31
0.0
0
LINE
8
0
6
CONTINUOUS
10
-0.013421
20
-0.078982
30
0.0
11
-0.016703
21
-0.078592
31
0.0
0
LINE
8
0
6
CONTINUOUS
10
-0.016703
20
-0.078592
30
0.0
11
-0.018080
21
-0.077990
31
0.0
0
LINE
8
0
6
CONTINUOUS
10
-0.009945
20
-0.079275
30
0.0
11
-0.013421
21
-0.078982
31
0.0
0
LINE
8
0
6
CONTINUOUS
10
0.021856
20
0.001640
30
0.0
11
0.021746
21
-0.002695
31
0.0
0
LINE
8
0
6
CONTINUOUS
10
0.021856
20
0.001640
30
0.0
11
0.021574
21
0.005515
31
0.0
0
LINE
8
0
6
CONTINUOUS
10
0.020366
20
-0.051294
30
0.0
11
0.020613
21
-0.042949
31
0.0
0
LINE
8
0
6
CONTINUOUS
10
0.016703
20
-0.078592
30
0.0
11
0.013421
21
-0.078982
31
0.0
0
LINE
8
0
6
CONTINUOUS
10
0.018080
20
-0.077990
30
0.0
11
0.016703
21
-0.078592
31
0.0
0
LINE
8
0
6
CONTINUOUS
10
0.013421
20
-0.078982
30
0.0
11
0.009945
21
-0.079275
31
0.0
0
LINE
8
0
6
CONTINUOUS
10
-0.021746
20
-0.002695
30
0.0
11
-0.021695
21
-0.004587
31
0.0
0
LINE
8
0
6
CONTINUOUS
10
-0.019535
20
-0.042951
30
0.0
11
-0.019464
21
-0.051302
31
0.0
0
LINE
8
0
6
CONTINUOUS
10
0.019464
20
-0.051302
30
0.0
11
0.019535
21
-0.042951
31
0.0
0
LINE
8
0
6
CONTINUOUS
10
0.008361
20
0.023470
30
0.0
11
0.004263
21
0.024713
31
0.0
0
LINE
8
0
6
CONTINUOUS
10
-0.004263
20
0.024713
30
0.0
11
-0.008361
21
0.023470
31
0.0
0
LINE
8
0
6
CONTINUOUS
10
0.004263
20
0.024713
30
0.0
11
0.000000
21
0.025133
31
0.0
0
LINE
8
0
6
CONTINUOUS
10
0.000000
20
0.025133
30
0.0
11
-0.004263
21
0.024713
31
0.0
0
LINE
8
0
6
CONTINUOUS
10
0.012139
20
0.021451
30
0.0
11
0.008361
21
0.023470
31
0.0
0
LINE
8
0
6
CONTINUOUS
10
-0.008361
20
0.023470
30
0.0
11
-0.012139
21
0.021451
31
0.0
0
LINE
8
0
6
CONTINUOUS
10
0.060091
20
-0.068488
30
0.0
11
0.063759
21
-0.066388
31
0.0
0
LINE
8
0
6
CONTINUOUS
10
0.067038
20
-0.063716
30
0.0
11
0.069697
21
-0.060424
31
0.0
0
LINE
8
0
6
CONTINUOUS
10
0.071798
20
-0.056749
30
0.0
11
0.073306
21
-0.052796
31
0.0
0
LINE
8
0
6
CONTINUOUS
10
0.076873
20
-0.025767
30
0.0
11
0.077270
21
-0.013074
31
0.0
0
LINE
8
0
6
CONTINUOUS
10
0.071521
20
-0.056535
30
0.0
11
0.073009
21
-0.052598
31
0.0
0
LINE
8
0
6
CONTINUOUS
10
0.076565
20
-0.025627
30
0.0
11
0.076935
21
-0.013018
31
0.0
0
LINE
8
0
6
CONTINUOUS
10
0.071521
20
-0.056535
30
0.0
11
0.069428
21
-0.060190
31
0.0
0
LINE
8
0
6
CONTINUOUS
10
0.069697
20
-0.060424
30
0.0
11
0.071798
21
-0.056749
31
0.0
0
LINE
8
0
6
CONTINUOUS
10
0.077270
20
-0.013074
30
0.0
11
0.077500
21
0.003335
31
0.0
0
LINE
8
0
6
CONTINUOUS
10
0.066776
20
-0.063459
30
0.0
11
0.063551
21
-0.066159
31
0.0
0
LINE
8
0
6
CONTINUOUS
10
0.063759
20
-0.066388
30
0.0
11
0.067038
21
-0.063716
31
0.0
0
LINE
8
0
6
CONTINUOUS
10
0.056144
20
-0.070024
30
0.0
11
0.060091
21
-0.068488
31
0.0
0
LINE
8
0
6
CONTINUOUS
10
0.055946
20
-0.069727
30
0.0
11
0.051888
21
-0.070833
31
0.0
0
LINE
8
0
6
CONTINUOUS
10
0.052068
20
-0.071146
30
0.0
11
0.056144
21
-0.070024
31
0.0
0
LINE
8
0
6
CONTINUOUS
10
0.029102
20
-0.073528
30
0.0
11
0.040227
21
-0.072854
31
0.0
0
LINE
8
0
6
CONTINUOUS
10
0.019866
20
-0.073847
30
0.0
11
0.029102
21
-0.073528
31
0.0
0
LINE
8
0
6
CONTINUOUS
10
0.076935
20
-0.013018
30
0.0
11
0.077200
21
0.003335
31
0.0
0
LINE
8
0
6
CONTINUOUS
10
0.059870
20
-0.068199
30
0.0
11
0.063551
21
-0.066159
31
0.0
0
LINE
8
0
6
CONTINUOUS
10
0.073306
20
-0.052796
30
0.0
11
0.074454
21
-0.048725
31
0.0
0
LINE
8
0
6
CONTINUOUS
10
0.074143
20
-0.048545
30
0.0
11
0.073009
21
-0.052598
31
0.0
0
LINE
8
0
6
CONTINUOUS
10
0.074454
20
-0.048725
30
0.0
11
0.075247
21
-0.044568
31
0.0
0
LINE
8
0
6
CONTINUOUS
10
0.074923
20
-0.044408
30
0.0
11
0.074143
21
-0.048545
31
0.0
0
LINE
8
0
6
CONTINUOUS
10
0.075247
20
-0.044568
30
0.0
11
0.076171
21
-0.036892
31
0.0
0
LINE
8
0
6
CONTINUOUS
10
0.076171
20
-0.036892
30
0.0
11
0.076873
21
-0.025767
31
0.0
0
LINE
8
0
6
CONTINUOUS
10
0.076565
20
-0.025627
30
0.0
11
0.075806
21
-0.036690
31
0.0
0
LINE
8
0
6
CONTINUOUS
10
0.066776
20
-0.063459
30
0.0
11
0.069428
21
-0.060190
31
0.0
0
LINE
8
0
6
CONTINUOUS
10
0.074923
20
-0.044408
30
0.0
11
0.075806
21
-0.036690
31
0.0
0
LINE
8
0
6
CONTINUOUS
10
0.055946
20
-0.069727
30
0.0
11
0.059870
21
-0.068199
31
0.0
0
LINE
8
0
6
CONTINUOUS
10
0.028962
20
-0.073220
30
0.0
11
0.040025
21
-0.072489
31
0.0
0
LINE
8
0
6
CONTINUOUS
10
0.019877
20
-0.073517
30
0.0
11
0.028962
21
-0.073220
31
0.0
0
LINE
8
0
6
CONTINUOUS
10
0.051888
20
-0.070833
30
0.0
11
0.047743
21
-0.071581
31
0.0
0
LINE
8
0
6
CONTINUOUS
10
0.047903
20
-0.071905
30
0.0
11
0.052068
21
-0.071146
31
0.0
0
LINE
8
0
6
CONTINUOUS
10
0.040227
20
-0.072854
30
0.0
11
0.047903
21
-0.071905
31
0.0
0
LINE
8
0
6
CONTINUOUS
10
-0.063759
20
-0.066388
30
0.0
11
-0.060091
21
-0.068488
31
0.0
0
LINE
8
0
6
CONTINUOUS
10
-0.069697
20
-0.060424
30
0.0
11
-0.067038
21
-0.063716
31
0.0
0
LINE
8
0
6
CONTINUOUS
10
-0.073306
20
-0.052796
30
0.0
11
-0.071798
21
-0.056749
31
0.0
0
LINE
8
0
6
CONTINUOUS
10
-0.077270
20
-0.013074
30
0.0
11
-0.076873
21
-0.025767
31
0.0
0
LINE
8
0
6
CONTINUOUS
10
-0.073009
20
-0.052598
30
0.0
11
-0.071521
21
-0.056535
31
0.0
0
LINE
8
0
6
CONTINUOUS
10
-0.076935
20
-0.013018
30
0.0
11
-0.076565
21
-0.025627
31
0.0
0
LINE
8
0
6
CONTINUOUS
10
-0.071798
20
-0.056749
30
0.0
11
-0.069697
21
-0.060424
31
0.0
0
LINE
8
0
6
CONTINUOUS
10
-0.069428
20
-0.060190
30
0.0
11
-0.071521
21
-0.056535
31
0.0
0
LINE
8
0
6
CONTINUOUS
10
-0.077500
20
0.003335
30
0.0
11
-0.077270
21
-0.013074
31
0.0
0
LINE
8
0
6
CONTINUOUS
10
-0.067038
20
-0.063716
30
0.0
11
-0.063759
21
-0.066388
31
0.0
0
LINE
8
0
6
CONTINUOUS
10
-0.063551
20
-0.066159
30
0.0
11
-0.066776
21
-0.063459
31
0.0
0
LINE
8
0
6
CONTINUOUS
10
-0.060091
20
-0.068488
30
0.0
11
-0.056144
21
-0.070024
31
0.0
0
LINE
8
0
6
CONTINUOUS
10
-0.056144
20
-0.070024
30
0.0
11
-0.052068
21
-0.071146
31
0.0
0
LINE
8
0
6
CONTINUOUS
10
-0.051888
20
-0.070833
30
0.0
11
-0.055946
21
-0.069727
31
0.0
0
LINE
8
0
6
CONTINUOUS
10
-0.040227
20
-0.072854
30
0.0
11
-0.029102
21
-0.073528
31
0.0
0
LINE
8
0
6
CONTINUOUS
10
-0.029102
20
-0.073528
30
0.0
11
-0.019866
21
-0.073847
31
0.0
0
LINE
8
0
6
CONTINUOUS
10
-0.077200
20
0.003335
30
0.0
11
-0.076935
21
-0.013018
31
0.0
0
LINE
8
0
6
CONTINUOUS
10
-0.063551
20
-0.066159
30
0.0
11
-0.059870
21
-0.068199
31
0.0
0
LINE
8
0
6
CONTINUOUS
10
-0.073009
20
-0.052598
30
0.0
11
-0.074143
21
-0.048545
31
0.0
0
LINE
8
0
6
CONTINUOUS
10
-0.074454
20
-0.048725
30
0.0
11
-0.073306
21
-0.052796
31
0.0
0
LINE
8
0
6
CONTINUOUS
10
-0.074143
20
-0.048545
30
0.0
11
-0.074923
21
-0.044408
31
0.0
0
LINE
8
0
6
CONTINUOUS
10
-0.075247
20
-0.044568
30
0.0
11
-0.074454
21
-0.048725
31
0.0
0
LINE
8
0
6
CONTINUOUS
10
-0.076171
20
-0.036892
30
0.0
11
-0.075247
21
-0.044568
31
0.0
0
LINE
8
0
6
CONTINUOUS
10
-0.075806
20
-0.036690
30
0.0
11
-0.076565
21
-0.025627
31
0.0
0
LINE
8
0
6
CONTINUOUS
10
-0.076873
20
-0.025767
30
0.0
11
-0.076171
21
-0.036892
31
0.0
0
LINE
8
0
6
CONTINUOUS
10
-0.069428
20
-0.060190
30
0.0
11
-0.066776
21
-0.063459
31
0.0
0
LINE
8
0
6
CONTINUOUS
10
-0.075806
20
-0.036690
30
0.0
11
-0.074923
21
-0.044408
31
0.0
0
LINE
8
0
6
CONTINUOUS
10
-0.059870
20
-0.068199
30
0.0
11
-0.055946
21
-0.069727
31
0.0
0
LINE
8
0
6
CONTINUOUS
10
-0.040025
20
-0.072489
30
0.0
11
-0.028962
21
-0.073220
31
0.0
0
LINE
8
0
6
CONTINUOUS
10
-0.028962
20
-0.073220
30
0.0
11
-0.019877
21
-0.073517
31
0.0
0
LINE
8
0
6
CONTINUOUS
10
-0.052068
20
-0.071146
30
0.0
11
-0.047903
21
-0.071905
31
0.0
0
LINE
8
0
6
CONTINUOUS
10
-0.047743
20
-0.071581
30
0.0
11
-0.051888
21
-0.070833
31
0.0
0
LINE
8
0
6
CONTINUOUS
10
-0.047903
20
-0.071905
30
0.0
11
-0.040227
21
-0.072854
31
0.0
0
LINE
8
0
6
CONTINUOUS
10
0.063759
20
0.073058
30
0.0
11
0.060091
21
0.075158
31
0.0
0
LINE
8
0
6
CONTINUOUS
10
0.069697
20
0.067094
30
0.0
11
0.067038
21
0.070385
31
0.0
0
LINE
8
0
6
CONTINUOUS
10
0.073306
20
0.059466
30
0.0
11
0.071798
21
0.063419
31
0.0
0
LINE
8
0
6
CONTINUOUS
10
0.077270
20
0.019744
30
0.0
11
0.076873
21
0.032437
31
0.0
0
LINE
8
0
6
CONTINUOUS
10
0.073009
20
0.059268
30
0.0
11
0.071521
21
0.063205
31
0.0
0
LINE
8
0
6
CONTINUOUS
10
0.076935
20
0.019688
30
0.0
11
0.076565
21
0.032297
31
0.0
0
LINE
8
0
6
CONTINUOUS
10
0.071798
20
0.063419
30
0.0
11
0.069697
21
0.067094
31
0.0
0
LINE
8
0
6
CONTINUOUS
10
0.069428
20
0.066860
30
0.0
11
0.071521
21
0.063205
31
0.0
0
LINE
8
0
6
CONTINUOUS
10
0.077500
20
0.003335
30
0.0
11
0.077270
21
0.019744
31
0.0
0
LINE
8
0
6
CONTINUOUS
10
0.067038
20
0.070385
30
0.0
11
0.063759
21
0.073058
31
0.0
0
LINE
8
0
6
CONTINUOUS
10
0.063551
20
0.072829
30
0.0
11
0.066776
21
0.070128
31
0.0
0
LINE
8
0
6
CONTINUOUS
10
0.060091
20
0.075158
30
0.0
11
0.056144
21
0.076693
31
0.0
0
LINE
8
0
6
CONTINUOUS
10
0.056144
20
0.076693
30
0.0
11
0.052068
21
0.077816
31
0.0
0
LINE
8
0
6
CONTINUOUS
10
0.051888
20
0.077503
30
0.0
11
0.055946
21
0.076397
31
0.0
0
LINE
8
0
6
CONTINUOUS
10
0.040227
20
0.079524
30
0.0
11
0.029102
21
0.080198
31
0.0
0
LINE
8
0
6
CONTINUOUS
10
0.029102
20
0.080198
30
0.0
11
0.016409
21
0.080637
31
0.0
0
LINE
8
0
6
CONTINUOUS
10
0.077200
20
0.003335
30
0.0
11
0.076935
21
0.019688
31
0.0
0
LINE
8
0
6
CONTINUOUS
10
0.063551
20
0.072829
30
0.0
11
0.059870
21
0.074869
31
0.0
0
LINE
8
0
6
CONTINUOUS
10
0.073009
20
0.059268
30
0.0
11
0.074143
21
0.055215
31
0.0
0
LINE
8
0
6
CONTINUOUS
10
0.074454
20
0.055395
30
0.0
11
0.073306
21
0.059466
31
0.0
0
LINE
8
0
6
CONTINUOUS
10
0.074143
20
0.055215
30
0.0
11
0.074923
21
0.051078
31
0.0
0
LINE
8
0
6
CONTINUOUS
10
0.075247
20
0.051238
30
0.0
11
0.074454
21
0.055395
31
0.0
0
LINE
8
0
6
CONTINUOUS
10
0.076171
20
0.043562
30
0.0
11
0.075247
21
0.051238
31
0.0
0
LINE
8
0
6
CONTINUOUS
10
0.075806
20
0.043360
30
0.0
11
0.076565
21
0.032297
31
0.0
0
LINE
8
0
6
CONTINUOUS
10
0.076873
20
0.032437
30
0.0
11
0.076171
21
0.043562
31
0.0
0
LINE
8
0
6
CONTINUOUS
10
0.069428
20
0.066860
30
0.0
11
0.066776
21
0.070128
31
0.0
0
LINE
8
0
6
CONTINUOUS
10
0.075806
20
0.043360
30
0.0
11
0.074923
21
0.051078
31
0.0
0
LINE
8
0
6
CONTINUOUS
10
0.059870
20
0.074869
30
0.0
11
0.055946
21
0.076397
31
0.0
0
LINE
8
0
6
CONTINUOUS
10
0.040025
20
0.079159
30
0.0
11
0.028962
21
0.079890
31
0.0
0
LINE
8
0
6
CONTINUOUS
10
0.028962
20
0.079890
30
0.0
11
0.016353
21
0.080302
31
0.0
0
LINE
8
0
6
CONTINUOUS
10
0.052068
20
0.077816
30
0.0
11
0.047903
21
0.078575
31
0.0
0
LINE
8
0
6
CONTINUOUS
10
0.047743
20
0.078251
30
0.0
11
0.051888
21
0.077503
31
0.0
0
LINE
8
0
6
CONTINUOUS
10
0.047903
20
0.078575
30
0.0
11
0.040227
21
0.079524
31
0.0
0
LINE
8
0
6
CONTINUOUS
10
0.000000
20
0.080535
30
0.0
11
0.016353
21
0.080302
31
0.0
0
LINE
8
0
6
CONTINUOUS
10
0.016409
20
0.080637
30
0.0
11
0.000000
21
0.080835
31
0.0
0
LINE
8
0
6
CONTINUOUS
10
-0.060091
20
0.075158
30
0.0
11
-0.063759
21
0.073058
31
0.0
0
LINE
8
0
6
CONTINUOUS
10
-0.067038
20
0.070385
30
0.0
11
-0.069697
21
0.067094
31
0.0
0
LINE
8
0
6
CONTINUOUS
10
-0.071798
20
0.063419
30
0.0
11
-0.073306
21
0.059466
31
0.0
0
LINE
8
0
6
CONTINUOUS
10
-0.076873
20
0.032437
30
0.0
11
-0.077270
21
0.019744
31
0.0
0
LINE
8
0
6
CONTINUOUS
10
-0.071521
20
0.063205
30
0.0
11
-0.073009
21
0.059268
31
0.0
0
LINE
8
0
6
CONTINUOUS
10
-0.076565
20
0.032297
30
0.0
11
-0.076935
21
0.019688
31
0.0
0
LINE
8
0
6
CONTINUOUS
10
-0.071521
20
0.063205
30
0.0
11
-0.069428
21
0.066860
31
0.0
0
LINE
8
0
6
CONTINUOUS
10
-0.069697
20
0.067094
30
0.0
11
-0.071798
21
0.063419
31
0.0
0
LINE
8
0
6
CONTINUOUS
10
-0.077270
20
0.019744
30
0.0
11
-0.077500
21
0.003335
31
0.0
0
LINE
8
0
6
CONTINUOUS
10
-0.066776
20
0.070128
30
0.0
11
-0.063551
21
0.072829
31
0.0
0
LINE
8
0
6
CONTINUOUS
10
-0.063759
20
0.073058
30
0.0
11
-0.067038
21
0.070385
31
0.0
0
LINE
8
0
6
CONTINUOUS
10
-0.056144
20
0.076693
30
0.0
11
-0.060091
21
0.075158
31
0.0
0
LINE
8
0
6
CONTINUOUS
10
-0.055946
20
0.076397
30
0.0
11
-0.051888
21
0.077503
31
0.0
0
LINE
8
0
6
CONTINUOUS
10
-0.052068
20
0.077816
30
0.0
11
-0.056144
21
0.076693
31
0.0
0
LINE
8
0
6
CONTINUOUS
10
-0.029102
20
0.080198
30
0.0
11
-0.040227
21
0.079524
31
0.0
0
LINE
8
0
6
CONTINUOUS
10
-0.016409
20
0.080637
30
0.0
11
-0.029102
21
0.080198
31
0.0
0
LINE
8
0
6
CONTINUOUS
10
-0.076935
20
0.019688
30
0.0
11
-0.077200
21
0.003335
31
0.0
0
LINE
8
0
6
CONTINUOUS
10
-0.059870
20
0.074869
30
0.0
11
-0.063551
21
0.072829
31
0.0
0
LINE
8
0
6
CONTINUOUS
10
-0.073306
20
0.059466
30
0.0
11
-0.074454
21
0.055395
31
0.0
0
LINE
8
0
6
CONTINUOUS
10
-0.074143
20
0.055215
30
0.0
11
-0.073009
21
0.059268
31
0.0
0
LINE
8
0
6
CONTINUOUS
10
-0.074454
20
0.055395
30
0.0
11
-0.075247
21
0.051238
31
0.0
0
LINE
8
0
6
CONTINUOUS
10
-0.074923
20
0.051078
30
0.0
11
-0.074143
21
0.055215
31
0.0
0
LINE
8
0
6
CONTINUOUS
10
-0.075247
20
0.051238
30
0.0
11
-0.076171
21
0.043562
31
0.0
0
LINE
8
0
6
CONTINUOUS
10
-0.076171
20
0.043562
30
0.0
11
-0.076873
21
0.032437
31
0.0
0
LINE
8
0
6
CONTINUOUS
10
-0.076565
20
0.032297
30
0.0
11
-0.075806
21
0.043360
31
0.0
0
LINE
8
0
6
CONTINUOUS
10
-0.066776
20
0.070128
30
0.0
11
-0.069428
21
0.066860
31
0.0
0
LINE
8
0
6
CONTINUOUS
10
-0.074923
20
0.051078
30
0.0
11
-0.075806
21
0.043360
31
0.0
0
LINE
8
0
6
CONTINUOUS
10
-0.055946
20
0.076397
30
0.0
11
-0.059870
21
0.074869
31
0.0
0
LINE
8
0
6
CONTINUOUS
10
-0.028962
20
0.079890
30
0.0
11
-0.040025
21
0.079159
31
0.0
0
LINE
8
0
6
CONTINUOUS
10
-0.016353
20
0.080302
30
0.0
11
-0.028962
21
0.079890
31
0.0
0
LINE
8
0
6
CONTINUOUS
10
-0.051888
20
0.077503
30
0.0
11
-0.047743
21
0.078251
31
0.0
0
LINE
8
0
6
CONTINUOUS
10
-0.047903
20
0.078575
30
0.0
11
-0.052068
21
0.077816
31
0.0
0
LINE
8
0
6
CONTINUOUS
10
-0.040227
20
0.079524
30
0.0
11
-0.047903
21
0.078575
31
0.0
0
LINE
8
0
6
CONTINUOUS
10
0.000000
20
0.080835
30
0.0
11
-0.016409
21
0.080637
31
0.0
0
LINE
8
0
6
CONTINUOUS
10
-0.016353
20
0.080302
30
0.0
11
0.000000
21
0.080535
31
0.0
0
ENDSEC
0
EOF
