999
unknown String-ID: 20550
0
SECTION
2
HEADER
9
$ACADVER
1
AC1009
9
$DWGCODEPAGE
3
unknown String-ID: 20561
0
ENDSEC
0
SECTION
2
TABLES
0
TABLE
2
LAYER
70
1
0
LAYER
2
0
70
0
62
7
6
CONTINUOUS
0
ENDTAB
0
ENDSEC
0
SECTION
2
ENTITIES
0
LINE
8
0
6
CONTINUOUS
10
0.000000
20
0.048317
30
0.0
11
0.003060
21
0.048747
31
0.0
0
LINE
8
0
6
CONTINUOUS
10
0.003060
20
0.048747
30
0.0
11
0.005929
21
0.049895
31
0.0
0
LINE
8
0
6
CONTINUOUS
10
0.005929
20
0.049895
30
0.0
11
0.008463
21
0.051807
31
0.0
0
LINE
8
0
6
CONTINUOUS
10
0.008463
20
0.051807
30
0.0
11
0.010375
21
0.054341
31
0.0
0
LINE
8
0
6
CONTINUOUS
10
0.010375
20
0.054341
30
0.0
11
0.011523
21
0.057210
31
0.0
0
LINE
8
0
6
CONTINUOUS
10
0.011523
20
0.057210
30
0.0
11
0.011953
21
0.060270
31
0.0
0
LINE
8
0
6
CONTINUOUS
10
0.000000
20
0.072223
30
0.0
11
-0.003060
21
0.071793
31
0.0
0
LINE
8
0
6
CONTINUOUS
10
-0.003060
20
0.071793
30
0.0
11
-0.005929
21
0.070645
31
0.0
0
LINE
8
0
6
CONTINUOUS
10
-0.005929
20
0.070645
30
0.0
11
-0.008463
21
0.068733
31
0.0
0
LINE
8
0
6
CONTINUOUS
10
-0.008463
20
0.068733
30
0.0
11
-0.010375
21
0.066199
31
0.0
0
LINE
8
0
6
CONTINUOUS
10
-0.010375
20
0.066199
30
0.0
11
-0.011523
21
0.063330
31
0.0
0
LINE
8
0
6
CONTINUOUS
10
-0.011523
20
0.063330
30
0.0
11
-0.011953
21
0.060270
31
0.0
0
LINE
8
0
6
CONTINUOUS
10
-0.011028
20
0.057314
30
0.0
11
-0.009902
21
0.054592
31
0.0
0
LINE
8
0
6
CONTINUOUS
10
-0.005678
20
0.050368
30
0.0
11
-0.002957
21
0.049242
31
0.0
0
LINE
8
0
6
CONTINUOUS
10
-0.008072
20
0.052198
30
0.0
11
-0.005678
21
0.050368
31
0.0
0
LINE
8
0
6
CONTINUOUS
10
0.009902
20
0.065948
30
0.0
11
0.008072
21
0.068342
31
0.0
0
LINE
8
0
6
CONTINUOUS
10
0.002957
20
0.071298
30
0.0
11
0.000000
21
0.071721
31
0.0
0
LINE
8
0
6
CONTINUOUS
10
0.000000
20
0.071721
30
0.0
11
-0.002957
21
0.071298
31
0.0
0
LINE
8
0
6
CONTINUOUS
10
0.005678
20
0.050368
30
0.0
11
0.008072
21
0.052198
31
0.0
0
LINE
8
0
6
CONTINUOUS
10
0.002957
20
0.049242
30
0.0
11
0.005678
21
0.050368
31
0.0
0
LINE
8
0
6
CONTINUOUS
10
0.000000
20
0.048819
30
0.0
11
0.002957
21
0.049242
31
0.0
0
LINE
8
0
6
CONTINUOUS
10
0.008072
20
0.052198
30
0.0
11
0.009902
21
0.054592
31
0.0
0
LINE
8
0
6
CONTINUOUS
10
-0.009902
20
0.054592
30
0.0
11
-0.008072
21
0.052198
31
0.0
0
LINE
8
0
6
CONTINUOUS
10
-0.009902
20
0.065948
30
0.0
11
-0.011028
21
0.063227
31
0.0
0
LINE
8
0
6
CONTINUOUS
10
-0.002957
20
0.071298
30
0.0
11
-0.005678
21
0.070172
31
0.0
0
LINE
8
0
6
CONTINUOUS
10
0.011451
20
0.060270
30
0.0
11
0.011028
21
0.063227
31
0.0
0
LINE
8
0
6
CONTINUOUS
10
-0.011451
20
0.060270
30
0.0
11
-0.011028
21
0.057314
31
0.0
0
LINE
8
0
6
CONTINUOUS
10
0.005678
20
0.070172
30
0.0
11
0.002957
21
0.071298
31
0.0
0
LINE
8
0
6
CONTINUOUS
10
0.011028
20
0.063227
30
0.0
11
0.009902
21
0.065948
31
0.0
0
LINE
8
0
6
CONTINUOUS
10
0.009902
20
0.054592
30
0.0
11
0.011028
21
0.057314
31
0.0
0
LINE
8
0
6
CONTINUOUS
10
0.008072
20
0.068342
30
0.0
11
0.005678
21
0.070172
31
0.0
0
LINE
8
0
6
CONTINUOUS
10
0.011028
20
0.057314
30
0.0
11
0.011451
21
0.060270
31
0.0
0
LINE
8
0
6
CONTINUOUS
10
-0.008072
20
0.068342
30
0.0
11
-0.009902
21
0.065948
31
0.0
0
LINE
8
0
6
CONTINUOUS
10
-0.005678
20
0.070172
30
0.0
11
-0.008072
21
0.068342
31
0.0
0
LINE
8
0
6
CONTINUOUS
10
-0.002957
20
0.049242
30
0.0
11
0.000000
21
0.048819
31
0.0
0
LINE
8
0
6
CONTINUOUS
10
-0.011028
20
0.063227
30
0.0
11
-0.011451
21
0.060270
31
0.0
0
LINE
8
0
6
CONTINUOUS
10
-0.003060
20
0.048747
30
0.0
11
0.000000
21
0.048317
31
0.0
0
LINE
8
0
6
CONTINUOUS
10
-0.005929
20
0.049895
30
0.0
11
-0.003060
21
0.048747
31
0.0
0
LINE
8
0
6
CONTINUOUS
10
-0.008463
20
0.051807
30
0.0
11
-0.005929
21
0.049895
31
0.0
0
LINE
8
0
6
CONTINUOUS
10
-0.010375
20
0.054341
30
0.0
11
-0.008463
21
0.051807
31
0.0
0
LINE
8
0
6
CONTINUOUS
10
-0.011523
20
0.057210
30
0.0
11
-0.010375
21
0.054341
31
0.0
0
LINE
8
0
6
CONTINUOUS
10
-0.011953
20
0.060270
30
0.0
11
-0.011523
21
0.057210
31
0.0
0
LINE
8
0
6
CONTINUOUS
10
0.003060
20
0.071793
30
0.0
11
0.000000
21
0.072223
31
0.0
0
LINE
8
0
6
CONTINUOUS
10
0.005929
20
0.070645
30
0.0
11
0.003060
21
0.071793
31
0.0
0
LINE
8
0
6
CONTINUOUS
10
0.008463
20
0.068733
30
0.0
11
0.005929
21
0.070645
31
0.0
0
LINE
8
0
6
CONTINUOUS
10
0.010375
20
0.066199
30
0.0
11
0.008463
21
0.068733
31
0.0
0
LINE
8
0
6
CONTINUOUS
10
0.011523
20
0.063330
30
0.0
11
0.010375
21
0.066199
31
0.0
0
LINE
8
0
6
CONTINUOUS
10
0.011953
20
0.060270
30
0.0
11
0.011523
21
0.063330
31
0.0
0
LINE
8
0
6
CONTINUOUS
10
-0.021829
20
-0.021746
30
0.0
11
-0.021784
21
-0.023580
31
0.0
0
LINE
8
0
6
CONTINUOUS
10
-0.021994
20
-0.014867
30
0.0
11
-0.021985
21
-0.015105
31
0.0
0
LINE
8
0
6
CONTINUOUS
10
-0.021992
20
-0.015276
30
0.0
11
-0.021993
21
-0.015323
31
0.0
0
LINE
8
0
6
CONTINUOUS
10
-0.021784
20
-0.023580
30
0.0
11
-0.021739
21
-0.025305
31
0.0
0
LINE
8
0
6
CONTINUOUS
10
-0.021739
20
-0.025305
30
0.0
11
-0.021573
21
-0.031113
31
0.0
0
LINE
8
0
6
CONTINUOUS
10
-0.021985
20
-0.015105
30
0.0
11
-0.021992
21
-0.015276
31
0.0
0
LINE
8
0
6
CONTINUOUS
10
-0.019068
20
-0.004076
30
0.0
11
-0.016699
21
-0.000679
31
0.0
0
LINE
8
0
6
CONTINUOUS
10
-0.013522
20
0.002394
30
0.0
11
-0.009598
21
0.004864
31
0.0
0
LINE
8
0
6
CONTINUOUS
10
-0.009598
20
0.004864
30
0.0
11
-0.004878
21
0.006552
31
0.0
0
LINE
8
0
6
CONTINUOUS
10
-0.021574
20
-0.011459
30
0.0
11
-0.020675
21
-0.007728
31
0.0
0
LINE
8
0
6
CONTINUOUS
10
-0.020675
20
-0.007728
30
0.0
11
-0.019068
21
-0.004076
31
0.0
0
LINE
8
0
6
CONTINUOUS
10
-0.021888
20
-0.019756
30
0.0
11
-0.021834
21
-0.021650
31
0.0
0
LINE
8
0
6
CONTINUOUS
10
-0.021634
20
-0.023514
30
0.0
11
-0.021695
21
-0.021561
31
0.0
0
LINE
8
0
6
CONTINUOUS
10
-0.021434
20
-0.032003
30
0.0
11
-0.021582
21
-0.025387
31
0.0
0
LINE
8
0
6
CONTINUOUS
10
-0.021634
20
-0.023514
30
0.0
11
-0.021582
21
-0.025387
31
0.0
0
LINE
8
0
6
CONTINUOUS
10
-0.021993
20
-0.015323
30
0.0
11
-0.021888
21
-0.019756
31
0.0
0
LINE
8
0
6
CONTINUOUS
10
-0.021958
20
-0.013708
30
0.0
11
-0.021994
21
-0.014867
31
0.0
0
LINE
8
0
6
CONTINUOUS
10
-0.020306
20
-0.076410
30
0.0
11
-0.020055
21
-0.084773
31
0.0
0
LINE
8
0
6
CONTINUOUS
10
-0.021012
20
-0.051590
30
0.0
11
-0.020774
21
-0.059931
31
0.0
0
LINE
8
0
6
CONTINUOUS
10
-0.020774
20
-0.059931
30
0.0
11
-0.020537
21
-0.068283
31
0.0
0
LINE
8
0
6
CONTINUOUS
10
-0.020537
20
-0.068283
30
0.0
11
-0.020306
21
-0.076410
31
0.0
0
LINE
8
0
6
CONTINUOUS
10
-0.020055
20
-0.084773
30
0.0
11
-0.019925
21
-0.089043
31
0.0
0
LINE
8
0
6
CONTINUOUS
10
-0.019609
20
-0.092011
30
0.0
11
-0.019670
21
-0.089287
31
0.0
0
LINE
8
0
6
CONTINUOUS
10
-0.019925
20
-0.089043
30
0.0
11
-0.019838
21
-0.091643
31
0.0
0
LINE
8
0
6
CONTINUOUS
10
-0.004699
20
0.005738
30
0.0
11
0.000000
21
0.006282
31
0.0
0
LINE
8
0
6
CONTINUOUS
10
0.000000
20
0.007116
30
0.0
11
-0.004878
21
0.006552
31
0.0
0
LINE
8
0
6
CONTINUOUS
10
-0.020613
20
-0.059923
30
0.0
11
-0.020852
21
-0.051589
31
0.0
0
LINE
8
0
6
CONTINUOUS
10
-0.021573
20
-0.031113
30
0.0
11
-0.021012
21
-0.051590
31
0.0
0
LINE
8
0
6
CONTINUOUS
10
-0.013522
20
0.002394
30
0.0
11
-0.016699
21
-0.000679
31
0.0
0
LINE
8
0
6
CONTINUOUS
10
-0.019422
20
-0.093258
30
0.0
11
-0.019609
21
-0.092011
31
0.0
0
LINE
8
0
6
CONTINUOUS
10
-0.006660
20
-0.096447
30
0.0
11
-0.009945
21
-0.096249
31
0.0
0
LINE
8
0
6
CONTINUOUS
10
-0.013676
20
-0.097089
30
0.0
11
-0.010252
21
-0.097392
31
0.0
0
LINE
8
0
6
CONTINUOUS
10
-0.017061
20
-0.096565
30
0.0
11
-0.013676
21
-0.097089
31
0.0
0
LINE
8
0
6
CONTINUOUS
10
-0.018379
20
-0.095831
30
0.0
11
-0.017061
21
-0.096565
31
0.0
0
LINE
8
0
6
CONTINUOUS
10
-0.018508
20
-0.095711
30
0.0
11
-0.018379
21
-0.095831
31
0.0
0
LINE
8
0
6
CONTINUOUS
10
-0.019838
20
-0.091643
30
0.0
11
-0.019751
21
-0.093168
31
0.0
0
LINE
8
0
6
CONTINUOUS
10
-0.019751
20
-0.093168
30
0.0
11
-0.019348
21
-0.094622
31
0.0
0
LINE
8
0
6
CONTINUOUS
10
-0.019348
20
-0.094622
30
0.0
11
-0.018508
21
-0.095711
31
0.0
0
LINE
8
0
6
CONTINUOUS
10
-0.006834
20
-0.097625
30
0.0
11
-0.003420
21
-0.097756
31
0.0
0
LINE
8
0
6
CONTINUOUS
10
-0.010252
20
-0.097392
30
0.0
11
-0.006834
21
-0.097625
31
0.0
0
LINE
8
0
6
CONTINUOUS
10
-0.003420
20
-0.097756
30
0.0
11
0.000000
21
-0.097809
31
0.0
0
LINE
8
0
6
CONTINUOUS
10
-0.018874
20
-0.094221
30
0.0
11
-0.018080
21
-0.094964
31
0.0
0
LINE
8
0
6
CONTINUOUS
10
-0.013899
20
0.003118
30
0.0
11
-0.017136
21
-0.000124
31
0.0
0
LINE
8
0
6
CONTINUOUS
10
-0.017136
20
-0.000124
30
0.0
11
-0.019457
21
-0.003715
31
0.0
0
LINE
8
0
6
CONTINUOUS
10
-0.021956
20
-0.013647
30
0.0
11
-0.021958
21
-0.013708
31
0.0
0
LINE
8
0
6
CONTINUOUS
10
0.000000
20
0.008069
30
0.0
11
-0.005029
21
0.007453
31
0.0
0
LINE
8
0
6
CONTINUOUS
10
-0.005029
20
0.007453
30
0.0
11
-0.009859
21
0.005688
31
0.0
0
LINE
8
0
6
CONTINUOUS
10
-0.019457
20
-0.003715
30
0.0
11
-0.021009
21
-0.007511
31
0.0
0
LINE
8
0
6
CONTINUOUS
10
-0.021009
20
-0.007511
30
0.0
11
-0.021826
21
-0.011447
31
0.0
0
LINE
8
0
6
CONTINUOUS
10
-0.009859
20
0.005688
30
0.0
11
-0.013899
21
0.003118
31
0.0
0
LINE
8
0
6
CONTINUOUS
10
0.021985
20
-0.015105
30
0.0
11
0.021994
21
-0.014867
31
0.0
0
LINE
8
0
6
CONTINUOUS
10
0.021993
20
-0.015323
30
0.0
11
0.021992
21
-0.015276
31
0.0
0
LINE
8
0
6
CONTINUOUS
10
0.021739
20
-0.025305
30
0.0
11
0.021784
21
-0.023580
31
0.0
0
LINE
8
0
6
CONTINUOUS
10
0.021573
20
-0.031113
30
0.0
11
0.021739
21
-0.025305
31
0.0
0
LINE
8
0
6
CONTINUOUS
10
0.021992
20
-0.015276
30
0.0
11
0.021985
21
-0.015105
31
0.0
0
LINE
8
0
6
CONTINUOUS
10
0.016699
20
-0.000679
30
0.0
11
0.019068
21
-0.004076
31
0.0
0
LINE
8
0
6
CONTINUOUS
10
0.009598
20
0.004864
30
0.0
11
0.013522
21
0.002394
31
0.0
0
LINE
8
0
6
CONTINUOUS
10
0.004878
20
0.006552
30
0.0
11
0.009598
21
0.004864
31
0.0
0
LINE
8
0
6
CONTINUOUS
10
0.019068
20
-0.004076
30
0.0
11
0.020675
21
-0.007728
31
0.0
0
LINE
8
0
6
CONTINUOUS
10
0.021746
20
-0.019669
30
0.0
11
0.021695
21
-0.021561
31
0.0
0
LINE
8
0
6
CONTINUOUS
10
0.021834
20
-0.021650
30
0.0
11
0.021888
21
-0.019756
31
0.0
0
LINE
8
0
6
CONTINUOUS
10
0.021695
20
-0.021561
30
0.0
11
0.021634
21
-0.023514
31
0.0
0
LINE
8
0
6
CONTINUOUS
10
0.021582
20
-0.025387
30
0.0
11
0.021434
21
-0.032003
31
0.0
0
LINE
8
0
6
CONTINUOUS
10
0.021582
20
-0.025387
30
0.0
11
0.021634
21
-0.023514
31
0.0
0
LINE
8
0
6
CONTINUOUS
10
0.021888
20
-0.019756
30
0.0
11
0.021993
21
-0.015323
31
0.0
0
LINE
8
0
6
CONTINUOUS
10
0.021994
20
-0.014867
30
0.0
11
0.021958
21
-0.013708
31
0.0
0
LINE
8
0
6
CONTINUOUS
10
0.020055
20
-0.084773
30
0.0
11
0.020306
21
-0.076410
31
0.0
0
LINE
8
0
6
CONTINUOUS
10
0.020774
20
-0.059931
30
0.0
11
0.021012
21
-0.051590
31
0.0
0
LINE
8
0
6
CONTINUOUS
10
0.020537
20
-0.068283
30
0.0
11
0.020774
21
-0.059931
31
0.0
0
LINE
8
0
6
CONTINUOUS
10
0.020306
20
-0.076410
30
0.0
11
0.020537
21
-0.068283
31
0.0
0
LINE
8
0
6
CONTINUOUS
10
0.019726
20
-0.085164
30
0.0
11
0.019670
21
-0.089287
31
0.0
0
LINE
8
0
6
CONTINUOUS
10
0.019925
20
-0.089043
30
0.0
11
0.020055
21
-0.084773
31
0.0
0
LINE
8
0
6
CONTINUOUS
10
0.019670
20
-0.089287
30
0.0
11
0.019609
21
-0.092011
31
0.0
0
LINE
8
0
6
CONTINUOUS
10
0.019838
20
-0.091643
30
0.0
11
0.019925
21
-0.089043
31
0.0
0
LINE
8
0
6
CONTINUOUS
10
0.000000
20
0.006282
30
0.0
11
0.004699
21
0.005738
31
0.0
0
LINE
8
0
6
CONTINUOUS
10
0.004878
20
0.006552
30
0.0
11
0.000000
21
0.007116
31
0.0
0
LINE
8
0
6
CONTINUOUS
10
0.020852
20
-0.051589
30
0.0
11
0.020613
21
-0.059923
31
0.0
0
LINE
8
0
6
CONTINUOUS
10
0.021012
20
-0.051590
30
0.0
11
0.021573
21
-0.031113
31
0.0
0
LINE
8
0
6
CONTINUOUS
10
0.016699
20
-0.000679
30
0.0
11
0.013522
21
0.002394
31
0.0
0
LINE
8
0
6
CONTINUOUS
10
0.019609
20
-0.092011
30
0.0
11
0.019422
21
-0.093258
31
0.0
0
LINE
8
0
6
CONTINUOUS
10
0.009945
20
-0.096249
30
0.0
11
0.006660
21
-0.096447
31
0.0
0
LINE
8
0
6
CONTINUOUS
10
0.010252
20
-0.097392
30
0.0
11
0.013676
21
-0.097089
31
0.0
0
LINE
8
0
6
CONTINUOUS
10
0.013676
20
-0.097089
30
0.0
11
0.017061
21
-0.096565
31
0.0
0
LINE
8
0
6
CONTINUOUS
10
0.018379
20
-0.095831
30
0.0
11
0.018508
21
-0.095711
31
0.0
0
LINE
8
0
6
CONTINUOUS
10
0.017061
20
-0.096565
30
0.0
11
0.018379
21
-0.095831
31
0.0
0
LINE
8
0
6
CONTINUOUS
10
0.019751
20
-0.093168
30
0.0
11
0.019838
21
-0.091643
31
0.0
0
LINE
8
0
6
CONTINUOUS
10
0.019348
20
-0.094622
30
0.0
11
0.019751
21
-0.093168
31
0.0
0
LINE
8
0
6
CONTINUOUS
10
0.018508
20
-0.095711
30
0.0
11
0.019348
21
-0.094622
31
0.0
0
LINE
8
0
6
CONTINUOUS
10
0.003420
20
-0.097756
30
0.0
11
0.006834
21
-0.097625
31
0.0
0
LINE
8
0
6
CONTINUOUS
10
0.006834
20
-0.097625
30
0.0
11
0.010252
21
-0.097392
31
0.0
0
LINE
8
0
6
CONTINUOUS
10
0.000000
20
-0.097809
30
0.0
11
0.003420
21
-0.097756
31
0.0
0
LINE
8
0
6
CONTINUOUS
10
0.018080
20
-0.094964
30
0.0
11
0.018874
21
-0.094221
31
0.0
0
LINE
8
0
6
CONTINUOUS
10
0.017136
20
-0.000124
30
0.0
11
0.013899
21
0.003118
31
0.0
0
LINE
8
0
6
CONTINUOUS
10
0.019457
20
-0.003715
30
0.0
11
0.017136
21
-0.000124
31
0.0
0
LINE
8
0
6
CONTINUOUS
10
0.021958
20
-0.013708
30
0.0
11
0.021956
21
-0.013647
31
0.0
0
LINE
8
0
6
CONTINUOUS
10
0.005029
20
0.007453
30
0.0
11
0.000000
21
0.008069
31
0.0
0
LINE
8
0
6
CONTINUOUS
10
0.009859
20
0.005688
30
0.0
11
0.005029
21
0.007453
31
0.0
0
LINE
8
0
6
CONTINUOUS
10
0.021009
20
-0.007511
30
0.0
11
0.019457
21
-0.003715
31
0.0
0
LINE
8
0
6
CONTINUOUS
10
0.021826
20
-0.011447
30
0.0
11
0.021009
21
-0.007511
31
0.0
0
LINE
8
0
6
CONTINUOUS
10
0.013899
20
0.003118
30
0.0
11
0.009859
21
0.005688
31
0.0
0
LINE
8
0
6
CONTINUOUS
10
-0.021746
20
-0.019669
30
0.0
11
-0.021856
21
-0.015334
31
0.0
0
LINE
8
0
6
CONTINUOUS
10
-0.021574
20
-0.011459
30
0.0
11
-0.021856
21
-0.015334
31
0.0
0
LINE
8
0
6
CONTINUOUS
10
-0.020613
20
-0.059923
30
0.0
11
-0.020366
21
-0.068269
31
0.0
0
LINE
8
0
6
CONTINUOUS
10
-0.013421
20
-0.095956
30
0.0
11
-0.016703
21
-0.095567
31
0.0
0
LINE
8
0
6
CONTINUOUS
10
-0.016703
20
-0.095567
30
0.0
11
-0.018080
21
-0.094964
31
0.0
0
LINE
8
0
6
CONTINUOUS
10
-0.009945
20
-0.096249
30
0.0
11
-0.013421
21
-0.095956
31
0.0
0
LINE
8
0
6
CONTINUOUS
10
0.021856
20
-0.015334
30
0.0
11
0.021746
21
-0.019669
31
0.0
0
LINE
8
0
6
CONTINUOUS
10
0.021856
20
-0.015334
30
0.0
11
0.021574
21
-0.011459
31
0.0
0
LINE
8
0
6
CONTINUOUS
10
0.020366
20
-0.068269
30
0.0
11
0.020613
21
-0.059923
31
0.0
0
LINE
8
0
6
CONTINUOUS
10
0.016703
20
-0.095567
30
0.0
11
0.013421
21
-0.095956
31
0.0
0
LINE
8
0
6
CONTINUOUS
10
0.018080
20
-0.094964
30
0.0
11
0.016703
21
-0.095567
31
0.0
0
LINE
8
0
6
CONTINUOUS
10
0.013421
20
-0.095956
30
0.0
11
0.009945
21
-0.096249
31
0.0
0
LINE
8
0
6
CONTINUOUS
10
-0.021746
20
-0.019669
30
0.0
11
-0.021695
21
-0.021561
31
0.0
0
LINE
8
0
6
CONTINUOUS
10
-0.019535
20
-0.059925
30
0.0
11
-0.019464
21
-0.068276
31
0.0
0
LINE
8
0
6
CONTINUOUS
10
0.019464
20
-0.068276
30
0.0
11
0.019535
21
-0.059925
31
0.0
0
LINE
8
0
6
CONTINUOUS
10
0.060091
20
-0.051513
30
0.0
11
0.063759
21
-0.049414
31
0.0
0
LINE
8
0
6
CONTINUOUS
10
0.067038
20
-0.046741
30
0.0
11
0.069697
21
-0.043450
31
0.0
0
LINE
8
0
6
CONTINUOUS
10
0.071798
20
-0.039775
30
0.0
11
0.073306
21
-0.035822
31
0.0
0
LINE
8
0
6
CONTINUOUS
10
0.076873
20
-0.008793
30
0.0
11
0.077270
21
0.003901
31
0.0
0
LINE
8
0
6
CONTINUOUS
10
0.071521
20
-0.039561
30
0.0
11
0.073009
21
-0.035624
31
0.0
0
LINE
8
0
6
CONTINUOUS
10
0.076565
20
-0.008653
30
0.0
11
0.076935
21
0.003957
31
0.0
0
LINE
8
0
6
CONTINUOUS
10
0.071521
20
-0.039561
30
0.0
11
0.069428
21
-0.043216
31
0.0
0
LINE
8
0
6
CONTINUOUS
10
0.069697
20
-0.043450
30
0.0
11
0.071798
21
-0.039775
31
0.0
0
LINE
8
0
6
CONTINUOUS
10
0.077270
20
0.003901
30
0.0
11
0.077500
21
0.020309
31
0.0
0
LINE
8
0
6
CONTINUOUS
10
0.066776
20
-0.046484
30
0.0
11
0.063551
21
-0.049185
31
0.0
0
LINE
8
0
6
CONTINUOUS
10
0.063759
20
-0.049414
30
0.0
11
0.067038
21
-0.046741
31
0.0
0
LINE
8
0
6
CONTINUOUS
10
0.056144
20
-0.053049
30
0.0
11
0.060091
21
-0.051513
31
0.0
0
LINE
8
0
6
CONTINUOUS
10
0.055946
20
-0.052753
30
0.0
11
0.051888
21
-0.053859
31
0.0
0
LINE
8
0
6
CONTINUOUS
10
0.052068
20
-0.054172
30
0.0
11
0.056144
21
-0.053049
31
0.0
0
LINE
8
0
6
CONTINUOUS
10
0.029102
20
-0.056554
30
0.0
11
0.040227
21
-0.055880
31
0.0
0
LINE
8
0
6
CONTINUOUS
10
0.020862
20
-0.056839
30
0.0
11
0.029102
21
-0.056554
31
0.0
0
LINE
8
0
6
CONTINUOUS
10
0.076935
20
0.003957
30
0.0
11
0.077200
21
0.020309
31
0.0
0
LINE
8
0
6
CONTINUOUS
10
0.059870
20
-0.051225
30
0.0
11
0.063551
21
-0.049185
31
0.0
0
LINE
8
0
6
CONTINUOUS
10
0.073306
20
-0.035822
30
0.0
11
0.074454
21
-0.031751
31
0.0
0
LINE
8
0
6
CONTINUOUS
10
0.074143
20
-0.031571
30
0.0
11
0.073009
21
-0.035624
31
0.0
0
LINE
8
0
6
CONTINUOUS
10
0.074454
20
-0.031751
30
0.0
11
0.075247
21
-0.027594
31
0.0
0
LINE
8
0
6
CONTINUOUS
10
0.074923
20
-0.027434
30
0.0
11
0.074143
21
-0.031571
31
0.0
0
LINE
8
0
6
CONTINUOUS
10
0.075247
20
-0.027594
30
0.0
11
0.076171
21
-0.019918
31
0.0
0
LINE
8
0
6
CONTINUOUS
10
0.076171
20
-0.019918
30
0.0
11
0.076873
21
-0.008793
31
0.0
0
LINE
8
0
6
CONTINUOUS
10
0.076565
20
-0.008653
30
0.0
11
0.075806
21
-0.019716
31
0.0
0
LINE
8
0
6
CONTINUOUS
10
0.066776
20
-0.046484
30
0.0
11
0.069428
21
-0.043216
31
0.0
0
LINE
8
0
6
CONTINUOUS
10
0.074923
20
-0.027434
30
0.0
11
0.075806
21
-0.019716
31
0.0
0
LINE
8
0
6
CONTINUOUS
10
0.055946
20
-0.052753
30
0.0
11
0.059870
21
-0.051225
31
0.0
0
LINE
8
0
6
CONTINUOUS
10
0.028962
20
-0.056246
30
0.0
11
0.040025
21
-0.055515
31
0.0
0
LINE
8
0
6
CONTINUOUS
10
0.020872
20
-0.056510
30
0.0
11
0.028962
21
-0.056246
31
0.0
0
LINE
8
0
6
CONTINUOUS
10
0.051888
20
-0.053859
30
0.0
11
0.047743
21
-0.054607
31
0.0
0
LINE
8
0
6
CONTINUOUS
10
0.047903
20
-0.054931
30
0.0
11
0.052068
21
-0.054172
31
0.0
0
LINE
8
0
6
CONTINUOUS
10
0.040227
20
-0.055880
30
0.0
11
0.047903
21
-0.054931
31
0.0
0
LINE
8
0
6
CONTINUOUS
10
-0.063759
20
-0.049414
30
0.0
11
-0.060091
21
-0.051513
31
0.0
0
LINE
8
0
6
CONTINUOUS
10
-0.069697
20
-0.043450
30
0.0
11
-0.067038
21
-0.046741
31
0.0
0
LINE
8
0
6
CONTINUOUS
10
-0.073306
20
-0.035822
30
0.0
11
-0.071798
21
-0.039775
31
0.0
0
LINE
8
0
6
CONTINUOUS
10
-0.077270
20
0.003901
30
0.0
11
-0.076873
21
-0.008793
31
0.0
0
LINE
8
0
6
CONTINUOUS
10
-0.073009
20
-0.035624
30
0.0
11
-0.071521
21
-0.039561
31
0.0
0
LINE
8
0
6
CONTINUOUS
10
-0.076935
20
0.003957
30
0.0
11
-0.076565
21
-0.008653
31
0.0
0
LINE
8
0
6
CONTINUOUS
10
-0.071798
20
-0.039775
30
0.0
11
-0.069697
21
-0.043450
31
0.0
0
LINE
8
0
6
CONTINUOUS
10
-0.069428
20
-0.043216
30
0.0
11
-0.071521
21
-0.039561
31
0.0
0
LINE
8
0
6
CONTINUOUS
10
-0.077500
20
0.020309
30
0.0
11
-0.077270
21
0.003901
31
0.0
0
LINE
8
0
6
CONTINUOUS
10
-0.067038
20
-0.046741
30
0.0
11
-0.063759
21
-0.049414
31
0.0
0
LINE
8
0
6
CONTINUOUS
10
-0.063551
20
-0.049185
30
0.0
11
-0.066776
21
-0.046484
31
0.0
0
LINE
8
0
6
CONTINUOUS
10
-0.060091
20
-0.051513
30
0.0
11
-0.056144
21
-0.053049
31
0.0
0
LINE
8
0
6
CONTINUOUS
10
-0.056144
20
-0.053049
30
0.0
11
-0.052068
21
-0.054172
31
0.0
0
LINE
8
0
6
CONTINUOUS
10
-0.051888
20
-0.053859
30
0.0
11
-0.055946
21
-0.052753
31
0.0
0
LINE
8
0
6
CONTINUOUS
10
-0.040227
20
-0.055880
30
0.0
11
-0.029102
21
-0.056554
31
0.0
0
LINE
8
0
6
CONTINUOUS
10
-0.029102
20
-0.056554
30
0.0
11
-0.020862
21
-0.056839
31
0.0
0
LINE
8
0
6
CONTINUOUS
10
-0.077200
20
0.020309
30
0.0
11
-0.076935
21
0.003957
31
0.0
0
LINE
8
0
6
CONTINUOUS
10
-0.063551
20
-0.049185
30
0.0
11
-0.059870
21
-0.051225
31
0.0
0
LINE
8
0
6
CONTINUOUS
10
-0.073009
20
-0.035624
30
0.0
11
-0.074143
21
-0.031571
31
0.0
0
LINE
8
0
6
CONTINUOUS
10
-0.074454
20
-0.031751
30
0.0
11
-0.073306
21
-0.035822
31
0.0
0
LINE
8
0
6
CONTINUOUS
10
-0.074143
20
-0.031571
30
0.0
11
-0.074923
21
-0.027434
31
0.0
0
LINE
8
0
6
CONTINUOUS
10
-0.075247
20
-0.027594
30
0.0
11
-0.074454
21
-0.031751
31
0.0
0
LINE
8
0
6
CONTINUOUS
10
-0.076171
20
-0.019918
30
0.0
11
-0.075247
21
-0.027594
31
0.0
0
LINE
8
0
6
CONTINUOUS
10
-0.075806
20
-0.019716
30
0.0
11
-0.076565
21
-0.008653
31
0.0
0
LINE
8
0
6
CONTINUOUS
10
-0.076873
20
-0.008793
30
0.0
11
-0.076171
21
-0.019918
31
0.0
0
LINE
8
0
6
CONTINUOUS
10
-0.069428
20
-0.043216
30
0.0
11
-0.066776
21
-0.046484
31
0.0
0
LINE
8
0
6
CONTINUOUS
10
-0.075806
20
-0.019716
30
0.0
11
-0.074923
21
-0.027434
31
0.0
0
LINE
8
0
6
CONTINUOUS
10
-0.059870
20
-0.051225
30
0.0
11
-0.055946
21
-0.052753
31
0.0
0
LINE
8
0
6
CONTINUOUS
10
-0.040025
20
-0.055515
30
0.0
11
-0.028962
21
-0.056246
31
0.0
0
LINE
8
0
6
CONTINUOUS
10
-0.028962
20
-0.056246
30
0.0
11
-0.020872
21
-0.056510
31
0.0
0
LINE
8
0
6
CONTINUOUS
10
-0.052068
20
-0.054172
30
0.0
11
-0.047903
21
-0.054931
31
0.0
0
LINE
8
0
6
CONTINUOUS
10
-0.047743
20
-0.054607
30
0.0
11
-0.051888
21
-0.053859
31
0.0
0
LINE
8
0
6
CONTINUOUS
10
-0.047903
20
-0.054931
30
0.0
11
-0.040227
21
-0.055880
31
0.0
0
LINE
8
0
6
CONTINUOUS
10
0.063759
20
0.090032
30
0.0
11
0.060091
21
0.092132
31
0.0
0
LINE
8
0
6
CONTINUOUS
10
0.069697
20
0.084068
30
0.0
11
0.067038
21
0.087360
31
0.0
0
LINE
8
0
6
CONTINUOUS
10
0.073306
20
0.076441
30
0.0
11
0.071798
21
0.080394
31
0.0
0
LINE
8
0
6
CONTINUOUS
10
0.077270
20
0.036718
30
0.0
11
0.076873
21
0.049411
31
0.0
0
LINE
8
0
6
CONTINUOUS
10
0.073009
20
0.076242
30
0.0
11
0.071521
21
0.080179
31
0.0
0
LINE
8
0
6
CONTINUOUS
10
0.076935
20
0.036662
30
0.0
11
0.076565
21
0.049271
31
0.0
0
LINE
8
0
6
CONTINUOUS
10
0.071798
20
0.080394
30
0.0
11
0.069697
21
0.084068
31
0.0
0
LINE
8
0
6
CONTINUOUS
10
0.069428
20
0.083834
30
0.0
11
0.071521
21
0.080179
31
0.0
0
LINE
8
0
6
CONTINUOUS
10
0.077500
20
0.020309
30
0.0
11
0.077270
21
0.036718
31
0.0
0
LINE
8
0
6
CONTINUOUS
10
0.067038
20
0.087360
30
0.0
11
0.063759
21
0.090032
31
0.0
0
LINE
8
0
6
CONTINUOUS
10
0.063551
20
0.089803
30
0.0
11
0.066776
21
0.087103
31
0.0
0
LINE
8
0
6
CONTINUOUS
10
0.060091
20
0.092132
30
0.0
11
0.056144
21
0.093668
31
0.0
0
LINE
8
0
6
CONTINUOUS
10
0.056144
20
0.093668
30
0.0
11
0.052068
21
0.094790
31
0.0
0
LINE
8
0
6
CONTINUOUS
10
0.051888
20
0.094477
30
0.0
11
0.055946
21
0.093371
31
0.0
0
LINE
8
0
6
CONTINUOUS
10
0.040227
20
0.096499
30
0.0
11
0.029102
21
0.097172
31
0.0
0
LINE
8
0
6
CONTINUOUS
10
0.029102
20
0.097172
30
0.0
11
0.016409
21
0.097611
31
0.0
0
LINE
8
0
6
CONTINUOUS
10
0.077200
20
0.020309
30
0.0
11
0.076935
21
0.036662
31
0.0
0
LINE
8
0
6
CONTINUOUS
10
0.063551
20
0.089803
30
0.0
11
0.059870
21
0.091843
31
0.0
0
LINE
8
0
6
CONTINUOUS
10
0.073009
20
0.076242
30
0.0
11
0.074143
21
0.072189
31
0.0
0
LINE
8
0
6
CONTINUOUS
10
0.074454
20
0.072369
30
0.0
11
0.073306
21
0.076441
31
0.0
0
LINE
8
0
6
CONTINUOUS
10
0.074143
20
0.072189
30
0.0
11
0.074923
21
0.068052
31
0.0
0
LINE
8
0
6
CONTINUOUS
10
0.075247
20
0.068212
30
0.0
11
0.074454
21
0.072369
31
0.0
0
LINE
8
0
6
CONTINUOUS
10
0.076171
20
0.060536
30
0.0
11
0.075247
21
0.068212
31
0.0
0
LINE
8
0
6
CONTINUOUS
10
0.075806
20
0.060334
30
0.0
11
0.076565
21
0.049271
31
0.0
0
LINE
8
0
6
CONTINUOUS
10
0.076873
20
0.049411
30
0.0
11
0.076171
21
0.060536
31
0.0
0
LINE
8
0
6
CONTINUOUS
10
0.069428
20
0.083834
30
0.0
11
0.066776
21
0.087103
31
0.0
0
LINE
8
0
6
CONTINUOUS
10
0.075806
20
0.060334
30
0.0
11
0.074923
21
0.068052
31
0.0
0
LINE
8
0
6
CONTINUOUS
10
0.059870
20
0.091843
30
0.0
11
0.055946
21
0.093371
31
0.0
0
LINE
8
0
6
CONTINUOUS
10
0.040025
20
0.096134
30
0.0
11
0.028962
21
0.096864
31
0.0
0
LINE
8
0
6
CONTINUOUS
10
0.028962
20
0.096864
30
0.0
11
0.016353
21
0.097276
31
0.0
0
LINE
8
0
6
CONTINUOUS
10
0.052068
20
0.094790
30
0.0
11
0.047903
21
0.095549
31
0.0
0
LINE
8
0
6
CONTINUOUS
10
0.047743
20
0.095225
30
0.0
11
0.051888
21
0.094477
31
0.0
0
LINE
8
0
6
CONTINUOUS
10
0.047903
20
0.095549
30
0.0
11
0.040227
21
0.096499
31
0.0
0
LINE
8
0
6
CONTINUOUS
10
0.000000
20
0.097509
30
0.0
11
0.016353
21
0.097276
31
0.0
0
LINE
8
0
6
CONTINUOUS
10
0.016409
20
0.097611
30
0.0
11
0.000000
21
0.097809
31
0.0
0
LINE
8
0
6
CONTINUOUS
10
-0.060091
20
0.092132
30
0.0
11
-0.063759
21
0.090032
31
0.0
0
LINE
8
0
6
CONTINUOUS
10
-0.067038
20
0.087360
30
0.0
11
-0.069697
21
0.084068
31
0.0
0
LINE
8
0
6
CONTINUOUS
10
-0.071798
20
0.080394
30
0.0
11
-0.073306
21
0.076441
31
0.0
0
LINE
8
0
6
CONTINUOUS
10
-0.076873
20
0.049411
30
0.0
11
-0.077270
21
0.036718
31
0.0
0
LINE
8
0
6
CONTINUOUS
10
-0.071521
20
0.080179
30
0.0
11
-0.073009
21
0.076242
31
0.0
0
LINE
8
0
6
CONTINUOUS
10
-0.076565
20
0.049271
30
0.0
11
-0.076935
21
0.036662
31
0.0
0
LINE
8
0
6
CONTINUOUS
10
-0.071521
20
0.080179
30
0.0
11
-0.069428
21
0.083834
31
0.0
0
LINE
8
0
6
CONTINUOUS
10
-0.069697
20
0.084068
30
0.0
11
-0.071798
21
0.080394
31
0.0
0
LINE
8
0
6
CONTINUOUS
10
-0.077270
20
0.036718
30
0.0
11
-0.077500
21
0.020309
31
0.0
0
LINE
8
0
6
CONTINUOUS
10
-0.066776
20
0.087103
30
0.0
11
-0.063551
21
0.089803
31
0.0
0
LINE
8
0
6
CONTINUOUS
10
-0.063759
20
0.090032
30
0.0
11
-0.067038
21
0.087360
31
0.0
0
LINE
8
0
6
CONTINUOUS
10
-0.056144
20
0.093668
30
0.0
11
-0.060091
21
0.092132
31
0.0
0
LINE
8
0
6
CONTINUOUS
10
-0.055946
20
0.093371
30
0.0
11
-0.051888
21
0.094477
31
0.0
0
LINE
8
0
6
CONTINUOUS
10
-0.052068
20
0.094790
30
0.0
11
-0.056144
21
0.093668
31
0.0
0
LINE
8
0
6
CONTINUOUS
10
-0.029102
20
0.097172
30
0.0
11
-0.040227
21
0.096499
31
0.0
0
LINE
8
0
6
CONTINUOUS
10
-0.016409
20
0.097611
30
0.0
11
-0.029102
21
0.097172
31
0.0
0
LINE
8
0
6
CONTINUOUS
10
-0.076935
20
0.036662
30
0.0
11
-0.077200
21
0.020309
31
0.0
0
LINE
8
0
6
CONTINUOUS
10
-0.059870
20
0.091843
30
0.0
11
-0.063551
21
0.089803
31
0.0
0
LINE
8
0
6
CONTINUOUS
10
-0.073306
20
0.076441
30
0.0
11
-0.074454
21
0.072369
31
0.0
0
LINE
8
0
6
CONTINUOUS
10
-0.074143
20
0.072189
30
0.0
11
-0.073009
21
0.076242
31
0.0
0
LINE
8
0
6
CONTINUOUS
10
-0.074454
20
0.072369
30
0.0
11
-0.075247
21
0.068212
31
0.0
0
LINE
8
0
6
CONTINUOUS
10
-0.074923
20
0.068052
30
0.0
11
-0.074143
21
0.072189
31
0.0
0
LINE
8
0
6
CONTINUOUS
10
-0.075247
20
0.068212
30
0.0
11
-0.076171
21
0.060536
31
0.0
0
LINE
8
0
6
CONTINUOUS
10
-0.076171
20
0.060536
30
0.0
11
-0.076873
21
0.049411
31
0.0
0
LINE
8
0
6
CONTINUOUS
10
-0.076565
20
0.049271
30
0.0
11
-0.075806
21
0.060334
31
0.0
0
LINE
8
0
6
CONTINUOUS
10
-0.066776
20
0.087103
30
0.0
11
-0.069428
21
0.083834
31
0.0
0
LINE
8
0
6
CONTINUOUS
10
-0.074923
20
0.068052
30
0.0
11
-0.075806
21
0.060334
31
0.0
0
LINE
8
0
6
CONTINUOUS
10
-0.055946
20
0.093371
30
0.0
11
-0.059870
21
0.091843
31
0.0
0
LINE
8
0
6
CONTINUOUS
10
-0.028962
20
0.096864
30
0.0
11
-0.040025
21
0.096134
31
0.0
0
LINE
8
0
6
CONTINUOUS
10
-0.016353
20
0.097276
30
0.0
11
-0.028962
21
0.096864
31
0.0
0
LINE
8
0
6
CONTINUOUS
10
-0.051888
20
0.094477
30
0.0
11
-0.047743
21
0.095225
31
0.0
0
LINE
8
0
6
CONTINUOUS
10
-0.047903
20
0.095549
30
0.0
11
-0.052068
21
0.094790
31
0.0
0
LINE
8
0
6
CONTINUOUS
10
-0.040227
20
0.096499
30
0.0
11
-0.047903
21
0.095549
31
0.0
0
LINE
8
0
6
CONTINUOUS
10
0.000000
20
0.097809
30
0.0
11
-0.016409
21
0.097611
31
0.0
0
LINE
8
0
6
CONTINUOUS
10
-0.016353
20
0.097276
30
0.0
11
0.000000
21
0.097509
31
0.0
0
ENDSEC
0
EOF
