999
unknown String-ID: 20550
0
SECTION
2
HEADER
9
$ACADVER
1
AC1009
9
$DWGCODEPAGE
3
unknown String-ID: 20561
0
ENDSEC
0
SECTION
2
TABLES
0
TABLE
2
LAYER
70
1
0
LAYER
2
0
70
0
62
7
6
CONTINUOUS
0
ENDTAB
0
ENDSEC
0
SECTION
2
ENTITIES
0
LINE
8
0
6
CONTINUOUS
10
0.011461
20
0.016062
30
0.0
11
0.011606
21
0.016983
31
0.0
0
LINE
8
0
6
CONTINUOUS
10
0.011606
20
0.017178
30
0.0
11
0.011606
21
0.018499
31
0.0
0
LINE
8
0
6
CONTINUOUS
10
0.009799
20
0.014220
30
0.0
11
0.010957
21
0.015141
31
0.0
0
LINE
8
0
6
CONTINUOUS
10
-0.011680
20
0.017178
30
0.0
11
-0.011680
21
0.016983
31
0.0
0
LINE
8
0
6
CONTINUOUS
10
-0.011030
20
0.015141
30
0.0
11
-0.009872
21
0.014220
31
0.0
0
LINE
8
0
6
CONTINUOUS
10
0.010957
20
0.015141
30
0.0
11
0.011461
21
0.016062
31
0.0
0
LINE
8
0
6
CONTINUOUS
10
0.009631
20
0.014152
30
0.0
11
0.009799
21
0.014220
31
0.0
0
LINE
8
0
6
CONTINUOUS
10
-0.009872
20
0.014220
30
0.0
11
-0.009704
21
0.014152
31
0.0
0
LINE
8
0
6
CONTINUOUS
10
0.011732
20
-0.014421
30
0.0
11
0.011737
21
-0.014131
31
0.0
0
LINE
8
0
6
CONTINUOUS
10
0.011451
20
-0.015513
30
0.0
11
0.011732
21
-0.014421
31
0.0
0
LINE
8
0
6
CONTINUOUS
10
0.011028
20
-0.015513
30
0.0
11
0.011451
21
-0.015513
31
0.0
0
LINE
8
0
6
CONTINUOUS
10
-0.011953
20
0.000270
30
0.0
11
-0.011949
21
-0.000004
31
0.0
0
LINE
8
0
6
CONTINUOUS
10
-0.010474
20
0.011212
30
0.0
11
-0.010474
21
0.010888
31
0.0
0
LINE
8
0
6
CONTINUOUS
10
-0.010097
20
0.011212
30
0.0
11
-0.010474
21
0.011212
31
0.0
0
LINE
8
0
6
CONTINUOUS
10
-0.010474
20
0.003293
30
0.0
11
-0.010603
21
0.002528
31
0.0
0
LINE
8
0
6
CONTINUOUS
10
0.000000
20
-0.015513
30
0.0
11
0.002957
21
-0.015513
31
0.0
0
LINE
8
0
6
CONTINUOUS
10
0.002957
20
-0.015513
30
0.0
11
0.005678
21
-0.015513
31
0.0
0
LINE
8
0
6
CONTINUOUS
10
0.005678
20
-0.015513
30
0.0
11
0.008072
21
-0.015513
31
0.0
0
LINE
8
0
6
CONTINUOUS
10
0.008072
20
-0.015513
30
0.0
11
0.009902
21
-0.015513
31
0.0
0
LINE
8
0
6
CONTINUOUS
10
0.009902
20
-0.015513
30
0.0
11
0.011028
21
-0.015513
31
0.0
0
LINE
8
0
6
CONTINUOUS
10
-0.002957
20
-0.015513
30
0.0
11
0.000000
21
-0.015513
31
0.0
0
LINE
8
0
6
CONTINUOUS
10
-0.005678
20
-0.015513
30
0.0
11
-0.002957
21
-0.015513
31
0.0
0
LINE
8
0
6
CONTINUOUS
10
-0.008072
20
-0.015513
30
0.0
11
-0.005678
21
-0.015513
31
0.0
0
LINE
8
0
6
CONTINUOUS
10
-0.009902
20
-0.015513
30
0.0
11
-0.008072
21
-0.015513
31
0.0
0
LINE
8
0
6
CONTINUOUS
10
-0.011028
20
-0.015513
30
0.0
11
-0.009902
21
-0.015513
31
0.0
0
LINE
8
0
6
CONTINUOUS
10
-0.011451
20
-0.015513
30
0.0
11
-0.011028
21
-0.015513
31
0.0
0
LINE
8
0
6
CONTINUOUS
10
-0.011732
20
-0.014421
30
0.0
11
-0.011451
21
-0.015513
31
0.0
0
LINE
8
0
6
CONTINUOUS
10
-0.007416
20
0.011212
30
0.0
11
-0.009092
21
0.011212
31
0.0
0
LINE
8
0
6
CONTINUOUS
10
0.009092
20
0.011212
30
0.0
11
0.007416
21
0.011212
31
0.0
0
LINE
8
0
6
CONTINUOUS
10
0.005195
20
0.011212
30
0.0
11
0.002681
21
0.011212
31
0.0
0
LINE
8
0
6
CONTINUOUS
10
0.002681
20
0.011212
30
0.0
11
0.000000
21
0.011212
31
0.0
0
LINE
8
0
6
CONTINUOUS
10
0.007416
20
0.011212
30
0.0
11
0.005195
21
0.011212
31
0.0
0
LINE
8
0
6
CONTINUOUS
10
-0.005195
20
0.011212
30
0.0
11
-0.007416
21
0.011212
31
0.0
0
LINE
8
0
6
CONTINUOUS
10
0.000000
20
0.011212
30
0.0
11
-0.002681
21
0.011212
31
0.0
0
LINE
8
0
6
CONTINUOUS
10
-0.002681
20
0.011212
30
0.0
11
-0.005195
21
0.011212
31
0.0
0
LINE
8
0
6
CONTINUOUS
10
-0.009092
20
0.011212
30
0.0
11
-0.010097
21
0.011212
31
0.0
0
LINE
8
0
6
CONTINUOUS
10
0.010474
20
0.011212
30
0.0
11
0.010097
21
0.011212
31
0.0
0
LINE
8
0
6
CONTINUOUS
10
0.010474
20
0.010888
30
0.0
11
0.010474
21
0.011212
31
0.0
0
LINE
8
0
6
CONTINUOUS
10
0.010097
20
0.011212
30
0.0
11
0.009092
21
0.011212
31
0.0
0
LINE
8
0
6
CONTINUOUS
10
-0.010474
20
0.010888
30
0.0
11
-0.010474
21
0.003527
31
0.0
0
LINE
8
0
6
CONTINUOUS
10
0.010474
20
0.003527
30
0.0
11
0.010474
21
0.010888
31
0.0
0
LINE
8
0
6
CONTINUOUS
10
-0.011680
20
0.016983
30
0.0
11
-0.011534
21
0.016062
31
0.0
0
LINE
8
0
6
CONTINUOUS
10
-0.011534
20
0.016062
30
0.0
11
-0.011030
21
0.015141
31
0.0
0
LINE
8
0
6
CONTINUOUS
10
0.010603
20
0.002528
30
0.0
11
0.010474
21
0.003293
31
0.0
0
LINE
8
0
6
CONTINUOUS
10
-0.011583
20
0.001025
30
0.0
11
-0.011953
21
0.000270
31
0.0
0
LINE
8
0
6
CONTINUOUS
10
-0.010965
20
0.001789
30
0.0
11
-0.011583
21
0.001025
31
0.0
0
LINE
8
0
6
CONTINUOUS
10
-0.010603
20
0.002528
30
0.0
11
-0.010965
21
0.001789
31
0.0
0
LINE
8
0
6
CONTINUOUS
10
0.011953
20
0.000270
30
0.0
11
0.011583
21
0.001025
31
0.0
0
LINE
8
0
6
CONTINUOUS
10
0.011583
20
0.001025
30
0.0
11
0.010965
21
0.001789
31
0.0
0
LINE
8
0
6
CONTINUOUS
10
0.010965
20
0.001789
30
0.0
11
0.010603
21
0.002528
31
0.0
0
LINE
8
0
6
CONTINUOUS
10
0.011737
20
-0.014131
30
0.0
11
0.011949
21
-0.000004
31
0.0
0
LINE
8
0
6
CONTINUOUS
10
-0.011737
20
-0.014131
30
0.0
11
-0.011732
21
-0.014421
31
0.0
0
LINE
8
0
6
CONTINUOUS
10
-0.011949
20
-0.000004
30
0.0
11
-0.011737
21
-0.014131
31
0.0
0
LINE
8
0
6
CONTINUOUS
10
0.011949
20
-0.000004
30
0.0
11
0.011953
21
0.000270
31
0.0
0
LINE
8
0
6
CONTINUOUS
10
-0.010474
20
0.003527
30
0.0
11
-0.010474
21
0.003293
31
0.0
0
LINE
8
0
6
CONTINUOUS
10
0.010474
20
0.003293
30
0.0
11
0.010474
21
0.003527
31
0.0
0
LINE
8
0
6
CONTINUOUS
10
-0.004234
20
0.011950
30
0.0
11
-0.004234
21
0.011822
31
0.0
0
LINE
8
0
6
CONTINUOUS
10
0.004160
20
0.011822
30
0.0
11
0.004160
21
0.011950
31
0.0
0
LINE
8
0
6
CONTINUOUS
10
-0.000037
20
0.011950
30
0.0
11
0.001038
21
0.011950
31
0.0
0
LINE
8
0
6
CONTINUOUS
10
0.001038
20
0.011950
30
0.0
11
0.002045
21
0.011950
31
0.0
0
LINE
8
0
6
CONTINUOUS
10
0.002045
20
0.011950
30
0.0
11
0.002935
21
0.011950
31
0.0
0
LINE
8
0
6
CONTINUOUS
10
0.002935
20
0.011950
30
0.0
11
0.003606
21
0.011950
31
0.0
0
LINE
8
0
6
CONTINUOUS
10
0.003606
20
0.011950
30
0.0
11
0.004009
21
0.011950
31
0.0
0
LINE
8
0
6
CONTINUOUS
10
0.004009
20
0.011950
30
0.0
11
0.004160
21
0.011950
31
0.0
0
LINE
8
0
6
CONTINUOUS
10
0.004160
20
0.011950
30
0.0
11
0.004401
21
0.012047
31
0.0
0
LINE
8
0
6
CONTINUOUS
10
-0.001111
20
0.011950
30
0.0
11
-0.000037
21
0.011950
31
0.0
0
LINE
8
0
6
CONTINUOUS
10
-0.002118
20
0.011950
30
0.0
11
-0.001111
21
0.011950
31
0.0
0
LINE
8
0
6
CONTINUOUS
10
-0.003008
20
0.011950
30
0.0
11
-0.002118
21
0.011950
31
0.0
0
LINE
8
0
6
CONTINUOUS
10
-0.003680
20
0.011950
30
0.0
11
-0.003008
21
0.011950
31
0.0
0
LINE
8
0
6
CONTINUOUS
10
-0.004083
20
0.011950
30
0.0
11
-0.003680
21
0.011950
31
0.0
0
LINE
8
0
6
CONTINUOUS
10
-0.004234
20
0.011950
30
0.0
11
-0.004083
21
0.011950
31
0.0
0
LINE
8
0
6
CONTINUOUS
10
-0.004475
20
0.012047
30
0.0
11
-0.004234
21
0.011950
31
0.0
0
LINE
8
0
6
CONTINUOUS
10
0.011606
20
0.016983
30
0.0
11
0.011606
21
0.017178
31
0.0
0
LINE
8
0
6
CONTINUOUS
10
-0.011680
20
0.018499
30
0.0
11
-0.011680
21
0.017178
31
0.0
0
LINE
8
0
6
CONTINUOUS
10
0.004401
20
0.012047
30
0.0
11
0.009631
21
0.014152
31
0.0
0
LINE
8
0
6
CONTINUOUS
10
-0.009704
20
0.014152
30
0.0
11
-0.004475
21
0.012047
31
0.0
0
LINE
8
0
6
CONTINUOUS
10
0.020424
20
0.010465
30
0.0
11
0.020424
21
0.018499
31
0.0
0
LINE
8
0
6
CONTINUOUS
10
-0.020424
20
0.018499
30
0.0
11
-0.020424
21
0.010465
31
0.0
0
LINE
8
0
6
CONTINUOUS
10
-0.021994
20
-0.008760
30
0.0
11
-0.021985
21
-0.012168
31
0.0
0
LINE
8
0
6
CONTINUOUS
10
-0.021992
20
-0.016029
30
0.0
11
-0.021993
21
-0.018939
31
0.0
0
LINE
8
0
6
CONTINUOUS
10
-0.021993
20
-0.018939
30
0.0
11
-0.021988
21
-0.027184
31
0.0
0
LINE
8
0
6
CONTINUOUS
10
-0.021985
20
-0.012168
30
0.0
11
-0.021992
21
-0.016029
31
0.0
0
LINE
8
0
6
CONTINUOUS
10
-0.019609
20
-0.030638
30
0.0
11
-0.019422
21
-0.030860
31
0.0
0
LINE
8
0
6
CONTINUOUS
10
-0.019422
20
-0.030860
30
0.0
11
-0.018761
21
-0.031328
31
0.0
0
LINE
8
0
6
CONTINUOUS
10
-0.015769
20
-0.028664
30
0.0
11
-0.012722
21
-0.028664
31
0.0
0
LINE
8
0
6
CONTINUOUS
10
-0.019068
20
-0.028065
30
0.0
11
-0.016699
21
-0.028105
31
0.0
0
LINE
8
0
6
CONTINUOUS
10
-0.013522
20
-0.028146
30
0.0
11
-0.009598
21
-0.028180
31
0.0
0
LINE
8
0
6
CONTINUOUS
10
-0.009266
20
-0.028667
30
0.0
11
-0.004699
21
-0.028702
31
0.0
0
LINE
8
0
6
CONTINUOUS
10
-0.009598
20
-0.028180
30
0.0
11
-0.004878
21
-0.028192
31
0.0
0
LINE
8
0
6
CONTINUOUS
10
-0.021988
20
-0.027184
30
0.0
11
-0.021856
21
-0.027977
31
0.0
0
LINE
8
0
6
CONTINUOUS
10
-0.021574
20
-0.027984
30
0.0
11
-0.020675
21
-0.028029
31
0.0
0
LINE
8
0
6
CONTINUOUS
10
-0.020675
20
-0.028029
30
0.0
11
-0.019068
21
-0.028065
31
0.0
0
LINE
8
0
6
CONTINUOUS
10
-0.018044
20
-0.028664
30
0.0
11
-0.015769
21
-0.028664
31
0.0
0
LINE
8
0
6
CONTINUOUS
10
-0.012722
20
-0.028664
30
0.0
11
-0.009266
21
-0.028667
31
0.0
0
LINE
8
0
6
CONTINUOUS
10
-0.021328
20
-0.028437
30
0.0
11
-0.020646
21
-0.028664
31
0.0
0
LINE
8
0
6
CONTINUOUS
10
-0.020646
20
-0.028664
30
0.0
11
-0.020448
21
-0.028664
31
0.0
0
LINE
8
0
6
CONTINUOUS
10
-0.020448
20
-0.028664
30
0.0
11
-0.019604
21
-0.028664
31
0.0
0
LINE
8
0
6
CONTINUOUS
10
-0.019604
20
-0.028664
30
0.0
11
-0.018044
21
-0.028664
31
0.0
0
LINE
8
0
6
CONTINUOUS
10
-0.021958
20
0.008153
30
0.0
11
-0.021994
21
-0.008760
31
0.0
0
LINE
8
0
6
CONTINUOUS
10
-0.020027
20
-0.028748
30
0.0
11
-0.019905
21
-0.029447
31
0.0
0
LINE
8
0
6
CONTINUOUS
10
-0.019609
20
-0.030638
30
0.0
11
-0.019670
21
-0.030041
31
0.0
0
LINE
8
0
6
CONTINUOUS
10
-0.019806
20
-0.030001
30
0.0
11
-0.019609
21
-0.030638
31
0.0
0
LINE
8
0
6
CONTINUOUS
10
-0.019905
20
-0.029447
30
0.0
11
-0.019806
21
-0.030001
31
0.0
0
LINE
8
0
6
CONTINUOUS
10
-0.004699
20
-0.028702
30
0.0
11
0.000000
21
-0.028715
31
0.0
0
LINE
8
0
6
CONTINUOUS
10
0.000000
20
-0.028205
30
0.0
11
-0.004878
21
-0.028192
31
0.0
0
LINE
8
0
6
CONTINUOUS
10
-0.013522
20
-0.028146
30
0.0
11
-0.016699
21
-0.028105
31
0.0
0
LINE
8
0
6
CONTINUOUS
10
-0.013442
20
-0.032137
30
0.0
11
-0.009953
21
-0.032297
31
0.0
0
LINE
8
0
6
CONTINUOUS
10
-0.016333
20
-0.031969
30
0.0
11
-0.013442
21
-0.032137
31
0.0
0
LINE
8
0
6
CONTINUOUS
10
-0.018269
20
-0.031560
30
0.0
11
-0.017774
21
-0.031726
31
0.0
0
LINE
8
0
6
CONTINUOUS
10
-0.017774
20
-0.031726
30
0.0
11
-0.016333
21
-0.031969
31
0.0
0
LINE
8
0
6
CONTINUOUS
10
-0.018761
20
-0.031328
30
0.0
11
-0.018269
21
-0.031560
31
0.0
0
LINE
8
0
6
CONTINUOUS
10
-0.003147
20
-0.032478
30
0.0
11
0.000000
21
-0.032499
31
0.0
0
LINE
8
0
6
CONTINUOUS
10
-0.006622
20
-0.032408
30
0.0
11
-0.003147
21
-0.032478
31
0.0
0
LINE
8
0
6
CONTINUOUS
10
-0.009953
20
-0.032297
30
0.0
11
-0.006622
21
-0.032408
31
0.0
0
LINE
8
0
6
CONTINUOUS
10
-0.021956
20
0.009025
30
0.0
11
-0.021958
21
0.008153
31
0.0
0
LINE
8
0
6
CONTINUOUS
10
-0.021956
20
0.009025
30
0.0
11
-0.021826
21
0.008355
31
0.0
0
LINE
8
0
6
CONTINUOUS
10
-0.021266
20
0.009025
30
0.0
11
-0.021956
21
0.009025
31
0.0
0
LINE
8
0
6
CONTINUOUS
10
-0.021826
20
0.008355
30
0.0
11
-0.021009
21
0.007243
31
0.0
0
LINE
8
0
6
CONTINUOUS
10
-0.013899
20
0.004131
30
0.0
11
-0.009859
21
0.003382
31
0.0
0
LINE
8
0
6
CONTINUOUS
10
-0.021009
20
0.007243
30
0.0
11
-0.019457
21
0.006141
31
0.0
0
LINE
8
0
6
CONTINUOUS
10
-0.019457
20
0.006141
30
0.0
11
-0.017136
21
0.005053
31
0.0
0
LINE
8
0
6
CONTINUOUS
10
-0.017136
20
0.005053
30
0.0
11
-0.013899
21
0.004131
31
0.0
0
LINE
8
0
6
CONTINUOUS
10
0.021985
20
-0.012168
30
0.0
11
0.021994
21
-0.008760
31
0.0
0
LINE
8
0
6
CONTINUOUS
10
0.021993
20
-0.018939
30
0.0
11
0.021992
21
-0.016029
31
0.0
0
LINE
8
0
6
CONTINUOUS
10
0.021988
20
-0.027184
30
0.0
11
0.021993
21
-0.018939
31
0.0
0
LINE
8
0
6
CONTINUOUS
10
0.021992
20
-0.016029
30
0.0
11
0.021985
21
-0.012168
31
0.0
0
LINE
8
0
6
CONTINUOUS
10
0.018761
20
-0.031328
30
0.0
11
0.019422
21
-0.030860
31
0.0
0
LINE
8
0
6
CONTINUOUS
10
0.019422
20
-0.030860
30
0.0
11
0.019609
21
-0.030638
31
0.0
0
LINE
8
0
6
CONTINUOUS
10
0.012722
20
-0.028664
30
0.0
11
0.015769
21
-0.028664
31
0.0
0
LINE
8
0
6
CONTINUOUS
10
0.016699
20
-0.028105
30
0.0
11
0.019068
21
-0.028065
31
0.0
0
LINE
8
0
6
CONTINUOUS
10
0.009598
20
-0.028180
30
0.0
11
0.013522
21
-0.028146
31
0.0
0
LINE
8
0
6
CONTINUOUS
10
0.004699
20
-0.028702
30
0.0
11
0.009266
21
-0.028667
31
0.0
0
LINE
8
0
6
CONTINUOUS
10
0.004878
20
-0.028192
30
0.0
11
0.009598
21
-0.028180
31
0.0
0
LINE
8
0
6
CONTINUOUS
10
0.021856
20
-0.027977
30
0.0
11
0.021988
21
-0.027184
31
0.0
0
LINE
8
0
6
CONTINUOUS
10
0.019068
20
-0.028065
30
0.0
11
0.020675
21
-0.028029
31
0.0
0
LINE
8
0
6
CONTINUOUS
10
0.015769
20
-0.028664
30
0.0
11
0.018044
21
-0.028664
31
0.0
0
LINE
8
0
6
CONTINUOUS
10
0.009266
20
-0.028667
30
0.0
11
0.012722
21
-0.028664
31
0.0
0
LINE
8
0
6
CONTINUOUS
10
0.020448
20
-0.028664
30
0.0
11
0.020646
21
-0.028664
31
0.0
0
LINE
8
0
6
CONTINUOUS
10
0.020646
20
-0.028664
30
0.0
11
0.021328
21
-0.028437
31
0.0
0
LINE
8
0
6
CONTINUOUS
10
0.019604
20
-0.028664
30
0.0
11
0.020448
21
-0.028664
31
0.0
0
LINE
8
0
6
CONTINUOUS
10
0.018044
20
-0.028664
30
0.0
11
0.019604
21
-0.028664
31
0.0
0
LINE
8
0
6
CONTINUOUS
10
0.021994
20
-0.008760
30
0.0
11
0.021958
21
0.008153
31
0.0
0
LINE
8
0
6
CONTINUOUS
10
0.019905
20
-0.029447
30
0.0
11
0.020027
21
-0.028748
31
0.0
0
LINE
8
0
6
CONTINUOUS
10
0.019726
20
-0.029330
30
0.0
11
0.019670
21
-0.030041
31
0.0
0
LINE
8
0
6
CONTINUOUS
10
0.019806
20
-0.030001
30
0.0
11
0.019905
21
-0.029447
31
0.0
0
LINE
8
0
6
CONTINUOUS
10
0.019609
20
-0.030638
30
0.0
11
0.019806
21
-0.030001
31
0.0
0
LINE
8
0
6
CONTINUOUS
10
0.019670
20
-0.030041
30
0.0
11
0.019609
21
-0.030638
31
0.0
0
LINE
8
0
6
CONTINUOUS
10
0.000000
20
-0.028715
30
0.0
11
0.004699
21
-0.028702
31
0.0
0
LINE
8
0
6
CONTINUOUS
10
0.004878
20
-0.028192
30
0.0
11
0.000000
21
-0.028205
31
0.0
0
LINE
8
0
6
CONTINUOUS
10
0.016699
20
-0.028105
30
0.0
11
0.013522
21
-0.028146
31
0.0
0
LINE
8
0
6
CONTINUOUS
10
0.009953
20
-0.032297
30
0.0
11
0.013442
21
-0.032137
31
0.0
0
LINE
8
0
6
CONTINUOUS
10
0.013442
20
-0.032137
30
0.0
11
0.016333
21
-0.031969
31
0.0
0
LINE
8
0
6
CONTINUOUS
10
0.016333
20
-0.031969
30
0.0
11
0.017774
21
-0.031726
31
0.0
0
LINE
8
0
6
CONTINUOUS
10
0.017774
20
-0.031726
30
0.0
11
0.018269
21
-0.031560
31
0.0
0
LINE
8
0
6
CONTINUOUS
10
0.018269
20
-0.031560
30
0.0
11
0.018761
21
-0.031328
31
0.0
0
LINE
8
0
6
CONTINUOUS
10
0.000000
20
-0.032499
30
0.0
11
0.003147
21
-0.032478
31
0.0
0
LINE
8
0
6
CONTINUOUS
10
0.003147
20
-0.032478
30
0.0
11
0.006622
21
-0.032408
31
0.0
0
LINE
8
0
6
CONTINUOUS
10
0.006622
20
-0.032408
30
0.0
11
0.009953
21
-0.032297
31
0.0
0
LINE
8
0
6
CONTINUOUS
10
0.021958
20
0.008153
30
0.0
11
0.021956
21
0.009025
31
0.0
0
LINE
8
0
6
CONTINUOUS
10
0.021956
20
0.009025
30
0.0
11
0.021266
21
0.009025
31
0.0
0
LINE
8
0
6
CONTINUOUS
10
0.021826
20
0.008355
30
0.0
11
0.021956
21
0.009025
31
0.0
0
LINE
8
0
6
CONTINUOUS
10
0.021009
20
0.007243
30
0.0
11
0.021826
21
0.008355
31
0.0
0
LINE
8
0
6
CONTINUOUS
10
0.009859
20
0.003382
30
0.0
11
0.013899
21
0.004131
31
0.0
0
LINE
8
0
6
CONTINUOUS
10
0.019457
20
0.006141
30
0.0
11
0.021009
21
0.007243
31
0.0
0
LINE
8
0
6
CONTINUOUS
10
0.017136
20
0.005053
30
0.0
11
0.019457
21
0.006141
31
0.0
0
LINE
8
0
6
CONTINUOUS
10
0.013899
20
0.004131
30
0.0
11
0.017136
21
0.005053
31
0.0
0
LINE
8
0
6
CONTINUOUS
10
-0.020321
20
0.009025
30
0.0
11
-0.021266
21
0.009025
31
0.0
0
LINE
8
0
6
CONTINUOUS
10
0.021266
20
0.009025
30
0.0
11
0.020321
21
0.009025
31
0.0
0
LINE
8
0
6
CONTINUOUS
10
-0.021856
20
-0.027977
30
0.0
11
-0.021328
21
-0.028437
31
0.0
0
LINE
8
0
6
CONTINUOUS
10
-0.021574
20
-0.027984
30
0.0
11
-0.021856
21
-0.027977
31
0.0
0
LINE
8
0
6
CONTINUOUS
10
0.021856
20
-0.027977
30
0.0
11
0.021574
21
-0.027984
31
0.0
0
LINE
8
0
6
CONTINUOUS
10
0.021328
20
-0.028437
30
0.0
11
0.021856
21
-0.027977
31
0.0
0
LINE
8
0
6
CONTINUOUS
10
0.056144
20
0.032499
30
0.0
11
0.052068
21
0.032499
31
0.0
0
LINE
8
0
6
CONTINUOUS
10
0.076873
20
0.032499
30
0.0
11
0.076171
21
0.032499
31
0.0
0
LINE
8
0
6
CONTINUOUS
10
0.074454
20
0.032499
30
0.0
11
0.073306
21
0.032499
31
0.0
0
LINE
8
0
6
CONTINUOUS
10
0.071798
20
0.032499
30
0.0
11
0.069697
21
0.032499
31
0.0
0
LINE
8
0
6
CONTINUOUS
10
0.077270
20
0.032499
30
0.0
11
0.076873
21
0.032499
31
0.0
0
LINE
8
0
6
CONTINUOUS
10
0.077500
20
0.032499
30
0.0
11
0.077270
21
0.032499
31
0.0
0
LINE
8
0
6
CONTINUOUS
10
0.077500
20
0.032123
30
0.0
11
0.077500
21
0.032499
31
0.0
0
LINE
8
0
6
CONTINUOUS
10
0.073306
20
0.032499
30
0.0
11
0.071798
21
0.032499
31
0.0
0
LINE
8
0
6
CONTINUOUS
10
0.040227
20
0.032499
30
0.0
11
0.029102
21
0.032499
31
0.0
0
LINE
8
0
6
CONTINUOUS
10
0.063759
20
0.032499
30
0.0
11
0.060091
21
0.032499
31
0.0
0
LINE
8
0
6
CONTINUOUS
10
0.067038
20
0.032499
30
0.0
11
0.063759
21
0.032499
31
0.0
0
LINE
8
0
6
CONTINUOUS
10
0.047903
20
0.032499
30
0.0
11
0.040227
21
0.032499
31
0.0
0
LINE
8
0
6
CONTINUOUS
10
0.077500
20
0.019499
30
0.0
11
0.077500
21
0.019875
31
0.0
0
LINE
8
0
6
CONTINUOUS
10
0.052068
20
0.032499
30
0.0
11
0.047903
21
0.032499
31
0.0
0
LINE
8
0
6
CONTINUOUS
10
0.075247
20
0.032499
30
0.0
11
0.074454
21
0.032499
31
0.0
0
LINE
8
0
6
CONTINUOUS
10
0.076171
20
0.032499
30
0.0
11
0.075247
21
0.032499
31
0.0
0
LINE
8
0
6
CONTINUOUS
10
0.029102
20
0.032499
30
0.0
11
0.016409
21
0.032499
31
0.0
0
LINE
8
0
6
CONTINUOUS
10
0.060091
20
0.032499
30
0.0
11
0.056144
21
0.032499
31
0.0
0
LINE
8
0
6
CONTINUOUS
10
0.069697
20
0.032499
30
0.0
11
0.067038
21
0.032499
31
0.0
0
LINE
8
0
6
CONTINUOUS
10
0.016409
20
0.032499
30
0.0
11
0.000000
21
0.032499
31
0.0
0
LINE
8
0
6
CONTINUOUS
10
0.068941
20
0.018499
30
0.0
11
0.070952
21
0.018499
31
0.0
0
LINE
8
0
6
CONTINUOUS
10
0.077500
20
0.019875
30
0.0
11
0.077500
21
0.032123
31
0.0
0
LINE
8
0
6
CONTINUOUS
10
0.070952
20
0.018499
30
0.0
11
0.072434
21
0.018499
31
0.0
0
LINE
8
0
6
CONTINUOUS
10
0.073009
20
0.018799
30
0.0
11
0.071521
21
0.018799
31
0.0
0
LINE
8
0
6
CONTINUOUS
10
0.072434
20
0.018499
30
0.0
11
0.073518
21
0.018499
31
0.0
0
LINE
8
0
6
CONTINUOUS
10
0.073518
20
0.018499
30
0.0
11
0.074407
21
0.018499
31
0.0
0
LINE
8
0
6
CONTINUOUS
10
0.075279
20
0.018499
30
0.0
11
0.075949
21
0.018499
31
0.0
0
LINE
8
0
6
CONTINUOUS
10
0.075949
20
0.018499
30
0.0
11
0.076291
21
0.018499
31
0.0
0
LINE
8
0
6
CONTINUOUS
10
0.076935
20
0.018799
30
0.0
11
0.076565
21
0.018799
31
0.0
0
LINE
8
0
6
CONTINUOUS
10
0.063070
20
0.018499
30
0.0
11
0.066330
21
0.018499
31
0.0
0
LINE
8
0
6
CONTINUOUS
10
0.069428
20
0.018799
30
0.0
11
0.071521
21
0.018799
31
0.0
0
LINE
8
0
6
CONTINUOUS
10
0.051544
20
0.018499
30
0.0
11
0.055563
21
0.018499
31
0.0
0
LINE
8
0
6
CONTINUOUS
10
0.047467
20
0.018499
30
0.0
11
0.051544
21
0.018499
31
0.0
0
LINE
8
0
6
CONTINUOUS
10
0.077200
20
0.018799
30
0.0
11
0.077500
21
0.019499
31
0.0
0
LINE
8
0
6
CONTINUOUS
10
0.063551
20
0.018799
30
0.0
11
0.066776
21
0.018799
31
0.0
0
LINE
8
0
6
CONTINUOUS
10
0.051888
20
0.018799
30
0.0
11
0.055946
21
0.018799
31
0.0
0
LINE
8
0
6
CONTINUOUS
10
0.000000
20
0.018499
30
0.0
11
0.016213
21
0.018499
31
0.0
0
LINE
8
0
6
CONTINUOUS
10
0.077200
20
0.018799
30
0.0
11
0.076935
21
0.018799
31
0.0
0
LINE
8
0
6
CONTINUOUS
10
0.076500
20
0.018499
30
0.0
11
0.077200
21
0.018799
31
0.0
0
LINE
8
0
6
CONTINUOUS
10
0.076291
20
0.018499
30
0.0
11
0.076500
21
0.018499
31
0.0
0
LINE
8
0
6
CONTINUOUS
10
0.059452
20
0.018499
30
0.0
11
0.063070
21
0.018499
31
0.0
0
LINE
8
0
6
CONTINUOUS
10
0.063551
20
0.018799
30
0.0
11
0.059870
21
0.018799
31
0.0
0
LINE
8
0
6
CONTINUOUS
10
0.073009
20
0.018799
30
0.0
11
0.074143
21
0.018799
31
0.0
0
LINE
8
0
6
CONTINUOUS
10
0.074143
20
0.018799
30
0.0
11
0.074923
21
0.018799
31
0.0
0
LINE
8
0
6
CONTINUOUS
10
0.075806
20
0.018799
30
0.0
11
0.076565
21
0.018799
31
0.0
0
LINE
8
0
6
CONTINUOUS
10
0.066330
20
0.018499
30
0.0
11
0.068941
21
0.018499
31
0.0
0
LINE
8
0
6
CONTINUOUS
10
0.069428
20
0.018799
30
0.0
11
0.066776
21
0.018799
31
0.0
0
LINE
8
0
6
CONTINUOUS
10
0.074407
20
0.018499
30
0.0
11
0.075279
21
0.018499
31
0.0
0
LINE
8
0
6
CONTINUOUS
10
0.075806
20
0.018799
30
0.0
11
0.074923
21
0.018799
31
0.0
0
LINE
8
0
6
CONTINUOUS
10
0.059870
20
0.018799
30
0.0
11
0.055946
21
0.018799
31
0.0
0
LINE
8
0
6
CONTINUOUS
10
0.055563
20
0.018499
30
0.0
11
0.059452
21
0.018499
31
0.0
0
LINE
8
0
6
CONTINUOUS
10
0.039822
20
0.018499
30
0.0
11
0.047467
21
0.018499
31
0.0
0
LINE
8
0
6
CONTINUOUS
10
0.040025
20
0.018799
30
0.0
11
0.028962
21
0.018799
31
0.0
0
LINE
8
0
6
CONTINUOUS
10
0.028654
20
0.018499
30
0.0
11
0.039822
21
0.018499
31
0.0
0
LINE
8
0
6
CONTINUOUS
10
0.028962
20
0.018799
30
0.0
11
0.016353
21
0.018799
31
0.0
0
LINE
8
0
6
CONTINUOUS
10
0.016213
20
0.018499
30
0.0
11
0.028654
21
0.018499
31
0.0
0
LINE
8
0
6
CONTINUOUS
10
0.047743
20
0.018799
30
0.0
11
0.051888
21
0.018799
31
0.0
0
LINE
8
0
6
CONTINUOUS
10
0.000000
20
0.018799
30
0.0
11
0.016353
21
0.018799
31
0.0
0
LINE
8
0
6
CONTINUOUS
10
-0.052068
20
0.032499
30
0.0
11
-0.056144
21
0.032499
31
0.0
0
LINE
8
0
6
CONTINUOUS
10
-0.076171
20
0.032499
30
0.0
11
-0.076873
21
0.032499
31
0.0
0
LINE
8
0
6
CONTINUOUS
10
-0.073306
20
0.032499
30
0.0
11
-0.074454
21
0.032499
31
0.0
0
LINE
8
0
6
CONTINUOUS
10
-0.069697
20
0.032499
30
0.0
11
-0.071798
21
0.032499
31
0.0
0
LINE
8
0
6
CONTINUOUS
10
-0.076873
20
0.032499
30
0.0
11
-0.077270
21
0.032499
31
0.0
0
LINE
8
0
6
CONTINUOUS
10
-0.077500
20
0.032499
30
0.0
11
-0.077500
21
0.032123
31
0.0
0
LINE
8
0
6
CONTINUOUS
10
-0.077270
20
0.032499
30
0.0
11
-0.077500
21
0.032499
31
0.0
0
LINE
8
0
6
CONTINUOUS
10
-0.071798
20
0.032499
30
0.0
11
-0.073306
21
0.032499
31
0.0
0
LINE
8
0
6
CONTINUOUS
10
-0.029102
20
0.032499
30
0.0
11
-0.040227
21
0.032499
31
0.0
0
LINE
8
0
6
CONTINUOUS
10
-0.060091
20
0.032499
30
0.0
11
-0.063759
21
0.032499
31
0.0
0
LINE
8
0
6
CONTINUOUS
10
-0.063759
20
0.032499
30
0.0
11
-0.067038
21
0.032499
31
0.0
0
LINE
8
0
6
CONTINUOUS
10
-0.040227
20
0.032499
30
0.0
11
-0.047903
21
0.032499
31
0.0
0
LINE
8
0
6
CONTINUOUS
10
-0.077500
20
0.019875
30
0.0
11
-0.077500
21
0.019499
31
0.0
0
LINE
8
0
6
CONTINUOUS
10
-0.047903
20
0.032499
30
0.0
11
-0.052068
21
0.032499
31
0.0
0
LINE
8
0
6
CONTINUOUS
10
-0.074454
20
0.032499
30
0.0
11
-0.075247
21
0.032499
31
0.0
0
LINE
8
0
6
CONTINUOUS
10
-0.075247
20
0.032499
30
0.0
11
-0.076171
21
0.032499
31
0.0
0
LINE
8
0
6
CONTINUOUS
10
-0.016409
20
0.032499
30
0.0
11
-0.029102
21
0.032499
31
0.0
0
LINE
8
0
6
CONTINUOUS
10
-0.056144
20
0.032499
30
0.0
11
-0.060091
21
0.032499
31
0.0
0
LINE
8
0
6
CONTINUOUS
10
-0.067038
20
0.032499
30
0.0
11
-0.069697
21
0.032499
31
0.0
0
LINE
8
0
6
CONTINUOUS
10
0.000000
20
0.032499
30
0.0
11
-0.016409
21
0.032499
31
0.0
0
LINE
8
0
6
CONTINUOUS
10
-0.070952
20
0.018499
30
0.0
11
-0.068941
21
0.018499
31
0.0
0
LINE
8
0
6
CONTINUOUS
10
-0.077500
20
0.032123
30
0.0
11
-0.077500
21
0.019875
31
0.0
0
LINE
8
0
6
CONTINUOUS
10
-0.071521
20
0.018799
30
0.0
11
-0.073009
21
0.018799
31
0.0
0
LINE
8
0
6
CONTINUOUS
10
-0.072434
20
0.018499
30
0.0
11
-0.070952
21
0.018499
31
0.0
0
LINE
8
0
6
CONTINUOUS
10
-0.073518
20
0.018499
30
0.0
11
-0.072434
21
0.018499
31
0.0
0
LINE
8
0
6
CONTINUOUS
10
-0.074407
20
0.018499
30
0.0
11
-0.073518
21
0.018499
31
0.0
0
LINE
8
0
6
CONTINUOUS
10
-0.075949
20
0.018499
30
0.0
11
-0.075279
21
0.018499
31
0.0
0
LINE
8
0
6
CONTINUOUS
10
-0.076565
20
0.018799
30
0.0
11
-0.076935
21
0.018799
31
0.0
0
LINE
8
0
6
CONTINUOUS
10
-0.076291
20
0.018499
30
0.0
11
-0.075949
21
0.018499
31
0.0
0
LINE
8
0
6
CONTINUOUS
10
-0.066330
20
0.018499
30
0.0
11
-0.063070
21
0.018499
31
0.0
0
LINE
8
0
6
CONTINUOUS
10
-0.071521
20
0.018799
30
0.0
11
-0.069428
21
0.018799
31
0.0
0
LINE
8
0
6
CONTINUOUS
10
-0.055563
20
0.018499
30
0.0
11
-0.051544
21
0.018499
31
0.0
0
LINE
8
0
6
CONTINUOUS
10
-0.051544
20
0.018499
30
0.0
11
-0.047467
21
0.018499
31
0.0
0
LINE
8
0
6
CONTINUOUS
10
-0.077500
20
0.019499
30
0.0
11
-0.077200
21
0.018799
31
0.0
0
LINE
8
0
6
CONTINUOUS
10
-0.066776
20
0.018799
30
0.0
11
-0.063551
21
0.018799
31
0.0
0
LINE
8
0
6
CONTINUOUS
10
-0.055946
20
0.018799
30
0.0
11
-0.051888
21
0.018799
31
0.0
0
LINE
8
0
6
CONTINUOUS
10
-0.016213
20
0.018499
30
0.0
11
0.000000
21
0.018499
31
0.0
0
LINE
8
0
6
CONTINUOUS
10
-0.076500
20
0.018499
30
0.0
11
-0.076291
21
0.018499
31
0.0
0
LINE
8
0
6
CONTINUOUS
10
-0.077200
20
0.018799
30
0.0
11
-0.076500
21
0.018499
31
0.0
0
LINE
8
0
6
CONTINUOUS
10
-0.076935
20
0.018799
30
0.0
11
-0.077200
21
0.018799
31
0.0
0
LINE
8
0
6
CONTINUOUS
10
-0.059870
20
0.018799
30
0.0
11
-0.063551
21
0.018799
31
0.0
0
LINE
8
0
6
CONTINUOUS
10
-0.063070
20
0.018499
30
0.0
11
-0.059452
21
0.018499
31
0.0
0
LINE
8
0
6
CONTINUOUS
10
-0.074143
20
0.018799
30
0.0
11
-0.073009
21
0.018799
31
0.0
0
LINE
8
0
6
CONTINUOUS
10
-0.074923
20
0.018799
30
0.0
11
-0.074143
21
0.018799
31
0.0
0
LINE
8
0
6
CONTINUOUS
10
-0.076565
20
0.018799
30
0.0
11
-0.075806
21
0.018799
31
0.0
0
LINE
8
0
6
CONTINUOUS
10
-0.066776
20
0.018799
30
0.0
11
-0.069428
21
0.018799
31
0.0
0
LINE
8
0
6
CONTINUOUS
10
-0.068941
20
0.018499
30
0.0
11
-0.066330
21
0.018499
31
0.0
0
LINE
8
0
6
CONTINUOUS
10
-0.074923
20
0.018799
30
0.0
11
-0.075806
21
0.018799
31
0.0
0
LINE
8
0
6
CONTINUOUS
10
-0.075279
20
0.018499
30
0.0
11
-0.074407
21
0.018499
31
0.0
0
LINE
8
0
6
CONTINUOUS
10
-0.059452
20
0.018499
30
0.0
11
-0.055563
21
0.018499
31
0.0
0
LINE
8
0
6
CONTINUOUS
10
-0.055946
20
0.018799
30
0.0
11
-0.059870
21
0.018799
31
0.0
0
LINE
8
0
6
CONTINUOUS
10
-0.047467
20
0.018499
30
0.0
11
-0.039822
21
0.018499
31
0.0
0
LINE
8
0
6
CONTINUOUS
10
-0.039822
20
0.018499
30
0.0
11
-0.028654
21
0.018499
31
0.0
0
LINE
8
0
6
CONTINUOUS
10
-0.028962
20
0.018799
30
0.0
11
-0.040025
21
0.018799
31
0.0
0
LINE
8
0
6
CONTINUOUS
10
-0.028654
20
0.018499
30
0.0
11
-0.016213
21
0.018499
31
0.0
0
LINE
8
0
6
CONTINUOUS
10
-0.016353
20
0.018799
30
0.0
11
-0.028962
21
0.018799
31
0.0
0
LINE
8
0
6
CONTINUOUS
10
-0.051888
20
0.018799
30
0.0
11
-0.047743
21
0.018799
31
0.0
0
LINE
8
0
6
CONTINUOUS
10
-0.016353
20
0.018799
30
0.0
11
0.000000
21
0.018799
31
0.0
0
LINE
8
0
6
CONTINUOUS
10
0.018751
20
0.007370
30
0.0
11
0.018019
21
0.006791
31
0.0
0
LINE
8
0
6
CONTINUOUS
10
0.015929
20
0.005791
30
0.0
11
0.013368
21
0.005048
31
0.0
0
LINE
8
0
6
CONTINUOUS
10
0.015988
20
0.005809
30
0.0
11
0.015929
21
0.005791
31
0.0
0
ENDSEC
0
EOF
