999
unknown String-ID: 20550
0
SECTION
2
HEADER
9
$ACADVER
1
AC1009
9
$DWGCODEPAGE
3
unknown String-ID: 20561
0
ENDSEC
0
SECTION
2
TABLES
0
TABLE
2
LAYER
70
1
0
LAYER
2
0
70
0
62
7
6
CONTINUOUS
0
ENDTAB
0
ENDSEC
0
SECTION
2
ENTITIES
0
LINE
8
0
6
CONTINUOUS
10
-0.007060
20
0.028822
30
0.0
11
-0.007052
21
0.050802
31
0.0
0
LINE
8
0
6
CONTINUOUS
10
-0.007128
20
0.079185
30
0.0
11
-0.007206
21
0.086456
31
0.0
0
LINE
8
0
6
CONTINUOUS
10
-0.007206
20
0.086456
30
0.0
11
-0.007125
21
0.091362
31
0.0
0
LINE
8
0
6
CONTINUOUS
10
-0.007089
20
0.094764
30
0.0
11
-0.007056
21
0.096987
31
0.0
0
LINE
8
0
6
CONTINUOUS
10
-0.007091
20
0.098163
30
0.0
11
-0.007038
21
0.099285
31
0.0
0
LINE
8
0
6
CONTINUOUS
10
-0.007127
20
0.070147
30
0.0
11
-0.007128
21
0.079185
31
0.0
0
LINE
8
0
6
CONTINUOUS
10
-0.007052
20
0.050802
30
0.0
11
-0.007127
21
0.070147
31
0.0
0
LINE
8
0
6
CONTINUOUS
10
-0.007038
20
0.099285
30
0.0
11
-0.007005
21
0.100129
31
0.0
0
LINE
8
0
6
CONTINUOUS
10
-0.007056
20
0.096987
30
0.0
11
-0.007091
21
0.098163
31
0.0
0
LINE
8
0
6
CONTINUOUS
10
-0.007125
20
0.091362
30
0.0
11
-0.007089
21
0.094764
31
0.0
0
LINE
8
0
6
CONTINUOUS
10
-0.007052
20
-0.125853
30
0.0
11
-0.007060
21
0.028822
31
0.0
0
LINE
8
0
6
CONTINUOUS
10
-0.003027
20
0.100861
30
0.0
11
-0.005300
21
0.109354
31
0.0
0
LINE
8
0
6
CONTINUOUS
10
-0.005306
20
0.092369
30
0.0
11
-0.003027
21
0.100861
31
0.0
0
LINE
8
0
6
CONTINUOUS
10
-0.007138
20
0.090538
30
0.0
11
-0.005306
21
0.092369
31
0.0
0
LINE
8
0
6
CONTINUOUS
10
-0.005300
20
0.109354
30
0.0
11
-0.011515
21
0.115574
31
0.0
0
LINE
8
0
6
CONTINUOUS
10
-0.011515
20
0.115574
30
0.0
11
-0.020007
21
0.117852
31
0.0
0
LINE
8
0
6
CONTINUOUS
10
-0.007052
20
-0.127004
30
0.0
11
-0.007052
21
-0.125853
31
0.0
0
LINE
8
0
6
CONTINUOUS
10
-0.032974
20
0.050802
30
0.0
11
-0.032965
21
0.028822
31
0.0
0
LINE
8
0
6
CONTINUOUS
10
-0.020013
20
0.103097
30
0.0
11
-0.020013
21
0.107338
31
0.0
0
LINE
8
0
6
CONTINUOUS
10
-0.032820
20
0.086456
30
0.0
11
-0.032898
21
0.079185
31
0.0
0
LINE
8
0
6
CONTINUOUS
10
-0.032901
20
0.091362
30
0.0
11
-0.032820
21
0.086456
31
0.0
0
LINE
8
0
6
CONTINUOUS
10
-0.020013
20
0.107338
30
0.0
11
-0.020013
21
0.110080
31
0.0
0
LINE
8
0
6
CONTINUOUS
10
-0.032970
20
0.096987
30
0.0
11
-0.032938
21
0.094764
31
0.0
0
LINE
8
0
6
CONTINUOUS
10
-0.032988
20
0.099285
30
0.0
11
-0.032935
21
0.098163
31
0.0
0
LINE
8
0
6
CONTINUOUS
10
-0.020013
20
0.053934
30
0.0
11
-0.020013
21
0.077488
31
0.0
0
LINE
8
0
6
CONTINUOUS
10
-0.032898
20
0.079185
30
0.0
11
-0.032898
21
0.070147
31
0.0
0
LINE
8
0
6
CONTINUOUS
10
-0.032898
20
0.070147
30
0.0
11
-0.032974
21
0.050802
31
0.0
0
LINE
8
0
6
CONTINUOUS
10
-0.020013
20
0.077488
30
0.0
11
-0.020013
21
0.088416
31
0.0
0
LINE
8
0
6
CONTINUOUS
10
-0.033021
20
0.100129
30
0.0
11
-0.032988
21
0.099285
31
0.0
0
LINE
8
0
6
CONTINUOUS
10
-0.020013
20
0.110080
30
0.0
11
-0.020013
21
0.111812
31
0.0
0
LINE
8
0
6
CONTINUOUS
10
-0.032935
20
0.098163
30
0.0
11
-0.032970
21
0.096987
31
0.0
0
LINE
8
0
6
CONTINUOUS
10
-0.032938
20
0.094764
30
0.0
11
-0.032901
21
0.091362
31
0.0
0
LINE
8
0
6
CONTINUOUS
10
-0.020013
20
0.097463
30
0.0
11
-0.020013
21
0.103097
31
0.0
0
LINE
8
0
6
CONTINUOUS
10
-0.020013
20
0.113926
30
0.0
11
-0.020013
21
0.114978
31
0.0
0
LINE
8
0
6
CONTINUOUS
10
-0.020013
20
0.088416
30
0.0
11
-0.020013
21
0.097463
31
0.0
0
LINE
8
0
6
CONTINUOUS
10
-0.020013
20
0.112961
30
0.0
11
-0.020013
21
0.113926
31
0.0
0
LINE
8
0
6
CONTINUOUS
10
-0.032965
20
0.028822
30
0.0
11
-0.032973
21
-0.125853
31
0.0
0
LINE
8
0
6
CONTINUOUS
10
-0.020013
20
-0.122716
30
0.0
11
-0.020013
21
0.032215
31
0.0
0
LINE
8
0
6
CONTINUOUS
10
-0.034720
20
0.109364
30
0.0
11
-0.036999
21
0.100872
31
0.0
0
LINE
8
0
6
CONTINUOUS
10
-0.036999
20
0.100872
30
0.0
11
-0.034726
21
0.092379
31
0.0
0
LINE
8
0
6
CONTINUOUS
10
-0.034726
20
0.092379
30
0.0
11
-0.032888
21
0.090539
31
0.0
0
LINE
8
0
6
CONTINUOUS
10
-0.028501
20
0.115579
30
0.0
11
-0.034720
21
0.109364
31
0.0
0
LINE
8
0
6
CONTINUOUS
10
-0.020013
20
0.114978
30
0.0
11
-0.020013
21
0.116207
31
0.0
0
LINE
8
0
6
CONTINUOUS
10
-0.020007
20
0.117852
30
0.0
11
-0.028501
21
0.115579
31
0.0
0
LINE
8
0
6
CONTINUOUS
10
-0.032973
20
-0.125853
30
0.0
11
-0.032973
21
-0.127004
31
0.0
0
LINE
8
0
6
CONTINUOUS
10
-0.020013
20
-0.123867
30
0.0
11
-0.020013
21
-0.122716
31
0.0
0
LINE
8
0
6
CONTINUOUS
10
-0.013388
20
-0.129577
30
0.0
11
-0.008737
21
-0.128481
31
0.0
0
LINE
8
0
6
CONTINUOUS
10
-0.007052
20
-0.127004
30
0.0
11
-0.008749
21
-0.125496
31
0.0
0
LINE
8
0
6
CONTINUOUS
10
-0.008749
20
-0.125496
30
0.0
11
-0.013416
21
-0.124364
31
0.0
0
LINE
8
0
6
CONTINUOUS
10
-0.008737
20
-0.128481
30
0.0
11
-0.007052
21
-0.127004
31
0.0
0
LINE
8
0
6
CONTINUOUS
10
-0.020013
20
-0.130080
30
0.0
11
-0.013388
21
-0.129577
31
0.0
0
LINE
8
0
6
CONTINUOUS
10
-0.013416
20
-0.124364
30
0.0
11
-0.020013
21
-0.123867
31
0.0
0
LINE
8
0
6
CONTINUOUS
10
-0.031288
20
-0.128481
30
0.0
11
-0.026638
21
-0.129577
31
0.0
0
LINE
8
0
6
CONTINUOUS
10
-0.031276
20
-0.125496
30
0.0
11
-0.032973
21
-0.127004
31
0.0
0
LINE
8
0
6
CONTINUOUS
10
-0.026609
20
-0.124364
30
0.0
11
-0.031276
21
-0.125496
31
0.0
0
LINE
8
0
6
CONTINUOUS
10
-0.032973
20
-0.127004
30
0.0
11
-0.031288
21
-0.128481
31
0.0
0
LINE
8
0
6
CONTINUOUS
10
-0.026638
20
-0.129577
30
0.0
11
-0.020013
21
-0.130080
31
0.0
0
LINE
8
0
6
CONTINUOUS
10
-0.020013
20
-0.123867
30
0.0
11
-0.026609
21
-0.124364
31
0.0
0
LINE
8
0
6
CONTINUOUS
10
-0.009659
20
0.124735
30
0.0
11
-0.014851
21
0.125055
31
0.0
0
LINE
8
0
6
CONTINUOUS
10
-0.006465
20
0.124584
30
0.0
11
-0.008716
21
0.124932
31
0.0
0
LINE
8
0
6
CONTINUOUS
10
-0.001533
20
0.120484
30
0.0
11
-0.001969
21
0.119403
31
0.0
0
LINE
8
0
6
CONTINUOUS
10
-0.008716
20
0.124932
30
0.0
11
-0.013017
21
0.125433
31
0.0
0
LINE
8
0
6
CONTINUOUS
10
-0.005770
20
0.124551
30
0.0
11
-0.006998
21
0.124934
31
0.0
0
LINE
8
0
6
CONTINUOUS
10
-0.015744
20
0.117369
30
0.0
11
-0.020218
21
0.117851
31
0.0
0
LINE
8
0
6
CONTINUOUS
10
-0.011658
20
0.115745
30
0.0
11
-0.015744
21
0.117369
31
0.0
0
LINE
8
0
6
CONTINUOUS
10
-0.008029
20
0.112991
30
0.0
11
-0.011658
21
0.115745
31
0.0
0
LINE
8
0
6
CONTINUOUS
10
-0.005338
20
0.109424
30
0.0
11
-0.008029
21
0.112991
31
0.0
0
LINE
8
0
6
CONTINUOUS
10
-0.003717
20
0.105306
30
0.0
11
-0.005338
21
0.109424
31
0.0
0
LINE
8
0
6
CONTINUOUS
10
-0.003240
20
0.100867
30
0.0
11
-0.003717
21
0.105306
31
0.0
0
LINE
8
0
6
CONTINUOUS
10
0.030242
20
0.122853
30
0.0
11
0.029684
21
0.122880
31
0.0
0
LINE
8
0
6
CONTINUOUS
10
0.024961
20
0.106520
30
0.0
11
0.024790
21
0.100867
31
0.0
0
LINE
8
0
6
CONTINUOUS
10
0.025500
20
0.111843
30
0.0
11
0.024961
21
0.106520
31
0.0
0
LINE
8
0
6
CONTINUOUS
10
0.026365
20
0.116419
30
0.0
11
0.025500
21
0.111843
31
0.0
0
LINE
8
0
6
CONTINUOUS
10
0.027501
20
0.119921
30
0.0
11
0.026365
21
0.116419
31
0.0
0
LINE
8
0
6
CONTINUOUS
10
0.028826
20
0.122109
30
0.0
11
0.027501
21
0.119921
31
0.0
0
LINE
8
0
6
CONTINUOUS
10
0.030242
20
0.122853
30
0.0
11
0.028826
21
0.122109
31
0.0
0
LINE
8
0
6
CONTINUOUS
10
0.031654
20
0.122112
30
0.0
11
0.030242
21
0.122853
31
0.0
0
LINE
8
0
6
CONTINUOUS
10
0.032477
20
0.120799
30
0.0
11
0.031654
21
0.122112
31
0.0
0
LINE
8
0
6
CONTINUOUS
10
0.029684
20
0.122880
30
0.0
11
-0.009659
21
0.124735
31
0.0
0
LINE
8
0
6
CONTINUOUS
10
-0.027419
20
0.129966
30
0.0
11
-0.034538
21
0.129285
31
0.0
0
LINE
8
0
6
CONTINUOUS
10
-0.046659
20
0.120705
30
0.0
11
-0.047454
21
0.117103
31
0.0
0
LINE
8
0
6
CONTINUOUS
10
-0.050663
20
0.115985
30
0.0
11
-0.055555
21
0.115809
31
0.0
0
LINE
8
0
6
CONTINUOUS
10
-0.020218
20
0.117851
30
0.0
11
-0.024282
21
0.117369
31
0.0
0
LINE
8
0
6
CONTINUOUS
10
-0.024282
20
0.117369
30
0.0
11
-0.028369
21
0.115745
31
0.0
0
LINE
8
0
6
CONTINUOUS
10
-0.030183
20
0.114368
30
0.0
11
-0.031997
21
0.112991
31
0.0
0
LINE
8
0
6
CONTINUOUS
10
-0.031997
20
0.112991
30
0.0
11
-0.034688
21
0.109424
31
0.0
0
LINE
8
0
6
CONTINUOUS
10
-0.034688
20
0.109424
30
0.0
11
-0.036309
21
0.105306
31
0.0
0
LINE
8
0
6
CONTINUOUS
10
-0.036309
20
0.105306
30
0.0
11
-0.036786
21
0.100867
31
0.0
0
LINE
8
0
6
CONTINUOUS
10
-0.043939
20
0.125047
30
0.0
11
-0.046659
21
0.120705
31
0.0
0
LINE
8
0
6
CONTINUOUS
10
-0.041649
20
0.122742
30
0.0
11
-0.044504
21
0.118921
31
0.0
0
LINE
8
0
6
CONTINUOUS
10
-0.040948
20
0.122036
30
0.0
11
-0.042776
21
0.120723
31
0.0
0
LINE
8
0
6
CONTINUOUS
10
-0.055555
20
0.115809
30
0.0
11
-0.057608
21
0.115273
31
0.0
0
LINE
8
0
6
CONTINUOUS
10
-0.045832
20
0.117668
30
0.0
11
-0.050663
21
0.115985
31
0.0
0
LINE
8
0
6
CONTINUOUS
10
-0.044088
20
0.119511
30
0.0
11
-0.045960
21
0.117671
31
0.0
0
LINE
8
0
6
CONTINUOUS
10
-0.042776
20
0.120723
30
0.0
11
-0.044088
21
0.119511
31
0.0
0
LINE
8
0
6
CONTINUOUS
10
-0.041298
20
0.122389
30
0.0
11
-0.044088
21
0.119511
31
0.0
0
LINE
8
0
6
CONTINUOUS
10
-0.020161
20
0.130080
30
0.0
11
-0.027419
21
0.129966
31
0.0
0
LINE
8
0
6
CONTINUOUS
10
-0.030183
20
0.114368
30
0.0
11
-0.028369
21
0.115745
31
0.0
0
LINE
8
0
6
CONTINUOUS
10
-0.012542
20
0.129966
30
0.0
11
-0.020161
21
0.130080
31
0.0
0
LINE
8
0
6
CONTINUOUS
10
0.003978
20
0.125047
30
0.0
11
-0.000174
21
0.127561
31
0.0
0
LINE
8
0
6
CONTINUOUS
10
-0.005422
20
0.129285
30
0.0
11
-0.012542
21
0.129966
31
0.0
0
LINE
8
0
6
CONTINUOUS
10
0.004595
20
0.124063
30
0.0
11
0.003978
21
0.125047
31
0.0
0
LINE
8
0
6
CONTINUOUS
10
-0.000174
20
0.127561
30
0.0
11
-0.005422
21
0.129285
31
0.0
0
LINE
8
0
6
CONTINUOUS
10
-0.034538
20
0.129285
30
0.0
11
-0.039787
21
0.127561
31
0.0
0
LINE
8
0
6
CONTINUOUS
10
-0.039787
20
0.127561
30
0.0
11
-0.043939
21
0.125047
31
0.0
0
LINE
8
0
6
CONTINUOUS
10
-0.007128
20
0.077047
30
0.0
11
-0.006465
21
0.077149
31
0.0
0
LINE
8
0
6
CONTINUOUS
10
-0.001969
20
0.082330
30
0.0
11
-0.001533
21
0.081249
31
0.0
0
LINE
8
0
6
CONTINUOUS
10
-0.006998
20
0.076799
30
0.0
11
-0.005770
21
0.077182
31
0.0
0
LINE
8
0
6
CONTINUOUS
10
-0.007149
20
0.089908
30
0.0
11
-0.005338
21
0.092309
31
0.0
0
LINE
8
0
6
CONTINUOUS
10
-0.005338
20
0.092309
30
0.0
11
-0.003717
21
0.096427
31
0.0
0
LINE
8
0
6
CONTINUOUS
10
-0.003717
20
0.096427
30
0.0
11
-0.003240
21
0.100867
31
0.0
0
LINE
8
0
6
CONTINUOUS
10
0.029684
20
0.078854
30
0.0
11
0.030242
21
0.078880
31
0.0
0
LINE
8
0
6
CONTINUOUS
10
0.024790
20
0.100867
30
0.0
11
0.024961
21
0.095214
31
0.0
0
LINE
8
0
6
CONTINUOUS
10
0.024961
20
0.095214
30
0.0
11
0.025500
21
0.089890
31
0.0
0
LINE
8
0
6
CONTINUOUS
10
0.025500
20
0.089890
30
0.0
11
0.026365
21
0.085314
31
0.0
0
LINE
8
0
6
CONTINUOUS
10
0.026365
20
0.085314
30
0.0
11
0.027501
21
0.081812
31
0.0
0
LINE
8
0
6
CONTINUOUS
10
0.027501
20
0.081812
30
0.0
11
0.028826
21
0.079624
31
0.0
0
LINE
8
0
6
CONTINUOUS
10
0.028826
20
0.079624
30
0.0
11
0.030242
21
0.078880
31
0.0
0
LINE
8
0
6
CONTINUOUS
10
0.030242
20
0.078880
30
0.0
11
0.031654
21
0.079621
31
0.0
0
LINE
8
0
6
CONTINUOUS
10
-0.007128
20
0.077118
30
0.0
11
0.029684
21
0.078854
31
0.0
0
LINE
8
0
6
CONTINUOUS
10
-0.034538
20
0.072448
30
0.0
11
-0.032898
21
0.072291
31
0.0
0
LINE
8
0
6
CONTINUOUS
10
-0.047454
20
0.084630
30
0.0
11
-0.046659
21
0.081028
31
0.0
0
LINE
8
0
6
CONTINUOUS
10
-0.055555
20
0.085924
30
0.0
11
-0.050663
21
0.085748
31
0.0
0
LINE
8
0
6
CONTINUOUS
10
-0.034688
20
0.092309
30
0.0
11
-0.032877
21
0.089908
31
0.0
0
LINE
8
0
6
CONTINUOUS
10
-0.036309
20
0.096427
30
0.0
11
-0.034688
21
0.092309
31
0.0
0
LINE
8
0
6
CONTINUOUS
10
-0.036786
20
0.100867
30
0.0
11
-0.036309
21
0.096427
31
0.0
0
LINE
8
0
6
CONTINUOUS
10
-0.046659
20
0.081028
30
0.0
11
-0.043939
21
0.076686
31
0.0
0
LINE
8
0
6
CONTINUOUS
10
-0.044504
20
0.082812
30
0.0
11
-0.041649
21
0.078991
31
0.0
0
LINE
8
0
6
CONTINUOUS
10
-0.042776
20
0.081010
30
0.0
11
-0.040947
21
0.079697
31
0.0
0
LINE
8
0
6
CONTINUOUS
10
-0.057608
20
0.086460
30
0.0
11
-0.055555
21
0.085924
31
0.0
0
LINE
8
0
6
CONTINUOUS
10
-0.050663
20
0.085748
30
0.0
11
-0.045832
21
0.084065
31
0.0
0
LINE
8
0
6
CONTINUOUS
10
-0.045960
20
0.084062
30
0.0
11
-0.044088
21
0.082222
31
0.0
0
LINE
8
0
6
CONTINUOUS
10
-0.044088
20
0.082222
30
0.0
11
-0.042776
21
0.081010
31
0.0
0
LINE
8
0
6
CONTINUOUS
10
-0.044088
20
0.082222
30
0.0
11
-0.041298
21
0.079344
31
0.0
0
LINE
8
0
6
CONTINUOUS
10
-0.000174
20
0.074172
30
0.0
11
0.003978
21
0.076686
31
0.0
0
LINE
8
0
6
CONTINUOUS
10
-0.007128
20
0.072285
30
0.0
11
-0.005422
21
0.072448
31
0.0
0
LINE
8
0
6
CONTINUOUS
10
0.003978
20
0.076686
30
0.0
11
0.004595
21
0.077671
31
0.0
0
LINE
8
0
6
CONTINUOUS
10
-0.005422
20
0.072448
30
0.0
11
-0.000174
21
0.074172
31
0.0
0
LINE
8
0
6
CONTINUOUS
10
-0.039786
20
0.074172
30
0.0
11
-0.034538
21
0.072448
31
0.0
0
LINE
8
0
6
CONTINUOUS
10
-0.043939
20
0.076686
30
0.0
11
-0.039786
21
0.074172
31
0.0
0
LINE
8
0
6
CONTINUOUS
10
-0.057608
20
0.115273
30
0.0
11
-0.058889
21
0.115273
31
0.0
0
LINE
8
0
6
CONTINUOUS
10
-0.058889
20
0.086460
30
0.0
11
-0.057608
21
0.086460
31
0.0
0
LINE
8
0
6
CONTINUOUS
10
0.061274
20
0.122427
30
0.0
11
0.060702
21
0.122428
31
0.0
0
LINE
8
0
6
CONTINUOUS
10
0.049905
20
0.122461
30
0.0
11
0.039056
21
0.122460
31
0.0
0
LINE
8
0
6
CONTINUOUS
10
0.055703
20
0.122462
30
0.0
11
0.053771
21
0.122462
31
0.0
0
LINE
8
0
6
CONTINUOUS
10
0.064268
20
0.041322
30
0.0
11
0.064394
21
0.039504
31
0.0
0
LINE
8
0
6
CONTINUOUS
10
0.062085
20
0.064570
30
0.0
11
0.062280
21
0.063068
31
0.0
0
LINE
8
0
6
CONTINUOUS
10
0.089971
20
0.029195
30
0.0
11
0.089821
21
0.029844
31
0.0
0
LINE
8
0
6
CONTINUOUS
10
0.054787
20
0.107937
30
0.0
11
0.054986
21
0.102675
31
0.0
0
LINE
8
0
6
CONTINUOUS
10
0.055720
20
0.113229
30
0.0
11
0.057133
21
0.103143
31
0.0
0
LINE
8
0
6
CONTINUOUS
10
0.057133
20
0.103143
30
0.0
11
0.058380
21
0.093118
31
0.0
0
LINE
8
0
6
CONTINUOUS
10
0.058380
20
0.093118
30
0.0
11
0.059679
21
0.083102
31
0.0
0
LINE
8
0
6
CONTINUOUS
10
0.059679
20
0.083102
30
0.0
11
0.060979
21
0.073084
31
0.0
0
LINE
8
0
6
CONTINUOUS
10
0.051838
20
0.122462
30
0.0
11
0.049905
21
0.122461
31
0.0
0
LINE
8
0
6
CONTINUOUS
10
0.053771
20
0.122462
30
0.0
11
0.051838
21
0.122462
31
0.0
0
LINE
8
0
6
CONTINUOUS
10
0.064394
20
0.039504
30
0.0
11
0.072364
21
0.027388
31
0.0
0
LINE
8
0
6
CONTINUOUS
10
0.062464
20
0.061239
30
0.0
11
0.064268
21
0.041322
31
0.0
0
LINE
8
0
6
CONTINUOUS
10
0.062280
20
0.063068
30
0.0
11
0.062464
21
0.061239
31
0.0
0
LINE
8
0
6
CONTINUOUS
10
0.063597
20
0.037832
30
0.0
11
0.063954
21
0.036249
31
0.0
0
LINE
8
0
6
CONTINUOUS
10
0.056296
20
0.079766
30
0.0
11
0.057319
21
0.073902
31
0.0
0
LINE
8
0
6
CONTINUOUS
10
0.060393
20
0.056214
30
0.0
11
0.060646
21
0.054743
31
0.0
0
LINE
8
0
6
CONTINUOUS
10
0.060238
20
0.057098
30
0.0
11
0.060393
21
0.056214
31
0.0
0
LINE
8
0
6
CONTINUOUS
10
0.057319
20
0.073902
30
0.0
11
0.058340
21
0.068005
31
0.0
0
LINE
8
0
6
CONTINUOUS
10
0.058340
20
0.068005
30
0.0
11
0.059360
21
0.062108
31
0.0
0
LINE
8
0
6
CONTINUOUS
10
0.060646
20
0.054743
30
0.0
11
0.063597
21
0.037832
31
0.0
0
LINE
8
0
6
CONTINUOUS
10
0.060979
20
0.073084
30
0.0
11
0.062085
21
0.064570
31
0.0
0
LINE
8
0
6
CONTINUOUS
10
0.059360
20
0.062108
30
0.0
11
0.060238
21
0.057098
31
0.0
0
LINE
8
0
6
CONTINUOUS
10
0.089821
20
0.029844
30
0.0
11
0.089584
21
0.030576
31
0.0
0
LINE
8
0
6
CONTINUOUS
10
0.089584
20
0.030576
30
0.0
11
0.089267
21
0.031330
31
0.0
0
LINE
8
0
6
CONTINUOUS
10
0.089267
20
0.031330
30
0.0
11
0.088917
21
0.031995
31
0.0
0
LINE
8
0
6
CONTINUOUS
10
0.088917
20
0.031995
30
0.0
11
0.088572
21
0.032507
31
0.0
0
LINE
8
0
6
CONTINUOUS
10
0.073310
20
0.025843
30
0.0
11
0.073121
21
0.026152
31
0.0
0
LINE
8
0
6
CONTINUOUS
10
0.063369
20
0.114855
30
0.0
11
0.062508
21
0.118647
31
0.0
0
LINE
8
0
6
CONTINUOUS
10
0.060983
20
0.122171
30
0.0
11
0.060930
21
0.120523
31
0.0
0
LINE
8
0
6
CONTINUOUS
10
0.061274
20
0.122427
30
0.0
11
0.060983
21
0.122171
31
0.0
0
LINE
8
0
6
CONTINUOUS
10
0.062508
20
0.118647
30
0.0
11
0.061797
21
0.121206
31
0.0
0
LINE
8
0
6
CONTINUOUS
10
0.061797
20
0.121206
30
0.0
11
0.061274
21
0.122427
31
0.0
0
LINE
8
0
6
CONTINUOUS
10
0.060930
20
0.120523
30
0.0
11
0.061135
21
0.117496
31
0.0
0
LINE
8
0
6
CONTINUOUS
10
0.061135
20
0.117496
30
0.0
11
0.061598
21
0.113246
31
0.0
0
LINE
8
0
6
CONTINUOUS
10
0.060702
20
0.122428
30
0.0
11
0.058202
21
0.122445
31
0.0
0
LINE
8
0
6
CONTINUOUS
10
0.078786
20
0.045825
30
0.0
11
0.077887
21
0.047129
31
0.0
0
LINE
8
0
6
CONTINUOUS
10
0.067425
20
0.062962
30
0.0
11
0.067253
21
0.064459
31
0.0
0
LINE
8
0
6
CONTINUOUS
10
0.088572
20
0.032507
30
0.0
11
0.088344
21
0.032792
31
0.0
0
LINE
8
0
6
CONTINUOUS
10
0.062769
20
0.103166
30
0.0
11
0.061598
21
0.113246
31
0.0
0
LINE
8
0
6
CONTINUOUS
10
0.063939
20
0.093092
30
0.0
11
0.062769
21
0.103166
31
0.0
0
LINE
8
0
6
CONTINUOUS
10
0.065108
20
0.083018
30
0.0
11
0.063939
21
0.093092
31
0.0
0
LINE
8
0
6
CONTINUOUS
10
0.066277
20
0.072943
30
0.0
11
0.065108
21
0.083018
31
0.0
0
LINE
8
0
6
CONTINUOUS
10
0.087430
20
0.033934
30
0.0
11
0.078786
21
0.045825
31
0.0
0
LINE
8
0
6
CONTINUOUS
10
0.077887
20
0.047129
30
0.0
11
0.068248
21
0.061568
31
0.0
0
LINE
8
0
6
CONTINUOUS
10
0.068248
20
0.061568
30
0.0
11
0.067425
21
0.062962
31
0.0
0
LINE
8
0
6
CONTINUOUS
10
0.067253
20
0.064459
30
0.0
11
0.066277
21
0.072943
31
0.0
0
LINE
8
0
6
CONTINUOUS
10
0.032130
20
0.120531
30
0.0
11
0.029149
21
0.117527
31
0.0
0
LINE
8
0
6
CONTINUOUS
10
0.035330
20
0.122192
30
0.0
11
0.032130
21
0.120531
31
0.0
0
LINE
8
0
6
CONTINUOUS
10
0.039056
20
0.122460
30
0.0
11
0.038335
21
0.122460
31
0.0
0
LINE
8
0
6
CONTINUOUS
10
0.038335
20
0.122460
30
0.0
11
0.035330
21
0.122192
31
0.0
0
LINE
8
0
6
CONTINUOUS
10
0.028176
20
0.113225
30
0.0
11
0.027536
21
0.108100
31
0.0
0
LINE
8
0
6
CONTINUOUS
10
0.027303
20
0.096821
30
0.0
11
0.027739
21
0.091381
31
0.0
0
LINE
8
0
6
CONTINUOUS
10
0.027234
20
0.102521
30
0.0
11
0.027303
21
0.096821
31
0.0
0
LINE
8
0
6
CONTINUOUS
10
0.027536
20
0.108100
30
0.0
11
0.027234
21
0.102521
31
0.0
0
LINE
8
0
6
CONTINUOUS
10
0.029149
20
0.117527
30
0.0
11
0.028176
21
0.113225
31
0.0
0
LINE
8
0
6
CONTINUOUS
10
0.027739
20
0.091381
30
0.0
11
0.028514
21
0.086587
31
0.0
0
LINE
8
0
6
CONTINUOUS
10
0.058202
20
0.122445
30
0.0
11
0.055703
21
0.122462
31
0.0
0
LINE
8
0
6
CONTINUOUS
10
0.074407
20
0.023073
30
0.0
11
0.074555
21
0.022417
31
0.0
0
LINE
8
0
6
CONTINUOUS
10
0.074187
20
0.023820
30
0.0
11
0.074407
21
0.023073
31
0.0
0
LINE
8
0
6
CONTINUOUS
10
0.073906
20
0.024596
30
0.0
11
0.074187
21
0.023820
31
0.0
0
LINE
8
0
6
CONTINUOUS
10
0.073603
20
0.025292
30
0.0
11
0.073906
21
0.024596
31
0.0
0
LINE
8
0
6
CONTINUOUS
10
0.073310
20
0.025843
30
0.0
11
0.073603
21
0.025292
31
0.0
0
LINE
8
0
6
CONTINUOUS
10
0.073121
20
0.026152
30
0.0
11
0.072364
21
0.027388
31
0.0
0
LINE
8
0
6
CONTINUOUS
10
0.073304
20
0.025614
30
0.0
11
0.072259
21
0.027190
31
0.0
0
LINE
8
0
6
CONTINUOUS
10
0.088344
20
0.032792
30
0.0
11
0.087430
21
0.033934
31
0.0
0
LINE
8
0
6
CONTINUOUS
10
0.032792
20
0.078777
30
0.0
11
0.049955
21
0.078779
31
0.0
0
LINE
8
0
6
CONTINUOUS
10
0.055320
20
0.079162
30
0.0
11
0.056499
21
0.078602
31
0.0
0
LINE
8
0
6
CONTINUOUS
10
0.090083
20
0.028595
30
0.0
11
0.089971
21
0.029195
31
0.0
0
LINE
8
0
6
CONTINUOUS
10
0.049955
20
0.078779
30
0.0
11
0.053405
21
0.078584
31
0.0
0
LINE
8
0
6
CONTINUOUS
10
0.053405
20
0.078584
30
0.0
11
0.056525
21
0.078454
31
0.0
0
LINE
8
0
6
CONTINUOUS
10
0.064151
20
0.035541
30
0.0
11
0.064444
21
0.034877
31
0.0
0
LINE
8
0
6
CONTINUOUS
10
0.064857
20
0.034273
30
0.0
11
0.072368
21
0.024021
31
0.0
0
LINE
8
0
6
CONTINUOUS
10
0.064444
20
0.034877
30
0.0
11
0.064857
21
0.034273
31
0.0
0
LINE
8
0
6
CONTINUOUS
10
0.063954
20
0.036249
30
0.0
11
0.064151
21
0.035541
31
0.0
0
LINE
8
0
6
CONTINUOUS
10
0.090091
20
0.028161
30
0.0
11
0.090083
21
0.028595
31
0.0
0
LINE
8
0
6
CONTINUOUS
10
0.089972
20
0.027972
30
0.0
11
0.090091
21
0.028161
31
0.0
0
LINE
8
0
6
CONTINUOUS
10
0.089373
20
0.027708
30
0.0
11
0.089972
21
0.027972
31
0.0
0
LINE
8
0
6
CONTINUOUS
10
0.074440
20
0.021304
30
0.0
11
0.074617
21
0.021207
31
0.0
0
LINE
8
0
6
CONTINUOUS
10
0.074119
20
0.021729
30
0.0
11
0.074440
21
0.021304
31
0.0
0
LINE
8
0
6
CONTINUOUS
10
0.064332
20
0.109958
30
0.0
11
0.063369
21
0.114855
31
0.0
0
LINE
8
0
6
CONTINUOUS
10
0.067765
20
0.087950
30
0.0
11
0.067086
21
0.093088
31
0.0
0
LINE
8
0
6
CONTINUOUS
10
0.067086
20
0.093088
30
0.0
11
0.066256
21
0.098687
31
0.0
0
LINE
8
0
6
CONTINUOUS
10
0.065317
20
0.104428
30
0.0
11
0.064332
21
0.109958
31
0.0
0
LINE
8
0
6
CONTINUOUS
10
0.066256
20
0.098687
30
0.0
11
0.065317
21
0.104428
31
0.0
0
LINE
8
0
6
CONTINUOUS
10
0.068231
20
0.083679
30
0.0
11
0.067765
21
0.087950
31
0.0
0
LINE
8
0
6
CONTINUOUS
10
0.068439
20
0.080649
30
0.0
11
0.068231
21
0.083679
31
0.0
0
LINE
8
0
6
CONTINUOUS
10
0.068745
20
0.074688
30
0.0
11
0.068439
21
0.080649
31
0.0
0
LINE
8
0
6
CONTINUOUS
10
0.069054
20
0.068717
30
0.0
11
0.068745
21
0.074688
31
0.0
0
LINE
8
0
6
CONTINUOUS
10
0.069362
20
0.062745
30
0.0
11
0.069054
21
0.068717
31
0.0
0
LINE
8
0
6
CONTINUOUS
10
0.069521
20
0.059660
30
0.0
11
0.069362
21
0.062745
31
0.0
0
LINE
8
0
6
CONTINUOUS
10
0.075240
20
0.021481
30
0.0
11
0.089373
21
0.027708
31
0.0
0
LINE
8
0
6
CONTINUOUS
10
0.029560
20
0.082702
30
0.0
11
0.030825
21
0.080038
31
0.0
0
LINE
8
0
6
CONTINUOUS
10
0.030825
20
0.080038
30
0.0
11
0.032217
21
0.078777
31
0.0
0
LINE
8
0
6
CONTINUOUS
10
0.032217
20
0.078777
30
0.0
11
0.032792
21
0.078777
31
0.0
0
LINE
8
0
6
CONTINUOUS
10
0.028514
20
0.086587
30
0.0
11
0.029560
21
0.082702
31
0.0
0
LINE
8
0
6
CONTINUOUS
10
0.074555
20
0.022417
30
0.0
11
0.074671
21
0.021814
31
0.0
0
LINE
8
0
6
CONTINUOUS
10
0.074671
20
0.021814
30
0.0
11
0.074698
21
0.021385
31
0.0
0
LINE
8
0
6
CONTINUOUS
10
0.074617
20
0.021207
30
0.0
11
0.075240
21
0.021481
31
0.0
0
LINE
8
0
6
CONTINUOUS
10
0.074698
20
0.021385
30
0.0
11
0.074617
21
0.021207
31
0.0
0
LINE
8
0
6
CONTINUOUS
10
0.072368
20
0.024021
30
0.0
11
0.072678
21
0.023630
31
0.0
0
LINE
8
0
6
CONTINUOUS
10
0.072678
20
0.023630
30
0.0
11
0.074411
21
0.021462
31
0.0
0
LINE
8
0
6
CONTINUOUS
10
0.029853
20
0.080436
30
0.0
11
0.030636
21
0.080436
31
0.0
0
LINE
8
0
6
CONTINUOUS
10
0.032647
20
0.120799
30
0.0
11
0.030747
21
0.120799
31
0.0
0
LINE
8
0
6
CONTINUOUS
10
-0.081626
20
0.096867
30
0.0
11
-0.079626
21
0.097402
31
0.0
0
LINE
8
0
6
CONTINUOUS
10
-0.079626
20
0.097402
30
0.0
11
-0.078162
21
0.098867
31
0.0
0
LINE
8
0
6
CONTINUOUS
10
-0.078162
20
0.098867
30
0.0
11
-0.077626
21
0.100867
31
0.0
0
LINE
8
0
6
CONTINUOUS
10
-0.077626
20
0.100867
30
0.0
11
-0.078162
21
0.102867
31
0.0
0
LINE
8
0
6
CONTINUOUS
10
-0.078162
20
0.102867
30
0.0
11
-0.079626
21
0.104331
31
0.0
0
LINE
8
0
6
CONTINUOUS
10
-0.079626
20
0.104331
30
0.0
11
-0.081626
21
0.104867
31
0.0
0
LINE
8
0
6
CONTINUOUS
10
-0.081626
20
0.104867
30
0.0
11
-0.083626
21
0.104331
31
0.0
0
LINE
8
0
6
CONTINUOUS
10
-0.083626
20
0.104331
30
0.0
11
-0.085090
21
0.102867
31
0.0
0
LINE
8
0
6
CONTINUOUS
10
-0.085090
20
0.102867
30
0.0
11
-0.085626
21
0.100867
31
0.0
0
LINE
8
0
6
CONTINUOUS
10
-0.085626
20
0.100867
30
0.0
11
-0.085090
21
0.098867
31
0.0
0
LINE
8
0
6
CONTINUOUS
10
-0.085090
20
0.098867
30
0.0
11
-0.083626
21
0.097402
31
0.0
0
LINE
8
0
6
CONTINUOUS
10
-0.083626
20
0.097402
30
0.0
11
-0.081626
21
0.096867
31
0.0
0
LINE
8
0
6
CONTINUOUS
10
-0.090091
20
0.115209
30
0.0
11
-0.090091
21
0.114103
31
0.0
0
LINE
8
0
6
CONTINUOUS
10
-0.090091
20
0.107120
30
0.0
11
-0.090091
21
0.103961
31
0.0
0
LINE
8
0
6
CONTINUOUS
10
-0.089204
20
0.115583
30
0.0
11
-0.090091
21
0.115583
31
0.0
0
LINE
8
0
6
CONTINUOUS
10
-0.090091
20
0.109955
30
0.0
11
-0.090091
21
0.107120
31
0.0
0
LINE
8
0
6
CONTINUOUS
10
-0.090091
20
0.112322
30
0.0
11
-0.090091
21
0.109955
31
0.0
0
LINE
8
0
6
CONTINUOUS
10
-0.059603
20
0.115583
30
0.0
11
-0.089204
21
0.115583
31
0.0
0
LINE
8
0
6
CONTINUOUS
10
-0.090090
20
0.100866
30
0.0
11
-0.090091
21
0.103961
31
0.0
0
LINE
8
0
6
CONTINUOUS
10
-0.090091
20
0.112322
30
0.0
11
-0.090091
21
0.114103
31
0.0
0
LINE
8
0
6
CONTINUOUS
10
-0.090091
20
0.115209
30
0.0
11
-0.090091
21
0.115583
31
0.0
0
LINE
8
0
6
CONTINUOUS
10
-0.090090
20
0.087630
30
0.0
11
-0.090090
21
0.086524
31
0.0
0
LINE
8
0
6
CONTINUOUS
10
-0.090091
20
0.097772
30
0.0
11
-0.090090
21
0.094613
31
0.0
0
LINE
8
0
6
CONTINUOUS
10
-0.090090
20
0.086150
30
0.0
11
-0.089204
21
0.086150
31
0.0
0
LINE
8
0
6
CONTINUOUS
10
-0.090090
20
0.086524
30
0.0
11
-0.090090
21
0.086150
31
0.0
0
LINE
8
0
6
CONTINUOUS
10
-0.090090
20
0.094613
30
0.0
11
-0.090090
21
0.091778
31
0.0
0
LINE
8
0
6
CONTINUOUS
10
-0.090090
20
0.091778
30
0.0
11
-0.090090
21
0.089411
31
0.0
0
LINE
8
0
6
CONTINUOUS
10
-0.089204
20
0.086150
30
0.0
11
-0.059603
21
0.086150
31
0.0
0
LINE
8
0
6
CONTINUOUS
10
-0.090091
20
0.097772
30
0.0
11
-0.090090
21
0.100866
31
0.0
0
LINE
8
0
6
CONTINUOUS
10
-0.090090
20
0.087630
30
0.0
11
-0.090090
21
0.089411
31
0.0
0
LINE
8
0
6
CONTINUOUS
10
-0.059066
20
0.112322
30
0.0
11
-0.059066
21
0.114103
31
0.0
0
LINE
8
0
6
CONTINUOUS
10
-0.059066
20
0.100866
30
0.0
11
-0.059066
21
0.103961
31
0.0
0
LINE
8
0
6
CONTINUOUS
10
-0.059066
20
0.114103
30
0.0
11
-0.059066
21
0.115209
31
0.0
0
LINE
8
0
6
CONTINUOUS
10
-0.059066
20
0.103961
30
0.0
11
-0.059066
21
0.107120
31
0.0
0
LINE
8
0
6
CONTINUOUS
10
-0.059066
20
0.115583
30
0.0
11
-0.059603
21
0.115583
31
0.0
0
LINE
8
0
6
CONTINUOUS
10
-0.059066
20
0.115209
30
0.0
11
-0.059066
21
0.115583
31
0.0
0
LINE
8
0
6
CONTINUOUS
10
-0.059066
20
0.107120
30
0.0
11
-0.059066
21
0.109955
31
0.0
0
LINE
8
0
6
CONTINUOUS
10
-0.059066
20
0.109955
30
0.0
11
-0.059066
21
0.112322
31
0.0
0
LINE
8
0
6
CONTINUOUS
10
-0.059066
20
0.087630
30
0.0
11
-0.059066
21
0.089411
31
0.0
0
LINE
8
0
6
CONTINUOUS
10
-0.059066
20
0.097772
30
0.0
11
-0.059066
21
0.100866
31
0.0
0
LINE
8
0
6
CONTINUOUS
10
-0.059066
20
0.086524
30
0.0
11
-0.059066
21
0.087630
31
0.0
0
LINE
8
0
6
CONTINUOUS
10
-0.059066
20
0.094613
30
0.0
11
-0.059066
21
0.097772
31
0.0
0
LINE
8
0
6
CONTINUOUS
10
-0.059066
20
0.086150
30
0.0
11
-0.059066
21
0.086524
31
0.0
0
LINE
8
0
6
CONTINUOUS
10
-0.059603
20
0.086150
30
0.0
11
-0.059066
21
0.086150
31
0.0
0
LINE
8
0
6
CONTINUOUS
10
-0.059066
20
0.091778
30
0.0
11
-0.059066
21
0.094613
31
0.0
0
LINE
8
0
6
CONTINUOUS
10
-0.059066
20
0.089411
30
0.0
11
-0.059066
21
0.091778
31
0.0
0
LINE
8
0
6
CONTINUOUS
10
0.025532
20
0.107531
30
0.0
11
0.025615
21
0.108195
31
0.0
0
LINE
8
0
6
CONTINUOUS
10
0.029429
20
0.120596
30
0.0
11
0.028380
21
0.119353
31
0.0
0
LINE
8
0
6
CONTINUOUS
10
0.025466
20
0.106321
30
0.0
11
0.025492
21
0.106790
31
0.0
0
LINE
8
0
6
CONTINUOUS
10
0.025615
20
0.108195
30
0.0
11
0.026120
21
0.112267
31
0.0
0
LINE
8
0
6
CONTINUOUS
10
0.028380
20
0.119353
30
0.0
11
0.028156
21
0.119089
31
0.0
0
LINE
8
0
6
CONTINUOUS
10
0.030747
20
0.120799
30
0.0
11
0.029778
21
0.120649
31
0.0
0
LINE
8
0
6
CONTINUOUS
10
0.025281
20
0.101023
30
0.0
11
0.025262
21
0.102376
31
0.0
0
LINE
8
0
6
CONTINUOUS
10
0.025283
20
0.100867
30
0.0
11
0.025281
21
0.101023
31
0.0
0
LINE
8
0
6
CONTINUOUS
10
0.026207
20
0.089028
30
0.0
11
0.025955
21
0.090584
31
0.0
0
LINE
8
0
6
CONTINUOUS
10
0.026429
20
0.087653
30
0.0
11
0.026207
21
0.089028
31
0.0
0
LINE
8
0
6
CONTINUOUS
10
0.025716
20
0.092082
30
0.0
11
0.025322
21
0.097110
31
0.0
0
ENDSEC
0
EOF
