999
unknown String-ID: 20550
0
SECTION
2
HEADER
9
$ACADVER
1
AC1009
9
$DWGCODEPAGE
3
unknown String-ID: 20561
0
ENDSEC
0
SECTION
2
TABLES
0
TABLE
2
LAYER
70
1
0
LAYER
2
0
70
0
62
7
6
CONTINUOUS
0
ENDTAB
0
ENDSEC
0
SECTION
2
ENTITIES
0
LINE
8
0
6
CONTINUOUS
10
0.142037
20
-0.034754
30
0.0
11
0.142337
21
-0.034754
31
0.0
0
LINE
8
0
6
CONTINUOUS
10
0.142337
20
-0.034084
30
0.0
11
0.142337
21
-0.032254
31
0.0
0
LINE
8
0
6
CONTINUOUS
10
0.142337
20
-0.032254
30
0.0
11
0.142337
21
-0.029754
31
0.0
0
LINE
8
0
6
CONTINUOUS
10
0.142337
20
-0.029754
30
0.0
11
0.142337
21
-0.027254
31
0.0
0
LINE
8
0
6
CONTINUOUS
10
0.142337
20
-0.024754
30
0.0
11
0.142037
21
-0.024754
31
0.0
0
LINE
8
0
6
CONTINUOUS
10
0.142337
20
-0.027254
30
0.0
11
0.142337
21
-0.025424
31
0.0
0
LINE
8
0
6
CONTINUOUS
10
0.141034
20
-0.034754
30
0.0
11
0.142037
21
-0.034754
31
0.0
0
LINE
8
0
6
CONTINUOUS
10
0.142037
20
-0.024754
30
0.0
11
0.141034
21
-0.024754
31
0.0
0
LINE
8
0
6
CONTINUOUS
10
0.142337
20
-0.034084
30
0.0
11
0.142337
21
-0.034754
31
0.0
0
LINE
8
0
6
CONTINUOUS
10
0.142337
20
-0.024754
30
0.0
11
0.142337
21
-0.025424
31
0.0
0
LINE
8
0
6
CONTINUOUS
10
0.123002
20
-0.025362
30
0.0
11
0.120502
21
-0.024693
31
0.0
0
LINE
8
0
6
CONTINUOUS
10
0.124832
20
-0.027193
30
0.0
11
0.123002
21
-0.025362
31
0.0
0
LINE
8
0
6
CONTINUOUS
10
0.125502
20
-0.029693
30
0.0
11
0.124832
21
-0.027193
31
0.0
0
LINE
8
0
6
CONTINUOUS
10
0.124832
20
-0.032193
30
0.0
11
0.125502
21
-0.029693
31
0.0
0
LINE
8
0
6
CONTINUOUS
10
0.123002
20
-0.034023
30
0.0
11
0.124832
21
-0.032193
31
0.0
0
LINE
8
0
6
CONTINUOUS
10
0.120502
20
-0.034693
30
0.0
11
0.123002
21
-0.034023
31
0.0
0
LINE
8
0
6
CONTINUOUS
10
0.118002
20
-0.034023
30
0.0
11
0.120502
21
-0.034693
31
0.0
0
LINE
8
0
6
CONTINUOUS
10
0.116171
20
-0.032193
30
0.0
11
0.118002
21
-0.034023
31
0.0
0
LINE
8
0
6
CONTINUOUS
10
0.115502
20
-0.029693
30
0.0
11
0.116171
21
-0.032193
31
0.0
0
LINE
8
0
6
CONTINUOUS
10
0.116171
20
-0.027193
30
0.0
11
0.115502
21
-0.029693
31
0.0
0
LINE
8
0
6
CONTINUOUS
10
0.118002
20
-0.025362
30
0.0
11
0.116171
21
-0.027193
31
0.0
0
LINE
8
0
6
CONTINUOUS
10
0.120502
20
-0.024693
30
0.0
11
0.118002
21
-0.025362
31
0.0
0
LINE
8
0
6
CONTINUOUS
10
0.138799
20
-0.010414
30
0.0
11
0.097304
21
-0.011121
31
0.0
0
LINE
8
0
6
CONTINUOUS
10
0.097304
20
-0.011121
30
0.0
11
0.097045
21
-0.011120
31
0.0
0
LINE
8
0
6
CONTINUOUS
10
0.097045
20
-0.011724
30
0.0
11
0.097045
21
-0.011120
31
0.0
0
LINE
8
0
6
CONTINUOUS
10
0.096786
20
-0.012137
30
0.0
11
0.096786
21
-0.012708
31
0.0
0
LINE
8
0
6
CONTINUOUS
10
0.097045
20
-0.011120
30
0.0
11
0.096786
21
-0.012137
31
0.0
0
LINE
8
0
6
CONTINUOUS
10
0.097045
20
-0.013566
30
0.0
11
0.097045
21
-0.011724
31
0.0
0
LINE
8
0
6
CONTINUOUS
10
0.096786
20
-0.012708
30
0.0
11
0.096786
21
-0.012749
31
0.0
0
LINE
8
0
6
CONTINUOUS
10
0.097045
20
-0.016451
30
0.0
11
0.097045
21
-0.013566
31
0.0
0
LINE
8
0
6
CONTINUOUS
10
0.097045
20
-0.020235
30
0.0
11
0.097045
21
-0.016451
31
0.0
0
LINE
8
0
6
CONTINUOUS
10
0.097045
20
-0.024589
30
0.0
11
0.097045
21
-0.020235
31
0.0
0
LINE
8
0
6
CONTINUOUS
10
0.096786
20
-0.020752
30
0.0
11
0.096786
21
-0.024867
31
0.0
0
LINE
8
0
6
CONTINUOUS
10
0.097046
20
-0.029654
30
0.0
11
0.097045
21
-0.024589
31
0.0
0
LINE
8
0
6
CONTINUOUS
10
0.096786
20
-0.024867
30
0.0
11
0.096787
21
-0.029654
31
0.0
0
LINE
8
0
6
CONTINUOUS
10
0.097304
20
-0.048188
30
0.0
11
0.138799
21
-0.048894
31
0.0
0
LINE
8
0
6
CONTINUOUS
10
0.097045
20
-0.048188
30
0.0
11
0.097304
21
-0.048188
31
0.0
0
LINE
8
0
6
CONTINUOUS
10
0.096786
20
-0.047171
30
0.0
11
0.097045
21
-0.048188
31
0.0
0
LINE
8
0
6
CONTINUOUS
10
0.097045
20
-0.048188
30
0.0
11
0.097045
21
-0.047584
31
0.0
0
LINE
8
0
6
CONTINUOUS
10
0.097045
20
-0.047584
30
0.0
11
0.097045
21
-0.045743
31
0.0
0
LINE
8
0
6
CONTINUOUS
10
0.097045
20
-0.045743
30
0.0
11
0.097045
21
-0.042857
31
0.0
0
LINE
8
0
6
CONTINUOUS
10
0.097045
20
-0.042857
30
0.0
11
0.097045
21
-0.039074
31
0.0
0
LINE
8
0
6
CONTINUOUS
10
0.096786
20
-0.034442
30
0.0
11
0.096786
21
-0.038557
31
0.0
0
LINE
8
0
6
CONTINUOUS
10
0.097045
20
-0.039074
30
0.0
11
0.097045
21
-0.034720
31
0.0
0
LINE
8
0
6
CONTINUOUS
10
0.096787
20
-0.029654
30
0.0
11
0.096786
21
-0.034442
31
0.0
0
LINE
8
0
6
CONTINUOUS
10
0.097045
20
-0.034720
30
0.0
11
0.097046
21
-0.029654
31
0.0
0
LINE
8
0
6
CONTINUOUS
10
0.140502
20
-0.010916
30
0.0
11
0.139218
21
-0.010407
31
0.0
0
LINE
8
0
6
CONTINUOUS
10
0.141034
20
-0.012188
30
0.0
11
0.140502
21
-0.010916
31
0.0
0
LINE
8
0
6
CONTINUOUS
10
0.141034
20
-0.012420
30
0.0
11
0.141034
21
-0.012188
31
0.0
0
LINE
8
0
6
CONTINUOUS
10
0.140502
20
-0.010916
30
0.0
11
0.140502
21
-0.011156
31
0.0
0
LINE
8
0
6
CONTINUOUS
10
0.141034
20
-0.029654
30
0.0
11
0.141034
21
-0.019379
31
0.0
0
LINE
8
0
6
CONTINUOUS
10
0.140504
20
-0.019212
30
0.0
11
0.140504
21
-0.029654
31
0.0
0
LINE
8
0
6
CONTINUOUS
10
0.141034
20
-0.019379
30
0.0
11
0.141034
21
-0.015470
31
0.0
0
LINE
8
0
6
CONTINUOUS
10
0.140504
20
-0.014876
30
0.0
11
0.140504
21
-0.019212
31
0.0
0
LINE
8
0
6
CONTINUOUS
10
0.141034
20
-0.015470
30
0.0
11
0.141034
21
-0.014140
31
0.0
0
LINE
8
0
6
CONTINUOUS
10
0.140504
20
-0.013144
30
0.0
11
0.140504
21
-0.014876
31
0.0
0
LINE
8
0
6
CONTINUOUS
10
0.141034
20
-0.014140
30
0.0
11
0.141034
21
-0.013194
31
0.0
0
LINE
8
0
6
CONTINUOUS
10
0.140503
20
-0.011991
30
0.0
11
0.140504
21
-0.013144
31
0.0
0
LINE
8
0
6
CONTINUOUS
10
0.140502
20
-0.011156
30
0.0
11
0.140503
21
-0.011991
31
0.0
0
LINE
8
0
6
CONTINUOUS
10
0.140502
20
-0.048393
30
0.0
11
0.141034
21
-0.047121
31
0.0
0
LINE
8
0
6
CONTINUOUS
10
0.141034
20
-0.047121
30
0.0
11
0.141034
21
-0.046889
31
0.0
0
LINE
8
0
6
CONTINUOUS
10
0.139218
20
-0.048902
30
0.0
11
0.140502
21
-0.048393
31
0.0
0
LINE
8
0
6
CONTINUOUS
10
0.140502
20
-0.048393
30
0.0
11
0.140502
21
-0.048153
31
0.0
0
LINE
8
0
6
CONTINUOUS
10
0.141034
20
-0.039929
30
0.0
11
0.141034
21
-0.029654
31
0.0
0
LINE
8
0
6
CONTINUOUS
10
0.140504
20
-0.040097
30
0.0
11
0.140504
21
-0.029654
31
0.0
0
LINE
8
0
6
CONTINUOUS
10
0.141034
20
-0.043838
30
0.0
11
0.141034
21
-0.039929
31
0.0
0
LINE
8
0
6
CONTINUOUS
10
0.140504
20
-0.044432
30
0.0
11
0.140504
21
-0.040097
31
0.0
0
LINE
8
0
6
CONTINUOUS
10
0.141034
20
-0.045169
30
0.0
11
0.141034
21
-0.043838
31
0.0
0
LINE
8
0
6
CONTINUOUS
10
0.140504
20
-0.046164
30
0.0
11
0.140504
21
-0.044432
31
0.0
0
LINE
8
0
6
CONTINUOUS
10
0.141034
20
-0.046114
30
0.0
11
0.141034
21
-0.045169
31
0.0
0
LINE
8
0
6
CONTINUOUS
10
0.140503
20
-0.047317
30
0.0
11
0.140504
21
-0.046164
31
0.0
0
LINE
8
0
6
CONTINUOUS
10
0.140502
20
-0.048153
30
0.0
11
0.140503
21
-0.047317
31
0.0
0
LINE
8
0
6
CONTINUOUS
10
0.139218
20
-0.010407
30
0.0
11
0.138799
21
-0.010414
31
0.0
0
LINE
8
0
6
CONTINUOUS
10
0.138799
20
-0.048894
30
0.0
11
0.139218
21
-0.048902
31
0.0
0
LINE
8
0
6
CONTINUOUS
10
0.000000
20
-0.049246
30
0.0
11
0.067155
21
-0.048974
31
0.0
0
LINE
8
0
6
CONTINUOUS
10
0.059487
20
0.004199
30
0.0
11
0.059329
21
0.000659
31
0.0
0
LINE
8
0
6
CONTINUOUS
10
0.074749
20
-0.048943
30
0.0
11
0.084324
21
-0.048816
31
0.0
0
LINE
8
0
6
CONTINUOUS
10
0.084324
20
-0.048816
30
0.0
11
0.096268
21
-0.048550
31
0.0
0
LINE
8
0
6
CONTINUOUS
10
0.096268
20
-0.011766
30
0.0
11
0.097113
21
-0.011021
31
0.0
0
LINE
8
0
6
CONTINUOUS
10
0.067155
20
-0.048974
30
0.0
11
0.074749
21
-0.048943
31
0.0
0
LINE
8
0
6
CONTINUOUS
10
0.091111
20
-0.007736
30
0.0
11
0.090906
21
0.004198
31
0.0
0
LINE
8
0
6
CONTINUOUS
10
0.092309
20
-0.010025
30
0.0
11
0.091111
21
-0.007736
31
0.0
0
LINE
8
0
6
CONTINUOUS
10
0.097113
20
-0.011021
30
0.0
11
0.094481
21
-0.010756
31
0.0
0
LINE
8
0
6
CONTINUOUS
10
0.059329
20
0.000659
30
0.0
11
0.058169
21
-0.001391
31
0.0
0
LINE
8
0
6
CONTINUOUS
10
0.091994
20
-0.009793
30
0.0
11
0.090619
21
-0.010229
31
0.0
0
LINE
8
0
6
CONTINUOUS
10
0.094481
20
-0.010756
30
0.0
11
0.091994
21
-0.009793
31
0.0
0
LINE
8
0
6
CONTINUOUS
10
0.090619
20
-0.010229
30
0.0
11
0.088366
21
-0.011187
31
0.0
0
LINE
8
0
6
CONTINUOUS
10
0.088366
20
-0.011187
30
0.0
11
0.085025
21
-0.012239
31
0.0
0
LINE
8
0
6
CONTINUOUS
10
0.055913
20
-0.001662
30
0.0
11
0.055200
21
-0.001753
31
0.0
0
LINE
8
0
6
CONTINUOUS
10
0.058966
20
-0.000541
30
0.0
11
0.055923
21
-0.002270
31
0.0
0
LINE
8
0
6
CONTINUOUS
10
0.058656
20
-0.003178
30
0.0
11
0.058169
21
-0.001391
31
0.0
0
LINE
8
0
6
CONTINUOUS
10
0.059950
20
-0.006077
30
0.0
11
0.058656
21
-0.003178
31
0.0
0
LINE
8
0
6
CONTINUOUS
10
0.061916
20
-0.009495
30
0.0
11
0.059950
21
-0.006077
31
0.0
0
LINE
8
0
6
CONTINUOUS
10
0.065252
20
-0.012503
30
0.0
11
0.061916
21
-0.009495
31
0.0
0
LINE
8
0
6
CONTINUOUS
10
0.075268
20
0.004738
30
0.0
11
0.071133
21
0.004737
31
0.0
0
LINE
8
0
6
CONTINUOUS
10
0.061520
20
0.004737
30
0.0
11
0.059937
21
0.004737
31
0.0
0
LINE
8
0
6
CONTINUOUS
10
0.071133
20
0.004737
30
0.0
11
0.067279
21
0.004737
31
0.0
0
LINE
8
0
6
CONTINUOUS
10
0.059495
20
0.004736
30
0.0
11
0.059487
21
0.004199
31
0.0
0
LINE
8
0
6
CONTINUOUS
10
0.059937
20
0.004737
30
0.0
11
0.059495
21
0.004736
31
0.0
0
LINE
8
0
6
CONTINUOUS
10
0.064010
20
0.004738
30
0.0
11
0.061520
21
0.004737
31
0.0
0
LINE
8
0
6
CONTINUOUS
10
0.090906
20
0.004198
30
0.0
11
0.090902
21
0.004735
31
0.0
0
LINE
8
0
6
CONTINUOUS
10
0.090902
20
0.004735
30
0.0
11
0.090472
21
0.004736
31
0.0
0
LINE
8
0
6
CONTINUOUS
10
0.090472
20
0.004736
30
0.0
11
0.088905
21
0.004736
31
0.0
0
LINE
8
0
6
CONTINUOUS
10
0.088905
20
0.004736
30
0.0
11
0.086445
21
0.004737
31
0.0
0
LINE
8
0
6
CONTINUOUS
10
0.086445
20
0.004737
30
0.0
11
0.083194
21
0.004736
31
0.0
0
LINE
8
0
6
CONTINUOUS
10
0.079363
20
0.004737
30
0.0
11
0.075268
21
0.004738
31
0.0
0
LINE
8
0
6
CONTINUOUS
10
0.083194
20
0.004736
30
0.0
11
0.079363
21
0.004737
31
0.0
0
LINE
8
0
6
CONTINUOUS
10
0.055913
20
-0.001662
30
0.0
11
0.000000
21
-0.001754
31
0.0
0
LINE
8
0
6
CONTINUOUS
10
0.096268
20
-0.048550
30
0.0
11
0.096528
21
-0.048548
31
0.0
0
LINE
8
0
6
CONTINUOUS
10
0.096528
20
-0.048548
30
0.0
11
0.096788
21
-0.047509
31
0.0
0
LINE
8
0
6
CONTINUOUS
10
0.096528
20
-0.047870
30
0.0
11
0.096528
21
-0.048548
31
0.0
0
LINE
8
0
6
CONTINUOUS
10
0.096788
20
-0.047509
30
0.0
11
0.096788
21
-0.046869
31
0.0
0
LINE
8
0
6
CONTINUOUS
10
0.096530
20
-0.045982
30
0.0
11
0.096528
21
-0.047870
31
0.0
0
LINE
8
0
6
CONTINUOUS
10
0.096788
20
-0.046869
30
0.0
11
0.096791
21
-0.045085
31
0.0
0
LINE
8
0
6
CONTINUOUS
10
0.096528
20
-0.042919
30
0.0
11
0.096530
21
-0.045982
31
0.0
0
LINE
8
0
6
CONTINUOUS
10
0.096791
20
-0.045085
30
0.0
11
0.096788
21
-0.042190
31
0.0
0
LINE
8
0
6
CONTINUOUS
10
0.096528
20
-0.038931
30
0.0
11
0.096528
21
-0.042919
31
0.0
0
LINE
8
0
6
CONTINUOUS
10
0.096786
20
-0.038557
30
0.0
11
0.096787
21
-0.038421
31
0.0
0
LINE
8
0
6
CONTINUOUS
10
0.096788
20
-0.042190
30
0.0
11
0.096786
21
-0.038557
31
0.0
0
LINE
8
0
6
CONTINUOUS
10
0.096527
20
-0.034336
30
0.0
11
0.096528
21
-0.038931
31
0.0
0
LINE
8
0
6
CONTINUOUS
10
0.096527
20
-0.029454
30
0.0
11
0.096527
21
-0.034336
31
0.0
0
LINE
8
0
6
CONTINUOUS
10
0.096527
20
-0.024606
30
0.0
11
0.096527
21
-0.029454
31
0.0
0
LINE
8
0
6
CONTINUOUS
10
0.096786
20
-0.029465
30
0.0
11
0.096786
21
-0.024884
31
0.0
0
LINE
8
0
6
CONTINUOUS
10
0.096527
20
-0.020153
30
0.0
11
0.096527
21
-0.024606
31
0.0
0
LINE
8
0
6
CONTINUOUS
10
0.096527
20
-0.016382
30
0.0
11
0.096527
21
-0.020153
31
0.0
0
LINE
8
0
6
CONTINUOUS
10
0.096786
20
-0.020675
30
0.0
11
0.096786
21
-0.017111
31
0.0
0
LINE
8
0
6
CONTINUOUS
10
0.096527
20
-0.013454
30
0.0
11
0.096527
21
-0.016382
31
0.0
0
LINE
8
0
6
CONTINUOUS
10
0.096786
20
-0.017111
30
0.0
11
0.096786
21
-0.014345
31
0.0
0
LINE
8
0
6
CONTINUOUS
10
0.096786
20
-0.012137
30
0.0
11
0.096527
21
-0.011119
31
0.0
0
LINE
8
0
6
CONTINUOUS
10
0.096527
20
-0.011766
30
0.0
11
0.096527
21
-0.013454
31
0.0
0
LINE
8
0
6
CONTINUOUS
10
0.096786
20
-0.014345
30
0.0
11
0.096786
21
-0.012749
31
0.0
0
LINE
8
0
6
CONTINUOUS
10
0.064010
20
0.004738
30
0.0
11
0.067279
21
0.004737
31
0.0
0
LINE
8
0
6
CONTINUOUS
10
0.141034
20
-0.024754
30
0.0
11
0.141034
21
-0.019438
31
0.0
0
LINE
8
0
6
CONTINUOUS
10
0.141034
20
-0.019438
30
0.0
11
0.141034
21
-0.024754
31
0.0
0
LINE
8
0
6
CONTINUOUS
10
0.141034
20
-0.029654
30
0.0
11
0.141034
21
-0.019438
31
0.0
0
LINE
8
0
6
CONTINUOUS
10
0.141034
20
-0.019438
30
0.0
11
0.141034
21
-0.029654
31
0.0
0
LINE
8
0
6
CONTINUOUS
10
-0.142337
20
-0.034754
30
0.0
11
-0.142037
21
-0.034754
31
0.0
0
LINE
8
0
6
CONTINUOUS
10
-0.142337
20
-0.034084
30
0.0
11
-0.142337
21
-0.034754
31
0.0
0
LINE
8
0
6
CONTINUOUS
10
-0.142337
20
-0.032254
30
0.0
11
-0.142337
21
-0.034084
31
0.0
0
LINE
8
0
6
CONTINUOUS
10
-0.142337
20
-0.029754
30
0.0
11
-0.142337
21
-0.032254
31
0.0
0
LINE
8
0
6
CONTINUOUS
10
-0.142337
20
-0.027254
30
0.0
11
-0.142337
21
-0.029754
31
0.0
0
LINE
8
0
6
CONTINUOUS
10
-0.142337
20
-0.024754
30
0.0
11
-0.142337
21
-0.025424
31
0.0
0
LINE
8
0
6
CONTINUOUS
10
-0.142037
20
-0.024754
30
0.0
11
-0.142337
21
-0.024754
31
0.0
0
LINE
8
0
6
CONTINUOUS
10
-0.142337
20
-0.025424
30
0.0
11
-0.142337
21
-0.027254
31
0.0
0
LINE
8
0
6
CONTINUOUS
10
-0.142037
20
-0.034754
30
0.0
11
-0.141034
21
-0.034754
31
0.0
0
LINE
8
0
6
CONTINUOUS
10
-0.141034
20
-0.024754
30
0.0
11
-0.142037
21
-0.024754
31
0.0
0
LINE
8
0
6
CONTINUOUS
10
-0.120502
20
-0.024693
30
0.0
11
-0.123002
21
-0.025362
31
0.0
0
LINE
8
0
6
CONTINUOUS
10
-0.123002
20
-0.025362
30
0.0
11
-0.124832
21
-0.027193
31
0.0
0
LINE
8
0
6
CONTINUOUS
10
-0.124832
20
-0.027193
30
0.0
11
-0.125502
21
-0.029693
31
0.0
0
LINE
8
0
6
CONTINUOUS
10
-0.125502
20
-0.029693
30
0.0
11
-0.124832
21
-0.032193
31
0.0
0
LINE
8
0
6
CONTINUOUS
10
-0.124832
20
-0.032193
30
0.0
11
-0.123002
21
-0.034023
31
0.0
0
LINE
8
0
6
CONTINUOUS
10
-0.123002
20
-0.034023
30
0.0
11
-0.120502
21
-0.034693
31
0.0
0
LINE
8
0
6
CONTINUOUS
10
-0.120502
20
-0.034693
30
0.0
11
-0.118002
21
-0.034023
31
0.0
0
LINE
8
0
6
CONTINUOUS
10
-0.118002
20
-0.034023
30
0.0
11
-0.116171
21
-0.032193
31
0.0
0
LINE
8
0
6
CONTINUOUS
10
-0.116171
20
-0.032193
30
0.0
11
-0.115502
21
-0.029693
31
0.0
0
LINE
8
0
6
CONTINUOUS
10
-0.115502
20
-0.029693
30
0.0
11
-0.116171
21
-0.027193
31
0.0
0
LINE
8
0
6
CONTINUOUS
10
-0.116171
20
-0.027193
30
0.0
11
-0.118002
21
-0.025362
31
0.0
0
LINE
8
0
6
CONTINUOUS
10
-0.118002
20
-0.025362
30
0.0
11
-0.120502
21
-0.024693
31
0.0
0
LINE
8
0
6
CONTINUOUS
10
-0.097304
20
-0.011121
30
0.0
11
-0.138799
21
-0.010414
31
0.0
0
LINE
8
0
6
CONTINUOUS
10
-0.097045
20
-0.011120
30
0.0
11
-0.097304
21
-0.011121
31
0.0
0
LINE
8
0
6
CONTINUOUS
10
-0.096786
20
-0.012137
30
0.0
11
-0.097045
21
-0.011120
31
0.0
0
LINE
8
0
6
CONTINUOUS
10
-0.096786
20
-0.012708
30
0.0
11
-0.096786
21
-0.012137
31
0.0
0
LINE
8
0
6
CONTINUOUS
10
-0.097045
20
-0.011120
30
0.0
11
-0.097045
21
-0.011724
31
0.0
0
LINE
8
0
6
CONTINUOUS
10
-0.096786
20
-0.012749
30
0.0
11
-0.096786
21
-0.012708
31
0.0
0
LINE
8
0
6
CONTINUOUS
10
-0.097045
20
-0.011724
30
0.0
11
-0.097045
21
-0.013566
31
0.0
0
LINE
8
0
6
CONTINUOUS
10
-0.097045
20
-0.013566
30
0.0
11
-0.097045
21
-0.016451
31
0.0
0
LINE
8
0
6
CONTINUOUS
10
-0.097045
20
-0.016451
30
0.0
11
-0.097045
21
-0.020235
31
0.0
0
LINE
8
0
6
CONTINUOUS
10
-0.096787
20
-0.024867
30
0.0
11
-0.096786
21
-0.020752
31
0.0
0
LINE
8
0
6
CONTINUOUS
10
-0.097045
20
-0.020235
30
0.0
11
-0.097046
21
-0.024589
31
0.0
0
LINE
8
0
6
CONTINUOUS
10
-0.096787
20
-0.029654
30
0.0
11
-0.096787
21
-0.024867
31
0.0
0
LINE
8
0
6
CONTINUOUS
10
-0.097046
20
-0.024589
30
0.0
11
-0.097046
21
-0.029654
31
0.0
0
LINE
8
0
6
CONTINUOUS
10
-0.138799
20
-0.048894
30
0.0
11
-0.097304
21
-0.048188
31
0.0
0
LINE
8
0
6
CONTINUOUS
10
-0.097304
20
-0.048188
30
0.0
11
-0.097045
21
-0.048188
31
0.0
0
LINE
8
0
6
CONTINUOUS
10
-0.097045
20
-0.047584
30
0.0
11
-0.097045
21
-0.048188
31
0.0
0
LINE
8
0
6
CONTINUOUS
10
-0.097045
20
-0.048188
30
0.0
11
-0.096786
21
-0.047171
31
0.0
0
LINE
8
0
6
CONTINUOUS
10
-0.097045
20
-0.045743
30
0.0
11
-0.097045
21
-0.047584
31
0.0
0
LINE
8
0
6
CONTINUOUS
10
-0.097045
20
-0.042857
30
0.0
11
-0.097045
21
-0.045743
31
0.0
0
LINE
8
0
6
CONTINUOUS
10
-0.097045
20
-0.039074
30
0.0
11
-0.097045
21
-0.042857
31
0.0
0
LINE
8
0
6
CONTINUOUS
10
-0.097046
20
-0.034720
30
0.0
11
-0.097045
21
-0.039074
31
0.0
0
LINE
8
0
6
CONTINUOUS
10
-0.096786
20
-0.038557
30
0.0
11
-0.096787
21
-0.034442
31
0.0
0
LINE
8
0
6
CONTINUOUS
10
-0.097046
20
-0.029654
30
0.0
11
-0.097046
21
-0.034720
31
0.0
0
LINE
8
0
6
CONTINUOUS
10
-0.096787
20
-0.034442
30
0.0
11
-0.096787
21
-0.029654
31
0.0
0
LINE
8
0
6
CONTINUOUS
10
-0.139218
20
-0.010407
30
0.0
11
-0.140502
21
-0.010916
31
0.0
0
LINE
8
0
6
CONTINUOUS
10
-0.140502
20
-0.011156
30
0.0
11
-0.140502
21
-0.010916
31
0.0
0
LINE
8
0
6
CONTINUOUS
10
-0.141034
20
-0.012188
30
0.0
11
-0.141034
21
-0.012420
31
0.0
0
LINE
8
0
6
CONTINUOUS
10
-0.140502
20
-0.010916
30
0.0
11
-0.141034
21
-0.012188
31
0.0
0
LINE
8
0
6
CONTINUOUS
10
-0.140504
20
-0.029654
30
0.0
11
-0.140504
21
-0.019212
31
0.0
0
LINE
8
0
6
CONTINUOUS
10
-0.141034
20
-0.019379
30
0.0
11
-0.141034
21
-0.029654
31
0.0
0
LINE
8
0
6
CONTINUOUS
10
-0.140504
20
-0.019212
30
0.0
11
-0.140504
21
-0.014876
31
0.0
0
LINE
8
0
6
CONTINUOUS
10
-0.141034
20
-0.015470
30
0.0
11
-0.141034
21
-0.019379
31
0.0
0
LINE
8
0
6
CONTINUOUS
10
-0.140504
20
-0.014876
30
0.0
11
-0.140504
21
-0.013144
31
0.0
0
LINE
8
0
6
CONTINUOUS
10
-0.141034
20
-0.014140
30
0.0
11
-0.141034
21
-0.015470
31
0.0
0
LINE
8
0
6
CONTINUOUS
10
-0.140504
20
-0.013144
30
0.0
11
-0.140503
21
-0.011991
31
0.0
0
LINE
8
0
6
CONTINUOUS
10
-0.141034
20
-0.013194
30
0.0
11
-0.141034
21
-0.014140
31
0.0
0
LINE
8
0
6
CONTINUOUS
10
-0.140503
20
-0.011991
30
0.0
11
-0.140502
21
-0.011156
31
0.0
0
LINE
8
0
6
CONTINUOUS
10
-0.141034
20
-0.012420
30
0.0
11
-0.141034
21
-0.013194
31
0.0
0
LINE
8
0
6
CONTINUOUS
10
-0.141034
20
-0.046889
30
0.0
11
-0.141034
21
-0.047121
31
0.0
0
LINE
8
0
6
CONTINUOUS
10
-0.141034
20
-0.047121
30
0.0
11
-0.140502
21
-0.048393
31
0.0
0
LINE
8
0
6
CONTINUOUS
10
-0.140502
20
-0.048153
30
0.0
11
-0.140502
21
-0.048393
31
0.0
0
LINE
8
0
6
CONTINUOUS
10
-0.140502
20
-0.048393
30
0.0
11
-0.139218
21
-0.048902
31
0.0
0
LINE
8
0
6
CONTINUOUS
10
-0.141034
20
-0.029654
30
0.0
11
-0.141034
21
-0.039929
31
0.0
0
LINE
8
0
6
CONTINUOUS
10
-0.140504
20
-0.029654
30
0.0
11
-0.140504
21
-0.040097
31
0.0
0
LINE
8
0
6
CONTINUOUS
10
-0.141034
20
-0.039929
30
0.0
11
-0.141034
21
-0.043838
31
0.0
0
LINE
8
0
6
CONTINUOUS
10
-0.140504
20
-0.040097
30
0.0
11
-0.140504
21
-0.044432
31
0.0
0
LINE
8
0
6
CONTINUOUS
10
-0.141034
20
-0.043838
30
0.0
11
-0.141034
21
-0.045169
31
0.0
0
LINE
8
0
6
CONTINUOUS
10
-0.140504
20
-0.044432
30
0.0
11
-0.140504
21
-0.046164
31
0.0
0
LINE
8
0
6
CONTINUOUS
10
-0.141034
20
-0.045169
30
0.0
11
-0.141034
21
-0.046114
31
0.0
0
LINE
8
0
6
CONTINUOUS
10
-0.140504
20
-0.046164
30
0.0
11
-0.140503
21
-0.047317
31
0.0
0
LINE
8
0
6
CONTINUOUS
10
-0.141034
20
-0.046114
30
0.0
11
-0.141034
21
-0.046889
31
0.0
0
LINE
8
0
6
CONTINUOUS
10
-0.140503
20
-0.047317
30
0.0
11
-0.140502
21
-0.048153
31
0.0
0
LINE
8
0
6
CONTINUOUS
10
-0.138799
20
-0.010414
30
0.0
11
-0.139218
21
-0.010407
31
0.0
0
LINE
8
0
6
CONTINUOUS
10
-0.139218
20
-0.048902
30
0.0
11
-0.138799
21
-0.048894
31
0.0
0
LINE
8
0
6
CONTINUOUS
10
-0.067155
20
-0.048974
30
0.0
11
0.000000
21
-0.049246
31
0.0
0
LINE
8
0
6
CONTINUOUS
10
-0.059329
20
0.000659
30
0.0
11
-0.059487
21
0.004199
31
0.0
0
LINE
8
0
6
CONTINUOUS
10
-0.084324
20
-0.048816
30
0.0
11
-0.074749
21
-0.048943
31
0.0
0
LINE
8
0
6
CONTINUOUS
10
-0.096268
20
-0.048550
30
0.0
11
-0.084324
21
-0.048816
31
0.0
0
LINE
8
0
6
CONTINUOUS
10
-0.074749
20
-0.048943
30
0.0
11
-0.067155
21
-0.048974
31
0.0
0
LINE
8
0
6
CONTINUOUS
10
-0.090906
20
0.004198
30
0.0
11
-0.091111
21
-0.007736
31
0.0
0
LINE
8
0
6
CONTINUOUS
10
-0.091111
20
-0.007736
30
0.0
11
-0.092309
21
-0.010025
31
0.0
0
LINE
8
0
6
CONTINUOUS
10
-0.097113
20
-0.011021
30
0.0
11
-0.095991
21
-0.011679
31
0.0
0
LINE
8
0
6
CONTINUOUS
10
-0.094481
20
-0.010756
30
0.0
11
-0.097113
21
-0.011021
31
0.0
0
LINE
8
0
6
CONTINUOUS
10
-0.058169
20
-0.001391
30
0.0
11
-0.059329
21
0.000659
31
0.0
0
LINE
8
0
6
CONTINUOUS
10
-0.091994
20
-0.009793
30
0.0
11
-0.094481
21
-0.010756
31
0.0
0
LINE
8
0
6
CONTINUOUS
10
-0.090619
20
-0.010229
30
0.0
11
-0.091994
21
-0.009793
31
0.0
0
LINE
8
0
6
CONTINUOUS
10
-0.088366
20
-0.011187
30
0.0
11
-0.090619
21
-0.010229
31
0.0
0
LINE
8
0
6
CONTINUOUS
10
-0.085025
20
-0.012239
30
0.0
11
-0.088366
21
-0.011187
31
0.0
0
LINE
8
0
6
CONTINUOUS
10
-0.055200
20
-0.001753
30
0.0
11
-0.055913
21
-0.001662
31
0.0
0
LINE
8
0
6
CONTINUOUS
10
-0.055923
20
-0.002270
30
0.0
11
-0.058966
21
-0.000541
31
0.0
0
LINE
8
0
6
CONTINUOUS
10
-0.058169
20
-0.001391
30
0.0
11
-0.058656
21
-0.003178
31
0.0
0
LINE
8
0
6
CONTINUOUS
10
-0.058656
20
-0.003178
30
0.0
11
-0.059950
21
-0.006077
31
0.0
0
LINE
8
0
6
CONTINUOUS
10
-0.059950
20
-0.006077
30
0.0
11
-0.061916
21
-0.009495
31
0.0
0
LINE
8
0
6
CONTINUOUS
10
-0.061916
20
-0.009495
30
0.0
11
-0.065252
21
-0.012503
31
0.0
0
LINE
8
0
6
CONTINUOUS
10
-0.071133
20
0.004737
30
0.0
11
-0.075268
21
0.004738
31
0.0
0
LINE
8
0
6
CONTINUOUS
10
-0.059937
20
0.004737
30
0.0
11
-0.061520
21
0.004737
31
0.0
0
LINE
8
0
6
CONTINUOUS
10
-0.067279
20
0.004737
30
0.0
11
-0.071133
21
0.004737
31
0.0
0
LINE
8
0
6
CONTINUOUS
10
-0.059495
20
0.004736
30
0.0
11
-0.059937
21
0.004737
31
0.0
0
LINE
8
0
6
CONTINUOUS
10
-0.059487
20
0.004199
30
0.0
11
-0.059495
21
0.004736
31
0.0
0
LINE
8
0
6
CONTINUOUS
10
-0.061520
20
0.004737
30
0.0
11
-0.064010
21
0.004738
31
0.0
0
LINE
8
0
6
CONTINUOUS
10
-0.090472
20
0.004736
30
0.0
11
-0.090902
21
0.004735
31
0.0
0
LINE
8
0
6
CONTINUOUS
10
-0.090902
20
0.004735
30
0.0
11
-0.090906
21
0.004198
31
0.0
0
LINE
8
0
6
CONTINUOUS
10
-0.088905
20
0.004736
30
0.0
11
-0.090472
21
0.004736
31
0.0
0
LINE
8
0
6
CONTINUOUS
10
-0.086445
20
0.004737
30
0.0
11
-0.088905
21
0.004736
31
0.0
0
LINE
8
0
6
CONTINUOUS
10
-0.083194
20
0.004736
30
0.0
11
-0.086445
21
0.004737
31
0.0
0
LINE
8
0
6
CONTINUOUS
10
-0.075268
20
0.004738
30
0.0
11
-0.079363
21
0.004737
31
0.0
0
LINE
8
0
6
CONTINUOUS
10
-0.079363
20
0.004737
30
0.0
11
-0.083194
21
0.004736
31
0.0
0
LINE
8
0
6
CONTINUOUS
10
0.000000
20
-0.001754
30
0.0
11
-0.055913
21
-0.001662
31
0.0
0
LINE
8
0
6
CONTINUOUS
10
-0.096528
20
-0.048548
30
0.0
11
-0.096268
21
-0.048550
31
0.0
0
LINE
8
0
6
CONTINUOUS
10
-0.096788
20
-0.046869
30
0.0
11
-0.096788
21
-0.047509
31
0.0
0
LINE
8
0
6
CONTINUOUS
10
-0.096528
20
-0.048548
30
0.0
11
-0.096528
21
-0.047870
31
0.0
0
LINE
8
0
6
CONTINUOUS
10
-0.096788
20
-0.047509
30
0.0
11
-0.096528
21
-0.048548
31
0.0
0
LINE
8
0
6
CONTINUOUS
10
-0.096791
20
-0.045085
30
0.0
11
-0.096788
21
-0.046869
31
0.0
0
LINE
8
0
6
CONTINUOUS
10
-0.096528
20
-0.047870
30
0.0
11
-0.096530
21
-0.045982
31
0.0
0
LINE
8
0
6
CONTINUOUS
10
-0.096788
20
-0.042190
30
0.0
11
-0.096791
21
-0.045085
31
0.0
0
LINE
8
0
6
CONTINUOUS
10
-0.096530
20
-0.045982
30
0.0
11
-0.096528
21
-0.042919
31
0.0
0
LINE
8
0
6
CONTINUOUS
10
-0.096786
20
-0.038557
30
0.0
11
-0.096788
21
-0.042190
31
0.0
0
LINE
8
0
6
CONTINUOUS
10
-0.096787
20
-0.038421
30
0.0
11
-0.096786
21
-0.038557
31
0.0
0
LINE
8
0
6
CONTINUOUS
10
-0.096528
20
-0.042919
30
0.0
11
-0.096528
21
-0.038931
31
0.0
0
LINE
8
0
6
CONTINUOUS
10
-0.096528
20
-0.038931
30
0.0
11
-0.096528
21
-0.034336
31
0.0
0
LINE
8
0
6
CONTINUOUS
10
-0.096528
20
-0.034336
30
0.0
11
-0.096527
21
-0.029454
31
0.0
0
LINE
8
0
6
CONTINUOUS
10
-0.096786
20
-0.024884
30
0.0
11
-0.096786
21
-0.029465
31
0.0
0
LINE
8
0
6
CONTINUOUS
10
-0.096527
20
-0.029454
30
0.0
11
-0.096527
21
-0.024606
31
0.0
0
LINE
8
0
6
CONTINUOUS
10
-0.096527
20
-0.024606
30
0.0
11
-0.096527
21
-0.020153
31
0.0
0
LINE
8
0
6
CONTINUOUS
10
-0.096786
20
-0.017111
30
0.0
11
-0.096786
21
-0.020675
31
0.0
0
LINE
8
0
6
CONTINUOUS
10
-0.096527
20
-0.020153
30
0.0
11
-0.096527
21
-0.016382
31
0.0
0
LINE
8
0
6
CONTINUOUS
10
-0.096786
20
-0.014345
30
0.0
11
-0.096786
21
-0.017111
31
0.0
0
LINE
8
0
6
CONTINUOUS
10
-0.096527
20
-0.016382
30
0.0
11
-0.096527
21
-0.013454
31
0.0
0
LINE
8
0
6
CONTINUOUS
10
-0.096527
20
-0.011119
30
0.0
11
-0.096786
21
-0.012137
31
0.0
0
LINE
8
0
6
CONTINUOUS
10
-0.096527
20
-0.011766
30
0.0
11
-0.096527
21
-0.011119
31
0.0
0
LINE
8
0
6
CONTINUOUS
10
-0.096786
20
-0.012749
30
0.0
11
-0.096786
21
-0.014345
31
0.0
0
LINE
8
0
6
CONTINUOUS
10
-0.096527
20
-0.013454
30
0.0
11
-0.096527
21
-0.011766
31
0.0
0
LINE
8
0
6
CONTINUOUS
10
-0.067279
20
0.004737
30
0.0
11
-0.064010
21
0.004738
31
0.0
0
LINE
8
0
6
CONTINUOUS
10
0.109136
20
0.042377
30
0.0
11
0.109484
21
0.042700
31
0.0
0
LINE
8
0
6
CONTINUOUS
10
0.040515
20
0.042700
30
0.0
11
0.040864
21
0.042377
31
0.0
0
LINE
8
0
6
CONTINUOUS
10
0.109982
20
0.043837
30
0.0
11
0.109982
21
0.044225
31
0.0
0
LINE
8
0
6
CONTINUOUS
10
0.040018
20
0.044225
30
0.0
11
0.040018
21
0.043837
31
0.0
0
LINE
8
0
6
CONTINUOUS
10
0.109982
20
0.044225
30
0.0
11
0.109982
21
0.048811
31
0.0
0
LINE
8
0
6
CONTINUOUS
10
0.040018
20
0.048811
30
0.0
11
0.040018
21
0.044225
31
0.0
0
LINE
8
0
6
CONTINUOUS
10
0.109982
20
0.048811
30
0.0
11
0.109982
21
0.049246
31
0.0
0
LINE
8
0
6
CONTINUOUS
10
0.109982
20
0.049246
30
0.0
11
0.109105
21
0.049246
31
0.0
0
LINE
8
0
6
CONTINUOUS
10
0.109105
20
0.049246
30
0.0
11
0.106518
21
0.049246
31
0.0
0
LINE
8
0
6
CONTINUOUS
10
0.106518
20
0.049246
30
0.0
11
0.102350
21
0.049246
31
0.0
0
LINE
8
0
6
CONTINUOUS
10
0.102350
20
0.049246
30
0.0
11
0.096811
21
0.049246
31
0.0
0
LINE
8
0
6
CONTINUOUS
10
0.096811
20
0.049246
30
0.0
11
0.090178
21
0.049246
31
0.0
0
LINE
8
0
6
CONTINUOUS
10
0.090178
20
0.049246
30
0.0
11
0.082784
21
0.049246
31
0.0
0
LINE
8
0
6
CONTINUOUS
10
0.082784
20
0.049246
30
0.0
11
0.075000
21
0.049246
31
0.0
0
LINE
8
0
6
CONTINUOUS
10
0.075000
20
0.049246
30
0.0
11
0.067216
21
0.049246
31
0.0
0
LINE
8
0
6
CONTINUOUS
10
0.067216
20
0.049246
30
0.0
11
0.059822
21
0.049246
31
0.0
0
LINE
8
0
6
CONTINUOUS
10
0.059822
20
0.049246
30
0.0
11
0.053189
21
0.049246
31
0.0
0
LINE
8
0
6
CONTINUOUS
10
0.053189
20
0.049246
30
0.0
11
0.047650
21
0.049246
31
0.0
0
LINE
8
0
6
CONTINUOUS
10
0.043482
20
0.049246
30
0.0
11
0.040895
21
0.049246
31
0.0
0
LINE
8
0
6
CONTINUOUS
10
0.040018
20
0.049246
30
0.0
11
0.040018
21
0.048811
31
0.0
0
LINE
8
0
6
CONTINUOUS
10
0.109835
20
0.043224
30
0.0
11
0.109982
21
0.043837
31
0.0
0
LINE
8
0
6
CONTINUOUS
10
0.109484
20
0.042700
30
0.0
11
0.109835
21
0.043224
31
0.0
0
LINE
8
0
6
CONTINUOUS
10
0.040018
20
0.043837
30
0.0
11
0.040165
21
0.043224
31
0.0
0
LINE
8
0
6
CONTINUOUS
10
0.040165
20
0.043224
30
0.0
11
0.040515
21
0.042700
31
0.0
0
LINE
8
0
6
CONTINUOUS
10
0.089949
20
0.024584
30
0.0
11
0.109136
21
0.042377
31
0.0
0
LINE
8
0
6
CONTINUOUS
10
0.040864
20
0.042377
30
0.0
11
0.060051
21
0.024584
31
0.0
0
LINE
8
0
6
CONTINUOUS
10
0.089338
20
0.024359
30
0.0
11
0.089706
21
0.024359
31
0.0
0
LINE
8
0
6
CONTINUOUS
10
0.089706
20
0.024359
30
0.0
11
0.089949
21
0.024584
31
0.0
0
LINE
8
0
6
CONTINUOUS
10
0.088250
20
0.024359
30
0.0
11
0.089338
21
0.024359
31
0.0
0
LINE
8
0
6
CONTINUOUS
10
0.086498
20
0.024359
30
0.0
11
0.088250
21
0.024359
31
0.0
0
LINE
8
0
6
CONTINUOUS
10
0.084169
20
0.024359
30
0.0
11
0.086498
21
0.024359
31
0.0
0
LINE
8
0
6
CONTINUOUS
10
0.081381
20
0.024359
30
0.0
11
0.084169
21
0.024359
31
0.0
0
LINE
8
0
6
CONTINUOUS
10
0.078272
20
0.024359
30
0.0
11
0.081381
21
0.024359
31
0.0
0
LINE
8
0
6
CONTINUOUS
10
0.075000
20
0.024359
30
0.0
11
0.078272
21
0.024359
31
0.0
0
LINE
8
0
6
CONTINUOUS
10
0.071727
20
0.024359
30
0.0
11
0.075000
21
0.024359
31
0.0
0
LINE
8
0
6
CONTINUOUS
10
0.068619
20
0.024359
30
0.0
11
0.071727
21
0.024359
31
0.0
0
LINE
8
0
6
CONTINUOUS
10
0.065831
20
0.024359
30
0.0
11
0.068619
21
0.024359
31
0.0
0
LINE
8
0
6
CONTINUOUS
10
0.063502
20
0.024359
30
0.0
11
0.065831
21
0.024359
31
0.0
0
LINE
8
0
6
CONTINUOUS
10
0.061750
20
0.024359
30
0.0
11
0.063502
21
0.024359
31
0.0
0
LINE
8
0
6
CONTINUOUS
10
0.060662
20
0.024359
30
0.0
11
0.061750
21
0.024359
31
0.0
0
LINE
8
0
6
CONTINUOUS
10
0.060293
20
0.024359
30
0.0
11
0.060662
21
0.024359
31
0.0
0
LINE
8
0
6
CONTINUOUS
10
0.060051
20
0.024584
30
0.0
11
0.060293
21
0.024359
31
0.0
0
LINE
8
0
6
CONTINUOUS
10
-0.040864
20
0.042377
30
0.0
11
-0.040516
21
0.042699
31
0.0
0
LINE
8
0
6
CONTINUOUS
10
-0.109485
20
0.042699
30
0.0
11
-0.109136
21
0.042377
31
0.0
0
LINE
8
0
6
CONTINUOUS
10
-0.040018
20
0.043837
30
0.0
11
-0.040018
21
0.044225
31
0.0
0
LINE
8
0
6
CONTINUOUS
10
-0.109982
20
0.044225
30
0.0
11
-0.109982
21
0.043837
31
0.0
0
LINE
8
0
6
CONTINUOUS
10
-0.040018
20
0.044225
30
0.0
11
-0.040018
21
0.048811
31
0.0
0
LINE
8
0
6
CONTINUOUS
10
-0.109982
20
0.048811
30
0.0
11
-0.109982
21
0.044225
31
0.0
0
LINE
8
0
6
CONTINUOUS
10
-0.040018
20
0.048811
30
0.0
11
-0.040018
21
0.049246
31
0.0
0
LINE
8
0
6
CONTINUOUS
10
-0.040018
20
0.049246
30
0.0
11
-0.040895
21
0.049246
31
0.0
0
LINE
8
0
6
CONTINUOUS
10
-0.043482
20
0.049246
30
0.0
11
-0.047650
21
0.049246
31
0.0
0
LINE
8
0
6
CONTINUOUS
10
-0.047650
20
0.049246
30
0.0
11
-0.053189
21
0.049246
31
0.0
0
LINE
8
0
6
CONTINUOUS
10
-0.053189
20
0.049246
30
0.0
11
-0.059822
21
0.049246
31
0.0
0
LINE
8
0
6
CONTINUOUS
10
-0.059822
20
0.049246
30
0.0
11
-0.067216
21
0.049246
31
0.0
0
LINE
8
0
6
CONTINUOUS
10
-0.067216
20
0.049246
30
0.0
11
-0.075000
21
0.049246
31
0.0
0
LINE
8
0
6
CONTINUOUS
10
-0.075000
20
0.049246
30
0.0
11
-0.082784
21
0.049246
31
0.0
0
LINE
8
0
6
CONTINUOUS
10
-0.082784
20
0.049246
30
0.0
11
-0.090178
21
0.049246
31
0.0
0
LINE
8
0
6
CONTINUOUS
10
-0.090178
20
0.049246
30
0.0
11
-0.096811
21
0.049246
31
0.0
0
LINE
8
0
6
CONTINUOUS
10
-0.096811
20
0.049246
30
0.0
11
-0.102350
21
0.049246
31
0.0
0
LINE
8
0
6
CONTINUOUS
10
-0.102350
20
0.049246
30
0.0
11
-0.106518
21
0.049246
31
0.0
0
LINE
8
0
6
CONTINUOUS
10
-0.106518
20
0.049246
30
0.0
11
-0.109105
21
0.049246
31
0.0
0
LINE
8
0
6
CONTINUOUS
10
-0.109982
20
0.049246
30
0.0
11
-0.109982
21
0.048811
31
0.0
0
LINE
8
0
6
CONTINUOUS
10
-0.040165
20
0.043224
30
0.0
11
-0.040018
21
0.043837
31
0.0
0
LINE
8
0
6
CONTINUOUS
10
-0.040516
20
0.042699
30
0.0
11
-0.040165
21
0.043224
31
0.0
0
LINE
8
0
6
CONTINUOUS
10
-0.109982
20
0.043837
30
0.0
11
-0.109835
21
0.043224
31
0.0
0
LINE
8
0
6
CONTINUOUS
10
-0.109835
20
0.043224
30
0.0
11
-0.109485
21
0.042699
31
0.0
0
LINE
8
0
6
CONTINUOUS
10
-0.060051
20
0.024584
30
0.0
11
-0.040864
21
0.042377
31
0.0
0
LINE
8
0
6
CONTINUOUS
10
-0.109136
20
0.042377
30
0.0
11
-0.089949
21
0.024584
31
0.0
0
LINE
8
0
6
CONTINUOUS
10
-0.060662
20
0.024359
30
0.0
11
-0.060294
21
0.024359
31
0.0
0
LINE
8
0
6
CONTINUOUS
10
-0.060294
20
0.024359
30
0.0
11
-0.060051
21
0.024584
31
0.0
0
LINE
8
0
6
CONTINUOUS
10
-0.061750
20
0.024359
30
0.0
11
-0.060662
21
0.024359
31
0.0
0
LINE
8
0
6
CONTINUOUS
10
-0.063502
20
0.024359
30
0.0
11
-0.061750
21
0.024359
31
0.0
0
LINE
8
0
6
CONTINUOUS
10
-0.065831
20
0.024359
30
0.0
11
-0.063502
21
0.024359
31
0.0
0
LINE
8
0
6
CONTINUOUS
10
-0.068619
20
0.024359
30
0.0
11
-0.065831
21
0.024359
31
0.0
0
LINE
8
0
6
CONTINUOUS
10
-0.071728
20
0.024359
30
0.0
11
-0.068619
21
0.024359
31
0.0
0
LINE
8
0
6
CONTINUOUS
10
-0.075000
20
0.024359
30
0.0
11
-0.071728
21
0.024359
31
0.0
0
LINE
8
0
6
CONTINUOUS
10
-0.078273
20
0.024359
30
0.0
11
-0.075000
21
0.024359
31
0.0
0
LINE
8
0
6
CONTINUOUS
10
-0.081381
20
0.024359
30
0.0
11
-0.078273
21
0.024359
31
0.0
0
LINE
8
0
6
CONTINUOUS
10
-0.084169
20
0.024359
30
0.0
11
-0.081381
21
0.024359
31
0.0
0
LINE
8
0
6
CONTINUOUS
10
-0.086498
20
0.024359
30
0.0
11
-0.084169
21
0.024359
31
0.0
0
LINE
8
0
6
CONTINUOUS
10
-0.088250
20
0.024359
30
0.0
11
-0.086498
21
0.024359
31
0.0
0
LINE
8
0
6
CONTINUOUS
10
-0.089338
20
0.024359
30
0.0
11
-0.088250
21
0.024359
31
0.0
0
LINE
8
0
6
CONTINUOUS
10
-0.089707
20
0.024359
30
0.0
11
-0.089338
21
0.024359
31
0.0
0
LINE
8
0
6
CONTINUOUS
10
-0.089949
20
0.024584
30
0.0
11
-0.089707
21
0.024359
31
0.0
0
LINE
8
0
6
CONTINUOUS
10
-0.089203
20
0.007246
30
0.0
11
-0.087819
21
0.007246
31
0.0
0
LINE
8
0
6
CONTINUOUS
10
-0.080867
20
0.007990
30
0.0
11
-0.085683
21
0.008068
31
0.0
0
LINE
8
0
6
CONTINUOUS
10
-0.080867
20
0.007990
30
0.0
11
-0.080473
21
0.007918
31
0.0
0
LINE
8
0
6
CONTINUOUS
10
-0.085890
20
0.007988
30
0.0
11
-0.085683
21
0.008068
31
0.0
0
LINE
8
0
6
CONTINUOUS
10
-0.085890
20
0.007988
30
0.0
11
-0.087819
21
0.007246
31
0.0
0
LINE
8
0
6
CONTINUOUS
10
-0.076792
20
0.007246
30
0.0
11
-0.080473
21
0.007918
31
0.0
0
LINE
8
0
6
CONTINUOUS
10
-0.087819
20
0.007246
30
0.0
11
-0.076792
21
0.007246
31
0.0
0
LINE
8
0
6
CONTINUOUS
10
-0.065030
20
0.007990
30
0.0
11
-0.069748
21
0.008068
31
0.0
0
LINE
8
0
6
CONTINUOUS
10
-0.065030
20
0.007990
30
0.0
11
-0.064833
21
0.007918
31
0.0
0
LINE
8
0
6
CONTINUOUS
10
-0.070161
20
0.007988
30
0.0
11
-0.069748
21
0.008068
31
0.0
0
LINE
8
0
6
CONTINUOUS
10
-0.070161
20
0.007988
30
0.0
11
-0.074019
21
0.007246
31
0.0
0
LINE
8
0
6
CONTINUOUS
10
-0.062993
20
0.007246
30
0.0
11
-0.064833
21
0.007918
31
0.0
0
LINE
8
0
6
CONTINUOUS
10
-0.074019
20
0.007246
30
0.0
11
-0.062993
21
0.007246
31
0.0
0
LINE
8
0
6
CONTINUOUS
10
-0.059567
20
0.007990
30
0.0
11
-0.059468
21
0.008068
31
0.0
0
LINE
8
0
6
CONTINUOUS
10
-0.059763
20
0.007918
30
0.0
11
-0.059567
21
0.007990
31
0.0
0
LINE
8
0
6
CONTINUOUS
10
-0.059675
20
0.007988
30
0.0
11
-0.059468
21
0.008068
31
0.0
0
LINE
8
0
6
CONTINUOUS
10
-0.059468
20
0.008068
30
0.0
11
-0.059468
21
0.008422
31
0.0
0
LINE
8
0
6
CONTINUOUS
10
-0.059468
20
0.008422
30
0.0
11
-0.059468
21
0.014785
31
0.0
0
LINE
8
0
6
CONTINUOUS
10
-0.061604
20
0.007246
30
0.0
11
-0.059763
21
0.007918
31
0.0
0
LINE
8
0
6
CONTINUOUS
10
-0.059675
20
0.007988
30
0.0
11
-0.061604
21
0.007246
31
0.0
0
LINE
8
0
6
CONTINUOUS
10
-0.091338
20
0.008068
30
0.0
11
-0.091240
21
0.007990
31
0.0
0
LINE
8
0
6
CONTINUOUS
10
-0.091338
20
0.008422
30
0.0
11
-0.091338
21
0.008068
31
0.0
0
LINE
8
0
6
CONTINUOUS
10
-0.091240
20
0.007990
30
0.0
11
-0.091043
21
0.007918
31
0.0
0
LINE
8
0
6
CONTINUOUS
10
-0.091338
20
0.014785
30
0.0
11
-0.091338
21
0.008422
31
0.0
0
LINE
8
0
6
CONTINUOUS
10
-0.076792
20
0.007246
30
0.0
11
-0.074019
21
0.007246
31
0.0
0
LINE
8
0
6
CONTINUOUS
10
-0.062993
20
0.007246
30
0.0
11
-0.061604
21
0.007246
31
0.0
0
LINE
8
0
6
CONTINUOUS
10
-0.091043
20
0.007918
30
0.0
11
-0.089203
21
0.007246
31
0.0
0
LINE
8
0
6
CONTINUOUS
10
-0.087819
20
0.022325
30
0.0
11
-0.089203
21
0.022325
31
0.0
0
LINE
8
0
6
CONTINUOUS
10
-0.085683
20
0.021503
30
0.0
11
-0.080867
21
0.021580
31
0.0
0
LINE
8
0
6
CONTINUOUS
10
-0.080473
20
0.021652
30
0.0
11
-0.080867
21
0.021580
31
0.0
0
LINE
8
0
6
CONTINUOUS
10
-0.085683
20
0.021503
30
0.0
11
-0.085890
21
0.021582
31
0.0
0
LINE
8
0
6
CONTINUOUS
10
-0.076792
20
0.022325
30
0.0
11
-0.087819
21
0.022325
31
0.0
0
LINE
8
0
6
CONTINUOUS
10
-0.080473
20
0.021652
30
0.0
11
-0.076792
21
0.022325
31
0.0
0
LINE
8
0
6
CONTINUOUS
10
-0.087819
20
0.022325
30
0.0
11
-0.085890
21
0.021582
31
0.0
0
LINE
8
0
6
CONTINUOUS
10
-0.069748
20
0.021503
30
0.0
11
-0.065030
21
0.021580
31
0.0
0
LINE
8
0
6
CONTINUOUS
10
-0.064833
20
0.021652
30
0.0
11
-0.065030
21
0.021580
31
0.0
0
LINE
8
0
6
CONTINUOUS
10
-0.069748
20
0.021503
30
0.0
11
-0.070161
21
0.021582
31
0.0
0
LINE
8
0
6
CONTINUOUS
10
-0.062993
20
0.022325
30
0.0
11
-0.074019
21
0.022325
31
0.0
0
LINE
8
0
6
CONTINUOUS
10
-0.064833
20
0.021652
30
0.0
11
-0.062993
21
0.022325
31
0.0
0
LINE
8
0
6
CONTINUOUS
10
-0.074019
20
0.022325
30
0.0
11
-0.070161
21
0.021582
31
0.0
0
LINE
8
0
6
CONTINUOUS
10
-0.059567
20
0.021580
30
0.0
11
-0.059763
21
0.021652
31
0.0
0
LINE
8
0
6
CONTINUOUS
10
-0.059468
20
0.021503
30
0.0
11
-0.059567
21
0.021580
31
0.0
0
LINE
8
0
6
CONTINUOUS
10
-0.059468
20
0.021149
30
0.0
11
-0.059468
21
0.021503
31
0.0
0
LINE
8
0
6
CONTINUOUS
10
-0.059468
20
0.021503
30
0.0
11
-0.059675
21
0.021582
31
0.0
0
LINE
8
0
6
CONTINUOUS
10
-0.059468
20
0.014785
30
0.0
11
-0.059468
21
0.021149
31
0.0
0
LINE
8
0
6
CONTINUOUS
10
-0.059763
20
0.021652
30
0.0
11
-0.061604
21
0.022325
31
0.0
0
LINE
8
0
6
CONTINUOUS
10
-0.061604
20
0.022325
30
0.0
11
-0.059675
21
0.021582
31
0.0
0
LINE
8
0
6
CONTINUOUS
10
-0.091338
20
0.021503
30
0.0
11
-0.091338
21
0.021149
31
0.0
0
LINE
8
0
6
CONTINUOUS
10
-0.091240
20
0.021580
30
0.0
11
-0.091338
21
0.021503
31
0.0
0
LINE
8
0
6
CONTINUOUS
10
-0.091043
20
0.021652
30
0.0
11
-0.091240
21
0.021580
31
0.0
0
LINE
8
0
6
CONTINUOUS
10
-0.091338
20
0.021149
30
0.0
11
-0.091338
21
0.014785
31
0.0
0
LINE
8
0
6
CONTINUOUS
10
-0.074019
20
0.022325
30
0.0
11
-0.076792
21
0.022325
31
0.0
0
LINE
8
0
6
CONTINUOUS
10
-0.061604
20
0.022325
30
0.0
11
-0.062993
21
0.022325
31
0.0
0
LINE
8
0
6
CONTINUOUS
10
-0.089203
20
0.022325
30
0.0
11
-0.091043
21
0.021652
31
0.0
0
LINE
8
0
6
CONTINUOUS
10
0.087819
20
0.007246
30
0.0
11
0.089203
21
0.007246
31
0.0
0
LINE
8
0
6
CONTINUOUS
10
0.085683
20
0.008068
30
0.0
11
0.080867
21
0.007990
31
0.0
0
LINE
8
0
6
CONTINUOUS
10
0.080473
20
0.007918
30
0.0
11
0.080867
21
0.007990
31
0.0
0
LINE
8
0
6
CONTINUOUS
10
0.085683
20
0.008068
30
0.0
11
0.085890
21
0.007988
31
0.0
0
LINE
8
0
6
CONTINUOUS
10
0.076792
20
0.007246
30
0.0
11
0.087819
21
0.007246
31
0.0
0
LINE
8
0
6
CONTINUOUS
10
0.080473
20
0.007918
30
0.0
11
0.076792
21
0.007246
31
0.0
0
LINE
8
0
6
CONTINUOUS
10
0.087819
20
0.007246
30
0.0
11
0.085890
21
0.007988
31
0.0
0
LINE
8
0
6
CONTINUOUS
10
0.069748
20
0.008068
30
0.0
11
0.065030
21
0.007990
31
0.0
0
LINE
8
0
6
CONTINUOUS
10
0.064833
20
0.007918
30
0.0
11
0.065030
21
0.007990
31
0.0
0
LINE
8
0
6
CONTINUOUS
10
0.069748
20
0.008068
30
0.0
11
0.070161
21
0.007988
31
0.0
0
LINE
8
0
6
CONTINUOUS
10
0.062993
20
0.007246
30
0.0
11
0.074019
21
0.007246
31
0.0
0
LINE
8
0
6
CONTINUOUS
10
0.064833
20
0.007918
30
0.0
11
0.062993
21
0.007246
31
0.0
0
LINE
8
0
6
CONTINUOUS
10
0.074019
20
0.007246
30
0.0
11
0.070161
21
0.007988
31
0.0
0
LINE
8
0
6
CONTINUOUS
10
0.059567
20
0.007990
30
0.0
11
0.059764
21
0.007918
31
0.0
0
LINE
8
0
6
CONTINUOUS
10
0.059468
20
0.008068
30
0.0
11
0.059567
21
0.007990
31
0.0
0
LINE
8
0
6
CONTINUOUS
10
0.059468
20
0.008422
30
0.0
11
0.059468
21
0.008068
31
0.0
0
LINE
8
0
6
CONTINUOUS
10
0.059468
20
0.008068
30
0.0
11
0.059675
21
0.007988
31
0.0
0
LINE
8
0
6
CONTINUOUS
10
0.059468
20
0.014785
30
0.0
11
0.059468
21
0.008422
31
0.0
0
LINE
8
0
6
CONTINUOUS
10
0.059764
20
0.007918
30
0.0
11
0.061604
21
0.007246
31
0.0
0
LINE
8
0
6
CONTINUOUS
10
0.061604
20
0.007246
30
0.0
11
0.059675
21
0.007988
31
0.0
0
LINE
8
0
6
CONTINUOUS
10
0.091338
20
0.008068
30
0.0
11
0.091338
21
0.008422
31
0.0
0
LINE
8
0
6
CONTINUOUS
10
0.091240
20
0.007990
30
0.0
11
0.091338
21
0.008068
31
0.0
0
LINE
8
0
6
CONTINUOUS
10
0.091043
20
0.007918
30
0.0
11
0.091240
21
0.007990
31
0.0
0
LINE
8
0
6
CONTINUOUS
10
0.091338
20
0.008422
30
0.0
11
0.091338
21
0.014785
31
0.0
0
LINE
8
0
6
CONTINUOUS
10
0.074019
20
0.007246
30
0.0
11
0.076792
21
0.007246
31
0.0
0
LINE
8
0
6
CONTINUOUS
10
0.061604
20
0.007246
30
0.0
11
0.062993
21
0.007246
31
0.0
0
LINE
8
0
6
CONTINUOUS
10
0.089203
20
0.007246
30
0.0
11
0.091043
21
0.007918
31
0.0
0
LINE
8
0
6
CONTINUOUS
10
0.089203
20
0.022325
30
0.0
11
0.087819
21
0.022325
31
0.0
0
LINE
8
0
6
CONTINUOUS
10
0.080867
20
0.021580
30
0.0
11
0.085683
21
0.021503
31
0.0
0
LINE
8
0
6
CONTINUOUS
10
0.080867
20
0.021580
30
0.0
11
0.080473
21
0.021652
31
0.0
0
LINE
8
0
6
CONTINUOUS
10
0.085890
20
0.021582
30
0.0
11
0.085683
21
0.021503
31
0.0
0
LINE
8
0
6
CONTINUOUS
10
0.085890
20
0.021582
30
0.0
11
0.087819
21
0.022325
31
0.0
0
LINE
8
0
6
CONTINUOUS
10
0.076792
20
0.022325
30
0.0
11
0.080473
21
0.021652
31
0.0
0
LINE
8
0
6
CONTINUOUS
10
0.087819
20
0.022325
30
0.0
11
0.076792
21
0.022325
31
0.0
0
LINE
8
0
6
CONTINUOUS
10
0.065030
20
0.021580
30
0.0
11
0.069748
21
0.021503
31
0.0
0
LINE
8
0
6
CONTINUOUS
10
0.065030
20
0.021580
30
0.0
11
0.064833
21
0.021652
31
0.0
0
LINE
8
0
6
CONTINUOUS
10
0.070161
20
0.021582
30
0.0
11
0.069748
21
0.021503
31
0.0
0
LINE
8
0
6
CONTINUOUS
10
0.070161
20
0.021582
30
0.0
11
0.074019
21
0.022325
31
0.0
0
LINE
8
0
6
CONTINUOUS
10
0.062993
20
0.022325
30
0.0
11
0.064833
21
0.021652
31
0.0
0
LINE
8
0
6
CONTINUOUS
10
0.074019
20
0.022325
30
0.0
11
0.062993
21
0.022325
31
0.0
0
LINE
8
0
6
CONTINUOUS
10
0.059567
20
0.021580
30
0.0
11
0.059468
21
0.021503
31
0.0
0
LINE
8
0
6
CONTINUOUS
10
0.059764
20
0.021652
30
0.0
11
0.059567
21
0.021580
31
0.0
0
LINE
8
0
6
CONTINUOUS
10
0.059675
20
0.021582
30
0.0
11
0.059468
21
0.021503
31
0.0
0
LINE
8
0
6
CONTINUOUS
10
0.059468
20
0.021503
30
0.0
11
0.059468
21
0.021149
31
0.0
0
LINE
8
0
6
CONTINUOUS
10
0.059468
20
0.021149
30
0.0
11
0.059468
21
0.014785
31
0.0
0
LINE
8
0
6
CONTINUOUS
10
0.061604
20
0.022325
30
0.0
11
0.059764
21
0.021652
31
0.0
0
LINE
8
0
6
CONTINUOUS
10
0.059675
20
0.021582
30
0.0
11
0.061604
21
0.022325
31
0.0
0
LINE
8
0
6
CONTINUOUS
10
0.091338
20
0.021503
30
0.0
11
0.091240
21
0.021580
31
0.0
0
LINE
8
0
6
CONTINUOUS
10
0.091338
20
0.021149
30
0.0
11
0.091338
21
0.021503
31
0.0
0
LINE
8
0
6
CONTINUOUS
10
0.091240
20
0.021580
30
0.0
11
0.091043
21
0.021652
31
0.0
0
LINE
8
0
6
CONTINUOUS
10
0.091338
20
0.014785
30
0.0
11
0.091338
21
0.021149
31
0.0
0
LINE
8
0
6
CONTINUOUS
10
0.076792
20
0.022325
30
0.0
11
0.074019
21
0.022325
31
0.0
0
LINE
8
0
6
CONTINUOUS
10
0.062993
20
0.022325
30
0.0
11
0.061604
21
0.022325
31
0.0
0
LINE
8
0
6
CONTINUOUS
10
0.091043
20
0.021652
30
0.0
11
0.089203
21
0.022325
31
0.0
0
LINE
8
0
6
CONTINUOUS
10
-0.088328
20
0.004746
30
0.0
11
-0.087333
21
0.004746
31
0.0
0
LINE
8
0
6
CONTINUOUS
10
-0.088752
20
0.024359
30
0.0
11
-0.088708
21
0.022325
31
0.0
0
LINE
8
0
6
CONTINUOUS
10
-0.088382
20
0.007246
30
0.0
11
-0.088328
21
0.004746
31
0.0
0
LINE
8
0
6
CONTINUOUS
10
-0.075251
20
0.004746
30
0.0
11
-0.070246
21
0.004746
31
0.0
0
LINE
8
0
6
CONTINUOUS
10
-0.066004
20
0.004746
30
0.0
11
-0.063169
21
0.004746
31
0.0
0
LINE
8
0
6
CONTINUOUS
10
-0.080255
20
0.004746
30
0.0
11
-0.075251
21
0.004746
31
0.0
0
LINE
8
0
6
CONTINUOUS
10
-0.087333
20
0.004746
30
0.0
11
-0.084498
21
0.004746
31
0.0
0
LINE
8
0
6
CONTINUOUS
10
-0.062174
20
0.004746
30
0.0
11
-0.062111
21
0.007246
31
0.0
0
LINE
8
0
6
CONTINUOUS
10
-0.061736
20
0.022325
30
0.0
11
-0.061685
21
0.024359
31
0.0
0
LINE
8
0
6
CONTINUOUS
10
-0.063169
20
0.004746
30
0.0
11
-0.062174
21
0.004746
31
0.0
0
LINE
8
0
6
CONTINUOUS
10
-0.070246
20
0.004746
30
0.0
11
-0.066004
21
0.004746
31
0.0
0
LINE
8
0
6
CONTINUOUS
10
-0.084498
20
0.004746
30
0.0
11
-0.080255
21
0.004746
31
0.0
0
LINE
8
0
6
CONTINUOUS
10
0.088328
20
0.004746
30
0.0
11
0.088382
21
0.007246
31
0.0
0
LINE
8
0
6
CONTINUOUS
10
0.088708
20
0.022325
30
0.0
11
0.088752
21
0.024359
31
0.0
0
LINE
8
0
6
CONTINUOUS
10
0.087333
20
0.004746
30
0.0
11
0.088328
21
0.004746
31
0.0
0
LINE
8
0
6
CONTINUOUS
10
0.070247
20
0.004746
30
0.0
11
0.075251
21
0.004746
31
0.0
0
LINE
8
0
6
CONTINUOUS
10
0.063169
20
0.004746
30
0.0
11
0.066004
21
0.004746
31
0.0
0
LINE
8
0
6
CONTINUOUS
10
0.075251
20
0.004746
30
0.0
11
0.080256
21
0.004746
31
0.0
0
LINE
8
0
6
CONTINUOUS
10
0.084498
20
0.004746
30
0.0
11
0.087333
21
0.004746
31
0.0
0
LINE
8
0
6
CONTINUOUS
10
0.062174
20
0.004746
30
0.0
11
0.063169
21
0.004746
31
0.0
0
LINE
8
0
6
CONTINUOUS
10
0.061685
20
0.024359
30
0.0
11
0.061736
21
0.022325
31
0.0
0
LINE
8
0
6
CONTINUOUS
10
0.062111
20
0.007246
30
0.0
11
0.062174
21
0.004746
31
0.0
0
LINE
8
0
6
CONTINUOUS
10
0.066004
20
0.004746
30
0.0
11
0.070247
21
0.004746
31
0.0
0
LINE
8
0
6
CONTINUOUS
10
0.080256
20
0.004746
30
0.0
11
0.084498
21
0.004746
31
0.0
0
LINE
8
0
6
CONTINUOUS
10
0.105465
20
0.049246
30
0.0
11
0.107966
21
0.049246
31
0.0
0
LINE
8
0
6
CONTINUOUS
10
0.106518
20
0.049246
30
0.0
11
0.105465
21
0.049246
31
0.0
0
LINE
8
0
6
CONTINUOUS
10
0.109105
20
0.049246
30
0.0
11
0.106518
21
0.049246
31
0.0
0
LINE
8
0
6
CONTINUOUS
10
0.107966
20
0.049246
30
0.0
11
0.109105
21
0.049246
31
0.0
0
LINE
8
0
6
CONTINUOUS
10
0.047650
20
0.049246
30
0.0
11
0.048563
21
0.049246
31
0.0
0
LINE
8
0
6
CONTINUOUS
10
0.043482
20
0.049246
30
0.0
11
0.047650
21
0.049246
31
0.0
0
LINE
8
0
6
CONTINUOUS
10
0.044535
20
0.049246
30
0.0
11
0.043482
21
0.049246
31
0.0
0
LINE
8
0
6
CONTINUOUS
10
0.040018
20
0.049246
30
0.0
11
0.040895
21
0.049246
31
0.0
0
LINE
8
0
6
CONTINUOUS
10
0.041186
20
0.049246
30
0.0
11
0.040018
21
0.049246
31
0.0
0
LINE
8
0
6
CONTINUOUS
10
0.042034
20
0.049246
30
0.0
11
0.044535
21
0.049246
31
0.0
0
LINE
8
0
6
CONTINUOUS
10
0.040895
20
0.049246
30
0.0
11
0.042034
21
0.049246
31
0.0
0
LINE
8
0
6
CONTINUOUS
10
0.043482
20
0.049246
30
0.0
11
0.040895
21
0.049246
31
0.0
0
LINE
8
0
6
CONTINUOUS
10
0.044535
20
0.049246
30
0.0
11
0.043482
21
0.049246
31
0.0
0
LINE
8
0
6
CONTINUOUS
10
-0.075000
20
0.049246
30
0.0
11
-0.067476
21
0.049246
31
0.0
0
LINE
8
0
6
CONTINUOUS
10
-0.067216
20
0.049246
30
0.0
11
-0.075000
21
0.049246
31
0.0
0
LINE
8
0
6
CONTINUOUS
10
-0.067476
20
0.049246
30
0.0
11
-0.060329
21
0.049246
31
0.0
0
LINE
8
0
6
CONTINUOUS
10
-0.059822
20
0.049246
30
0.0
11
-0.067216
21
0.049246
31
0.0
0
LINE
8
0
6
CONTINUOUS
10
-0.060329
20
0.049246
30
0.0
11
-0.059822
21
0.049246
31
0.0
0
LINE
8
0
6
CONTINUOUS
10
-0.048563
20
0.049246
30
0.0
11
-0.044535
21
0.049246
31
0.0
0
LINE
8
0
6
CONTINUOUS
10
-0.047650
20
0.049246
30
0.0
11
-0.048563
21
0.049246
31
0.0
0
LINE
8
0
6
CONTINUOUS
10
-0.043482
20
0.049246
30
0.0
11
-0.047650
21
0.049246
31
0.0
0
LINE
8
0
6
CONTINUOUS
10
-0.044535
20
0.049246
30
0.0
11
-0.043482
21
0.049246
31
0.0
0
LINE
8
0
6
CONTINUOUS
10
-0.040895
20
0.049246
30
0.0
11
-0.042034
21
0.049246
31
0.0
0
LINE
8
0
6
CONTINUOUS
10
-0.043482
20
0.049246
30
0.0
11
-0.040895
21
0.049246
31
0.0
0
LINE
8
0
6
CONTINUOUS
10
-0.107966
20
0.049246
30
0.0
11
-0.108814
21
0.049246
31
0.0
0
LINE
8
0
6
CONTINUOUS
10
-0.109982
20
0.049246
30
0.0
11
-0.109105
21
0.049246
31
0.0
0
LINE
8
0
6
CONTINUOUS
10
-0.108814
20
0.049246
30
0.0
11
-0.109982
21
0.049246
31
0.0
0
ENDSEC
0
EOF
