  0
SECTION
  2
HEADER
  9
$ACADVER
  1
AC1015
  9
$ACADMAINTVER
 70
     6
  9
$DWGCODEPAGE
  3
ANSI_1252
  9
$INSBASE
 10
0.0
 20
0.0
 30
0.0
  9
$EXTMIN
 10
0.1045
 20
0.193995
 30
0.0
  9
$EXTMAX
 10
242.7645
 20
275.805983
 30
0.0
  9
$LIMMIN
 10
0.0
 20
0.0
  9
$LIMMAX
 10
12.0
 20
9.0
  9
$ORTHOMODE
 70
     0
  9
$REGENMODE
 70
     1
  9
$FILLMODE
 70
     1
  9
$QTEXTMODE
 70
     0
  9
$MIRRTEXT
 70
     1
  9
$LTSCALE
 40
1.0
  9
$ATTMODE
 70
     1
  9
$TEXTSIZE
 40
0.2
  9
$TRACEWID
 40
0.05
  9
$TEXTSTYLE
  7
Standard
  9
$CLAYER
  8
0
  9
$CELTYPE
  6
ByBlock
  9
$CECOLOR
 62
   256
  9
$CELTSCALE
 40
1.0
  9
$DISPSILH
 70
     0
  9
$DIMSCALE
 40
1.0
  9
$DIMASZ
 40
0.18
  9
$DIMEXO
 40
0.0625
  9
$DIMDLI
 40
0.38
  9
$DIMRND
 40
0.0
  9
$DIMDLE
 40
0.0
  9
$DIMEXE
 40
0.18
  9
$DIMTP
 40
0.0
  9
$DIMTM
 40
0.0
  9
$DIMTXT
 40
0.18
  9
$DIMCEN
 40
0.09
  9
$DIMTSZ
 40
0.0
  9
$DIMTOL
 70
     0
  9
$DIMLIM
 70
     0
  9
$DIMTIH
 70
     1
  9
$DIMTOH
 70
     1
  9
$DIMSE1
 70
     0
  9
$DIMSE2
 70
     0
  9
$DIMTAD
 70
     0
  9
$DIMZIN
 70
     0
  9
$DIMBLK
  1

  9
$DIMASO
 70
     1
  9
$DIMSHO
 70
     1
  9
$DIMPOST
  1

  9
$DIMAPOST
  1

  9
$DIMALT
 70
     0
  9
$DIMALTD
 70
     2
  9
$DIMALTF
 40
25.4
  9
$DIMLFAC
 40
1.0
  9
$DIMTOFL
 70
     0
  9
$DIMTVP
 40
0.0
  9
$DIMTIX
 70
     0
  9
$DIMSOXD
 70
     0
  9
$DIMSAH
 70
     0
  9
$DIMBLK1
  1

  9
$DIMBLK2
  1

  9
$DIMSTYLE
  2
Standard
  9
$DIMCLRD
 70
     0
  9
$DIMCLRE
 70
     0
  9
$DIMCLRT
 70
     0
  9
$DIMTFAC
 40
1.0
  9
$DIMGAP
 40
0.09
  9
$DIMJUST
 70
     0
  9
$DIMSD1
 70
     0
  9
$DIMSD2
 70
     0
  9
$DIMTOLJ
 70
     1
  9
$DIMTZIN
 70
     0
  9
$DIMALTZ
 70
     0
  9
$DIMALTTZ
 70
     0
  9
$DIMUPT
 70
     0
  9
$DIMDEC
 70
     4
  9
$DIMTDEC
 70
     4
  9
$DIMALTU
 70
     2
  9
$DIMALTTD
 70
     2
  9
$DIMTXSTY
  7
Standard
  9
$DIMAUNIT
 70
     0
  9
$DIMADEC
 70
     0
  9
$DIMALTRND
 40
0.0
  9
$DIMAZIN
 70
     0
  9
$DIMDSEP
 70
    46
  9
$DIMATFIT
 70
     3
  9
$DIMFRAC
 70
     0
  9
$DIMLDRBLK
  1

  9
$DIMLUNIT
 70
     2
  9
$DIMLWD
 70
    -2
  9
$DIMLWE
 70
    -2
  9
$DIMTMOVE
 70
     2
  9
$LUNITS
 70
     2
  9
$LUPREC
 70
     4
  9
$SKETCHINC
 40
0.1
  9
$FILLETRAD
 40
0.5
  9
$AUNITS
 70
     0
  9
$AUPREC
 70
     0
  9
$MENU
  1
.
  9
$ELEVATION
 40
0.0
  9
$PELEVATION
 40
0.0
  9
$THICKNESS
 40
0.0
  9
$LIMCHECK
 70
     0
  9
$CHAMFERA
 40
0.5
  9
$CHAMFERB
 40
0.5
  9
$CHAMFERC
 40
1.0
  9
$CHAMFERD
 40
0.0
  9
$SKPOLY
 70
     0
  9
$TDCREATE
 40
2456647.910509792
  9
$TDUCREATE
 40
2456647.868843125
  9
$TDUPDATE
 40
2456647.912334884
  9
$TDUUPDATE
 40
2456647.870668218
  9
$TDINDWG
 40
0.001824919
  9
$TDUSRTIMER
 40
0.001824919
  9
$USRTIMER
 70
     1
  9
$ANGBASE
 50
0.0
  9
$ANGDIR
 70
     0
  9
$PDMODE
 70
     0
  9
$PDSIZE
 40
0.0
  9
$PLINEWID
 40
0.0
  9
$SPLFRAME
 70
     0
  9
$SPLINETYPE
 70
     6
  9
$SPLINESEGS
 70
     8
  9
$HANDSEED
  5
8A0
  9
$SURFTAB1
 70
     6
  9
$SURFTAB2
 70
     6
  9
$SURFTYPE
 70
     6
  9
$SURFU
 70
     6
  9
$SURFV
 70
     6
  9
$UCSBASE
  2

  9
$UCSNAME
  2

  9
$UCSORG
 10
0.0
 20
0.0
 30
0.0
  9
$UCSXDIR
 10
1.0
 20
0.0
 30
0.0
  9
$UCSYDIR
 10
0.0
 20
1.0
 30
0.0
  9
$UCSORTHOREF
  2

  9
$UCSORTHOVIEW
 70
     0
  9
$UCSORGTOP
 10
0.0
 20
0.0
 30
0.0
  9
$UCSORGBOTTOM
 10
0.0
 20
0.0
 30
0.0
  9
$UCSORGLEFT
 10
0.0
 20
0.0
 30
0.0
  9
$UCSORGRIGHT
 10
0.0
 20
0.0
 30
0.0
  9
$UCSORGFRONT
 10
0.0
 20
0.0
 30
0.0
  9
$UCSORGBACK
 10
0.0
 20
0.0
 30
0.0
  9
$PUCSBASE
  2

  9
$PUCSNAME
  2

  9
$PUCSORG
 10
0.0
 20
0.0
 30
0.0
  9
$PUCSXDIR
 10
1.0
 20
0.0
 30
0.0
  9
$PUCSYDIR
 10
0.0
 20
1.0
 30
0.0
  9
$PUCSORTHOREF
  2

  9
$PUCSORTHOVIEW
 70
     0
  9
$PUCSORGTOP
 10
0.0
 20
0.0
 30
0.0
  9
$PUCSORGBOTTOM
 10
0.0
 20
0.0
 30
0.0
  9
$PUCSORGLEFT
 10
0.0
 20
0.0
 30
0.0
  9
$PUCSORGRIGHT
 10
0.0
 20
0.0
 30
0.0
  9
$PUCSORGFRONT
 10
0.0
 20
0.0
 30
0.0
  9
$PUCSORGBACK
 10
0.0
 20
0.0
 30
0.0
  9
$USERI1
 70
     0
  9
$USERI2
 70
     0
  9
$USERI3
 70
     0
  9
$USERI4
 70
     0
  9
$USERI5
 70
     0
  9
$USERR1
 40
0.0
  9
$USERR2
 40
0.0
  9
$USERR3
 40
0.0
  9
$USERR4
 40
0.0
  9
$USERR5
 40
0.0
  9
$WORLDVIEW
 70
     1
  9
$SHADEDGE
 70
     3
  9
$SHADEDIF
 70
    70
  9
$TILEMODE
 70
     1
  9
$MAXACTVP
 70
    64
  9
$PINSBASE
 10
0.0
 20
0.0
 30
0.0
  9
$PLIMCHECK
 70
     0
  9
$PEXTMIN
 10
1.000000000000E+20
 20
1.000000000000E+20
 30
1.000000000000E+20
  9
$PEXTMAX
 10
-1.000000000000E+20
 20
-1.000000000000E+20
 30
-1.000000000000E+20
  9
$PLIMMIN
 10
0.0
 20
0.0
  9
$PLIMMAX
 10
12.0
 20
9.0
  9
$UNITMODE
 70
     0
  9
$VISRETAIN
 70
     1
  9
$PLINEGEN
 70
     0
  9
$PSLTSCALE
 70
     1
  9
$TREEDEPTH
 70
  3020
  9
$CMLSTYLE
  2
Standard
  9
$CMLJUST
 70
     0
  9
$CMLSCALE
 40
1.0
  9
$PROXYGRAPHICS
 70
     1
  9
$MEASUREMENT
 70
     0
  9
$CELWEIGHT
370
    -1
  9
$ENDCAPS
280
     0
  9
$JOINSTYLE
280
     0
  9
$LWDISPLAY
290
     0
  9
$INSUNITS
 70
     0
  9
$HYPERLINKBASE
  1

  9
$STYLESHEET
  1

  9
$XEDIT
290
     1
  9
$CEPSNTYPE
380
     0
  9
$PSTYLEMODE
290
     1
  9
$FINGERPRINTGUID
  2
{EF1A3F3C-7314-4083-8355-185ABBE35F0B}
  9
$VERSIONGUID
  2
{FAEB1C32-E019-11D5-929B-00C0DF256EC4}
  9
$EXTNAMES
290
     1
  9
$PSVPSCALE
 40
0.0
  9
$OLESTARTUP
290
     0
  0
ENDSEC
  0
SECTION
  2
CLASSES
  0
CLASS
  1
ACDBDICTIONARYWDFLT
  2
AcDbDictionaryWithDefault
  3
ObjectDBX Classes
 90
        0
280
     0
281
     0
  0
CLASS
  1
SCALE
  2
AcDbScale
  3
ObjectDBX Classes
 90
     1153
280
     0
281
     0
  0
CLASS
  1
DICTIONARYVAR
  2
AcDbDictionaryVar
  3
ObjectDBX Classes
 90
        0
280
     0
281
     0
  0
CLASS
  1
ACDBPLACEHOLDER
  2
AcDbPlaceHolder
  3
ObjectDBX Classes
 90
        0
280
     0
281
     0
  0
CLASS
  1
LAYOUT
  2
AcDbLayout
  3
ObjectDBX Classes
 90
        0
280
     0
281
     0
  0
ENDSEC
  0
SECTION
  2
TABLES
  0
TABLE
  2
VPORT
  5
8
330
0
100
AcDbSymbolTable
 70
     1
  0
VPORT
  5
3CB
330
8
100
AcDbSymbolTableRecord
100
AcDbViewportTableRecord
  2
*Active
 70
     0
 10
0.0
 20
0.0
 11
1.0
 21
1.0
 12
121.38225
 22
137.9029915
 13
0.0
 23
0.0
 14
0.5
 24
0.5
 15
0.5
 25
0.5
 16
0.0
 26
0.0
 36
1.0
 17
0.0
 27
0.0
 37
0.0
 40
281.32210266
 41
1.729542302358
 42
50.0
 43
0.0
 44
0.0
 50
0.0
 51
0.0
 71
    16
 72
   100
 73
     1
 74
     3
 75
     0
 76
     0
 77
     0
 78
     0
281
     0
 65
     1
110
0.0
120
0.0
130
0.0
111
1.0
121
0.0
131
0.0
112
0.0
122
1.0
132
0.0
 79
     0
146
0.0
  0
ENDTAB
  0
TABLE
  2
LTYPE
  5
5
330
0
100
AcDbSymbolTable
 70
     1
  0
LTYPE
  5
14
330
5
100
AcDbSymbolTableRecord
100
AcDbLinetypeTableRecord
  2
ByBlock
 70
     0
  3

 72
    65
 73
     0
 40
0.0
  0
LTYPE
  5
15
330
5
100
AcDbSymbolTableRecord
100
AcDbLinetypeTableRecord
  2
ByLayer
 70
     0
  3

 72
    65
 73
     0
 40
0.0
  0
LTYPE
  5
16
330
5
100
AcDbSymbolTableRecord
100
AcDbLinetypeTableRecord
  2
Continuous
 70
     0
  3
Solid line
 72
    65
 73
     0
 40
0.0
  0
ENDTAB
  0
TABLE
  2
LAYER
  5
2
330
0
100
AcDbSymbolTable
 70
     1
  0
LAYER
  5
10
330
2
100
AcDbSymbolTableRecord
100
AcDbLayerTableRecord
  2
0
 70
     0
 62
     7
  6
Continuous
370
    -3
390
F
  0
ENDTAB
  0
TABLE
  2
STYLE
  5
3
330
0
100
AcDbSymbolTable
 70
     1
  0
STYLE
  5
11
330
3
100
AcDbSymbolTableRecord
100
AcDbTextStyleTableRecord
  2
Standard
 70
     0
 40
0.0
 41
1.0
 50
0.0
 71
     0
 42
0.2
  3
txt
  4

  0
ENDTAB
  0
TABLE
  2
VIEW
  5
6
330
0
100
AcDbSymbolTable
 70
     0
  0
ENDTAB
  0
TABLE
  2
UCS
  5
7
330
0
100
AcDbSymbolTable
 70
     0
  0
ENDTAB
  0
TABLE
  2
APPID
  5
9
330
0
100
AcDbSymbolTable
 70
     1
  0
APPID
  5
12
330
9
100
AcDbSymbolTableRecord
100
AcDbRegAppTableRecord
  2
ACAD
 70
     0
  0
ENDTAB
  0
TABLE
  2
DIMSTYLE
  5
A
330
0
100
AcDbSymbolTable
 70
     1
100
AcDbDimStyleTable
  0
DIMSTYLE
105
20
330
A
100
AcDbSymbolTableRecord
100
AcDbDimStyleTableRecord
  2
Standard
 70
     0
340
11
  0
ENDTAB
  0
TABLE
  2
BLOCK_RECORD
  5
1
330
0
100
AcDbSymbolTable
 70
     2
  0
BLOCK_RECORD
  5
1D
330
1
100
AcDbSymbolTableRecord
100
AcDbBlockTableRecord
  2
*Model_Space
340
1E
  0
BLOCK_RECORD
  5
1B
330
1
100
AcDbSymbolTableRecord
100
AcDbBlockTableRecord
  2
*Paper_Space
340
1C
  0
ENDTAB
  0
ENDSEC
  0
SECTION
  2
BLOCKS
  0
BLOCK
  5
3CE
330
1D
100
AcDbEntity
  8
0
100
AcDbBlockBegin
  2
*Model_Space
 70
     0
 10
0.0
 20
0.0
 30
0.0
  3
*Model_Space
  1
*Model_Space
  0
ENDBLK
  5
3CF
330
1D
100
AcDbEntity
  8
0
100
AcDbBlockEnd
  0
BLOCK
  5
3CC
330
1B
100
AcDbEntity
 67
     1
  8
0
100
AcDbBlockBegin
  2
*Paper_Space
 70
     0
 10
0.0
 20
0.0
 30
0.0
  3
*Paper_Space
  1
*Paper_Space
  0
ENDBLK
  5
3CD
330
1B
100
AcDbEntity
 67
     1
  8
0
100
AcDbBlockEnd
  0
ENDSEC
  0
SECTION
  2
ENTITIES
  0
LINE
  5
26
330
1D
100
AcDbEntity
  8
0
100
AcDbLine
 10
111.5815
 20
0.194017
 30
0.0
 11
112.4285
 21
0.194038
 31
0.0
  0
LINE
  5
27
330
1D
100
AcDbEntity
  8
0
100
AcDbLine
 10
120.9155
 20
0.194017
 30
0.0
 11
122.4335
 21
0.194021
 31
0.0
  0
LINE
  5
28
330
1D
100
AcDbEntity
  8
0
100
AcDbLine
 10
115.5555
 20
0.194017
 30
0.0
 11
116.7765
 21
0.194032
 31
0.0
  0
LINE
  5
29
330
1D
100
AcDbEntity
  8
0
100
AcDbLine
 10
109.2845
 20
0.194017
 30
0.0
 11
109.6905
 21
0.194039
 31
0.0
  0
LINE
  5
2A
330
1D
100
AcDbEntity
  8
0
100
AcDbLine
 10
110.8425
 20
0.194017
 30
0.0
 11
111.5815
 21
0.194017
 31
0.0
  0
LINE
  5
2B
330
1D
100
AcDbEntity
  8
0
100
AcDbLine
 10
108.8165
 20
0.194017
 30
0.0
 11
108.9915
 21
0.194039
 31
0.0
  0
LINE
  5
2E
330
1D
100
AcDbEntity
  8
0
100
AcDbLine
 10
108.7575
 20
0.194017
 30
0.0
 11
108.8165
 21
0.194017
 31
0.0
  0
LINE
  5
2F
330
1D
100
AcDbEntity
  8
0
100
AcDbLine
 10
108.7575
 20
0.194017
 30
0.0
 11
108.816500117967
 21
0.19402254702
 31
0.0
  0
LINE
  5
30
330
1D
100
AcDbEntity
  8
0
100
AcDbLine
 10
125.6375
 20
0.194017
 30
0.0
 11
127.3085
 21
0.194017
 31
0.0
  0
LINE
  5
31
330
1D
100
AcDbEntity
  8
0
100
AcDbLine
 10
130.9945
 20
0.194017
 30
0.0
 11
132.9965
 21
0.194039
 31
0.0
  0
LINE
  5
32
330
1D
100
AcDbEntity
  8
0
100
AcDbLine
 10
134.6775
 20
0.194017
 30
0.0
 11
136.3595
 21
0.194017
 31
0.0
  0
LINE
  5
33
330
1D
100
AcDbEntity
  8
0
100
AcDbLine
 10
127.3085
 20
0.194017
 30
0.0
 11
129.0175
 21
0.194019
 31
0.0
  0
LINE
  5
34
330
1D
100
AcDbEntity
  8
0
100
AcDbLine
 10
129.0175
 20
0.194019
 30
0.0
 11
130.9945
 21
0.194017
 31
0.0
  0
LINE
  5
35
330
1D
100
AcDbEntity
  8
0
100
AcDbLine
 10
124.0105
 20
0.194018
 30
0.0
 11
125.6375
 21
0.194017
 31
0.0
  0
LINE
  5
36
330
1D
100
AcDbEntity
  8
0
100
AcDbLine
 10
122.4335
 20
0.194021
 30
0.0
 11
124.0105
 21
0.194018
 31
0.0
  0
LINE
  5
37
330
1D
100
AcDbEntity
  8
0
100
AcDbLine
 10
118.0815
 20
0.194029
 30
0.0
 11
119.4625
 21
0.194027
 31
0.0
  0
LINE
  5
38
330
1D
100
AcDbEntity
  8
0
100
AcDbLine
 10
116.7765
 20
0.194032
 30
0.0
 11
118.0815
 21
0.194029
 31
0.0
  0
LINE
  5
39
330
1D
100
AcDbEntity
  8
0
100
AcDbLine
 10
119.4625
 20
0.194027
 30
0.0
 11
120.9155
 21
0.194017
 31
0.0
  0
LINE
  5
3A
330
1D
100
AcDbEntity
  8
0
100
AcDbLine
 10
144.4925
 20
0.194017
 30
0.0
 11
147.4595
 21
0.194017
 31
0.0
  0
LINE
  5
3B
330
1D
100
AcDbEntity
  8
0
100
AcDbLine
 10
147.4595
 20
0.194017
 30
0.0
 11
148.8485
 21
0.194035
 31
0.0
  0
LINE
  5
3C
330
1D
100
AcDbEntity
  8
0
100
AcDbLine
 10
151.3305
 20
0.194017
 30
0.0
 11
152.4445
 21
0.194017
 31
0.0
  0
LINE
  5
3D
330
1D
100
AcDbEntity
  8
0
100
AcDbLine
 10
152.4445
 20
0.194017
 30
0.0
 11
153.4615
 21
0.194024
 31
0.0
  0
LINE
  5
3E
330
1D
100
AcDbEntity
  8
0
100
AcDbLine
 10
150.1295
 20
0.194017
 30
0.0
 11
151.3305
 21
0.194017
 31
0.0
  0
LINE
  5
3F
330
1D
100
AcDbEntity
  8
0
100
AcDbLine
 10
153.4615
 20
0.194024
 30
0.0
 11
154.3765
 21
0.194021
 31
0.0
  0
LINE
  5
40
330
1D
100
AcDbEntity
  8
0
100
AcDbLine
 10
139.6925
 20
0.194017
 30
0.0
 11
141.3265
 21
0.194039
 31
0.0
  0
LINE
  5
41
330
1D
100
AcDbEntity
  8
0
100
AcDbLine
 10
142.9295
 20
0.194017
 30
0.0
 11
144.4925
 21
0.194017
 31
0.0
  0
LINE
  5
42
330
1D
100
AcDbEntity
  8
0
100
AcDbLine
 10
136.3595
 20
0.194017
 30
0.0
 11
138.0335
 21
0.194039
 31
0.0
  0
LINE
  5
61
330
1D
100
AcDbEntity
  8
0
100
AcDbLine
 10
109.6905
 20
0.194039
 30
0.0
 11
110.2105
 21
0.194039
 31
0.0
  0
LINE
  5
62
330
1D
100
AcDbEntity
  8
0
100
AcDbLine
 10
114.4225
 20
0.194035
 30
0.0
 11
115.5555
 21
0.194017
 31
0.0
  0
LINE
  5
63
330
1D
100
AcDbEntity
  8
0
100
AcDbLine
 10
113.3765
 20
0.194037
 30
0.0
 11
114.4225
 21
0.194035
 31
0.0
  0
LINE
  5
64
330
1D
100
AcDbEntity
  8
0
100
AcDbLine
 10
132.9965
 20
0.194039
 30
0.0
 11
134.6775
 21
0.194017
 31
0.0
  0
LINE
  5
65
330
1D
100
AcDbEntity
  8
0
100
AcDbLine
 10
112.4285
 20
0.194038
 30
0.0
 11
113.3765
 21
0.194037
 31
0.0
  0
LINE
  5
66
330
1D
100
AcDbEntity
  8
0
100
AcDbLine
 10
110.2105
 20
0.194039
 30
0.0
 11
110.8425
 21
0.194017
 31
0.0
  0
LINE
  5
7E
330
1D
100
AcDbEntity
  8
0
100
AcDbLine
 10
108.9915
 20
0.194039
 30
0.0
 11
109.2845
 21
0.194017
 31
0.0
  0
LINE
  5
FD
330
1D
100
AcDbEntity
  8
0
100
AcDbLine
 10
141.3265
 20
0.194039
 30
0.0
 11
142.9295
 21
0.194017
 31
0.0
  0
LINE
  5
FE
330
1D
100
AcDbEntity
  8
0
100
AcDbLine
 10
138.0335
 20
0.194039
 30
0.0
 11
139.6925
 21
0.194017
 31
0.0
  0
LINE
  5
FF
330
1D
100
AcDbEntity
  8
0
100
AcDbLine
 10
148.8485
 20
0.194035
 30
0.0
 11
150.1295
 21
0.194017
 31
0.0
  0
LINE
  5
100
330
1D
100
AcDbEntity
  8
0
100
AcDbLine
 10
156.4125
 20
0.194017
 30
0.0
 11
156.8305
 21
0.194019
 31
0.0
  0
LINE
  5
102
330
1D
100
AcDbEntity
  8
0
100
AcDbLine
 10
155.8585
 20
0.194017
 30
0.0
 11
156.4125
 21
0.194017
 31
0.0
  0
LINE
  5
105
330
1D
100
AcDbEntity
  8
0
100
AcDbLine
 10
218.0345
 20
1.693983
 30
0.0
 11
221.1305
 21
1.700983
 31
0.0
  0
LINE
  5
106
330
1D
100
AcDbEntity
  8
0
100
AcDbLine
 10
215.5495
 20
1.696983
 30
0.0
 11
218.0345
 21
1.693983
 31
0.0
  0
LINE
  5
107
330
1D
100
AcDbEntity
  8
0
100
AcDbLine
 10
213.7725
 20
1.700983
 30
0.0
 11
215.5495
 21
1.696983
 31
0.0
  0
LINE
  5
108
330
1D
100
AcDbEntity
  8
0
100
AcDbLine
 10
213.8255
 20
1.697983
 30
0.0
 11
214.402016729544
 21
1.699565967407
 31
0.0
  0
LINE
  5
109
330
1D
100
AcDbEntity
  8
0
100
AcDbLine
 10
213.1985
 20
1.698983
 30
0.0
 11
213.8255
 21
1.697983
 31
0.0
  0
LINE
  5
10A
330
1D
100
AcDbEntity
  8
0
100
AcDbLine
 10
213.1985
 20
1.698983
 30
0.0
 11
213.7725
 21
1.700983
 31
0.0
  0
LINE
  5
11B
330
1D
100
AcDbEntity
  8
0
100
AcDbLine
 10
221.1305
 20
1.700983
 30
0.0
 11
224.2345
 21
1.705983
 31
0.0
  0
LINE
  5
11C
330
1D
100
AcDbEntity
  8
0
100
AcDbLine
 10
226.8455
 20
1.695983
 30
0.0
 11
228.6235
 21
1.701983
 31
0.0
  0
LINE
  5
11D
330
1D
100
AcDbEntity
  8
0
100
AcDbLine
 10
228.5715
 20
1.703983
 30
0.0
 11
229.1985
 21
1.702983
 31
0.0
  0
LINE
  5
11E
330
1D
100
AcDbEntity
  8
0
100
AcDbLine
 10
226.7505
 20
1.698983
 30
0.0
 11
228.5715
 21
1.703983
 31
0.0
  0
LINE
  5
11F
330
1D
100
AcDbEntity
  8
0
100
AcDbLine
 10
224.2345
 20
1.705983
 30
0.0
 11
226.7505
 21
1.698983
 31
0.0
  0
LINE
  5
122
330
1D
100
AcDbEntity
  8
0
100
AcDbLine
 10
228.6235
 20
1.701983
 30
0.0
 11
229.1985
 21
1.702983
 31
0.0
  0
LINE
  5
123
330
1D
100
AcDbEntity
  8
0
100
AcDbLine
 10
224.3605
 20
1.697983
 30
0.0
 11
226.8455
 21
1.695983
 31
0.0
  0
LINE
  5
124
330
1D
100
AcDbEntity
  8
0
100
AcDbLine
 10
221.535040532788
 20
1.701634643899
 30
0.0
 11
224.3605
 21
1.697983
 31
0.0
  0
LINE
  5
131
330
1D
100
AcDbEntity
  8
0
100
AcDbLine
 10
156.8305
 20
0.194019
 30
0.0
 11
157.1045
 21
0.194017
 31
0.0
  0
LINE
  5
132
330
1D
100
AcDbEntity
  8
0
100
AcDbLine
 10
155.1775
 20
0.194017
 30
0.0
 11
155.8585
 21
0.194017
 31
0.0
  0
LINE
  5
133
330
1D
100
AcDbEntity
  8
0
100
AcDbLine
 10
154.3765
 20
0.194021
 30
0.0
 11
155.1775
 21
0.194017
 31
0.0
  0
LINE
  5
4DC
330
1D
100
AcDbEntity
  8
0
100
AcDbLine
 10
109.1535
 20
0.193995
 30
0.0
 11
109.5595
 21
0.194017
 31
0.0
  0
LINE
  5
4DD
330
1D
100
AcDbEntity
  8
0
100
AcDbLine
 10
108.6265
 20
0.193995
 30
0.0
 11
109.7655
 21
54.251861
 31
0.0
  0
LINE
  5
4DE
330
1D
100
AcDbEntity
  8
0
100
AcDbLine
 10
108.6855
 20
0.193995
 30
0.0
 11
108.8605
 21
0.194017
 31
0.0
  0
LINE
  5
4DF
330
1D
100
AcDbEntity
  8
0
100
AcDbLine
 10
120.7845
 20
0.193995
 30
0.0
 11
122.3025
 21
0.193999
 31
0.0
  0
LINE
  5
4E0
330
1D
100
AcDbEntity
  8
0
100
AcDbLine
 10
111.4505
 20
0.193995
 30
0.0
 11
112.2975
 21
0.194016
 31
0.0
  0
LINE
  5
4E1
330
1D
100
AcDbEntity
  8
0
100
AcDbLine
 10
115.4245
 20
0.193995
 30
0.0
 11
116.6455
 21
0.19401
 31
0.0
  0
LINE
  5
4E2
330
1D
100
AcDbEntity
  8
0
100
AcDbLine
 10
110.7115
 20
0.193995
 30
0.0
 11
111.4505
 21
0.193995
 31
0.0
  0
LINE
  5
4E3
330
1D
100
AcDbEntity
  8
0
100
AcDbLine
 10
108.6265
 20
0.193995
 30
0.0
 11
108.6855
 21
0.193995
 31
0.0
  0
LINE
  5
4E4
330
1D
100
AcDbEntity
  8
0
100
AcDbLine
 10
108.6265
 20
0.193995
 30
0.0
 11
109.7655
 21
54.251861
 31
0.0
  0
LINE
  5
4E5
330
1D
100
AcDbEntity
  8
0
100
AcDbLine
 10
108.6265
 20
0.193995
 30
0.0
 11
108.685500117967
 21
0.19400054702
 31
0.0
  0
LINE
  5
4E6
330
1D
100
AcDbEntity
  8
0
100
AcDbLine
 10
136.2285
 20
0.193995
 30
0.0
 11
137.9025
 21
0.194017
 31
0.0
  0
LINE
  5
4E7
330
1D
100
AcDbEntity
  8
0
100
AcDbLine
 10
139.5615
 20
0.193995
 30
0.0
 11
141.1955
 21
0.194017
 31
0.0
  0
LINE
  5
4E8
330
1D
100
AcDbEntity
  8
0
100
AcDbLine
 10
127.1775
 20
0.193995
 30
0.0
 11
128.8865
 21
0.193997
 31
0.0
  0
LINE
  5
4E9
330
1D
100
AcDbEntity
  8
0
100
AcDbLine
 10
130.8635
 20
0.193995
 30
0.0
 11
132.8655
 21
0.194017
 31
0.0
  0
LINE
  5
4EA
330
1D
100
AcDbEntity
  8
0
100
AcDbLine
 10
134.5465
 20
0.193995
 30
0.0
 11
136.2285
 21
0.193995
 31
0.0
  0
LINE
  5
4EB
330
1D
100
AcDbEntity
  8
0
100
AcDbLine
 10
125.5065
 20
0.193995
 30
0.0
 11
127.1775
 21
0.193995
 31
0.0
  0
LINE
  5
4EC
330
1D
100
AcDbEntity
  8
0
100
AcDbLine
 10
128.8865
 20
0.193997
 30
0.0
 11
130.8635
 21
0.193995
 31
0.0
  0
LINE
  5
4ED
330
1D
100
AcDbEntity
  8
0
100
AcDbLine
 10
123.8795
 20
0.193996
 30
0.0
 11
125.5065
 21
0.193995
 31
0.0
  0
LINE
  5
4EE
330
1D
100
AcDbEntity
  8
0
100
AcDbLine
 10
122.3025
 20
0.193999
 30
0.0
 11
123.8795
 21
0.193996
 31
0.0
  0
LINE
  5
4EF
330
1D
100
AcDbEntity
  8
0
100
AcDbLine
 10
117.9505
 20
0.194007
 30
0.0
 11
119.3315
 21
0.194005
 31
0.0
  0
LINE
  5
4F0
330
1D
100
AcDbEntity
  8
0
100
AcDbLine
 10
116.6455
 20
0.19401
 30
0.0
 11
117.9505
 21
0.194007
 31
0.0
  0
LINE
  5
4F1
330
1D
100
AcDbEntity
  8
0
100
AcDbLine
 10
119.3315
 20
0.194005
 30
0.0
 11
120.7845
 21
0.193995
 31
0.0
  0
LINE
  5
4F2
330
1D
100
AcDbEntity
  8
0
100
AcDbLine
 10
152.3135
 20
0.193995
 30
0.0
 11
153.3305
 21
0.194002
 31
0.0
  0
LINE
  5
4F3
330
1D
100
AcDbEntity
  8
0
100
AcDbLine
 10
147.3285
 20
0.193995
 30
0.0
 11
148.7175
 21
0.194013
 31
0.0
  0
LINE
  5
4F4
330
1D
100
AcDbEntity
  8
0
100
AcDbLine
 10
144.3615
 20
0.193995
 30
0.0
 11
147.3285
 21
0.193995
 31
0.0
  0
LINE
  5
4F5
330
1D
100
AcDbEntity
  8
0
100
AcDbLine
 10
149.9985
 20
0.193995
 30
0.0
 11
151.1995
 21
0.193995
 31
0.0
  0
LINE
  5
4F6
330
1D
100
AcDbEntity
  8
0
100
AcDbLine
 10
151.1995
 20
0.193995
 30
0.0
 11
152.3135
 21
0.193995
 31
0.0
  0
LINE
  5
4F7
330
1D
100
AcDbEntity
  8
0
100
AcDbLine
 10
142.7985
 20
0.193995
 30
0.0
 11
144.3615
 21
0.193995
 31
0.0
  0
LINE
  5
4F8
330
1D
100
AcDbEntity
  8
0
100
AcDbLine
 10
98.3182
 20
84.251061
 30
0.0
 11
100.7655
 21
82.503461
 31
0.0
  0
LINE
  5
4F9
330
1D
100
AcDbEntity
  8
0
100
AcDbLine
 10
95.62
 20
85.741261
 30
0.0
 11
98.3182
 21
84.251061
 31
0.0
  0
LINE
  5
4FA
330
1D
100
AcDbEntity
  8
0
100
AcDbLine
 10
92.6896
 20
86.977861
 30
0.0
 11
95.62
 21
85.741261
 31
0.0
  0
LINE
  5
4FB
330
1D
100
AcDbEntity
  8
0
100
AcDbLine
 10
89.548
 20
87.975961
 30
0.0
 11
92.6896
 21
86.977861
 31
0.0
  0
LINE
  5
4FC
330
1D
100
AcDbEntity
  8
0
100
AcDbLine
 10
107.5035
 20
73.692861
 30
0.0
 11
108.4595
 21
71.074361
 31
0.0
  0
LINE
  5
4FD
330
1D
100
AcDbEntity
  8
0
100
AcDbLine
 10
108.4595
 20
71.074361
 30
0.0
 11
109.1485
 21
68.254361
 31
0.0
  0
LINE
  5
4FE
330
1D
100
AcDbEntity
  8
0
100
AcDbLine
 10
106.6055
 20
75.535761
 30
0.0
 11
107.5035
 21
73.692861
 31
0.0
  0
LINE
  5
4FF
330
1D
100
AcDbEntity
  8
0
100
AcDbLine
 10
105.5505
 20
77.280361
 30
0.0
 11
106.6055
 21
75.535761
 31
0.0
  0
LINE
  5
500
330
1D
100
AcDbEntity
  8
0
100
AcDbLine
 10
104.3335
 20
78.931861
 30
0.0
 11
105.5505
 21
77.280361
 31
0.0
  0
LINE
  5
501
330
1D
100
AcDbEntity
  8
0
100
AcDbLine
 10
102.9475
 20
80.499161
 30
0.0
 11
104.3335
 21
78.931861
 31
0.0
  0
LINE
  5
502
330
1D
100
AcDbEntity
  8
0
100
AcDbLine
 10
100.7655
 20
82.503461
 30
0.0
 11
102.9475
 21
80.499161
 31
0.0
  0
LINE
  5
503
330
1D
100
AcDbEntity
  8
0
100
AcDbLine
 10
75.2232
 20
90.243761
 30
0.0
 11
81.9107
 21
89.477061
 31
0.0
  0
LINE
  5
504
330
1D
100
AcDbEntity
  8
0
100
AcDbLine
 10
81.9107
 20
89.477061
 30
0.0
 11
85.0653
 21
88.978061
 31
0.0
  0
LINE
  5
505
330
1D
100
AcDbEntity
  8
0
100
AcDbLine
 10
85.0653
 20
88.978061
 30
0.0
 11
89.548
 21
87.975961
 31
0.0
  0
LINE
  5
506
330
1D
100
AcDbEntity
  8
0
100
AcDbLine
 10
114.2915
 20
0.194013
 30
0.0
 11
115.4245
 21
0.193995
 31
0.0
  0
LINE
  5
507
330
1D
100
AcDbEntity
  8
0
100
AcDbLine
 10
132.8655
 20
0.194017
 30
0.0
 11
134.5465
 21
0.193995
 31
0.0
  0
LINE
  5
508
330
1D
100
AcDbEntity
  8
0
100
AcDbLine
 10
113.2455
 20
0.194015
 30
0.0
 11
114.2915
 21
0.194013
 31
0.0
  0
LINE
  5
509
330
1D
100
AcDbEntity
  8
0
100
AcDbLine
 10
112.2975
 20
0.194016
 30
0.0
 11
113.2455
 21
0.194015
 31
0.0
  0
LINE
  5
50A
330
1D
100
AcDbEntity
  8
0
100
AcDbLine
 10
109.4655
 20
66.245161
 30
0.0
 11
109.6765
 21
64.118661
 31
0.0
  0
LINE
  5
50B
330
1D
100
AcDbEntity
  8
0
100
AcDbLine
 10
109.1485
 20
68.254361
 30
0.0
 11
109.4655
 21
66.245161
 31
0.0
  0
LINE
  5
50C
330
1D
100
AcDbEntity
  8
0
100
AcDbLine
 10
109.7655
 20
54.251861
 30
0.0
 11
109.8345
 21
58.910661
 31
0.0
  0
LINE
  5
50D
330
1D
100
AcDbEntity
  8
0
100
AcDbLine
 10
109.6765
 20
64.118661
 30
0.0
 11
109.8345
 21
58.910661
 31
0.0
  0
LINE
  5
50E
330
1D
100
AcDbEntity
  8
0
100
AcDbLine
 10
109.5595
 20
0.194017
 30
0.0
 11
110.0795
 21
0.194017
 31
0.0
  0
LINE
  5
50F
330
1D
100
AcDbEntity
  8
0
100
AcDbLine
 10
110.0795
 20
0.194017
 30
0.0
 11
110.7115
 21
0.193995
 31
0.0
  0
LINE
  5
510
330
1D
100
AcDbEntity
  8
0
100
AcDbLine
 10
108.8605
 20
0.194017
 30
0.0
 11
109.1535
 21
0.193995
 31
0.0
  0
LINE
  5
511
330
1D
100
AcDbEntity
  8
0
100
AcDbLine
 10
141.1955
 20
0.194017
 30
0.0
 11
142.7985
 21
0.193995
 31
0.0
  0
LINE
  5
512
330
1D
100
AcDbEntity
  8
0
100
AcDbLine
 10
137.9025
 20
0.194017
 30
0.0
 11
139.5615
 21
0.193995
 31
0.0
  0
LINE
  5
513
330
1D
100
AcDbEntity
  8
0
100
AcDbLine
 10
148.7175
 20
0.194013
 30
0.0
 11
149.9985
 21
0.193995
 31
0.0
  0
LINE
  5
514
330
1D
100
AcDbEntity
  8
0
100
AcDbLine
 10
156.2815
 20
0.193995
 30
0.0
 11
156.6995
 21
0.193997
 31
0.0
  0
LINE
  5
515
330
1D
100
AcDbEntity
  8
0
100
AcDbLine
 10
156.9735
 20
0.193995
 30
0.0
 11
157.1045
 21
0.194017
 31
0.0
  0
LINE
  5
516
330
1D
100
AcDbEntity
  8
0
100
AcDbLine
 10
156.6995
 20
0.193997
 30
0.0
 11
156.9735
 21
0.193995
 31
0.0
  0
LINE
  5
517
330
1D
100
AcDbEntity
  8
0
100
AcDbLine
 10
155.7275
 20
0.193995
 30
0.0
 11
156.2815
 21
0.193995
 31
0.0
  0
LINE
  5
518
330
1D
100
AcDbEntity
  8
0
100
AcDbLine
 10
155.0465
 20
0.193995
 30
0.0
 11
155.7275
 21
0.193995
 31
0.0
  0
LINE
  5
519
330
1D
100
AcDbEntity
  8
0
100
AcDbLine
 10
155.886527938506
 20
58.016261
 30
0.0
 11
157.1045
 21
0.194017
 31
0.0
  0
LINE
  5
51A
330
1D
100
AcDbEntity
  8
0
100
AcDbLine
 10
155.886527938506
 20
58.016261
 30
0.0
 11
157.1045
 21
0.194017
 31
0.0
  0
LINE
  5
51B
330
1D
100
AcDbEntity
  8
0
100
AcDbLine
 10
154.2455
 20
0.193999
 30
0.0
 11
155.0465
 21
0.193995
 31
0.0
  0
LINE
  5
51C
330
1D
100
AcDbEntity
  8
0
100
AcDbLine
 10
153.3305
 20
0.194002
 30
0.0
 11
154.2455
 21
0.193999
 31
0.0
  0
LINE
  5
51D
330
1D
100
AcDbEntity
  8
0
100
AcDbLine
 10
0.124522
 20
117.295961
 30
0.0
 11
0.301671
 21
117.525961
 31
0.0
  0
LINE
  5
51E
330
1D
100
AcDbEntity
  8
0
100
AcDbLine
 10
0.124516
 20
117.295961
 30
0.0
 11
0.301662
 21
117.525961
 31
0.0
  0
LINE
  5
51F
330
1D
100
AcDbEntity
  8
0
100
AcDbLine
 10
112.4145
 20
117.902961
 30
0.0
 11
112.8755
 21
117.889961
 31
0.0
  0
LINE
  5
520
330
1D
100
AcDbEntity
  8
0
100
AcDbLine
 10
112.4155
 20
117.902961
 30
0.0
 11
112.8755
 21
117.889961
 31
0.0
  0
LINE
  5
521
330
1D
100
AcDbEntity
  8
0
100
AcDbLine
 10
112.2985
 20
117.905961
 30
0.0
 11
112.4155
 21
117.902961
 31
0.0
  0
LINE
  5
522
330
1D
100
AcDbEntity
  8
0
100
AcDbLine
 10
112.2985
 20
117.905961
 30
0.0
 11
112.4145
 21
117.902961
 31
0.0
  0
LINE
  5
523
330
1D
100
AcDbEntity
  8
0
100
AcDbLine
 10
112.517360202102
 20
117.900082342115
 30
0.0
 11
112.5585
 21
118.705961
 31
0.0
  0
LINE
  5
524
330
1D
100
AcDbEntity
  8
0
100
AcDbLine
 10
132.8655
 20
117.617961
 30
0.0
 11
135.5765
 21
117.622961
 31
0.0
  0
LINE
  5
525
330
1D
100
AcDbEntity
  8
0
100
AcDbLine
 10
135.5765
 20
117.622961
 30
0.0
 11
138.2375
 21
117.631961
 31
0.0
  0
LINE
  5
526
330
1D
100
AcDbEntity
  8
0
100
AcDbLine
 10
144.9355
 20
117.643961
 30
0.0
 11
146.9845
 21
117.645961
 31
0.0
  0
LINE
  5
527
330
1D
100
AcDbEntity
  8
0
100
AcDbLine
 10
141.7345
 20
117.640961
 30
0.0
 11
144.9355
 21
117.643961
 31
0.0
  0
LINE
  5
528
330
1D
100
AcDbEntity
  8
0
100
AcDbLine
 10
138.2375
 20
117.631961
 30
0.0
 11
141.7345
 21
117.640961
 31
0.0
  0
LINE
  5
529
330
1D
100
AcDbEntity
  8
0
100
AcDbLine
 10
130.1175
 20
117.621961
 30
0.0
 11
132.8655
 21
117.617961
 31
0.0
  0
LINE
  5
52A
330
1D
100
AcDbEntity
  8
0
100
AcDbLine
 10
127.4175
 20
117.635961
 30
0.0
 11
130.1175
 21
117.621961
 31
0.0
  0
LINE
  5
52B
330
1D
100
AcDbEntity
  8
0
100
AcDbLine
 10
112.8755
 20
117.889961
 30
0.0
 11
113.6805
 21
117.866961
 31
0.0
  0
LINE
  5
52C
330
1D
100
AcDbEntity
  8
0
100
AcDbLine
 10
113.6805
 20
117.866961
 30
0.0
 11
114.8165
 21
117.837961
 31
0.0
  0
LINE
  5
52D
330
1D
100
AcDbEntity
  8
0
100
AcDbLine
 10
122.1175
 20
117.694961
 30
0.0
 11
124.8105
 21
117.660961
 31
0.0
  0
LINE
  5
52E
330
1D
100
AcDbEntity
  8
0
100
AcDbLine
 10
119.6475
 20
117.734961
 30
0.0
 11
122.1175
 21
117.694961
 31
0.0
  0
LINE
  5
52F
330
1D
100
AcDbEntity
  8
0
100
AcDbLine
 10
116.0335
 20
117.807961
 30
0.0
 11
117.4595
 21
117.776961
 31
0.0
  0
LINE
  5
530
330
1D
100
AcDbEntity
  8
0
100
AcDbLine
 10
117.4595
 20
117.776961
 30
0.0
 11
119.6475
 21
117.734961
 31
0.0
  0
LINE
  5
531
330
1D
100
AcDbEntity
  8
0
100
AcDbLine
 10
148.8025
 20
117.648961
 30
0.0
 11
150.7035
 21
117.652961
 31
0.0
  0
LINE
  5
532
330
1D
100
AcDbEntity
  8
0
100
AcDbLine
 10
152.1385
 20
117.653961
 30
0.0
 11
153.1085
 21
117.652961
 31
0.0
  0
LINE
  5
533
330
1D
100
AcDbEntity
  8
0
100
AcDbLine
 10
150.7035
 20
117.652961
 30
0.0
 11
152.1385
 21
117.653961
 31
0.0
  0
LINE
  5
534
330
1D
100
AcDbEntity
  8
0
100
AcDbLine
 10
124.8105
 20
117.660961
 30
0.0
 11
127.4175
 21
117.635961
 31
0.0
  0
LINE
  5
535
330
1D
100
AcDbEntity
  8
0
100
AcDbLine
 10
114.8165
 20
117.837961
 30
0.0
 11
116.0335
 21
117.807961
 31
0.0
  0
LINE
  5
536
330
1D
100
AcDbEntity
  8
0
100
AcDbLine
 10
146.9845
 20
117.645961
 30
0.0
 11
148.8025
 21
117.648961
 31
0.0
  0
LINE
  5
537
330
1D
100
AcDbEntity
  8
0
100
AcDbLine
 10
153.1085
 20
117.652961
 30
0.0
 11
153.4325
 21
117.649961
 31
0.0
  0
LINE
  5
538
330
1D
100
AcDbEntity
  8
0
100
AcDbLine
 10
154.4055
 20
117.542961
 30
0.0
 11
154.5745
 21
117.369961
 31
0.0
  0
LINE
  5
539
330
1D
100
AcDbEntity
  8
0
100
AcDbLine
 10
154.5745
 20
117.369961
 30
0.0
 11
154.6415
 21
117.129961
 31
0.0
  0
LINE
  5
53A
330
1D
100
AcDbEntity
  8
0
100
AcDbLine
 10
154.1625
 20
117.619961
 30
0.0
 11
154.4005
 21
117.547961
 31
0.0
  0
LINE
  5
53B
330
1D
100
AcDbEntity
  8
0
100
AcDbLine
 10
154.6415
 20
117.122961
 30
0.0
 11
155.886527938506
 21
58.016261
 31
0.0
  0
LINE
  5
53C
330
1D
100
AcDbEntity
  8
0
100
AcDbLine
 10
154.6415
 20
117.122961
 30
0.0
 11
155.886527938506
 21
58.016261
 31
0.0
  0
LINE
  5
53D
330
1D
100
AcDbEntity
  8
0
100
AcDbLine
 10
153.4325
 20
117.649961
 30
0.0
 11
154.1625
 21
117.619961
 31
0.0
  0
LINE
  5
53E
330
1D
100
AcDbEntity
  8
0
100
AcDbLine
 10
1.22675
 20
113.496961
 30
0.0
 11
2.18021
 21
111.493961
 31
0.0
  0
LINE
  5
53F
330
1D
100
AcDbEntity
  8
0
100
AcDbLine
 10
2.18021
 20
111.493961
 30
0.0
 11
3.26511
 21
109.625961
 31
0.0
  0
LINE
  5
540
330
1D
100
AcDbEntity
  8
0
100
AcDbLine
 10
3.2651
 20
109.625961
 30
0.0
 11
4.65023
 21
107.622961
 31
0.0
  0
LINE
  5
541
330
1D
100
AcDbEntity
  8
0
100
AcDbLine
 10
0.581892
 20
115.229961
 30
0.0
 11
1.22642
 21
113.497961
 31
0.0
  0
LINE
  5
542
330
1D
100
AcDbEntity
  8
0
100
AcDbLine
 10
0.581892
 20
115.229961
 30
0.0
 11
1.22641
 21
113.497961
 31
0.0
  0
LINE
  5
543
330
1D
100
AcDbEntity
  8
0
100
AcDbLine
 10
0.1045
 20
117.005961
 30
0.0
 11
0.124516
 21
117.295961
 31
0.0
  0
LINE
  5
544
330
1D
100
AcDbEntity
  8
0
100
AcDbLine
 10
0.1045
 20
117.005961
 30
0.0
 11
0.124522
 21
117.295961
 31
0.0
  0
LINE
  5
545
330
1D
100
AcDbEntity
  8
0
100
AcDbLine
 10
0.1045
 20
117.005961
 30
0.0
 11
0.581892
 21
115.229961
 31
0.0
  0
LINE
  5
546
330
1D
100
AcDbEntity
  8
0
100
AcDbLine
 10
26.2397
 20
92.135961
 30
0.0
 11
26.3082
 21
92.097961
 31
0.0
  0
LINE
  5
547
330
1D
100
AcDbEntity
  8
0
100
AcDbLine
 10
26.7134
 20
92.105961
 30
0.0
 11
26.8592
 21
92.257961
 31
0.0
  0
LINE
  5
548
330
1D
100
AcDbEntity
  8
0
100
AcDbLine
 10
26.5112
 20
92.046961
 30
0.0
 11
26.7134
 21
92.105961
 31
0.0
  0
LINE
  5
549
330
1D
100
AcDbEntity
  8
0
100
AcDbLine
 10
26.3082
 20
92.097961
 30
0.0
 11
26.5112
 21
92.046961
 31
0.0
  0
LINE
  5
54A
330
1D
100
AcDbEntity
  8
0
100
AcDbLine
 10
26.8592
 20
92.257961
 30
0.0
 11
28.591228396579
 21
95.369999382316
 31
0.0
  0
LINE
  5
54B
330
1D
100
AcDbEntity
  8
0
100
AcDbLine
 10
26.8592
 20
92.257961
 30
0.0
 11
28.591228396579
 21
95.369999382316
 31
0.0
  0
LINE
  5
54C
330
1D
100
AcDbEntity
  8
0
100
AcDbLine
 10
22.5079
 20
100.196961
 30
0.0
 11
24.2423
 21
99.153961
 31
0.0
  0
LINE
  5
54D
330
1D
100
AcDbEntity
  8
0
100
AcDbLine
 10
25.5154
 20
98.233961
 30
0.0
 11
26.5883
 21
97.344961
 31
0.0
  0
LINE
  5
54E
330
1D
100
AcDbEntity
  8
0
100
AcDbLine
 10
24.2423
 20
99.153961
 30
0.0
 11
25.5154
 21
98.233961
 31
0.0
  0
LINE
  5
54F
330
1D
100
AcDbEntity
  8
0
100
AcDbLine
 10
26.5883
 20
97.344961
 30
0.0
 11
27.8093
 21
96.193961
 31
0.0
  0
LINE
  5
550
330
1D
100
AcDbEntity
  8
0
100
AcDbLine
 10
21.1238
 20
100.881961
 30
0.0
 11
22.5079
 21
100.196961
 31
0.0
  0
LINE
  5
551
330
1D
100
AcDbEntity
  8
0
100
AcDbLine
 10
5.83596
 20
103.725961
 30
0.0
 11
5.88868
 21
103.929961
 31
0.0
  0
LINE
  5
552
330
1D
100
AcDbEntity
  8
0
100
AcDbLine
 10
5.83596
 20
103.725961
 30
0.0
 11
5.89278
 21
103.523961
 31
0.0
  0
LINE
  5
553
330
1D
100
AcDbEntity
  8
0
100
AcDbLine
 10
5.88868
 20
103.929961
 30
0.0
 11
6.761379868574
 21
105.497950565134
 31
0.0
  0
LINE
  5
554
330
1D
100
AcDbEntity
  8
0
100
AcDbLine
 10
5.89278
 20
103.523961
 30
0.0
 11
6.04276
 21
103.377961
 31
0.0
  0
LINE
  5
555
330
1D
100
AcDbEntity
  8
0
100
AcDbLine
 10
6.04276
 20
103.377961
 30
0.0
 11
6.1113
 21
103.338961
 31
0.0
  0
LINE
  5
556
330
1D
100
AcDbEntity
  8
0
100
AcDbLine
 10
5.88868
 20
103.929961
 30
0.0
 11
6.761379868574
 21
105.497950565134
 31
0.0
  0
LINE
  5
557
330
1D
100
AcDbEntity
  8
0
100
AcDbLine
 10
6.5538
 20
105.580961
 30
0.0
 11
7.44153
 21
105.225961
 31
0.0
  0
LINE
  5
558
330
1D
100
AcDbEntity
  8
0
100
AcDbLine
 10
7.44153
 20
105.225961
 30
0.0
 11
8.16813
 21
104.955961
 31
0.0
  0
LINE
  5
559
330
1D
100
AcDbEntity
  8
0
100
AcDbLine
 10
8.16813
 20
104.955961
 30
0.0
 11
9.04284
 21
104.653961
 31
0.0
  0
LINE
  5
55A
330
1D
100
AcDbEntity
  8
0
100
AcDbLine
 10
19.6796
 20
101.484961
 30
0.0
 11
21.1238
 21
100.881961
 31
0.0
  0
LINE
  5
55B
330
1D
100
AcDbEntity
  8
0
100
AcDbLine
 10
18.0893
 20
102.050961
 30
0.0
 11
19.6796
 21
101.484961
 31
0.0
  0
LINE
  5
55C
330
1D
100
AcDbEntity
  8
0
100
AcDbLine
 10
10.07169
 20
104.326961
 30
0.0
 11
11.4708
 21
103.918961
 31
0.0
  0
LINE
  5
55D
330
1D
100
AcDbEntity
  8
0
100
AcDbLine
 10
11.4708
 20
103.918961
 30
0.0
 11
13.0331
 21
103.489961
 31
0.0
  0
LINE
  5
55E
330
1D
100
AcDbEntity
  8
0
100
AcDbLine
 10
14.7235
 20
103.035961
 30
0.0
 11
16.513
 21
102.535961
 31
0.0
  0
LINE
  5
55F
330
1D
100
AcDbEntity
  8
0
100
AcDbLine
 10
13.0331
 20
103.489961
 30
0.0
 11
14.7235
 21
103.035961
 31
0.0
  0
LINE
  5
560
330
1D
100
AcDbEntity
  8
0
100
AcDbLine
 10
16.513
 20
102.535961
 30
0.0
 11
18.0893
 21
102.050961
 31
0.0
  0
LINE
  5
561
330
1D
100
AcDbEntity
  8
0
100
AcDbLine
 10
9.04284
 20
104.653961
 30
0.0
 11
10.07169
 21
104.326961
 31
0.0
  0
LINE
  5
562
330
1D
100
AcDbEntity
  8
0
100
AcDbLine
 10
28.2736
 20
95.713961
 30
0.0
 11
28.6439
 21
95.312961
 31
0.0
  0
LINE
  5
563
330
1D
100
AcDbEntity
  8
0
100
AcDbLine
 10
27.8093
 20
96.193961
 30
0.0
 11
28.2736
 21
95.713961
 31
0.0
  0
LINE
  5
564
330
1D
100
AcDbEntity
  8
0
100
AcDbLine
 10
6.21952
 20
105.714961
 30
0.0
 11
6.5538
 21
105.580961
 31
0.0
  0
LINE
  5
565
330
1D
100
AcDbEntity
  8
0
100
AcDbLine
 10
28.9022
 20
95.023961
 30
0.0
 11
75.2232
 21
90.243761
 31
0.0
  0
LINE
  5
566
330
1D
100
AcDbEntity
  8
0
100
AcDbLine
 10
28.9022
 20
95.023961
 30
0.0
 11
28.932160684326
 21
95.076528731202
 31
0.0
  0
LINE
  5
567
330
1D
100
AcDbEntity
  8
0
100
AcDbLine
 10
28.8521
 20
95.080961
 30
0.0
 11
28.9022
 21
95.023961
 31
0.0
  0
LINE
  5
568
330
1D
100
AcDbEntity
  8
0
100
AcDbLine
 10
28.6439
 20
95.312961
 30
0.0
 11
28.8521
 21
95.080961
 31
0.0
  0
LINE
  5
569
330
1D
100
AcDbEntity
  8
0
100
AcDbLine
 10
4.65023
 20
107.622961
 30
0.0
 11
6.1835
 21
105.727961
 31
0.0
  0
LINE
  5
56A
330
1D
100
AcDbEntity
  8
0
100
AcDbLine
 10
0.301671
 20
117.525961
 30
0.0
 11
0.576888
 21
117.618961
 31
0.0
  0
LINE
  5
56B
330
1D
100
AcDbEntity
  8
0
100
AcDbLine
 10
0.301671
 20
117.525961
 30
0.0
 11
0.576871
 21
117.618961
 31
0.0
  0
LINE
  5
56C
330
1D
100
AcDbEntity
  8
0
100
AcDbLine
 10
0.124522
 20
117.295961
 30
0.0
 11
0.301671
 21
117.525961
 31
0.0
  0
LINE
  5
56D
330
1D
100
AcDbEntity
  8
0
100
AcDbLine
 10
0.576871
 20
117.618961
 30
0.0
 11
24.8999
 21
117.811961
 31
0.0
  0
LINE
  5
56E
330
1D
100
AcDbEntity
  8
0
100
AcDbLine
 10
24.8999
 20
117.811961
 30
0.0
 11
112.2985
 21
117.905961
 31
0.0
  0
LINE
  5
56F
330
1D
100
AcDbEntity
  8
0
100
AcDbLine
 10
104.2425
 20
154.950961
 30
0.0
 11
105.3135
 21
153.797961
 31
0.0
  0
LINE
  5
570
330
1D
100
AcDbEntity
  8
0
100
AcDbLine
 10
103.0875
 20
156.019961
 30
0.0
 11
104.2425
 21
154.950961
 31
0.0
  0
LINE
  5
571
330
1D
100
AcDbEntity
  8
0
100
AcDbLine
 10
101.8365
 20
157.019961
 30
0.0
 11
103.0875
 21
156.019961
 31
0.0
  0
LINE
  5
572
330
1D
100
AcDbEntity
  8
0
100
AcDbLine
 10
100.5265
 20
157.925961
 30
0.0
 11
101.8365
 21
157.019961
 31
0.0
  0
LINE
  5
573
330
1D
100
AcDbEntity
  8
0
100
AcDbLine
 10
98.6395
 20
159.029961
 30
0.0
 11
100.5265
 21
157.925961
 31
0.0
  0
LINE
  5
574
330
1D
100
AcDbEntity
  8
0
100
AcDbLine
 10
96.7305
 20
159.949961
 30
0.0
 11
98.6395
 21
159.029961
 31
0.0
  0
LINE
  5
575
330
1D
100
AcDbEntity
  8
0
100
AcDbLine
 10
94.4485
 20
160.837961
 30
0.0
 11
96.7305
 21
159.949961
 31
0.0
  0
LINE
  5
576
330
1D
100
AcDbEntity
  8
0
100
AcDbLine
 10
93.0275
 20
161.292961
 30
0.0
 11
94.4485
 21
160.837961
 31
0.0
  0
LINE
  5
577
330
1D
100
AcDbEntity
  8
0
100
AcDbLine
 10
105.3135
 20
153.797961
 30
0.0
 11
106.6095
 21
152.110961
 31
0.0
  0
LINE
  5
578
330
1D
100
AcDbEntity
  8
0
100
AcDbLine
 10
58.720179959133
 20
170.14939650035
 30
0.0
 11
60.3585
 21
169.617961
 31
0.0
  0
LINE
  5
579
330
1D
100
AcDbEntity
  8
0
100
AcDbLine
 10
61.3465
 20
169.351961
 30
0.0
 11
64.5225
 21
168.489961
 31
0.0
  0
LINE
  5
57A
330
1D
100
AcDbEntity
  8
0
100
AcDbLine
 10
60.3585
 20
169.617961
 30
0.0
 11
61.3465
 21
169.351961
 31
0.0
  0
LINE
  5
57B
330
1D
100
AcDbEntity
  8
0
100
AcDbLine
 10
57.6208
 20
170.600961
 30
0.0
 11
58.4564
 21
170.234961
 31
0.0
  0
LINE
  5
57C
330
1D
100
AcDbEntity
  8
0
100
AcDbLine
 10
58.4564
 20
170.234961
 30
0.0
 11
58.720179959133
 21
170.14939650035
 31
0.0
  0
LINE
  5
57D
330
1D
100
AcDbEntity
  8
0
100
AcDbLine
 10
58.4564
 20
170.234961
 30
0.0
 11
58.720179959133
 21
170.14939650035
 31
0.0
  0
LINE
  5
57E
330
1D
100
AcDbEntity
  8
0
100
AcDbLine
 10
58.720179959133
 20
170.14939650035
 30
0.0
 11
60.3585
 21
169.617961
 31
0.0
  0
LINE
  5
57F
330
1D
100
AcDbEntity
  8
0
100
AcDbLine
 10
73.6415
 20
166.154961
 30
0.0
 11
90.6215
 21
161.936961
 31
0.0
  0
LINE
  5
580
330
1D
100
AcDbEntity
  8
0
100
AcDbLine
 10
64.5225
 20
168.489961
 30
0.0
 11
67.4945
 21
167.714961
 31
0.0
  0
LINE
  5
581
330
1D
100
AcDbEntity
  8
0
100
AcDbLine
 10
67.4945
 20
167.714961
 30
0.0
 11
73.6405
 21
166.154961
 31
0.0
  0
LINE
  5
582
330
1D
100
AcDbEntity
  8
0
100
AcDbLine
 10
55.7762
 20
171.903961
 30
0.0
 11
56.5038
 21
171.277961
 31
0.0
  0
LINE
  5
583
330
1D
100
AcDbEntity
  8
0
100
AcDbLine
 10
56.5038
 20
171.277961
 30
0.0
 11
57.6208
 21
170.600961
 31
0.0
  0
LINE
  5
584
330
1D
100
AcDbEntity
  8
0
100
AcDbLine
 10
90.6215
 20
161.936961
 30
0.0
 11
93.0275
 21
161.292961
 31
0.0
  0
LINE
  5
585
330
1D
100
AcDbEntity
  8
0
100
AcDbLine
 10
106.6095
 20
152.110961
 30
0.0
 11
107.7175
 21
150.279961
 31
0.0
  0
LINE
  5
586
330
1D
100
AcDbEntity
  8
0
100
AcDbLine
 10
107.7175
 20
150.279961
 30
0.0
 11
108.6315
 21
148.309961
 31
0.0
  0
LINE
  5
587
330
1D
100
AcDbEntity
  8
0
100
AcDbLine
 10
110.5585
 20
136.795961
 30
0.0
 11
110.8565
 21
120.609961
 31
0.0
  0
LINE
  5
588
330
1D
100
AcDbEntity
  8
0
100
AcDbLine
 10
110.1365
 20
142.372961
 30
0.0
 11
110.3265
 21
140.725961
 31
0.0
  0
LINE
  5
589
330
1D
100
AcDbEntity
  8
0
100
AcDbLine
 10
110.3265
 20
140.725961
 30
0.0
 11
110.4915
 21
138.414961
 31
0.0
  0
LINE
  5
58A
330
1D
100
AcDbEntity
  8
0
100
AcDbLine
 10
110.4915
 20
138.414961
 30
0.0
 11
110.5585
 21
136.795961
 31
0.0
  0
LINE
  5
58B
330
1D
100
AcDbEntity
  8
0
100
AcDbLine
 10
109.8785
 20
143.951961
 30
0.0
 11
110.1365
 21
142.372961
 31
0.0
  0
LINE
  5
58C
330
1D
100
AcDbEntity
  8
0
100
AcDbLine
 10
109.3485
 20
146.200961
 30
0.0
 11
109.8785
 21
143.951961
 31
0.0
  0
LINE
  5
58D
330
1D
100
AcDbEntity
  8
0
100
AcDbLine
 10
108.6315
 20
148.309961
 30
0.0
 11
109.3485
 21
146.200961
 31
0.0
  0
LINE
  5
58E
330
1D
100
AcDbEntity
  8
0
100
AcDbLine
 10
55.1517
 20
172.633961
 30
0.0
 11
55.7762
 21
171.903961
 31
0.0
  0
LINE
  5
58F
330
1D
100
AcDbEntity
  8
0
100
AcDbLine
 10
54.4552
 20
173.845961
 30
0.0
 11
55.1517
 21
172.633961
 31
0.0
  0
LINE
  5
590
330
1D
100
AcDbEntity
  8
0
100
AcDbLine
 10
54.0128
 20
175.218961
 30
0.0
 11
54.4552
 21
173.845961
 31
0.0
  0
LINE
  5
591
330
1D
100
AcDbEntity
  8
0
100
AcDbLine
 10
54.4702
 20
177.189961
 30
0.0
 11
61.5325
 21
175.559961
 31
0.0
  0
LINE
  5
592
330
1D
100
AcDbEntity
  8
0
100
AcDbLine
 10
54.4702
 20
177.189961
 30
0.0
 11
61.5325
 21
175.559961
 31
0.0
  0
LINE
  5
593
330
1D
100
AcDbEntity
  8
0
100
AcDbLine
 10
54.1589
 20
177.168961
 30
0.0
 11
54.4702
 21
177.189961
 31
0.0
  0
LINE
  5
594
330
1D
100
AcDbEntity
  8
0
100
AcDbLine
 10
53.9297
 20
176.981961
 30
0.0
 11
54.1589
 21
177.168961
 31
0.0
  0
LINE
  5
595
330
1D
100
AcDbEntity
  8
0
100
AcDbLine
 10
66.1225
 20
174.465961
 30
0.0
 11
75.1515
 21
172.271961
 31
0.0
  0
LINE
  5
596
330
1D
100
AcDbEntity
  8
0
100
AcDbLine
 10
61.5325
 20
175.559961
 30
0.0
 11
66.1225
 21
174.465961
 31
0.0
  0
LINE
  5
597
330
1D
100
AcDbEntity
  8
0
100
AcDbLine
 10
75.1515
 20
172.271961
 30
0.0
 11
134.7615
 21
157.491961
 31
0.0
  0
LINE
  5
598
330
1D
100
AcDbEntity
  8
0
100
AcDbLine
 10
53.8467
 20
176.697961
 30
0.0
 11
54.0128
 21
175.218961
 31
0.0
  0
LINE
  5
599
330
1D
100
AcDbEntity
  8
0
100
AcDbLine
 10
53.8467
 20
176.697961
 30
0.0
 11
53.9297
 21
176.981961
 31
0.0
  0
LINE
  5
59A
330
1D
100
AcDbEntity
  8
0
100
AcDbLine
 10
0.124516
 20
117.295961
 30
0.0
 11
0.301662
 21
117.525961
 31
0.0
  0
LINE
  5
59B
330
1D
100
AcDbEntity
  8
0
100
AcDbLine
 10
0.1045
 20
117.005961
 30
0.0
 11
0.581892
 21
115.229961
 31
0.0
  0
LINE
  5
59C
330
1D
100
AcDbEntity
  8
0
100
AcDbLine
 10
111.5175
 20
120.117961
 30
0.0
 11
112.0125
 21
120.117961
 31
0.0
  0
LINE
  5
59D
330
1D
100
AcDbEntity
  8
0
100
AcDbLine
 10
111.3565
 20
120.117961
 30
0.0
 11
111.5175
 21
120.117961
 31
0.0
  0
LINE
  5
59E
330
1D
100
AcDbEntity
  8
0
100
AcDbLine
 10
111.4415
 20
120.117961
 30
0.0
 11
111.6485
 21
120.117961
 31
0.0
  0
LINE
  5
59F
330
1D
100
AcDbEntity
  8
0
100
AcDbLine
 10
112.0125
 20
120.117961
 30
0.0
 11
112.8555
 21
120.117961
 31
0.0
  0
LINE
  5
5A0
330
1D
100
AcDbEntity
  8
0
100
AcDbLine
 10
111.6485
 20
120.117961
 30
0.0
 11
112.1935
 21
120.117961
 31
0.0
  0
LINE
  5
5A1
330
1D
100
AcDbEntity
  8
0
100
AcDbLine
 10
110.8565
 20
120.609961
 30
0.0
 11
110.9265
 21
120.362961
 31
0.0
  0
LINE
  5
5A2
330
1D
100
AcDbEntity
  8
0
100
AcDbLine
 10
110.9265
 20
120.362961
 30
0.0
 11
111.1095
 21
120.183961
 31
0.0
  0
LINE
  5
5A3
330
1D
100
AcDbEntity
  8
0
100
AcDbLine
 10
111.1095
 20
120.183961
 30
0.0
 11
111.3565
 21
120.117961
 31
0.0
  0
LINE
  5
5A4
330
1D
100
AcDbEntity
  8
0
100
AcDbLine
 10
114.0445
 20
120.117961
 30
0.0
 11
115.3125
 21
120.117961
 31
0.0
  0
LINE
  5
5A5
330
1D
100
AcDbEntity
  8
0
100
AcDbLine
 10
116.8035
 20
120.117961
 30
0.0
 11
118.4975
 21
120.117961
 31
0.0
  0
LINE
  5
5A6
330
1D
100
AcDbEntity
  8
0
100
AcDbLine
 10
115.3125
 20
120.117961
 30
0.0
 11
116.8035
 21
120.117961
 31
0.0
  0
LINE
  5
5A7
330
1D
100
AcDbEntity
  8
0
100
AcDbLine
 10
120.3675
 20
120.117961
 30
0.0
 11
122.3825
 21
120.117961
 31
0.0
  0
LINE
  5
5A8
330
1D
100
AcDbEntity
  8
0
100
AcDbLine
 10
118.4975
 20
120.117961
 30
0.0
 11
120.3675
 21
120.117961
 31
0.0
  0
LINE
  5
5A9
330
1D
100
AcDbEntity
  8
0
100
AcDbLine
 10
112.8555
 20
120.117961
 30
0.0
 11
114.0445
 21
120.117961
 31
0.0
  0
LINE
  5
5AA
330
1D
100
AcDbEntity
  8
0
100
AcDbLine
 10
132.7905
 20
120.117961
 30
0.0
 11
132.9365
 21
120.139961
 31
0.0
  0
LINE
  5
5AB
330
1D
100
AcDbEntity
  8
0
100
AcDbLine
 10
127.4675
 20
120.117961
 30
0.0
 11
130.0895
 21
120.117961
 31
0.0
  0
LINE
  5
5AC
330
1D
100
AcDbEntity
  8
0
100
AcDbLine
 10
130.0895
 20
120.117961
 30
0.0
 11
132.7905
 21
120.117961
 31
0.0
  0
LINE
  5
5AD
330
1D
100
AcDbEntity
  8
0
100
AcDbLine
 10
122.3825
 20
120.117961
 30
0.0
 11
124.8785
 21
120.117961
 31
0.0
  0
LINE
  5
5AE
330
1D
100
AcDbEntity
  8
0
100
AcDbLine
 10
124.8785
 20
120.117961
 30
0.0
 11
127.4675
 21
120.117961
 31
0.0
  0
LINE
  5
5AF
330
1D
100
AcDbEntity
  8
0
100
AcDbLine
 10
112.1935
 20
120.117961
 30
0.0
 11
112.778401639344
 21
120.117961
 31
0.0
  0
LINE
  5
5B0
330
1D
100
AcDbEntity
  8
0
100
AcDbLine
 10
142.4905
 20
155.559961
 30
0.0
 11
153.6605
 21
152.640961
 31
0.0
  0
LINE
  5
5B1
330
1D
100
AcDbEntity
  8
0
100
AcDbLine
 10
134.7615
 20
157.491961
 30
0.0
 11
142.4905
 21
155.559961
 31
0.0
  0
LINE
  5
5B2
330
1D
100
AcDbEntity
  8
0
100
AcDbLine
 10
151.106745430491
 20
125.701919594185
 30
0.0
 11
151.5685
 21
124.773961
 31
0.0
  0
LINE
  5
5B3
330
1D
100
AcDbEntity
  8
0
100
AcDbLine
 10
151.5685
 20
124.773961
 30
0.0
 11
152.3045
 21
122.808961
 31
0.0
  0
LINE
  5
5B4
330
1D
100
AcDbEntity
  8
0
100
AcDbLine
 10
154.1005
 20
126.617961
 30
0.0
 11
154.2645
 21
126.668961
 31
0.0
  0
LINE
  5
5B5
330
1D
100
AcDbEntity
  8
0
100
AcDbLine
 10
154.2645
 20
126.668961
 30
0.0
 11
154.3275
 21
126.687961
 31
0.0
  0
LINE
  5
5B6
330
1D
100
AcDbEntity
  8
0
100
AcDbLine
 10
154.6405
 20
126.967961
 30
0.0
 11
154.6805
 21
127.179961
 31
0.0
  0
LINE
  5
5B7
330
1D
100
AcDbEntity
  8
0
100
AcDbLine
 10
154.5145
 20
126.793961
 30
0.0
 11
154.6405
 21
126.967961
 31
0.0
  0
LINE
  5
5B8
330
1D
100
AcDbEntity
  8
0
100
AcDbLine
 10
154.3275
 20
126.687961
 30
0.0
 11
154.5145
 21
126.793961
 31
0.0
  0
LINE
  5
5B9
330
1D
100
AcDbEntity
  8
0
100
AcDbLine
 10
154.184369706841
 20
126.644042433225
 30
0.0
 11
154.3275
 21
126.687961
 31
0.0
  0
LINE
  5
5BA
330
1D
100
AcDbEntity
  8
0
100
AcDbLine
 10
153.9205
 20
152.467961
 30
0.0
 11
154.0265
 21
152.170961
 31
0.0
  0
LINE
  5
5BB
330
1D
100
AcDbEntity
  8
0
100
AcDbLine
 10
153.6605
 20
152.640961
 30
0.0
 11
153.9205
 21
152.467961
 31
0.0
  0
LINE
  5
5BC
330
1D
100
AcDbEntity
  8
0
100
AcDbLine
 10
154.0265
 20
152.170961
 30
0.0
 11
154.6805
 21
127.179961
 31
0.0
  0
LINE
  5
5BD
330
1D
100
AcDbEntity
  8
0
100
AcDbLine
 10
152.8355
 20
120.779961
 30
0.0
 11
153.1575
 21
118.705961
 31
0.0
  0
LINE
  5
5BE
330
1D
100
AcDbEntity
  8
0
100
AcDbLine
 10
152.3045
 20
122.808961
 30
0.0
 11
152.8355
 21
120.779961
 31
0.0
  0
LINE
  5
5BF
330
1D
100
AcDbEntity
  8
0
100
AcDbLine
 10
112.5585
 20
118.705961
 30
0.0
 11
112.778401639344
 21
120.117961
 31
0.0
  0
LINE
  5
5C0
330
1D
100
AcDbEntity
  8
0
100
AcDbLine
 10
6.1113
 20
103.338961
 30
0.0
 11
26.2397
 21
92.135961
 31
0.0
  0
LINE
  5
5C1
330
1D
100
AcDbEntity
  8
0
100
AcDbLine
 10
132.9365
 20
120.139961
 30
0.0
 11
154.184369706857
 21
126.64404243323
 31
0.0
  0
LINE
  5
5C2
330
1D
100
AcDbEntity
  8
0
100
AcDbLine
 10
153.1575
 20
118.705961
 30
0.0
 11
153.1085
 21
117.652961
 31
0.0
  0
LINE
  5
730
330
1D
100
AcDbEntity
  8
0
100
AcDbLine
 10
191.7322
 20
115.775983
 30
0.0
 11
192.518678474164
 21
115.29148399181
 31
0.0
  0
LINE
  5
731
330
1D
100
AcDbEntity
  8
0
100
AcDbLine
 10
191.7322
 20
115.775983
 30
0.0
 11
192.1079
 21
115.881983
 31
0.0
  0
LINE
  5
732
330
1D
100
AcDbEntity
  8
0
100
AcDbLine
 10
150.402501
 20
260.698983
 30
0.0
 11
150.845450899722
 21
260.823704181284
 31
0.0
  0
LINE
  5
733
330
1D
100
AcDbEntity
  8
0
100
AcDbLine
 10
150.321108
 20
260.986983
 30
0.0
 11
150.764215423664
 21
261.111998354727
 31
0.0
  0
LINE
  5
734
330
1D
100
AcDbEntity
  8
0
100
AcDbLine
 10
150.321108
 20
260.986983
 30
0.0
 11
150.402501
 21
260.698983
 31
0.0
  0
LINE
  5
735
330
1D
100
AcDbEntity
  8
0
100
AcDbLine
 10
150.321108
 20
260.986983
 30
0.0
 11
150.592419
 21
260.024983
 31
0.0
  0
LINE
  5
736
330
1D
100
AcDbEntity
  8
0
100
AcDbLine
 10
150.321108
 20
260.986983
 30
0.0
 11
150.764215423664
 21
261.111998354727
 31
0.0
  0
LINE
  5
737
330
1D
100
AcDbEntity
  8
0
100
AcDbLine
 10
150.402501
 20
260.698983
 30
0.0
 11
150.592419
 21
260.024983
 31
0.0
  0
LINE
  5
738
330
1D
100
AcDbEntity
  8
0
100
AcDbLine
 10
150.402501
 20
260.698983
 30
0.0
 11
150.845450899722
 21
260.823704181284
 31
0.0
  0
LINE
  5
739
330
1D
100
AcDbEntity
  8
0
100
AcDbLine
 10
150.592419
 20
260.024983
 30
0.0
 11
150.863731
 21
259.061983
 31
0.0
  0
LINE
  5
73A
330
1D
100
AcDbEntity
  8
0
100
AcDbLine
 10
150.592419
 20
260.024983
 30
0.0
 11
151.035377506099
 21
260.149706463822
 31
0.0
  0
LINE
  5
73B
330
1D
100
AcDbEntity
  8
0
100
AcDbLine
 10
150.592419
 20
260.024983
 30
0.0
 11
150.863731
 21
259.061983
 31
0.0
  0
LINE
  5
73C
330
1D
100
AcDbEntity
  8
0
100
AcDbLine
 10
150.592419
 20
260.024983
 30
0.0
 11
150.782337
 21
259.350983
 31
0.0
  0
LINE
  5
73D
330
1D
100
AcDbEntity
  8
0
100
AcDbLine
 10
150.592419
 20
260.024983
 30
0.0
 11
151.035377506099
 21
260.149706463822
 31
0.0
  0
LINE
  5
73E
330
1D
100
AcDbEntity
  8
0
100
AcDbLine
 10
150.402501
 20
260.698983
 30
0.0
 11
150.592419
 21
260.024983
 31
0.0
  0
LINE
  5
73F
330
1D
100
AcDbEntity
  8
0
100
AcDbLine
 10
150.648447
 20
261.522983
 30
0.0
 11
150.772952
 21
261.080983
 31
0.0
  0
LINE
  5
740
330
1D
100
AcDbEntity
  8
0
100
AcDbLine
 10
150.648447
 20
261.522983
 30
0.0
 11
150.71087
 21
261.937983
 31
0.0
  0
LINE
  5
741
330
1D
100
AcDbEntity
  8
0
100
AcDbLine
 10
150.648447
 20
261.522983
 30
0.0
 11
150.764215423664
 21
261.111998354727
 31
0.0
  0
LINE
  5
742
330
1D
100
AcDbEntity
  8
0
100
AcDbLine
 10
150.648447
 20
261.522983
 30
0.0
 11
150.764215423664
 21
261.111998354727
 31
0.0
  0
LINE
  5
743
330
1D
100
AcDbEntity
  8
0
100
AcDbLine
 10
150.732823
 20
259.526983
 30
0.0
 11
151.175766572175
 21
259.65170254039
 31
0.0
  0
LINE
  5
744
330
1D
100
AcDbEntity
  8
0
100
AcDbLine
 10
150.757295
 20
259.439983
 30
0.0
 11
150.922741
 21
258.852983
 31
0.0
  0
LINE
  5
745
330
1D
100
AcDbEntity
  8
0
100
AcDbLine
 10
150.757295
 20
259.439983
 30
0.0
 11
151.200231791424
 21
259.564950707298
 31
0.0
  0
LINE
  5
746
330
1D
100
AcDbEntity
  8
0
100
AcDbLine
 10
150.732823
 20
259.526983
 30
0.0
 11
150.757295
 21
259.439983
 31
0.0
  0
LINE
  5
747
330
1D
100
AcDbEntity
  8
0
100
AcDbLine
 10
150.732823
 20
259.526983
 30
0.0
 11
151.175766572175
 21
259.65170254039
 31
0.0
  0
LINE
  5
748
330
1D
100
AcDbEntity
  8
0
100
AcDbLine
 10
151.127907
 20
258.124983
 30
0.0
 11
151.25171
 21
257.685983
 31
0.0
  0
LINE
  5
749
330
1D
100
AcDbEntity
  8
0
100
AcDbLine
 10
151.127907
 20
258.124983
 30
0.0
 11
151.571062569337
 21
258.250012573174
 31
0.0
  0
LINE
  5
74A
330
1D
100
AcDbEntity
  8
0
100
AcDbLine
 10
151.127907
 20
258.124983
 30
0.0
 11
151.571062569337
 21
258.250012573174
 31
0.0
  0
LINE
  5
74B
330
1D
100
AcDbEntity
  8
0
100
AcDbLine
 10
150.922741
 20
258.852983
 30
0.0
 11
151.127907
 21
258.124983
 31
0.0
  0
LINE
  5
74C
330
1D
100
AcDbEntity
  8
0
100
AcDbLine
 10
150.922741
 20
258.852983
 30
0.0
 11
151.365766915176
 21
258.977975570057
 31
0.0
  0
LINE
  5
74D
330
1D
100
AcDbEntity
  8
0
100
AcDbLine
 10
150.922741
 20
258.852983
 30
0.0
 11
151.365766915176
 21
258.977975570057
 31
0.0
  0
LINE
  5
74E
330
1D
100
AcDbEntity
  8
0
100
AcDbLine
 10
150.863826720554
 20
259.062010006
 30
0.0
 11
150.922741
 21
258.852983
 31
0.0
  0
LINE
  5
74F
330
1D
100
AcDbEntity
  8
0
100
AcDbLine
 10
150.782337
 20
259.350983
 30
0.0
 11
150.863731
 21
259.061983
 31
0.0
  0
LINE
  5
750
330
1D
100
AcDbEntity
  8
0
100
AcDbLine
 10
150.772952
 20
261.080983
 30
0.0
 11
151.104902
 21
259.902983
 31
0.0
  0
LINE
  5
751
330
1D
100
AcDbEntity
  8
0
100
AcDbLine
 10
151.25171
 20
257.685983
 30
0.0
 11
151.694828896578
 21
257.81100243815
 31
0.0
  0
LINE
  5
752
330
1D
100
AcDbEntity
  8
0
100
AcDbLine
 10
151.25171
 20
257.685983
 30
0.0
 11
151.694828896578
 21
257.81100243815
 31
0.0
  0
LINE
  5
753
330
1D
100
AcDbEntity
  8
0
100
AcDbLine
 10
151.177689
 20
260.280983
 30
0.0
 11
151.72747
 21
258.330983
 31
0.0
  0
LINE
  5
754
330
1D
100
AcDbEntity
  8
0
100
AcDbLine
 10
150.835348
 20
261.495983
 30
0.0
 11
151.177689
 21
260.280983
 31
0.0
  0
LINE
  5
755
330
1D
100
AcDbEntity
  8
0
100
AcDbLine
 10
150.71087
 20
261.937983
 30
0.0
 11
150.835348
 21
261.495983
 31
0.0
  0
LINE
  5
756
330
1D
100
AcDbEntity
  8
0
100
AcDbLine
 10
150.71087
 20
261.937983
 30
0.0
 11
150.991286
 21
262.214983
 31
0.0
  0
LINE
  5
757
330
1D
100
AcDbEntity
  8
0
100
AcDbLine
 10
151.163785
 20
263.728983
 30
0.0
 11
151.321615434307
 21
262.308031976697
 31
0.0
  0
LINE
  5
758
330
1D
100
AcDbEntity
  8
0
100
AcDbLine
 10
151.13409
 20
264.940983
 30
0.0
 11
151.212445
 21
265.801983
 31
0.0
  0
LINE
  5
759
330
1D
100
AcDbEntity
  8
0
100
AcDbLine
 10
151.13409
 20
264.940983
 30
0.0
 11
151.163785
 21
263.728983
 31
0.0
  0
LINE
  5
75A
330
1D
100
AcDbEntity
  8
0
100
AcDbLine
 10
151.212445
 20
265.801983
 30
0.0
 11
151.293072864984
 21
266.022383532207
 31
0.0
  0
LINE
  5
75B
330
1D
100
AcDbEntity
  8
0
100
AcDbLine
 10
151.212445
 20
265.801983
 30
0.0
 11
151.293072864984
 21
266.022383532207
 31
0.0
  0
LINE
  5
75C
330
1D
100
AcDbEntity
  8
0
100
AcDbLine
 10
150.991286
 20
262.214983
 30
0.0
 11
151.32805459077
 21
262.309845793019
 31
0.0
  0
LINE
  5
75D
330
1D
100
AcDbEntity
  8
0
100
AcDbLine
 10
150.991286
 20
262.214983
 30
0.0
 11
151.32805459077
 21
262.309845793019
 31
0.0
  0
LINE
  5
75E
330
1D
100
AcDbEntity
  8
0
100
AcDbLine
 10
151.6081
 20
256.421983
 30
0.0
 11
152.051134112897
 21
256.546727822755
 31
0.0
  0
LINE
  5
75F
330
1D
100
AcDbEntity
  8
0
100
AcDbLine
 10
151.564690889132
 20
256.575863015833
 30
0.0
 11
151.67216
 21
256.193983
 31
0.0
  0
LINE
  5
760
330
1D
100
AcDbEntity
  8
0
100
AcDbLine
 10
151.564690889132
 20
256.575863015833
 30
0.0
 11
151.67216
 21
256.193983
 31
0.0
  0
LINE
  5
761
330
1D
100
AcDbEntity
  8
0
100
AcDbLine
 10
151.6081
 20
256.421983
 30
0.0
 11
151.81262
 21
255.695983
 31
0.0
  0
LINE
  5
762
330
1D
100
AcDbEntity
  8
0
100
AcDbLine
 10
151.6081
 20
256.421983
 30
0.0
 11
152.051134112897
 21
256.546727822755
 31
0.0
  0
LINE
  5
763
330
1D
100
AcDbEntity
  8
0
100
AcDbLine
 10
151.48031
 20
256.874983
 30
0.0
 11
151.923392704256
 21
256.999991521636
 31
0.0
  0
LINE
  5
764
330
1D
100
AcDbEntity
  8
0
100
AcDbLine
 10
151.48031
 20
256.874983
 30
0.0
 11
151.564690889132
 21
256.575863015833
 31
0.0
  0
LINE
  5
765
330
1D
100
AcDbEntity
  8
0
100
AcDbLine
 10
151.48031
 20
256.874983
 30
0.0
 11
151.564690889132
 21
256.575863015833
 31
0.0
  0
LINE
  5
766
330
1D
100
AcDbEntity
  8
0
100
AcDbLine
 10
151.48031
 20
256.874983
 30
0.0
 11
151.6081
 21
256.421983
 31
0.0
  0
LINE
  5
767
330
1D
100
AcDbEntity
  8
0
100
AcDbLine
 10
151.48031
 20
256.874983
 30
0.0
 11
151.923392704256
 21
256.999991521636
 31
0.0
  0
LINE
  5
768
330
1D
100
AcDbEntity
  8
0
100
AcDbLine
 10
151.67216
 20
256.193983
 30
0.0
 11
151.799680683366
 21
255.741914663779
 31
0.0
  0
LINE
  5
769
330
1D
100
AcDbEntity
  8
0
100
AcDbLine
 10
151.67216
 20
256.193983
 30
0.0
 11
151.799680683366
 21
255.741914663779
 31
0.0
  0
LINE
  5
76A
330
1D
100
AcDbEntity
  8
0
100
AcDbLine
 10
151.63396
 20
258.026983
 30
0.0
 11
152.33937
 21
255.523983
 31
0.0
  0
LINE
  5
76B
330
1D
100
AcDbEntity
  8
0
100
AcDbLine
 10
151.72747
 20
258.330983
 30
0.0
 11
152.45364
 21
255.754983
 31
0.0
  0
LINE
  5
76C
330
1D
100
AcDbEntity
  8
0
100
AcDbLine
 10
151.3369
 20
265.866983
 30
0.0
 11
151.79786
 21
264.231983
 31
0.0
  0
LINE
  5
76D
330
1D
100
AcDbEntity
  8
0
100
AcDbLine
 10
151.179811
 20
266.423983
 30
0.0
 11
151.7946
 21
267.636983
 31
0.0
  0
LINE
  5
76E
330
1D
100
AcDbEntity
  8
0
100
AcDbLine
 10
151.179811
 20
266.423983
 30
0.0
 11
151.293072864984
 21
266.022383532207
 31
0.0
  0
LINE
  5
76F
330
1D
100
AcDbEntity
  8
0
100
AcDbLine
 10
151.179811
 20
266.423983
 30
0.0
 11
151.293072864984
 21
266.022383532207
 31
0.0
  0
LINE
  5
770
330
1D
100
AcDbEntity
  8
0
100
AcDbLine
 10
151.179811
 20
266.423983
 30
0.0
 11
151.3369
 21
265.866983
 31
0.0
  0
LINE
  5
771
330
1D
100
AcDbEntity
  8
0
100
AcDbLine
 10
154.33047
 20
246.763983
 30
0.0
 11
154.773464077407
 21
246.888966517023
 31
0.0
  0
LINE
  5
772
330
1D
100
AcDbEntity
  8
0
100
AcDbLine
 10
154.33047
 20
246.763983
 30
0.0
 11
154.773464077407
 21
246.888966517023
 31
0.0
  0
LINE
  5
773
330
1D
100
AcDbEntity
  8
0
100
AcDbLine
 10
154.11947
 20
247.511983
 30
0.0
 11
154.24324
 21
247.072983
 31
0.0
  0
LINE
  5
774
330
1D
100
AcDbEntity
  8
0
100
AcDbLine
 10
154.017899999993
 20
247.872942513006
 30
0.0
 11
154.20268
 21
247.216983
 31
0.0
  0
LINE
  5
775
330
1D
100
AcDbEntity
  8
0
100
AcDbLine
 10
154.017899999993
 20
247.872942513006
 30
0.0
 11
154.20268
 21
247.216983
 31
0.0
  0
LINE
  5
776
330
1D
100
AcDbEntity
  8
0
100
AcDbLine
 10
153.93411
 20
248.169983
 30
0.0
 11
154.13862
 21
247.444983
 31
0.0
  0
LINE
  5
777
330
1D
100
AcDbEntity
  8
0
100
AcDbLine
 10
153.93411
 20
248.169983
 30
0.0
 11
154.377092197945
 21
248.294963165427
 31
0.0
  0
LINE
  5
778
330
1D
100
AcDbEntity
  8
0
100
AcDbLine
 10
153.93411
 20
248.169983
 30
0.0
 11
154.377092197945
 21
248.294963165427
 31
0.0
  0
LINE
  5
779
330
1D
100
AcDbEntity
  8
0
100
AcDbLine
 10
153.76676
 20
248.763983
 30
0.0
 11
153.84816
 21
248.474983
 31
0.0
  0
LINE
  5
77A
330
1D
100
AcDbEntity
  8
0
100
AcDbLine
 10
153.76676
 20
248.763983
 30
0.0
 11
154.209707748849
 21
248.888703505288
 31
0.0
  0
LINE
  5
77B
330
1D
100
AcDbEntity
  8
0
100
AcDbLine
 10
153.80632
 20
248.622983
 30
0.0
 11
153.93411
 21
248.169983
 31
0.0
  0
LINE
  5
77C
330
1D
100
AcDbEntity
  8
0
100
AcDbLine
 10
153.84506235638
 20
248.485646060958
 30
0.0
 11
153.9143
 21
248.239983
 31
0.0
  0
LINE
  5
77D
330
1D
100
AcDbEntity
  8
0
100
AcDbLine
 10
153.72438
 20
248.913983
 30
0.0
 11
153.74886
 21
248.826983
 31
0.0
  0
LINE
  5
77E
330
1D
100
AcDbEntity
  8
0
100
AcDbLine
 10
153.74886
 20
248.826983
 30
0.0
 11
153.80635272965
 21
248.622992234134
 31
0.0
  0
LINE
  5
77F
330
1D
100
AcDbEntity
  8
0
100
AcDbLine
 10
153.84816
 20
248.474983
 30
0.0
 11
154.291110382175
 21
248.599954894305
 31
0.0
  0
LINE
  5
780
330
1D
100
AcDbEntity
  8
0
100
AcDbLine
 10
153.84506235638
 20
248.485646060958
 30
0.0
 11
153.9143
 21
248.239983
 31
0.0
  0
LINE
  5
781
330
1D
100
AcDbEntity
  8
0
100
AcDbLine
 10
153.9143
 20
248.239983
 30
0.0
 11
154.11947
 21
247.511983
 31
0.0
  0
LINE
  5
782
330
1D
100
AcDbEntity
  8
0
100
AcDbLine
 10
154.20268
 20
247.216983
 30
0.0
 11
154.246089110869
 21
247.063102984163
 31
0.0
  0
LINE
  5
783
330
1D
100
AcDbEntity
  8
0
100
AcDbLine
 10
154.20268
 20
247.216983
 30
0.0
 11
154.246089110869
 21
247.063102984163
 31
0.0
  0
LINE
  5
784
330
1D
100
AcDbEntity
  8
0
100
AcDbLine
 10
154.13862
 20
247.444983
 30
0.0
 11
154.301
 21
246.867983
 31
0.0
  0
LINE
  5
785
330
1D
100
AcDbEntity
  8
0
100
AcDbLine
 10
154.13862
 20
247.444983
 30
0.0
 11
154.581554962457
 21
247.569699905032
 31
0.0
  0
LINE
  5
786
330
1D
100
AcDbEntity
  8
0
100
AcDbLine
 10
154.301
 20
246.867983
 30
0.0
 11
154.33047
 21
246.763983
 31
0.0
  0
LINE
  5
787
330
1D
100
AcDbEntity
  8
0
100
AcDbLine
 10
154.301
 20
246.867983
 30
0.0
 11
154.744133780969
 21
246.993005932093
 31
0.0
  0
LINE
  5
788
330
1D
100
AcDbEntity
  8
0
100
AcDbLine
 10
154.11947
 20
247.511983
 30
0.0
 11
154.24324
 21
247.072983
 31
0.0
  0
LINE
  5
789
330
1D
100
AcDbEntity
  8
0
100
AcDbLine
 10
154.330478328949
 20
246.763985349876
 30
0.0
 11
154.39078
 21
246.549983
 31
0.0
  0
LINE
  5
78A
330
1D
100
AcDbEntity
  8
0
100
AcDbLine
 10
154.65119
 20
245.625983
 30
0.0
 11
154.72794
 21
245.353983
 31
0.0
  0
LINE
  5
78B
330
1D
100
AcDbEntity
  8
0
100
AcDbLine
 10
154.8341
 20
244.976983
 30
0.0
 11
154.99955
 21
244.389983
 31
0.0
  0
LINE
  5
78C
330
1D
100
AcDbEntity
  8
0
100
AcDbLine
 10
154.8341
 20
244.976983
 30
0.0
 11
155.277250068564
 21
245.102010527371
 31
0.0
  0
LINE
  5
78D
330
1D
100
AcDbEntity
  8
0
100
AcDbLine
 10
154.80963
 20
245.063983
 30
0.0
 11
154.8341
 21
244.976983
 31
0.0
  0
LINE
  5
78E
330
1D
100
AcDbEntity
  8
0
100
AcDbLine
 10
154.80963
 20
245.063983
 30
0.0
 11
155.252726680926
 21
245.188995464924
 31
0.0
  0
LINE
  5
78F
330
1D
100
AcDbEntity
  8
0
100
AcDbLine
 10
154.72794
 20
245.353983
 30
0.0
 11
154.80963368645
 21
245.063984040072
 31
0.0
  0
LINE
  5
790
330
1D
100
AcDbEntity
  8
0
100
AcDbLine
 10
154.72794
 20
245.353983
 30
0.0
 11
155.171038263542
 21
245.47874588561
 31
0.0
  0
LINE
  5
791
330
1D
100
AcDbEntity
  8
0
100
AcDbLine
 10
154.72794
 20
245.353983
 30
0.0
 11
155.171038263542
 21
245.47874588561
 31
0.0
  0
LINE
  5
792
330
1D
100
AcDbEntity
  8
0
100
AcDbLine
 10
154.66209
 20
245.587983
 30
0.0
 11
155.105076275336
 21
245.712714353165
 31
0.0
  0
LINE
  5
793
330
1D
100
AcDbEntity
  8
0
100
AcDbLine
 10
154.5807
 20
245.875983
 30
0.0
 11
154.66209
 21
245.587983
 31
0.0
  0
LINE
  5
794
330
1D
100
AcDbEntity
  8
0
100
AcDbLine
 10
154.5807
 20
245.875983
 30
0.0
 11
155.023801512385
 21
246.000997533457
 31
0.0
  0
LINE
  5
795
330
1D
100
AcDbEntity
  8
0
100
AcDbLine
 10
154.39078
 20
246.549983
 30
0.0
 11
154.5807
 21
245.875983
 31
0.0
  0
LINE
  5
796
330
1D
100
AcDbEntity
  8
0
100
AcDbLine
 10
154.39078
 20
246.549983
 30
0.0
 11
154.833792474991
 21
246.6749717076
 31
0.0
  0
LINE
  5
797
330
1D
100
AcDbEntity
  8
0
100
AcDbLine
 10
153.57685
 20
249.436983
 30
0.0
 11
153.724428501198
 21
248.913996683818
 31
0.0
  0
LINE
  5
798
330
1D
100
AcDbEntity
  8
0
100
AcDbLine
 10
153.57685
 20
249.436983
 30
0.0
 11
153.76676
 21
248.763983
 31
0.0
  0
LINE
  5
799
330
1D
100
AcDbEntity
  8
0
100
AcDbLine
 10
153.57685
 20
249.436983
 30
0.0
 11
154.0199
 21
249.561983
 31
0.0
  0
LINE
  5
79A
330
1D
100
AcDbEntity
  8
0
100
AcDbLine
 10
155.059421595328
 20
244.177823466936
 30
0.0
 11
155.13857
 21
243.896983
 31
0.0
  0
LINE
  5
79B
330
1D
100
AcDbEntity
  8
0
100
AcDbLine
 10
155.059421595328
 20
244.177823466936
 30
0.0
 11
155.13857
 21
243.896983
 31
0.0
  0
LINE
  5
79C
330
1D
100
AcDbEntity
  8
0
100
AcDbLine
 10
154.99955
 20
244.389983
 30
0.0
 11
155.059421595328
 21
244.177823466936
 31
0.0
  0
LINE
  5
79D
330
1D
100
AcDbEntity
  8
0
100
AcDbLine
 10
154.99955
 20
244.389983
 30
0.0
 11
155.20471
 21
243.662983
 31
0.0
  0
LINE
  5
79E
330
1D
100
AcDbEntity
  8
0
100
AcDbLine
 10
154.99955
 20
244.389983
 30
0.0
 11
155.442738092853
 21
244.515021255301
 31
0.0
  0
LINE
  5
79F
330
1D
100
AcDbEntity
  8
0
100
AcDbLine
 10
154.8913
 20
246.470983
 30
0.0
 11
155.70043
 21
243.600983
 31
0.0
  0
LINE
  5
7A0
330
1D
100
AcDbEntity
  8
0
100
AcDbLine
 10
154.0199
 20
249.561983
 30
0.0
 11
154.8913
 21
246.470983
 31
0.0
  0
LINE
  5
7A1
330
1D
100
AcDbEntity
  8
0
100
AcDbLine
 10
155.435492847531
 20
242.843909621808
 30
0.0
 11
155.48153
 21
242.679983
 31
0.0
  0
LINE
  5
7A2
330
1D
100
AcDbEntity
  8
0
100
AcDbLine
 10
155.48153
 20
242.679983
 30
0.0
 11
155.64391
 21
242.103983
 31
0.0
  0
LINE
  5
7A3
330
1D
100
AcDbEntity
  8
0
100
AcDbLine
 10
155.435492847531
 20
242.843909621808
 30
0.0
 11
155.48153
 21
242.679983
 31
0.0
  0
LINE
  5
7A4
330
1D
100
AcDbEntity
  8
0
100
AcDbLine
 10
155.55607929966
 20
242.415897349202
 30
0.0
 11
155.64391
 21
242.103983
 31
0.0
  0
LINE
  5
7A5
330
1D
100
AcDbEntity
  8
0
100
AcDbLine
 10
155.67338
 20
241.999983
 30
0.0
 11
156.116472016411
 21
242.1247448306
 31
0.0
  0
LINE
  5
7A6
330
1D
100
AcDbEntity
  8
0
100
AcDbLine
 10
155.64391
 20
242.103983
 30
0.0
 11
155.67338
 21
241.999983
 31
0.0
  0
LINE
  5
7A7
330
1D
100
AcDbEntity
  8
0
100
AcDbLine
 10
155.55607929966
 20
242.415897349202
 30
0.0
 11
155.64391
 21
242.103983
 31
0.0
  0
LINE
  5
7A8
330
1D
100
AcDbEntity
  8
0
100
AcDbLine
 10
155.54562
 20
242.452983
 30
0.0
 11
155.67338
 21
241.999983
 31
0.0
  0
LINE
  5
7A9
330
1D
100
AcDbEntity
  8
0
100
AcDbLine
 10
155.54562
 20
242.452983
 30
0.0
 11
155.988732808542
 21
242.578000720501
 31
0.0
  0
LINE
  5
7AA
330
1D
100
AcDbEntity
  8
0
100
AcDbLine
 10
155.20471
 20
243.662983
 30
0.0
 11
155.32849
 21
243.222983
 31
0.0
  0
LINE
  5
7AB
330
1D
100
AcDbEntity
  8
0
100
AcDbLine
 10
155.20471
 20
243.662983
 30
0.0
 11
155.647778865508
 21
243.787737608025
 31
0.0
  0
LINE
  5
7AC
330
1D
100
AcDbEntity
  8
0
100
AcDbLine
 10
155.32849
 20
243.222983
 30
0.0
 11
155.771717792845
 21
243.34803316162
 31
0.0
  0
LINE
  5
7AD
330
1D
100
AcDbEntity
  8
0
100
AcDbLine
 10
155.291893155334
 20
243.353073577257
 30
0.0
 11
155.32849
 21
243.222983
 31
0.0
  0
LINE
  5
7AE
330
1D
100
AcDbEntity
  8
0
100
AcDbLine
 10
155.291893155334
 20
243.353073577257
 30
0.0
 11
155.32849
 21
243.222983
 31
0.0
  0
LINE
  5
7AF
330
1D
100
AcDbEntity
  8
0
100
AcDbLine
 10
155.13857
 20
243.896983
 30
0.0
 11
155.291893155334
 21
243.353073577258
 31
0.0
  0
LINE
  5
7B0
330
1D
100
AcDbEntity
  8
0
100
AcDbLine
 10
155.13857
 20
243.896983
 30
0.0
 11
155.291893155334
 21
243.353073577257
 31
0.0
  0
LINE
  5
7B1
330
1D
100
AcDbEntity
  8
0
100
AcDbLine
 10
155.14926
 20
243.858983
 30
0.0
 11
155.193311620521
 21
243.702788697432
 31
0.0
  0
LINE
  5
7B2
330
1D
100
AcDbEntity
  8
0
100
AcDbLine
 10
155.14926
 20
243.858983
 30
0.0
 11
155.180510393152
 21
243.748200678248
 31
0.0
  0
LINE
  5
7B3
330
1D
100
AcDbEntity
  8
0
100
AcDbLine
 10
155.14926
 20
243.858983
 30
0.0
 11
155.193311620521
 21
243.702788697432
 31
0.0
  0
LINE
  5
7B4
330
1D
100
AcDbEntity
  8
0
100
AcDbLine
 10
155.328655005486
 20
243.223029553856
 30
0.0
 11
155.355899950095
 21
243.126446505921
 31
0.0
  0
LINE
  5
7B5
330
1D
100
AcDbEntity
  8
0
100
AcDbLine
 10
155.328640187562
 20
243.223025373198
 30
0.0
 11
155.362847601811
 21
243.101783904975
 31
0.0
  0
LINE
  5
7B6
330
1D
100
AcDbEntity
  8
0
100
AcDbLine
 10
155.328640187562
 20
243.223025373198
 30
0.0
 11
155.362847601811
 21
243.101783904975
 31
0.0
  0
LINE
  5
7B7
330
1D
100
AcDbEntity
  8
0
100
AcDbLine
 10
155.328564148321
 20
243.223003919851
 30
0.0
 11
155.48153
 21
242.679983
 31
0.0
  0
LINE
  5
7B8
330
1D
100
AcDbEntity
  8
0
100
AcDbLine
 10
155.3411
 20
243.178983
 30
0.0
 11
155.54562
 21
242.452983
 31
0.0
  0
LINE
  5
7B9
330
1D
100
AcDbEntity
  8
0
100
AcDbLine
 10
155.3411
 20
243.178983
 30
0.0
 11
155.784199029458
 21
243.303746101269
 31
0.0
  0
LINE
  5
7BA
330
1D
100
AcDbEntity
  8
0
100
AcDbLine
 10
155.07817
 20
246.443983
 30
0.0
 11
155.91845
 21
243.462983
 31
0.0
  0
LINE
  5
7BB
330
1D
100
AcDbEntity
  8
0
100
AcDbLine
 10
152.91045
 20
251.801983
 30
0.0
 11
152.93492
 21
251.714983
 31
0.0
  0
LINE
  5
7BC
330
1D
100
AcDbEntity
  8
0
100
AcDbLine
 10
152.91045
 20
251.801983
 30
0.0
 11
153.03422
 21
251.361983
 31
0.0
  0
LINE
  5
7BD
330
1D
100
AcDbEntity
  8
0
100
AcDbLine
 10
152.91045
 20
251.801983
 30
0.0
 11
153.353459927422
 21
251.926721012867
 31
0.0
  0
LINE
  5
7BE
330
1D
100
AcDbEntity
  8
0
100
AcDbLine
 10
152.832298723702
 20
252.07873194811
 30
0.0
 11
152.85271
 21
252.005983
 31
0.0
  0
LINE
  5
7BF
330
1D
100
AcDbEntity
  8
0
100
AcDbLine
 10
152.85271
 20
252.005983
 30
0.0
 11
152.994611810099
 21
251.502623949521
 31
0.0
  0
LINE
  5
7C0
330
1D
100
AcDbEntity
  8
0
100
AcDbLine
 10
152.85271
 20
252.005983
 30
0.0
 11
152.994611810099
 21
251.502623949521
 31
0.0
  0
LINE
  5
7C1
330
1D
100
AcDbEntity
  8
0
100
AcDbLine
 10
152.832298723702
 20
252.07873194811
 30
0.0
 11
152.85271
 21
252.005983
 31
0.0
  0
LINE
  5
7C2
330
1D
100
AcDbEntity
  8
0
100
AcDbLine
 10
152.76291
 20
252.324983
 30
0.0
 11
152.95283
 21
251.650983
 31
0.0
  0
LINE
  5
7C3
330
1D
100
AcDbEntity
  8
0
100
AcDbLine
 10
152.76291
 20
252.324983
 30
0.0
 11
153.205989927825
 21
252.449990738311
 31
0.0
  0
LINE
  5
7C4
330
1D
100
AcDbEntity
  8
0
100
AcDbLine
 10
153.178854999056
 20
250.849482905866
 30
0.0
 11
153.30553
 21
250.399983
 31
0.0
  0
LINE
  5
7C5
330
1D
100
AcDbEntity
  8
0
100
AcDbLine
 10
153.178854999056
 20
250.849482905866
 30
0.0
 11
153.30553
 21
250.399983
 31
0.0
  0
LINE
  5
7C6
330
1D
100
AcDbEntity
  8
0
100
AcDbLine
 10
153.23939
 20
250.634983
 30
0.0
 11
153.305626688471
 21
250.400010279067
 31
0.0
  0
LINE
  5
7C7
330
1D
100
AcDbEntity
  8
0
100
AcDbLine
 10
153.23939
 20
250.634983
 30
0.0
 11
153.68235219709
 21
250.759708277253
 31
0.0
  0
LINE
  5
7C8
330
1D
100
AcDbEntity
  8
0
100
AcDbLine
 10
153.23939
 20
250.634983
 30
0.0
 11
153.68235219709
 21
250.759708277253
 31
0.0
  0
LINE
  5
7C9
330
1D
100
AcDbEntity
  8
0
100
AcDbLine
 10
153.03422
 20
251.361983
 30
0.0
 11
153.178854999056
 21
250.849482905866
 31
0.0
  0
LINE
  5
7CA
330
1D
100
AcDbEntity
  8
0
100
AcDbLine
 10
153.03422
 20
251.361983
 30
0.0
 11
153.23939
 21
250.634983
 31
0.0
  0
LINE
  5
7CB
330
1D
100
AcDbEntity
  8
0
100
AcDbLine
 10
153.03422
 20
251.361983
 30
0.0
 11
153.477380123131
 21
251.487013364102
 31
0.0
  0
LINE
  5
7CC
330
1D
100
AcDbEntity
  8
0
100
AcDbLine
 10
153.03422
 20
251.361983
 30
0.0
 11
153.477380123131
 21
251.487013364102
 31
0.0
  0
LINE
  5
7CD
330
1D
100
AcDbEntity
  8
0
100
AcDbLine
 10
153.132024503701
 20
251.01542222508
 30
0.0
 11
153.15553
 21
250.931983
 31
0.0
  0
LINE
  5
7CE
330
1D
100
AcDbEntity
  8
0
100
AcDbLine
 10
153.132024503701
 20
251.01542222508
 30
0.0
 11
153.15553
 21
250.931983
 31
0.0
  0
LINE
  5
7CF
330
1D
100
AcDbEntity
  8
0
100
AcDbLine
 10
153.15553
 20
250.931983
 30
0.0
 11
153.31791
 21
250.355983
 31
0.0
  0
LINE
  5
7D0
330
1D
100
AcDbEntity
  8
0
100
AcDbLine
 10
152.95283
 20
251.650983
 30
0.0
 11
153.03422
 21
251.361983
 31
0.0
  0
LINE
  5
7D1
330
1D
100
AcDbEntity
  8
0
100
AcDbLine
 10
152.50251
 20
253.248983
 30
0.0
 11
152.945581461008
 21
253.373739042796
 31
0.0
  0
LINE
  5
7D2
330
1D
100
AcDbEntity
  8
0
100
AcDbLine
 10
152.50251
 20
253.248983
 30
0.0
 11
152.945581461008
 21
253.373739042796
 31
0.0
  0
LINE
  5
7D3
330
1D
100
AcDbEntity
  8
0
100
AcDbLine
 10
152.31962
 20
253.897983
 30
0.0
 11
152.34406
 21
253.810983
 31
0.0
  0
LINE
  5
7D4
330
1D
100
AcDbEntity
  8
0
100
AcDbLine
 10
152.31962
 20
253.897983
 30
0.0
 11
152.762616870024
 21
254.022718040143
 31
0.0
  0
LINE
  5
7D5
330
1D
100
AcDbEntity
  8
0
100
AcDbLine
 10
152.31962
 20
253.897983
 30
0.0
 11
152.762616870024
 21
254.022718040143
 31
0.0
  0
LINE
  5
7D6
330
1D
100
AcDbEntity
  8
0
100
AcDbLine
 10
152.22029
 20
254.249983
 30
0.0
 11
152.34406
 21
253.810983
 31
0.0
  0
LINE
  5
7D7
330
1D
100
AcDbEntity
  8
0
100
AcDbLine
 10
152.42578
 20
253.520983
 30
0.0
 11
152.50251
 21
253.248983
 31
0.0
  0
LINE
  5
7D8
330
1D
100
AcDbEntity
  8
0
100
AcDbLine
 10
152.42578
 20
253.520983
 30
0.0
 11
152.868894171471
 21
253.645750364796
 31
0.0
  0
LINE
  5
7D9
330
1D
100
AcDbEntity
  8
0
100
AcDbLine
 10
152.42578
 20
253.520983
 30
0.0
 11
152.868894171471
 21
253.645750364796
 31
0.0
  0
LINE
  5
7DA
330
1D
100
AcDbEntity
  8
0
100
AcDbLine
 10
152.34408410831
 20
253.810989788161
 30
0.0
 11
152.42578
 21
253.520983
 31
0.0
  0
LINE
  5
7DB
330
1D
100
AcDbEntity
  8
0
100
AcDbLine
 10
152.34406
 20
253.810983
 30
0.0
 11
152.787138243052
 21
253.935740248454
 31
0.0
  0
LINE
  5
7DC
330
1D
100
AcDbEntity
  8
0
100
AcDbLine
 10
152.4916
 20
253.286983
 30
0.0
 11
152.57299
 21
252.998983
 31
0.0
  0
LINE
  5
7DD
330
1D
100
AcDbEntity
  8
0
100
AcDbLine
 10
152.57299
 20
252.998983
 30
0.0
 11
152.76291
 21
252.324983
 31
0.0
  0
LINE
  5
7DE
330
1D
100
AcDbEntity
  8
0
100
AcDbLine
 10
152.57299
 20
252.998983
 30
0.0
 11
153.016063226631
 21
253.123738835984
 31
0.0
  0
LINE
  5
7DF
330
1D
100
AcDbEntity
  8
0
100
AcDbLine
 10
152.57299
 20
252.998983
 30
0.0
 11
153.016063226631
 21
253.123738835984
 31
0.0
  0
LINE
  5
7E0
330
1D
100
AcDbEntity
  8
0
100
AcDbLine
 10
153.1485
 20
252.653983
 30
0.0
 11
154.0199
 21
249.561983
 31
0.0
  0
LINE
  5
7E1
330
1D
100
AcDbEntity
  8
0
100
AcDbLine
 10
153.30553
 20
250.399983
 30
0.0
 11
153.38693
 21
250.110983
 31
0.0
  0
LINE
  5
7E2
330
1D
100
AcDbEntity
  8
0
100
AcDbLine
 10
153.30553
 20
250.399983
 30
0.0
 11
153.748509252278
 21
250.524962334356
 31
0.0
  0
LINE
  5
7E3
330
1D
100
AcDbEntity
  8
0
100
AcDbLine
 10
153.38693
 20
250.110983
 30
0.0
 11
153.57685
 21
249.436983
 31
0.0
  0
LINE
  5
7E4
330
1D
100
AcDbEntity
  8
0
100
AcDbLine
 10
153.38693
 20
250.110983
 30
0.0
 11
153.829952933074
 21
250.235974658177
 31
0.0
  0
LINE
  5
7E5
330
1D
100
AcDbEntity
  8
0
100
AcDbLine
 10
153.29392
 20
252.773983
 30
0.0
 11
154.18605
 21
249.608983
 31
0.0
  0
LINE
  5
7E6
330
1D
100
AcDbEntity
  8
0
100
AcDbLine
 10
154.18605
 20
249.608983
 30
0.0
 11
155.07817
 21
246.443983
 31
0.0
  0
LINE
  5
7E7
330
1D
100
AcDbEntity
  8
0
100
AcDbLine
 10
156.83258
 20
237.887983
 30
0.0
 11
157.275668083291
 21
238.012743019164
 31
0.0
  0
LINE
  5
7E8
330
1D
100
AcDbEntity
  8
0
100
AcDbLine
 10
156.75119
 20
238.175983
 30
0.0
 11
156.83258
 21
237.887983
 31
0.0
  0
LINE
  5
7E9
330
1D
100
AcDbEntity
  8
0
100
AcDbLine
 10
156.75119
 20
238.175983
 30
0.0
 11
157.194373359171
 21
238.30101991977
 31
0.0
  0
LINE
  5
7EA
330
1D
100
AcDbEntity
  8
0
100
AcDbLine
 10
156.75119
 20
238.175983
 30
0.0
 11
157.194373359171
 21
238.30101991977
 31
0.0
  0
LINE
  5
7EB
330
1D
100
AcDbEntity
  8
0
100
AcDbLine
 10
156.56127
 20
238.849983
 30
0.0
 11
156.75119
 21
238.175983
 31
0.0
  0
LINE
  5
7EC
330
1D
100
AcDbEntity
  8
0
100
AcDbLine
 10
156.56127
 20
238.849983
 30
0.0
 11
157.004286563948
 21
238.974972861232
 31
0.0
  0
LINE
  5
7ED
330
1D
100
AcDbEntity
  8
0
100
AcDbLine
 10
157.39135
 20
237.601983
 30
0.0
 11
157.66122
 21
237.280983
 31
0.0
  0
LINE
  5
7EE
330
1D
100
AcDbEntity
  8
0
100
AcDbLine
 10
156.3964
 20
239.434983
 30
0.0
 11
156.42087
 21
239.347983
 31
0.0
  0
LINE
  5
7EF
330
1D
100
AcDbEntity
  8
0
100
AcDbLine
 10
156.3964
 20
239.434983
 30
0.0
 11
156.839355397437
 21
239.559956309287
 31
0.0
  0
LINE
  5
7F0
330
1D
100
AcDbEntity
  8
0
100
AcDbLine
 10
156.42087
 20
239.347983
 30
0.0
 11
156.863873961201
 21
239.472969305573
 31
0.0
  0
LINE
  5
7F1
330
1D
100
AcDbEntity
  8
0
100
AcDbLine
 10
156.02579
 20
240.749983
 30
0.0
 11
156.23095
 21
240.021983
 31
0.0
  0
LINE
  5
7F2
330
1D
100
AcDbEntity
  8
0
100
AcDbLine
 10
156.02579
 20
240.749983
 30
0.0
 11
156.468771709185
 21
240.874713771292
 31
0.0
  0
LINE
  5
7F3
330
1D
100
AcDbEntity
  8
0
100
AcDbLine
 10
156.23095
 20
240.021983
 30
0.0
 11
156.3964
 21
239.434983
 31
0.0
  0
LINE
  5
7F4
330
1D
100
AcDbEntity
  8
0
100
AcDbLine
 10
156.23095
 20
240.021983
 30
0.0
 11
156.673966622072
 21
240.146722897876
 31
0.0
  0
LINE
  5
7F5
330
1D
100
AcDbEntity
  8
0
100
AcDbLine
 10
156.09193
 20
240.514983
 30
0.0
 11
156.2971
 21
239.786983
 31
0.0
  0
LINE
  5
7F6
330
1D
100
AcDbEntity
  8
0
100
AcDbLine
 10
155.92649
 20
241.101983
 30
0.0
 11
156.09193
 21
240.514983
 31
0.0
  0
LINE
  5
7F7
330
1D
100
AcDbEntity
  8
0
100
AcDbLine
 10
155.90201
 20
241.188983
 30
0.0
 11
155.92649
 21
241.101983
 31
0.0
  0
LINE
  5
7F8
330
1D
100
AcDbEntity
  8
0
100
AcDbLine
 10
155.90201
 20
241.188983
 30
0.0
 11
156.345038023961
 21
241.313726108298
 31
0.0
  0
LINE
  5
7F9
330
1D
100
AcDbEntity
  8
0
100
AcDbLine
 10
155.90201
 20
241.188983
 30
0.0
 11
156.02579
 21
240.749983
 31
0.0
  0
LINE
  5
7FA
330
1D
100
AcDbEntity
  8
0
100
AcDbLine
 10
156.2971
 20
239.786983
 30
0.0
 11
156.42087
 21
239.347983
 31
0.0
  0
LINE
  5
7FB
330
1D
100
AcDbEntity
  8
0
100
AcDbLine
 10
156.420937951028
 20
239.348002171269
 30
0.0
 11
156.56127
 21
238.849983
 31
0.0
  0
LINE
  5
7FC
330
1D
100
AcDbEntity
  8
0
100
AcDbLine
 10
155.91845
 20
243.462983
 30
0.0
 11
156.64462
 21
240.886983
 31
0.0
  0
LINE
  5
7FD
330
1D
100
AcDbEntity
  8
0
100
AcDbLine
 10
156.9349
 20
239.220983
 30
0.0
 11
157.26687
 21
238.043983
 31
0.0
  0
LINE
  5
7FE
330
1D
100
AcDbEntity
  8
0
100
AcDbLine
 10
156.64462
 20
240.886983
 30
0.0
 11
157.19443
 21
238.936983
 31
0.0
  0
LINE
  5
7FF
330
1D
100
AcDbEntity
  8
0
100
AcDbLine
 10
157.19443
 20
238.936983
 30
0.0
 11
157.53674
 21
237.721983
 31
0.0
  0
LINE
  5
800
330
1D
100
AcDbEntity
  8
0
100
AcDbLine
 10
157.53674
 20
237.721983
 30
0.0
 11
157.66122
 21
237.280983
 31
0.0
  0
LINE
  5
801
330
1D
100
AcDbEntity
  8
0
100
AcDbLine
 10
157.66122
 20
237.280983
 30
0.0
 11
158.04539
 21
237.189983
 31
0.0
  0
LINE
  5
802
330
1D
100
AcDbEntity
  8
0
100
AcDbLine
 10
158.04539
 20
237.189983
 30
0.0
 11
158.375884833313
 21
237.283476861671
 31
0.0
  0
LINE
  5
803
330
1D
100
AcDbEntity
  8
0
100
AcDbLine
 10
157.94225
 20
245.826983
 30
0.0
 11
159.12001
 21
241.648983
 31
0.0
  0
LINE
  5
804
330
1D
100
AcDbEntity
  8
0
100
AcDbLine
 10
158.375884833313
 20
237.283476861671
 30
0.0
 11
158.98293
 21
235.989983
 31
0.0
  0
LINE
  5
805
330
1D
100
AcDbEntity
  8
0
100
AcDbLine
 10
158.98293
 20
235.989983
 30
0.0
 11
159.5906
 21
234.940983
 31
0.0
  0
LINE
  5
806
330
1D
100
AcDbEntity
  8
0
100
AcDbLine
 10
158.09825
 20
241.880983
 30
0.0
 11
159.05354
 21
238.491983
 31
0.0
  0
LINE
  5
807
330
1D
100
AcDbEntity
  8
0
100
AcDbLine
 10
156.67821
 20
250.311983
 30
0.0
 11
157.94225
 21
245.826983
 31
0.0
  0
LINE
  5
808
330
1D
100
AcDbEntity
  8
0
100
AcDbLine
 10
156.98588
 20
245.826983
 30
0.0
 11
158.09825
 21
241.880983
 31
0.0
  0
LINE
  5
809
330
1D
100
AcDbEntity
  8
0
100
AcDbLine
 10
155.79211
 20
250.061983
 30
0.0
 11
156.98588
 21
245.826983
 31
0.0
  0
LINE
  5
80A
330
1D
100
AcDbEntity
  8
0
100
AcDbLine
 10
151.8252
 20
255.651983
 30
0.0
 11
151.94898
 21
255.211983
 31
0.0
  0
LINE
  5
80B
330
1D
100
AcDbEntity
  8
0
100
AcDbLine
 10
151.8252
 20
255.651983
 30
0.0
 11
152.26814690602
 21
255.776703267973
 31
0.0
  0
LINE
  5
80C
330
1D
100
AcDbEntity
  8
0
100
AcDbLine
 10
151.81262
 20
255.695983
 30
0.0
 11
151.908886905016
 21
255.354501676628
 31
0.0
  0
LINE
  5
80D
330
1D
100
AcDbEntity
  8
0
100
AcDbLine
 10
151.81262
 20
255.695983
 30
0.0
 11
152.255667901571
 21
255.820982407959
 31
0.0
  0
LINE
  5
80E
330
1D
100
AcDbEntity
  8
0
100
AcDbLine
 10
151.81262
 20
255.695983
 30
0.0
 11
151.908886905016
 21
255.354501676628
 31
0.0
  0
LINE
  5
80F
330
1D
100
AcDbEntity
  8
0
100
AcDbLine
 10
151.81262
 20
255.695983
 30
0.0
 11
152.255667901571
 21
255.820982407959
 31
0.0
  0
LINE
  5
810
330
1D
100
AcDbEntity
  8
0
100
AcDbLine
 10
151.908886905016
 20
255.354501676628
 30
0.0
 11
151.94898
 21
255.211983
 31
0.0
  0
LINE
  5
811
330
1D
100
AcDbEntity
  8
0
100
AcDbLine
 10
152.04209
 20
254.881983
 30
0.0
 11
152.120961666663
 21
254.602427444459
 31
0.0
  0
LINE
  5
812
330
1D
100
AcDbEntity
  8
0
100
AcDbLine
 10
152.04209
 20
254.881983
 30
0.0
 11
152.120961666663
 21
254.602427444459
 31
0.0
  0
LINE
  5
813
330
1D
100
AcDbEntity
  8
0
100
AcDbLine
 10
151.96534
 20
255.153983
 30
0.0
 11
152.04209
 21
254.881983
 31
0.0
  0
LINE
  5
814
330
1D
100
AcDbEntity
  8
0
100
AcDbLine
 10
152.094268404666
 20
254.697142533084
 30
0.0
 11
152.22029
 21
254.249983
 31
0.0
  0
LINE
  5
815
330
1D
100
AcDbEntity
  8
0
100
AcDbLine
 10
152.15414
 20
254.484983
 30
0.0
 11
152.31962
 21
253.897983
 31
0.0
  0
LINE
  5
816
330
1D
100
AcDbEntity
  8
0
100
AcDbLine
 10
152.15414
 20
254.484983
 30
0.0
 11
152.597126817652
 21
254.609714505864
 31
0.0
  0
LINE
  5
817
330
1D
100
AcDbEntity
  8
0
100
AcDbLine
 10
152.15414
 20
254.484983
 30
0.0
 11
152.597126817652
 21
254.609714505864
 31
0.0
  0
LINE
  5
818
330
1D
100
AcDbEntity
  8
0
100
AcDbLine
 10
152.120961666663
 20
254.602427444459
 30
0.0
 11
152.22029
 21
254.249983
 31
0.0
  0
LINE
  5
819
330
1D
100
AcDbEntity
  8
0
100
AcDbLine
 10
152.120961666663
 20
254.602427444459
 30
0.0
 11
152.22029
 21
254.249983
 31
0.0
  0
LINE
  5
81A
330
1D
100
AcDbEntity
  8
0
100
AcDbLine
 10
151.94898
 20
255.211983
 30
0.0
 11
151.96534708386
 21
255.153984998606
 31
0.0
  0
LINE
  5
81B
330
1D
100
AcDbEntity
  8
0
100
AcDbLine
 10
151.94898
 20
255.211983
 30
0.0
 11
151.96534708386
 21
255.153984998606
 31
0.0
  0
LINE
  5
81C
330
1D
100
AcDbEntity
  8
0
100
AcDbLine
 10
151.94898
 20
255.211983
 30
0.0
 11
152.15414
 21
254.484983
 31
0.0
  0
LINE
  5
81D
330
1D
100
AcDbEntity
  8
0
100
AcDbLine
 10
151.94898
 20
255.211983
 30
0.0
 11
152.392085872863
 21
255.336998763701
 31
0.0
  0
LINE
  5
81E
330
1D
100
AcDbEntity
  8
0
100
AcDbLine
 10
151.908886905016
 20
255.354501676628
 30
0.0
 11
151.94898
 21
255.211983
 31
0.0
  0
LINE
  5
81F
330
1D
100
AcDbEntity
  8
0
100
AcDbLine
 10
152.45364
 20
255.754983
 30
0.0
 11
153.29392
 21
252.773983
 31
0.0
  0
LINE
  5
820
330
1D
100
AcDbEntity
  8
0
100
AcDbLine
 10
153.22495
 20
262.561983
 30
0.0
 11
154.2364
 21
258.973983
 31
0.0
  0
LINE
  5
821
330
1D
100
AcDbEntity
  8
0
100
AcDbLine
 10
152.53067
 20
261.631983
 30
0.0
 11
153.48596
 21
258.242983
 31
0.0
  0
LINE
  5
822
330
1D
100
AcDbEntity
  8
0
100
AcDbLine
 10
155.41417
 20
254.795983
 30
0.0
 11
156.67821
 21
250.311983
 31
0.0
  0
LINE
  5
823
330
1D
100
AcDbEntity
  8
0
100
AcDbLine
 10
154.2364
 20
258.973983
 30
0.0
 11
155.41417
 21
254.795983
 31
0.0
  0
LINE
  5
824
330
1D
100
AcDbEntity
  8
0
100
AcDbLine
 10
153.48596
 20
258.242983
 30
0.0
 11
154.59834
 21
254.296983
 31
0.0
  0
LINE
  5
825
330
1D
100
AcDbEntity
  8
0
100
AcDbLine
 10
154.59834
 20
254.296983
 30
0.0
 11
155.79211
 21
250.061983
 31
0.0
  0
LINE
  5
826
330
1D
100
AcDbEntity
  8
0
100
AcDbLine
 10
160.10715
 20
234.246983
 30
0.0
 11
160.291244423794
 21
234.101177499979
 31
0.0
  0
LINE
  5
827
330
1D
100
AcDbEntity
  8
0
100
AcDbLine
 10
159.5906
 20
234.940983
 30
0.0
 11
160.10715
 21
234.246983
 31
0.0
  0
LINE
  5
828
330
1D
100
AcDbEntity
  8
0
100
AcDbLine
 10
159.78635
 20
235.891983
 30
0.0
 11
160.2473
 21
234.256983
 31
0.0
  0
LINE
  5
829
330
1D
100
AcDbEntity
  8
0
100
AcDbLine
 10
160.2473
 20
234.256983
 30
0.0
 11
160.4044
 21
233.699983
 31
0.0
  0
LINE
  5
82A
330
1D
100
AcDbEntity
  8
0
100
AcDbLine
 10
160.9074
 20
235.307983
 30
0.0
 11
161.3955
 21
233.576983
 31
0.0
  0
LINE
  5
82B
330
1D
100
AcDbEntity
  8
0
100
AcDbLine
 10
159.12001
 20
241.648983
 30
0.0
 11
160.13146
 21
238.060983
 31
0.0
  0
LINE
  5
82C
330
1D
100
AcDbEntity
  8
0
100
AcDbLine
 10
160.13146
 20
238.060983
 30
0.0
 11
160.9074
 21
235.307983
 31
0.0
  0
LINE
  5
82D
330
1D
100
AcDbEntity
  8
0
100
AcDbLine
 10
159.05354
 20
238.491983
 30
0.0
 11
159.78635
 21
235.891983
 31
0.0
  0
LINE
  5
82E
330
1D
100
AcDbEntity
  8
0
100
AcDbLine
 10
151.96091
 20
267.046983
 30
0.0
 11
152.449
 21
265.314983
 31
0.0
  0
LINE
  5
82F
330
1D
100
AcDbEntity
  8
0
100
AcDbLine
 10
152.449
 20
265.314983
 30
0.0
 11
153.22495
 21
262.561983
 31
0.0
  0
LINE
  5
830
330
1D
100
AcDbEntity
  8
0
100
AcDbLine
 10
151.79786
 20
264.231983
 30
0.0
 11
152.53067
 21
261.631983
 31
0.0
  0
LINE
  5
831
330
1D
100
AcDbEntity
  8
0
100
AcDbLine
 10
151.7946
 20
267.636983
 30
0.0
 11
163.0427
 21
271.845983
 31
0.0
  0
LINE
  5
832
330
1D
100
AcDbEntity
  8
0
100
AcDbLine
 10
151.7946
 20
267.636983
 30
0.0
 11
151.96091
 21
267.046983
 31
0.0
  0
LINE
  5
833
330
1D
100
AcDbEntity
  8
0
100
AcDbLine
 10
160.4044
 20
233.699983
 30
0.0
 11
161.5618
 21
232.986983
 31
0.0
  0
LINE
  5
834
330
1D
100
AcDbEntity
  8
0
100
AcDbLine
 10
171.6749
 20
206.176983
 30
0.0
 11
179.5191
 21
175.155983
 31
0.0
  0
LINE
  5
835
330
1D
100
AcDbEntity
  8
0
100
AcDbLine
 10
171.4238
 20
207.169983
 30
0.0
 11
171.6749
 21
206.176983
 31
0.0
  0
LINE
  5
836
330
1D
100
AcDbEntity
  8
0
100
AcDbLine
 10
171.1885
 20
208.099983
 30
0.0
 11
171.4238
 21
207.169983
 31
0.0
  0
LINE
  5
837
330
1D
100
AcDbEntity
  8
0
100
AcDbLine
 10
170.9806
 20
208.921983
 30
0.0
 11
171.1885
 21
208.099983
 31
0.0
  0
LINE
  5
838
330
1D
100
AcDbEntity
  8
0
100
AcDbLine
 10
170.8237
 20
209.542983
 30
0.0
 11
170.9806
 21
208.921983
 31
0.0
  0
LINE
  5
839
330
1D
100
AcDbEntity
  8
0
100
AcDbLine
 10
170.7296
 20
209.914983
 30
0.0
 11
170.8237
 21
209.542983
 31
0.0
  0
LINE
  5
83A
330
1D
100
AcDbEntity
  8
0
100
AcDbLine
 10
170.6943
 20
210.054983
 30
0.0
 11
170.7296
 21
209.914983
 31
0.0
  0
LINE
  5
83B
330
1D
100
AcDbEntity
  8
0
100
AcDbLine
 10
170.6943
 20
210.054983
 30
0.0
 11
171.822669354072
 21
210.334518610374
 31
0.0
  0
LINE
  5
83C
330
1D
100
AcDbEntity
  8
0
100
AcDbLine
 10
179.5191
 20
175.155983
 30
0.0
 11
179.7702
 21
174.162983
 31
0.0
  0
LINE
  5
83D
330
1D
100
AcDbEntity
  8
0
100
AcDbLine
 10
179.7702
 20
174.162983
 30
0.0
 11
180.0054
 21
173.232983
 31
0.0
  0
LINE
  5
83E
330
1D
100
AcDbEntity
  8
0
100
AcDbLine
 10
180.0054
 20
173.232983
 30
0.0
 11
180.2134
 21
172.409983
 31
0.0
  0
LINE
  5
83F
330
1D
100
AcDbEntity
  8
0
100
AcDbLine
 10
180.2134
 20
172.409983
 30
0.0
 11
180.3703
 21
171.788983
 31
0.0
  0
LINE
  5
840
330
1D
100
AcDbEntity
  8
0
100
AcDbLine
 10
180.3703
 20
171.788983
 30
0.0
 11
180.4645
 21
171.416983
 31
0.0
  0
LINE
  5
841
330
1D
100
AcDbEntity
  8
0
100
AcDbLine
 10
180.4998
 20
171.276983
 30
0.0
 11
180.995554210093
 21
171.39979824238
 31
0.0
  0
LINE
  5
842
330
1D
100
AcDbEntity
  8
0
100
AcDbLine
 10
180.4645
 20
171.416983
 30
0.0
 11
180.4998
 21
171.276983
 31
0.0
  0
LINE
  5
843
330
1D
100
AcDbEntity
  8
0
100
AcDbLine
 10
161.5618
 20
232.986983
 30
0.0
 11
165.787221072752
 21
233.805497738749
 31
0.0
  0
LINE
  5
844
330
1D
100
AcDbEntity
  8
0
100
AcDbLine
 10
166.5101
 20
231.240983
 30
0.0
 11
171.822669354072
 21
210.334518610374
 31
0.0
  0
LINE
  5
845
330
1D
100
AcDbEntity
  8
0
100
AcDbLine
 10
180.992203480285
 20
171.415489527997
 30
0.0
 11
185.7011
 21
149.363983
 31
0.0
  0
LINE
  5
846
330
1D
100
AcDbEntity
  8
0
100
AcDbLine
 10
165.787221072752
 20
233.805497738749
 30
0.0
 11
166.5101
 21
231.240983
 31
0.0
  0
LINE
  5
847
330
1D
100
AcDbEntity
  8
0
100
AcDbLine
 10
178.8932
 20
266.424983
 30
0.0
 11
179.3186
 21
265.004983
 31
0.0
  0
LINE
  5
848
330
1D
100
AcDbEntity
  8
0
100
AcDbLine
 10
178.3238
 20
268.103983
 30
0.0
 11
178.8932
 21
266.424983
 31
0.0
  0
LINE
  5
849
330
1D
100
AcDbEntity
  8
0
100
AcDbLine
 10
177.5818
 20
270.003983
 30
0.0
 11
178.3238
 21
268.103983
 31
0.0
  0
LINE
  5
84A
330
1D
100
AcDbEntity
  8
0
100
AcDbLine
 10
176.8073
 20
271.774983
 30
0.0
 11
177.5818
 21
270.003983
 31
0.0
  0
LINE
  5
84B
330
1D
100
AcDbEntity
  8
0
100
AcDbLine
 10
175.9739
 20
273.364983
 30
0.0
 11
176.8073
 21
271.774983
 31
0.0
  0
LINE
  5
84C
330
1D
100
AcDbEntity
  8
0
100
AcDbLine
 10
175.1655
 20
274.571983
 30
0.0
 11
175.9739
 21
273.364983
 31
0.0
  0
LINE
  5
84D
330
1D
100
AcDbEntity
  8
0
100
AcDbLine
 10
174.4616
 20
275.360983
 30
0.0
 11
175.1655
 21
274.571983
 31
0.0
  0
LINE
  5
84E
330
1D
100
AcDbEntity
  8
0
100
AcDbLine
 10
173.8123
 20
275.760983
 30
0.0
 11
174.4616
 21
275.360983
 31
0.0
  0
LINE
  5
84F
330
1D
100
AcDbEntity
  8
0
100
AcDbLine
 10
173.4046
 20
275.805983
 30
0.0
 11
173.8123
 21
275.760983
 31
0.0
  0
LINE
  5
850
330
1D
100
AcDbEntity
  8
0
100
AcDbLine
 10
163.0427
 20
271.845983
 30
0.0
 11
173.4046
 21
275.805983
 31
0.0
  0
LINE
  5
851
330
1D
100
AcDbEntity
  8
0
100
AcDbLine
 10
181.4891
 20
257.305983
 30
0.0
 11
185.4642
 21
242.045983
 31
0.0
  0
LINE
  5
852
330
1D
100
AcDbEntity
  8
0
100
AcDbLine
 10
180.9272
 20
259.298983
 30
0.0
 11
181.4891
 21
257.305983
 31
0.0
  0
LINE
  5
853
330
1D
100
AcDbEntity
  8
0
100
AcDbLine
 10
185.4642
 20
242.045983
 30
0.0
 11
186.8905
 21
236.985983
 31
0.0
  0
LINE
  5
854
330
1D
100
AcDbEntity
  8
0
100
AcDbLine
 10
186.8905
 20
236.985983
 30
0.0
 11
193.51
 21
210.935983
 31
0.0
  0
LINE
  5
855
330
1D
100
AcDbEntity
  8
0
100
AcDbLine
 10
179.3927
 20
264.742983
 30
0.0
 11
179.6095
 21
263.973983
 31
0.0
  0
LINE
  5
856
330
1D
100
AcDbEntity
  8
0
100
AcDbLine
 10
179.6095
 20
263.973983
 30
0.0
 11
180.9272
 21
259.298983
 31
0.0
  0
LINE
  5
857
330
1D
100
AcDbEntity
  8
0
100
AcDbLine
 10
179.3186
 20
265.004983
 30
0.0
 11
179.3927
 21
264.742983
 31
0.0
  0
LINE
  5
858
330
1D
100
AcDbEntity
  8
0
100
AcDbLine
 10
179.3186
 20
265.004983
 30
0.0
 11
179.3927
 21
264.742983
 31
0.0
  0
LINE
  5
859
330
1D
100
AcDbEntity
  8
0
100
AcDbLine
 10
161.5618
 20
232.986983
 30
0.0
 11
165.787221072752
 21
233.805497738749
 31
0.0
  0
LINE
  5
85A
330
1D
100
AcDbEntity
  8
0
100
AcDbLine
 10
161.3955
 20
233.576983
 30
0.0
 11
161.5618
 21
232.986983
 31
0.0
  0
LINE
  5
85B
330
1D
100
AcDbEntity
  8
0
100
AcDbLine
 10
185.7011
 20
149.363983
 30
0.0
 11
191.7322
 21
115.775983
 31
0.0
  0
LINE
  5
85C
330
1D
100
AcDbEntity
  8
0
100
AcDbLine
 10
201.321466677511
 20
86.592202585278
 30
0.0
 11
204.710428859207
 21
74.935830120066
 31
0.0
  0
LINE
  5
85D
330
1D
100
AcDbEntity
  8
0
100
AcDbLine
 10
201.2295
 20
86.567583
 30
0.0
 11
201.321466677511
 21
86.592202585278
 31
0.0
  0
LINE
  5
85E
330
1D
100
AcDbEntity
  8
0
100
AcDbLine
 10
192.1079
 20
115.881983
 30
0.0
 11
193.2227
 21
116.195983
 31
0.0
  0
LINE
  5
85F
330
1D
100
AcDbEntity
  8
0
100
AcDbLine
 10
193.2227
 20
116.195983
 30
0.0
 11
194.6563
 21
116.599983
 31
0.0
  0
LINE
  5
860
330
1D
100
AcDbEntity
  8
0
100
AcDbLine
 10
193.51
 20
210.935983
 30
0.0
 11
199.8649
 21
184.220983
 31
0.0
  0
LINE
  5
861
330
1D
100
AcDbEntity
  8
0
100
AcDbLine
 10
194.6563
 20
116.599983
 30
0.0
 11
196.239
 21
117.046983
 31
0.0
  0
LINE
  5
862
330
1D
100
AcDbEntity
  8
0
100
AcDbLine
 10
194.7875
 20
116.494983
 30
0.0
 11
196.3345
 21
116.856983
 31
0.0
  0
LINE
  5
863
330
1D
100
AcDbEntity
  8
0
100
AcDbLine
 10
196.239
 20
117.046983
 30
0.0
 11
198.5341
 21
117.692983
 31
0.0
  0
LINE
  5
864
330
1D
100
AcDbEntity
  8
0
100
AcDbLine
 10
198.5341
 20
117.692983
 30
0.0
 11
201.4793
 21
118.523983
 31
0.0
  0
LINE
  5
865
330
1D
100
AcDbEntity
  8
0
100
AcDbLine
 10
201.4793
 20
118.523983
 30
0.0
 11
209.4542
 21
120.771983
 31
0.0
  0
LINE
  5
866
330
1D
100
AcDbEntity
  8
0
100
AcDbLine
 10
199.8649
 20
184.220983
 30
0.0
 11
206.0815
 21
155.108983
 31
0.0
  0
LINE
  5
867
330
1D
100
AcDbEntity
  8
0
100
AcDbLine
 10
199.4535
 20
117.573983
 30
0.0
 11
242.7645
 21
127.607983
 31
0.0
  0
LINE
  5
868
330
1D
100
AcDbEntity
  8
0
100
AcDbLine
 10
198.3435
 20
117.334983
 30
0.0
 11
199.4535
 21
117.573983
 31
0.0
  0
LINE
  5
869
330
1D
100
AcDbEntity
  8
0
100
AcDbLine
 10
196.3345
 20
116.856983
 30
0.0
 11
198.3435
 21
117.334983
 31
0.0
  0
LINE
  5
86A
330
1D
100
AcDbEntity
  8
0
100
AcDbLine
 10
192.7645
 20
116.023983
 30
0.0
 11
194.7875
 21
116.494983
 31
0.0
  0
LINE
  5
86B
330
1D
100
AcDbEntity
  8
0
100
AcDbLine
 10
192.7645
 20
116.023983
 30
0.0
 11
206.2595
 21
69.607783
 31
0.0
  0
LINE
  5
86C
330
1D
100
AcDbEntity
  8
0
100
AcDbLine
 10
192.5955
 20
115.311983
 30
0.0
 11
192.944343611453
 21
115.405408932722
 31
0.0
  0
LINE
  5
86D
330
1D
100
AcDbEntity
  8
0
100
AcDbLine
 10
192.2095
 20
115.208983
 30
0.0
 11
192.518678474164
 21
115.29148399181
 31
0.0
  0
LINE
  5
86E
330
1D
100
AcDbEntity
  8
0
100
AcDbLine
 10
192.2095
 20
115.208983
 30
0.0
 11
192.5955
 21
115.311983
 31
0.0
  0
LINE
  5
86F
330
1D
100
AcDbEntity
  8
0
100
AcDbLine
 10
191.7615
 20
113.017983
 30
0.0
 11
200.9395
 21
86.489883
 31
0.0
  0
LINE
  5
870
330
1D
100
AcDbEntity
  8
0
100
AcDbLine
 10
191.7615
 20
113.017983
 30
0.0
 11
192.2095
 21
115.208983
 31
0.0
  0
LINE
  5
871
330
1D
100
AcDbEntity
  8
0
100
AcDbLine
 10
200.9395
 20
86.489883
 30
0.0
 11
201.2295
 21
86.567583
 31
0.0
  0
LINE
  5
872
330
1D
100
AcDbEntity
  8
0
100
AcDbLine
 10
207.9095
 20
69.965683
 30
0.0
 11
209.9335
 21
70.425783
 31
0.0
  0
LINE
  5
873
330
1D
100
AcDbEntity
  8
0
100
AcDbLine
 10
206.2595
 20
69.607783
 30
0.0
 11
207.9095
 21
69.965683
 31
0.0
  0
LINE
  5
874
330
1D
100
AcDbEntity
  8
0
100
AcDbLine
 10
211.3975
 20
33.299983
 30
0.0
 11
213.1985
 21
1.698983
 31
0.0
  0
LINE
  5
875
330
1D
100
AcDbEntity
  8
0
100
AcDbLine
 10
211.3975
 20
33.299983
 30
0.0
 11
213.1985
 21
1.698983
 31
0.0
  0
LINE
  5
876
330
1D
100
AcDbEntity
  8
0
100
AcDbLine
 10
218.0345
 20
1.693983
 30
0.0
 11
221.1305
 21
1.700983
 31
0.0
  0
LINE
  5
877
330
1D
100
AcDbEntity
  8
0
100
AcDbLine
 10
215.5495
 20
1.696983
 30
0.0
 11
218.0345
 21
1.693983
 31
0.0
  0
LINE
  5
878
330
1D
100
AcDbEntity
  8
0
100
AcDbLine
 10
226.8455
 20
1.695983
 30
0.0
 11
228.6235
 21
1.701983
 31
0.0
  0
LINE
  5
879
330
1D
100
AcDbEntity
  8
0
100
AcDbLine
 10
224.3605
 20
1.697983
 30
0.0
 11
226.8455
 21
1.695983
 31
0.0
  0
LINE
  5
87A
330
1D
100
AcDbEntity
  8
0
100
AcDbLine
 10
221.1305
 20
1.700983
 30
0.0
 11
224.2345
 21
1.705983
 31
0.0
  0
LINE
  5
87B
330
1D
100
AcDbEntity
  8
0
100
AcDbLine
 10
213.7725
 20
1.700983
 30
0.0
 11
215.5495
 21
1.696983
 31
0.0
  0
LINE
  5
87C
330
1D
100
AcDbEntity
  8
0
100
AcDbLine
 10
226.7505
 20
1.698983
 30
0.0
 11
228.5715
 21
1.703983
 31
0.0
  0
LINE
  5
87D
330
1D
100
AcDbEntity
  8
0
100
AcDbLine
 10
224.2345
 20
1.705983
 30
0.0
 11
226.7505
 21
1.698983
 31
0.0
  0
LINE
  5
87E
330
1D
100
AcDbEntity
  8
0
100
AcDbLine
 10
228.5715
 20
1.703983
 30
0.0
 11
229.1985
 21
1.702983
 31
0.0
  0
LINE
  5
87F
330
1D
100
AcDbEntity
  8
0
100
AcDbLine
 10
227.1985
 20
36.103983
 30
0.0
 11
229.1985
 21
1.702983
 31
0.0
  0
LINE
  5
880
330
1D
100
AcDbEntity
  8
0
100
AcDbLine
 10
227.1985
 20
36.103983
 30
0.0
 11
229.1985
 21
1.702983
 31
0.0
  0
LINE
  5
881
330
1D
100
AcDbEntity
  8
0
100
AcDbLine
 10
228.6235
 20
1.701983
 30
0.0
 11
229.1985
 21
1.702983
 31
0.0
  0
LINE
  5
882
330
1D
100
AcDbEntity
  8
0
100
AcDbLine
 10
221.535040532788
 20
1.701634643899
 30
0.0
 11
224.3605
 21
1.697983
 31
0.0
  0
LINE
  5
883
330
1D
100
AcDbEntity
  8
0
100
AcDbLine
 10
213.8255
 20
1.697983
 30
0.0
 11
214.402016729544
 21
1.699565967407
 31
0.0
  0
LINE
  5
884
330
1D
100
AcDbEntity
  8
0
100
AcDbLine
 10
213.1985
 20
1.698983
 30
0.0
 11
213.8255
 21
1.697983
 31
0.0
  0
LINE
  5
885
330
1D
100
AcDbEntity
  8
0
100
AcDbLine
 10
213.1985
 20
1.698983
 30
0.0
 11
213.7725
 21
1.700983
 31
0.0
  0
LINE
  5
886
330
1D
100
AcDbEntity
  8
0
100
AcDbLine
 10
213.1245
 20
71.092183
 30
0.0
 11
214.2405
 21
71.339083
 31
0.0
  0
LINE
  5
887
330
1D
100
AcDbEntity
  8
0
100
AcDbLine
 10
211.8685
 20
70.824583
 30
0.0
 11
213.1245
 21
71.092183
 31
0.0
  0
LINE
  5
888
330
1D
100
AcDbEntity
  8
0
100
AcDbLine
 10
209.9335
 20
70.425783
 30
0.0
 11
211.8685
 21
70.824583
 31
0.0
  0
LINE
  5
889
330
1D
100
AcDbEntity
  8
0
100
AcDbLine
 10
214.2405
 20
71.339083
 30
0.0
 11
242.7645
 21
77.602283
 31
0.0
  0
LINE
  5
88A
330
1D
100
AcDbEntity
  8
0
100
AcDbLine
 10
223.4985
 20
60.502183
 30
0.0
 11
227.1985
 21
36.103983
 31
0.0
  0
LINE
  5
88B
330
1D
100
AcDbEntity
  8
0
100
AcDbLine
 10
208.4985
 20
54.997183
 30
0.0
 11
211.3975
 21
33.299983
 31
0.0
  0
LINE
  5
88C
330
1D
100
AcDbEntity
  8
0
100
AcDbLine
 10
209.4542
 20
120.771983
 30
0.0
 11
209.8202
 21
120.874983
 31
0.0
  0
LINE
  5
88D
330
1D
100
AcDbEntity
  8
0
100
AcDbLine
 10
209.8202
 20
120.874983
 30
0.0
 11
210.3173
 21
121.014983
 31
0.0
  0
LINE
  5
88E
330
1D
100
AcDbEntity
  8
0
100
AcDbLine
 10
206.0815
 20
155.108983
 30
0.0
 11
212.1125
 21
121.520983
 31
0.0
  0
LINE
  5
88F
330
1D
100
AcDbEntity
  8
0
100
AcDbLine
 10
211.1969
 20
121.262983
 30
0.0
 11
211.5539
 21
121.363983
 31
0.0
  0
LINE
  5
890
330
1D
100
AcDbEntity
  8
0
100
AcDbLine
 10
210.7635
 20
121.140983
 30
0.0
 11
211.1969
 21
121.262983
 31
0.0
  0
LINE
  5
891
330
1D
100
AcDbEntity
  8
0
100
AcDbLine
 10
210.3173
 20
121.014983
 30
0.0
 11
210.7635
 21
121.140983
 31
0.0
  0
LINE
  5
892
330
1D
100
AcDbEntity
  8
0
100
AcDbLine
 10
211.5539
 20
121.363983
 30
0.0
 11
211.8088
 21
121.434983
 31
0.0
  0
LINE
  5
893
330
1D
100
AcDbEntity
  8
0
100
AcDbLine
 10
211.8088
 20
121.434983
 30
0.0
 11
212.0
 21
121.488983
 31
0.0
  0
LINE
  5
894
330
1D
100
AcDbEntity
  8
0
100
AcDbLine
 10
211.53312775416
 20
120.378638503565
 30
0.0
 11
212.1125
 21
121.520983
 31
0.0
  0
LINE
  5
895
330
1D
100
AcDbEntity
  8
0
100
AcDbLine
 10
212.0
 20
121.488983
 30
0.0
 11
212.0892
 21
121.513983
 31
0.0
  0
LINE
  5
896
330
1D
100
AcDbEntity
  8
0
100
AcDbLine
 10
242.7645
 20
77.602283
 30
0.0
 11
242.7645
 21
127.607983
 31
0.0
  0
LINE
  5
897
330
1D
100
AcDbEntity
  8
0
100
AcDbLine
 10
242.7645
 20
127.607983
 30
0.0
 11
242.7645
 21
77.602283
 31
0.0
  0
LINE
  5
898
330
1D
100
AcDbEntity
  8
0
100
AcDbLine
 10
221.026683581718
 20
72.81134409316
 30
0.0
 11
223.4985
 21
60.502183
 31
0.0
  0
LINE
  5
899
330
1D
100
AcDbEntity
  8
0
100
AcDbLine
 10
204.710428859207
 20
74.935830120066
 30
0.0
 11
208.4985
 21
54.997183
 31
0.0
  0
ENDSEC
  0
SECTION
  2
OBJECTS
  0
DICTIONARY
  5
C
330
0
100
AcDbDictionary
281
     1
  3
ACAD_GROUP
350
D
  3
ACAD_LAYOUT
350
1A
  3
ACAD_MLEADERSTYLE
350
89C
  3
ACAD_MLINESTYLE
350
17
  3
ACAD_PLOTSETTINGS
350
19
  3
ACAD_PLOTSTYLENAME
350
E
  3
ACAD_SCALELIST
350
3D0
  3
AcDbVariableDictionary
350
89A
  3
DWGPROPS
350
89F
  0
DICTIONARY
  5
D
102
{ACAD_REACTORS
330
C
102
}
330
C
100
AcDbDictionary
281
     1
  0
DICTIONARY
  5
1A
102
{ACAD_REACTORS
330
C
102
}
330
C
100
AcDbDictionary
281
     1
  3
Layout1
350
1C
  3
Model
350
1E
  0
DICTIONARY
  5
89C
102
{ACAD_REACTORS
330
C
102
}
330
C
100
AcDbDictionary
281
     1
  0
DICTIONARY
  5
17
102
{ACAD_REACTORS
330
C
102
}
330
C
100
AcDbDictionary
281
     1
  3
Standard
350
18
  0
DICTIONARY
  5
19
102
{ACAD_REACTORS
330
C
102
}
330
C
100
AcDbDictionary
281
     1
  0
ACDBDICTIONARYWDFLT
  5
E
102
{ACAD_REACTORS
330
C
102
}
330
C
100
AcDbDictionary
281
     1
  3
Normal
350
F
100
AcDbDictionaryWithDefault
340
F
  0
DICTIONARY
  5
3D0
102
{ACAD_REACTORS
330
C
102
}
330
C
100
AcDbDictionary
281
     1
  3
A0
350
3D1
  3
A1
350
3D2
  3
A2
350
3D3
  3
A3
350
3D4
  3
A4
350
3D5
  3
A5
350
3D6
  3
A6
350
3D7
  3
A7
350
3D8
  3
A8
350
3D9
  3
A9
350
3DA
  3
B0
350
3DB
  3
B1
350
3DC
  3
B2
350
3DD
  3
B3
350
3DE
  3
B4
350
3DF
  3
B5
350
3E0
  3
B6
350
3E1
  3
B7
350
3E2
  3
B8
350
3E3
  3
B9
350
3E4
  3
C0
350
3E5
  3
C1
350
3E6
  3
C2
350
3E7
  3
C3
350
3E8
  3
C4
350
3E9
  3
C5
350
3EA
  3
C6
350
3EB
  3
C7
350
3EC
  3
C8
350
3ED
  3
C9
350
3EE
  3
D0
350
3EF
  3
D1
350
3F0
  3
D2
350
3F1
  0
DICTIONARY
  5
89A
102
{ACAD_REACTORS
330
C
102
}
330
C
100
AcDbDictionary
281
     1
  3
CANNOSCALE
350
89D
  0
XRECORD
  5
89F
102
{ACAD_REACTORS
330
C
102
}
330
C
100
AcDbXrecord
280
     1
  1
DWGPROPS COOKIE
  2

  3

  4

  6

  7

  8
MARTIN
  9

300
=
301
=
302
=
303
=
304
=
305
=
306
=
307
=
308
=
309
=
 40
0.0
 41
2456647.868843125
 42
2456647.870668218
  1

 90
        0
  0
LAYOUT
  5
1C
102
{ACAD_REACTORS
330
1A
102
}
330
1A
100
AcDbPlotSettings
  1

  2
none_device
  4

  6

 40
0.0
 41
0.0
 42
0.0
 43
0.0
 44
0.0
 45
0.0
 46
0.0
 47
0.0
 48
0.0
 49
0.0
140
0.0
141
0.0
142
1.0
143
1.0
 70
   688
 72
     0
 73
     0
 74
     5
  7

 75
    16
147
1.0
148
0.0
149
0.0
100
AcDbLayout
  1
Layout1
 70
     1
 71
     1
 10
0.0
 20
0.0
 11
12.0
 21
9.0
 12
0.0
 22
0.0
 32
0.0
 14
1.000000000000E+20
 24
1.000000000000E+20
 34
1.000000000000E+20
 15
-1.000000000000E+20
 25
-1.000000000000E+20
 35
-1.000000000000E+20
146
0.0
 13
0.0
 23
0.0
 33
0.0
 16
1.0
 26
0.0
 36
0.0
 17
0.0
 27
1.0
 37
0.0
 76
     0
330
1B
  0
LAYOUT
  5
1E
102
{ACAD_REACTORS
330
1A
102
}
330
1A
100
AcDbPlotSettings
  1

  2
none_device
  4

  6

 40
0.0
 41
0.0
 42
0.0
 43
0.0
 44
0.0
 45
0.0
 46
0.0
 47
0.0
 48
0.0
 49
0.0
140
0.0
141
0.0
142
1.0
143
1.0
 70
  1712
 72
     0
 73
     0
 74
     0
  7

 75
     0
147
1.0
148
0.0
149
0.0
100
AcDbLayout
  1
Model
 70
     1
 71
     0
 10
0.0
 20
0.0
 11
12.0
 21
9.0
 12
0.0
 22
0.0
 32
0.0
 14
0.1045
 24
0.193995
 34
0.0
 15
242.7645
 25
275.805983
 35
0.0
146
0.0
 13
0.0
 23
0.0
 33
0.0
 16
1.0
 26
0.0
 36
0.0
 17
0.0
 27
1.0
 37
0.0
 76
     0
330
1D
331
3CB
  0
MLINESTYLE
  5
18
102
{ACAD_REACTORS
330
17
102
}
330
17
100
AcDbMlineStyle
  2
Standard
 70
     0
  3

 62
   256
 51
90.0
 52
90.0
 71
     2
 49
0.5
 62
   256
  6
BYLAYER
 49
-0.5
 62
   256
  6
BYLAYER
  0
ACDBPLACEHOLDER
  5
F
102
{ACAD_REACTORS
330
E
102
}
330
E
  0
SCALE
  5
3D1
102
{ACAD_REACTORS
330
3D0
102
}
330
3D0
100
AcDbScale
 70
     0
300
1:1
140
1.0
141
1.0
290
     1
  0
SCALE
  5
3D2
102
{ACAD_REACTORS
330
3D0
102
}
330
3D0
100
AcDbScale
 70
     0
300
1:2
140
1.0
141
2.0
290
     0
  0
SCALE
  5
3D3
102
{ACAD_REACTORS
330
3D0
102
}
330
3D0
100
AcDbScale
 70
     0
300
1:4
140
1.0
141
4.0
290
     0
  0
SCALE
  5
3D4
102
{ACAD_REACTORS
330
3D0
102
}
330
3D0
100
AcDbScale
 70
     0
300
1:5
140
1.0
141
5.0
290
     0
  0
SCALE
  5
3D5
102
{ACAD_REACTORS
330
3D0
102
}
330
3D0
100
AcDbScale
 70
     0
300
1:8
140
1.0
141
8.0
290
     0
  0
SCALE
  5
3D6
102
{ACAD_REACTORS
330
3D0
102
}
330
3D0
100
AcDbScale
 70
     0
300
1:10
140
1.0
141
10.0
290
     0
  0
SCALE
  5
3D7
102
{ACAD_REACTORS
330
3D0
102
}
330
3D0
100
AcDbScale
 70
     0
300
1:16
140
1.0
141
16.0
290
     0
  0
SCALE
  5
3D8
102
{ACAD_REACTORS
330
3D0
102
}
330
3D0
100
AcDbScale
 70
     0
300
1:20
140
1.0
141
20.0
290
     0
  0
SCALE
  5
3D9
102
{ACAD_REACTORS
330
3D0
102
}
330
3D0
100
AcDbScale
 70
     0
300
1:30
140
1.0
141
30.0
290
     0
  0
SCALE
  5
3DA
102
{ACAD_REACTORS
330
3D0
102
}
330
3D0
100
AcDbScale
 70
     0
300
1:40
140
1.0
141
40.0
290
     0
  0
SCALE
  5
3DB
102
{ACAD_REACTORS
330
3D0
102
}
330
3D0
100
AcDbScale
 70
     0
300
1:50
140
1.0
141
50.0
290
     0
  0
SCALE
  5
3DC
102
{ACAD_REACTORS
330
3D0
102
}
330
3D0
100
AcDbScale
 70
     0
300
1:100
140
1.0
141
100.0
290
     0
  0
SCALE
  5
3DD
102
{ACAD_REACTORS
330
3D0
102
}
330
3D0
100
AcDbScale
 70
     0
300
2:1
140
2.0
141
1.0
290
     0
  0
SCALE
  5
3DE
102
{ACAD_REACTORS
330
3D0
102
}
330
3D0
100
AcDbScale
 70
     0
300
4:1
140
4.0
141
1.0
290
     0
  0
SCALE
  5
3DF
102
{ACAD_REACTORS
330
3D0
102
}
330
3D0
100
AcDbScale
 70
     0
300
8:1
140
8.0
141
1.0
290
     0
  0
SCALE
  5
3E0
102
{ACAD_REACTORS
330
3D0
102
}
330
3D0
100
AcDbScale
 70
     0
300
10:1
140
10.0
141
1.0
290
     0
  0
SCALE
  5
3E1
102
{ACAD_REACTORS
330
3D0
102
}
330
3D0
100
AcDbScale
 70
     0
300
100:1
140
100.0
141
1.0
290
     0
  0
SCALE
  5
3E2
102
{ACAD_REACTORS
330
3D0
102
}
330
3D0
100
AcDbScale
 70
     0
300
1/128" = 1'-0"
140
0.0078125
141
12.0
290
     0
  0
SCALE
  5
3E3
102
{ACAD_REACTORS
330
3D0
102
}
330
3D0
100
AcDbScale
 70
     0
300
1/64" = 1'-0"
140
0.015625
141
12.0
290
     0
  0
SCALE
  5
3E4
102
{ACAD_REACTORS
330
3D0
102
}
330
3D0
100
AcDbScale
 70
     0
300
1/32" = 1'-0"
140
0.03125
141
12.0
290
     0
  0
SCALE
  5
3E5
102
{ACAD_REACTORS
330
3D0
102
}
330
3D0
100
AcDbScale
 70
     0
300
1/16" = 1'-0"
140
0.0625
141
12.0
290
     0
  0
SCALE
  5
3E6
102
{ACAD_REACTORS
330
3D0
102
}
330
3D0
100
AcDbScale
 70
     0
300
3/32" = 1'-0"
140
0.09375
141
12.0
290
     0
  0
SCALE
  5
3E7
102
{ACAD_REACTORS
330
3D0
102
}
330
3D0
100
AcDbScale
 70
     0
300
1/8" = 1'-0"
140
0.125
141
12.0
290
     0
  0
SCALE
  5
3E8
102
{ACAD_REACTORS
330
3D0
102
}
330
3D0
100
AcDbScale
 70
     0
300
3/16" = 1'-0"
140
0.1875
141
12.0
290
     0
  0
SCALE
  5
3E9
102
{ACAD_REACTORS
330
3D0
102
}
330
3D0
100
AcDbScale
 70
     0
300
1/4" = 1'-0"
140
0.25
141
12.0
290
     0
  0
SCALE
  5
3EA
102
{ACAD_REACTORS
330
3D0
102
}
330
3D0
100
AcDbScale
 70
     0
300
3/8" = 1'-0"
140
0.375
141
12.0
290
     0
  0
SCALE
  5
3EB
102
{ACAD_REACTORS
330
3D0
102
}
330
3D0
100
AcDbScale
 70
     0
300
1/2" = 1'-0"
140
0.5
141
12.0
290
     0
  0
SCALE
  5
3EC
102
{ACAD_REACTORS
330
3D0
102
}
330
3D0
100
AcDbScale
 70
     0
300
3/4" = 1'-0"
140
0.75
141
12.0
290
     0
  0
SCALE
  5
3ED
102
{ACAD_REACTORS
330
3D0
102
}
330
3D0
100
AcDbScale
 70
     0
300
1" = 1'-0"
140
1.0
141
12.0
290
     0
  0
SCALE
  5
3EE
102
{ACAD_REACTORS
330
3D0
102
}
330
3D0
100
AcDbScale
 70
     0
300
1-1/2" = 1'-0"
140
1.5
141
12.0
290
     0
  0
SCALE
  5
3EF
102
{ACAD_REACTORS
330
3D0
102
}
330
3D0
100
AcDbScale
 70
     0
300
3" = 1'-0"
140
3.0
141
12.0
290
     0
  0
SCALE
  5
3F0
102
{ACAD_REACTORS
330
3D0
102
}
330
3D0
100
AcDbScale
 70
     0
300
6" = 1'-0"
140
6.0
141
12.0
290
     0
  0
SCALE
  5
3F1
102
{ACAD_REACTORS
330
3D0
102
}
330
3D0
100
AcDbScale
 70
     0
300
1'-0" = 1'-0"
140
12.0
141
12.0
290
     0
  0
DICTIONARYVAR
  5
89D
102
{ACAD_REACTORS
330
89A
102
}
330
89A
100
DictionaryVariables
280
     0
  1
1:1
  0
ENDSEC
  0
SECTION
  2
THUMBNAILIMAGE
 90
    16364
310
28000000B40000005500000001000800000000000000000000000000000000000000000000000000FFFFFF000000FF0000FFFF0000FF0000FFFF0000FF000000FF00FF000000000080808000C0C0C0000000FF007F7FFF000000A5005252A50000007F003F3F7F0000004C0026264C000000260013132600003FFF007F9FFF
310
000029A5005267A500001F7F003F4F7F0000134C00262F4C000009260013172600007FFF007FBFFF000052A500527CA500003F7F003F5F7F0000264C0026394C0000132600131C260000BFFF007FDFFF00007CA5005291A500005F7F003F6F7F0000394C0026424C00001C26001321260000FFFF007FFFFF0000A5A50052A5
310
A500007F7F003F7F7F00004C4C00264C4C00002626001326260000FFBF007FFFDF0000A57C0052A59100007F5F003F7F6F00004C3900264C420000261C001326210000FF7F007FFFBF0000A5520052A57C00007F3F003F7F5F00004C2600264C39000026130013261C0000FF3F007FFF9F0000A5290052A56700007F1F003F
310
7F4F00004C1300264C2F00002609001326170000FF00007FFF7F0000A5000052A55200007F00003F7F3F00004C0000264C260000260000132613003FFF00009FFF7F0029A5000067A552001F7F00004F7F3F00134C00002F4C260009260000172613007FFF0000BFFF7F0052A500007CA552003F7F00005F7F3F00264C0000
310
394C2600132600001C261300BFFF0000DFFF7F007CA5000091A552005F7F00006F7F3F00394C0000424C26001C26000021261300FFFF0000FFFF7F00A5A50000A5A552007F7F00007F7F3F004C4C00004C4C26002626000026261300FFBF0000FFDF7F00A57C0000A59152007F5F00007F6F3F004C3900004C422600261C00
310
0026211300FF7F0000FFBF7F00A5520000A57C52007F3F00007F5F3F004C2600004C39260026130000261C1300FF3F0000FF9F7F00A5290000A56752007F1F00007F4F3F004C1300004C2F26002609000026171300FF000000FF7F7F00A5000000A55252007F0000007F3F3F004C0000004C2626002600000026131300FF00
310
3F00FF7F9F00A5002900A55267007F001F007F3F4F004C0013004C262F002600090026131700FF007F00FF7FBF00A5005200A5527C007F003F007F3F5F004C0026004C2639002600130026131C00FF00BF00FF7FDF00A5007C00A55291007F005F007F3F6F004C0039004C26420026001C0026132100FF00FF00FF7FFF00A5
310
00A500A552A5007F007F007F3F7F004C004C004C264C002600260026132600BF00FF00DF7FFF007C00A5009152A5005F007F006F3F7F0039004C0042264C001C002600211326007F00FF00BF7FFF005200A5007C52A5003F007F005F3F7F0026004C0039264C00130026001C1326003F00FF009F7FFF002900A5006752A500
310
1F007F004F3F7F0013004C002F264C000900260017132600000000002D2D2D005B5B5B0089898900B7B7B700B3B3B30000000000000000000000000000000000000000000000000000000000000000000000000000000000000000000000000000000000000000000000000000000000000000000000000000000000000000
310
00000000000000070707070707070707070707070707070000000000000000000000000000000007070707070000000000000000000000000000000000000000000000000000000000000000000000000000000000000000000000000000000000000000000000000000000000000000000000000000000000000000000000
310
00000000000000000000000000000000000000000000000000000000000000000000000000000000000000000000000000000000000000000000000007000000000000000000000000000007000000000000000000000000000000000700000000070000000000000000000000000000000000000000000000000000000000
310
00000000000000000000000000000000000000000000000000000000000000000000000000000000000000000000000000000000000000000000000000000000000000000000000000000000000000000000000000000000000000000000000000000000000000000000000000000000000700000000000000000000000000
310
00070000000000000000000000000000000007000000000700000000000000000000000000000000000000000000000000000000000000000000000000000000000000000000000000000000000000000000000000000000000000000000000000000000000000000000000000000000000000000000000000000000000000
310
00000000000000000000000000000000000000000000000000000000000000000000000000000007000000000000000000000000000007000000000000000000000000000000000700000000070000000000000000000000000000000000000000000000000000000000000000000000000000000000000000000000000000
310
00000000000000000000000000000000000000000000000000000000000000000000000000000000000000000000000000000000000000000000000000000000000000000000000000000000000000000000000000000000000000000700000000000000000000000000000700000000000000000000000000000000070000
310
00000700000000000000000000000000000000000000000000000000000000000000000000000000000000000000000000000000000000000000000000000000000000000000000000000000000000000000000000000000000000000000000000000000000000000000000000000000000000000000000000000000000000
310
00000000000000000000000000000000000007000000000000000000000000000007000000000000000000000000000000070000000000070000000000000000000000000000000000000000000000000000000000000000000000000000000000000000000000000000000000000000000000000000000000000000000000
310
00000000000000000000000000000000000000000000000000000000000000000000000000000000000000000000000000000000000000000000000000000000000000000000000700000000000000000000000000000700000000000000000000000000000007000000000700000000000000000000000000000000000000
310
00000000000000000000000000000000000000000000000000000000000000000000000000000000000000000000000000000000000000000000000000000000000000000000000000000000000000000000000000000000000000000000000000000000000000000000000000000000000000000000000000000000070000
310
00000000000000000000000007000000000000000000000000000000070000000007000000000000000000000000000000000000000000000000000000000000000000000000000000000000000000000000000000000000000000000000000000000000000000000000000000000000000000000000000000000000000000
310
00000000000000000000000000000000000000000000000000000000000000000000000000000000000000000000000000000700000000000000000000000000000700000000000000000000000000000007000000000700000000000000000000000000000000000000000000000000000000000000000000000000000000
310
00000000000000000000000000000000000000000000000000000000000000000000000000000000000000000000000000000000000000000000000000000000000000000000000000000000000000000000000000000000000000000000000000000000000000070000000000000000000000000007000000000000000000
310
00000000000000070000000007000000000000000000000000000000000000000000000000000000000000000000000000000000000000000000000000000000000000000000000000000000000000000000000000000000000000000000000000000000000000000000000000000000000000000000000000000000000000
310
00000000000000000000000000000000000000000000000000000000000700000000000000000000000000070000000000000000000000000000000007000000000700000000000000000000000000000000000000000000000000000000000000000000000000000000000000000000000000000000000000000000000000
310
00000000000000000000000000000000000000000000000000000000000000000000000000000000000000000000000000000000000000000000000000000000000000000000000000000000000000000000070000000000000000000000000007000000000000000000000000000000000700000000070000000000000000
310
00000000000000000000000000000000000000000000000000000000000000000000000000000000000000000000000000000000000000000000000000000000000000000000000000000000000000000000000000000000000000000000000000000000000000000000000000000000000000000000000000000000000000
310
00000000000000000700000000000000000000000000070000000000000000000000000000000007000000000700000000000000000000000000000000000000000000000000000000000000000000000000000000000000000000000000000000000000000000000000000000000000000000000000000000000000000000
310
00000000000000000000000000000000000000000000000000000000000000000000000000000000000000000000000000000000000000000000000000070000000000000000000000000007000000000000000000000000000000070000000000070000000000000000000000000000000000000000000000000000000000
310
00000000000000000000000000000000000000000000000000000000000000000000000000000000000000000000000000000000000000000000000000000000000000000000000000000000000000000000000000000000000000000000000000000000000000000000000000000000000007000000000000000000000000
310
00070000000000000000000000000000000700000000000700000000000000000000000000000000000000000000000000000000000000000000000000000000000000000000000000000000000000000000000000000000000000000000000000000000000000000000000000000000000000000000000000000000000000
310
00000000000000000000000000000000000000000000000000000000000000000000000000000000070000000000000000000000000007000000000000000000000000000000070000000007000000000000000000000000000000000000000000000000000000000000000000000000000000000000000000000000000000
310
00000000000000000000000000000000000000000000000000000000000000000000000000000000000000000000000000000000000000000000000000000000000000000000000000000000000000000000000000000000000000000007000000000000000000000000000700000000000000000000000000000007000000
310
00070000000000000000000000000000000000000000000000000000000000000000000000000000000000000000000000000000000000000000000000000000000000000000000000000000000000000000000000000000000000000000000000000000000000000000000000000000000000000000000000000000000000
310
00000000000000000000000000000000000000070000000000000000000000000007000000000000000000000000000000070000000007000000000000000000000000000000000000000000000000000000000000000000000000000000000000000000000000000000000000000000000000000000000000000000000000
310
00000000000000000000000000000000000000000000000000000000000000000000000000000000000000000000000000000000000000000000000000000000000000000000000000000000000000000000000000000700000000000000000000000000000007000000000700000000000000000000000000000000000000
310
00000000000000000000000000000000000000000000000000000000000000000000000000000000000000000000000000000000000000000000000000000000000000000000000000000000000000000000000000000000000000000000000000000000000000000000000000000000000000000000000000000000000700
310
00000000000000000000000007000000000000000000000000000007000000000007000000000000000000000000000000000000000000000000000000000000000000000000000000000000000000000000000000000000000000000000000000000000000000000000000000000000000000000000000000000000000000
310
00000000000000000000000000000000000000000000000000000000000000000000000000000000000000000000000000000007000000000000000000000000000700000000000000000000000000000700000000070000000000000000000000000000000000000000000000000000000000000000000000000000000000
310
00000000000000000000000000000000000000000000000000000000000000000000000000000000000000000000000000000000000000000000000000000000000000000000000000000000000000000000000000000000000000000000000000000000000000000700000000000000000000000000070000000000000000
310
00000000000007070707070700000000000000000000000000000000000000000000000000000000000000000000000000000000000000000000000000000000000000000000000000000000000000000000000000000000000000000000000000000000000000000000000000000000000000000000000000000000000000
310
00000000000000000000000000000000000000000000000000000000000007000000000000000000000000000700000000000000000000000000000707000000070707070700000000000000000000000000000000000000000000000000000000000000000000000000000000000000000000000000000000000000000000
310
00000000000000000000000000000000000000000000000000000000000000000000000000000000000000000000000000000000000000000000000000000000000000000000000000000000000000000000070700000000000000000000000000070000000000000000000000000000070000000000000000000707070000
310
00000000000000000000000000000000000000000000000000000000000000000000000000000000000000000000000000000000000000000000000000000000000000000000000000000000000000000000000000000000000000000000000000000000000000000000000000000000000000000000000000000000000000
310
00000000000000070700000000000000000000000000000700000000000000000000000000070700000000000000000000000700000000000000000000000000000000000000000000000000000000000000000000000000000000000000000000000000000000000000000000000000000000000000000000000000000000
310
00000000000000000000000000000000000000000000000000000000000000000000000000000000000000000000000000000000000000000000000707000000000000000000000000000000070000000000000000000000000007070000000000000000000000070000000000000000000000000000000000000000000000
310
00000000000000000000000000000000000000000000000000000000000000000000000000000000000000000000000000000000000000000000000000000000000000000000000000000000000000000000000000000000000000000000000000000000000000000000000000070707000000000000000000000000000000
310
00000700000000000000000000000000070700000000000000000000000700000000000000000000000000000000000000000000000000000000000000000000000000000000000000000000000000000000000000000000000000000000000000000000000000000000000000000000000000000000000000000000000000
310
00000000000000000000000000000000000000000000000000000000070707070707070000000000000000000000000000000000000000070000000000000000000000000007000000000000000000000000070000000000000000000000000000000000000000000000000000000000000000000000000000000000000000
310
00000000000000000000000000000000000000000000000000000000000000000000000000000000000000000000000000000000000000000000000000000000000000000007000000000707070707070700000000000000000000000000000000000000000000000000000007000000000000000000000000070700000000
310
00000000000000000700000000000000000000000000000000000000000000000000000000000000000000000000000000000000000000000000000000000000000000000000000000000000000000000000000000000000000000000000000000000000000000000000000000000000000000000000000007070707070707
310
00000000000000000000000000000000000000000000000000000000000000000000070000000000000000000000000707000000000000000000000000070000000000000000000000000000000000000000000000000000000000000000000000000000000000000000000000000000000000000000000000000000000000
310
00000000000000000000000000000000000000000000000000000000000000000000000000000000000000000707070707000000000000000000000000000000000000000000000000000000000000000000000000000007000000000000000000000007070000000000000000000000000007000000000000000000000000
310
00000000000000000000000000000000000000000000000000000000000000000000000000000000000000000000000000000000000000000000000000000000000000000000000000000000000000000000000000000000000000000000000707070707000000000000000000000000000000000000000000000000000000
310
00000000000000000000000000070000000000000000000000070700000000000000000000000000070000000000000000000000000000000000000000000000000000000000000000000000000000000000000000000000000000000000000000000000000000000000000000000000000000000000000000000000000000
310
00000000000000000000000000000000000000000007070000000000000000000000000000000000000000000000000000000000000000000000000000000000000007000000000000000000000007070000000000000000000000000007000000000000000000000000000000000000000000000000000000000000000000
310
00000000000000000000000000000000000000000000000000000000000000000000000000000000000000000000000000000000000000000000000000000000000000000000000000070000000000000000000000000000000000000000000000000000000000000000000000000000000000000000000700000000000000
310
00000007000700000000000000000000000000070000000000000000000000000000000000000000000000000000000000000000000000000000000000000000000000000000000000000000000000000000000000000000000000000000000000000000000000000000000000000000000000000000000000000000000007
310
00000000000000000000000000000000000000000000000000000000000000000000000000000000000000000007000000000000000000000707000000000000000000000000000007000000000000000000000000000000000000000000000000000000000000000000000000000000000000000000000000000000000000
310
00000000000000000000000000000000000000000000000000000000000000000000000000000000000000000000000000000007070707070707070707070707070707070707070707070707070707070707070707070707070707070707070707070700000000000000000000070707070707000000000000000000000700
310
00000000000000000000000000000000000000000000000000000000000000000000000000000000000000000000000000000000000000000000000000000000000000000000000000000000000000000000000000000000000000000000000000000000000000000000000000000000000000000000000000000000000000
310
00000000000000000000000707070707070707000000000007000000000000000000000700000707070707070700000000000007000000000000000000000000000000000000000000000000000000000000000000000000000000000000000000000000000000000000000000000000000000000000000000000000000000
310
00000000000000000000000000000000000000000000000000000000000000000000000000000000000000000000000000000000000000000000000000000000070000000000000007070707070000000000000000000000070000000000070000000707070700000700000000000000000000000000000000000000000000
310
00000000000000000000000000000000000000000000000000000000000000000000000000000000000000000000000000000000000000000000000000000000000000000000000000000000000000000000000000000000000000000000000000000000000000000000000000000000000000000007000000000000000000
310
00000707000000000000000000070000000000000700000000000000070707000000000000000000000000000000000000000000000000000000000000000000000000000000000000000000000000000000000000000000000000000000000000000000000000000000000000000000000000000000000000000000000000
310
00000000000000000000000000000000000000000000000000000000000000000000000000000000000000070000000000000000000000000700000000000000000007000000000000070000000000000000000000000000000000000000000000000000000000000000000000000000000000000000000000000000000000
310
00000000000000000000000000000000000000000000000000000000000000000000000000000000000000000000000000000000000000000000000000000000000000000000000000000000000000000000000000000000000000000000000007000000000000000000000000070000000000000000000700000000000007
310
00000000000000000000000000000000000000000000000000000000000000000000000000000000000000000000000000000000000000000000000000000000000000000000000000000000000000000000000000000000000000000000000000000000000000000000000000000000000000000000000000000000000000
310
00000000000000000000000000000000000000000000070000000000000000000000000700000000000000000007000000000000070000000000000000000000000000000000000000000000000000000000000000000000000000000000000000000000000000000000000000000000000000000000000000000000000000
310
00000000000000000000000000000000000000000000000000000000000000000000000000000000000000000000000000000000000000000000000000000000000000000000000000000007000000000000000000000000070000000000000000000700000000000700000000000000000000000000000000000000000000
310
00000000000000000000000000000000000000000000000000000000000000000000000000000000000000000000000000000000000000000000000000000000000000000000000000000000000000000000000000000000000000000000000000000000000000000000000000000000000000000000000000000000000000
310
00070000000000000000000000000700000000000000000700000000000007000000000000000000000000000000000000000000000000000000000000000000000000000000000000000000000000000000000000000000000000000000000000000000000000000000000000000000000000000000000000000000000000
310
00000000000000000000000000000000000000000000000000000000000000000000000000000000000000000000000000000000000700000000000000000000000000070000000000000000070000000000000700000000000000000000000000000000000000000000000000000000000000000000000000000000000000
310
00000000000000000000000000000000000000000000000000000000000000000000000000000000000000000000000000000000000000000000000000000000000000000000000000000000000000000000000000000000000000000000000000000000000000000000070000000000000000000000000007000000000000
310
00000700000000000007000000000000000000000000000000000000000000000000000000000000000000000000000000000000000000000000000000000000000000000000000000000000000000000000000000000000000000000000000000000000000000000000000000000000000000000000000000000000000000
310
00000000000000000000000000000000000000000000000000000000000000070700000000000000000000000007070000000000000000070000000000000700000000000000000000000000000000000000000000000000000000000000000000000000000000000000000000000000000000000000000000000000000000
310
00000000000000000000000000000000000000000000000000000000000000000000000000000000000000000000000000000000000000000000000000000000000000000000000000000000000000000000000707000000000000000707070707070000000000000000000007000000000000070000000000000000000000
310
00000000000000000000000000000000000000000000000000000000000000000000000000000000000000000000000000000000000000000000000000000000000000000000000000000000000000000000000000000000000000000000000000000000000000000000000000000000000000000000000000000000000000
310
00000000000000070707000000000707070700000000000000000000000000000000070000000000000700000000000000000000000000000000000000000000000000000000000000000000000000000000000000000000000000000000000000000000000000000000000000000000000000000000000000000000000000
310
00000000000000000000000000000000000000000000000000000000000000000000000000000000000000000000000000000000000000000007070700000000070707000000000000000000000000000000000000000700000000000007000000000000000000000000000000000000000000000000000000000000000000
310
00000000000000000000000000000000000000000000000000000000000000000000000000000000000000000000000000000000000000000000000000000000000000000000000000000000000000000000000000000000000000000000000000000000000000000000000707070000000707070700000000000000000000
310
00000000000000000000000007000000000000070000000000000000000000000000000000000000000000000000000000000000000000000000000000000000000000000000000000000000000000000000000000000000000000000000000000000000000000000000000000000000000000000000000000000000000000
310
00000000000000000000000000000000000000000000000000000000070707070700000707070700000000000000000000000000000000000000000000000000000700000000000007000000000000000000000000000000000000000000000000000000000000000000000000000000000000000000000000000000000000
310
00000000000000000000000000000000000000000000000000000000000000000000000000000000000000000000000000000000000000000000000000000000000000000000000000000000000000000700000000070707000000000000000000000000000000000000000000000000000000000000070000000000000700
310
00000000000000000000000000000000000000000000000000000000000000000000000000000000000000000000000000000000000000000000000000000000000000000000000000000000000000000000000000000000000000000000000000000000000000000000000000000000000000000000000000000000000000
310
00000000000007070707070000000000000000000000000000000000000000000000000000000000000000000700000000000700000000000000000000000000000000000000000000000000000000000000000000000000000000000000000000000000000000000000000000000000000000000000000000000000000000
310
00000000000000000000000000000000000000000000000000000000000000000000000000000000000000000000000000000000000000000000000000000000000000000000000000000000000000000000000000000000000000000000000000070000000000070000000000000000000000000000000000000000000000
310
00000000000000000000000000000000000000000000000000000000000000000000000000000000000000000000000000000000000000000000000000000000000000000000000000000000000000000000000000000000000000000000000000000000000000000000000000000000000000000000000000000000000000
310
00000000000000000000000000000000000000000000070000000000000700000000000000000000000000000000000000000000000000000000000000000000000000000000000000000000000000000000000000000000000000000000000000000000000000000000000000000000000000000000000000000000000000
310
00000000000000000000000000000000000000000000000000000000000000000000000000000000000000000000000000000000000000000000000000000000000000000000000000000007000000000000070000000000000000000000000000000000000000000000000000000000000000000000000000000000000000
310
00000000000000000000000000000000000000000000000000000000000000000000000000000000000000000000000000000000000000000000000000000000000000000000000000000000000000000000000000000000000000000000000000000000000000000000000000000000000000000000000000000000000000
310
00070000000000000700000000000000000000000000000000000000000000000000000000000000000000000000000000000000000000000000000000000000000000000000000000000000000000000000000000000000000000000000000000000000000000000000000000000000000000000000000000000000000000
310
00000000000000000000000000000000000000000000000000000000000000000000000000000000000000000000000000000000000700000000000007000000000000000000000000000000000000000000000000000000000000000000000000000000000000000000000000000000000000000000000000000000000000
310
00000000000000000000000000000000000000000000000000000000000000000000000000000000000000000000000000000000000000000000000000000000000000000000000000000000000000000000000000000000000000000000000000000000000000000000070000000000000700000000000000000000000000
310
00000000000000000000000000000000000000000000000000000000000000000000000000000000000000000000000000000000000000000000000000000000000000000000000000000000000000000000000000000000000000000000000000000000000000000000000000000000000000000000000000000000000000
310
00000000000000000000000000000000000000000000000000000000000000000700000000000007000000000000000000000000000000000000000000000000000000000000000000000000000000000000000000000000000000000000000000000000000000000000000000000000000000000000000000000000000000
310
00000000000000000000000000000000000000000000000000000000000000000000000000000000000000000000000000000000000000000000000000000000000000000000000000000000000000000000000007000000000000000700000000000000000000000000000000000000000000000000000000000000000000
310
00000000000000000000000000000000000000000000000000000000000000000000000000000000000000000000000000000000000000000000000000000000000000000000000000000000000000000000000000000000000000000000000000000000000000000000000000000000000000000000000000000000000000
310
00000000000000000000070000000000000700000000000000000000000000000000000000000000000000000000000000000000000000000000000000000000000000000000000000000000000000000000000000000000000000000000000000000000000000000000000000000000000000000000000000000000000000
310
00000000000000000000000000000000000000000000000000000000000000000000000000000000000000000000000000000000000000000000000000000007000000000000070000000000000000000000000000000000000000000000000000000000000000000000000000000000000000000000000000000000000000
310
00000000000000000000000000000000000000000000000000000000000000000000000000000000000000000000000000000000000000000000000000000000000000000000000000000000000000000000000000000000000000000000000000000000000000000000000000000000000000000700000000000007000000
310
00000000000000000000000000000000000000000000000000000000000000000000000000000000000000000000000000000000000000000000000000000000000000000000000000000000000000000000000000000000000000000000000000000000000000000000000000000000000000000000000000000000000000
310
00000000000000000000000000000000000000000000000000000000000000000000000000000000000007000000000000070000000000000000000000000000000000000000000000000000000000000000000000000000000000000000000000000000000000000000000000000000000000000000000000000000000000
310
00000000000000000000000000000000000000000000000000000000000000000000000000000000000000000000000000000000000000000000000000000000000000000000000000000000000000000000000000000000000000000000000700000000000700000000000000000000000000000000000000000000000000
310
00000000000000000000000000000000000000000000000000000000000000000000000000000000000000000000000000000000000000000000000000000000000000000000000000000000000000000000000000000000000000000000000000000000000000000000000000000000000000000000000000000000000000
310
00000000000000000000000000000000000000000700000000000007000000000000000000000000000000000000000000000000000000000000000000000000000000000000000000000000000000000000000000000000000000000000000000000000000000000000000000000000000000000000000000000000000000
310
00000000000000000000000000000000000000000000000000000000000000000000000000000000000000000000000000000000000000000000000000000000000000000000000000070000000000000700000000000000000000000000000000000000000000000000000000000000000000000000000000000000000000
310
00000000000000000000000000000000000000000000000000000000000000000000000000000000000000000000000000000000000000000000000000000000000000000000000000000000000000000000000000000000000000000000000000000000000000000000000000000000000000000000000000000000000007
310
00000000000007000000000000000000000000000000000000000000000000000000000000000000000000000000000000000000000000000000000000000000000000000000000000000000000000000000000000000000000000000000000000000000000000000000000000000000000000000000000000000000000000
310
00000000000000000000000000000000000000000000000000000000000000000000000000000000000000000000000000000707070000000000070000000000000000000000000000000000000000000000000000000000000000000000000000000000000000000000000000000000000000000000000000000000000000
310
00000000000000000000000000000000000000000000000000000000000000000000000000000000000000000000000000000000000000000000000000000000000000000000000000000000000000000000000000000000000000000000000000000000000007070000000000000007000000000000000000000000000000
310
00000000000000000000000000000000000000000000000000000000000000000000000000000000000000000000000000000000000000000000000000000000000000000000000000000000000000000000000000000000000000000000000000000000000000000000000000000000000000000000000000000000000000
310
00000000000000000000000000000000000000000000000000000000070700000000000007000000000000000000000000000000000000000000000000000000000000000000000000000000000000000000000000000000000000000000000000000000000000000000000000000000000000000000000000000000000000
310
00000000000000000000000000000000000000000000000000000000000000000000000000000000000000000000000000000000000000000000000000000000000000000000000000000000000000000707000000000000000700000000000000000000000000000000000000000000000000000000000000000000000000
310
00000000000000000000000000000000000000000000000000000000000000000000000000000000000000000000000000000000000000000000000000000000000000000000000000000000000000000000000000000000000000000000000000000000000000000000000000000000000000000000000000000000000000
310
00000000000007070000000000000007000000000000000000000000000000000000000000000000000000000000000000000000000000000000000000000000000000000000000000000000000000000000000000000000000000000000000000000000000000000000000000000000000000000000000000000000000000
310
00000000000000000000000000000000000000000000000000000000000000000000000000000000000000000000000000000000000000000000000707000000000000000700000000000000000000000000000000000000000000000000000000000000000000000000000000000000000000000000000000000000000000
310
00000000000000000000000000000000000000000000000000000000000000000000000000000000000000000000000000000000000000000000000000000000000000000000000000000000000000000000000000000000000000000000000000000000000000000000000000000007070000000000000007000000000000
310
00000000000000000000000000000000000000000000000000000000000000000000000000000000000000000000000000000000000000000000000000000000000000000000000000000000000000000000000000000000000000000000000000000000000000000000000000000000000000000000000000000000000000
310
00000000000000000000000000000000000000000000000000000000000000000000000000070700000000000000070000000000000000000000000000000000000000000000000000000000000000000000000000000000000000000000000000000000000000000000000000000000000000000000000000000000000000
310
00000000000000000000000000000000000000000000000000000000000000000000000000000000000000000000000000000000000000000000000000000000000000000000000000000000000000000000000000000000000007070000000000000007000000000000000000000000000000000000000000000000000000
310
00000000000000000000000000000000000000000000000000000000000000000000000000000000000000000000000000000000000000000000000000000000000000000000000000000000000000000000000000000000000000000000000000000000000000000000000000000000000000000000000000000000000000
310
00000000000000000000000000000000070700000000000000070000000000000000000000000000000000000000000000000000000000000000000000000000000000000000000000000000000000000000000000000000000000000000000000000000000000000000000000000000000000000000000000000000000000
310
00000000000000000000000000000000000000000000000000000000000000000000000000000000000000000000000000000000000000000000000000000000000000000007000000000000000707000000000000000000000000000000000000000000000000000000000000000000000000000000000000000000000000
310
00000000000000000000000000000000000000000000000000000000000000000000000000000000000000000000000000000000000000000000000000000000000000000000000000000000000000000000000000000000000000000000000000000000000000000000000000000000000000000000000000000707000000
310
00000007000000000000000000000000000000000000000000000000000000000000000000000000000000000000000000000000000000000000000000000000000000000000000000000000000000000000000000000000000000000000000000000000000000000000000000000000000000000000000000000000000000
310
00000000000000000000000000000000000000000000000000000000000000000000000000000000000000000000000000000707070700070700000000000000000000000000000000000000000000000000000000000000000000000000000000000000000000000000000000000000000000000000000000000000000000
310
00000000000000000000000000000000000000000000000000000000000000000000000000000000000000000000000000000000000000000000000000000000000000000000000000000000000000000000000000000000000000000000000000000000000000000000000707000000000000000000000000000000000000
310
00000000000000000000000000000000000000000000000000000000000000000000000000000000000000000000000000000000000000000000000000000000000000000000000000000000000000000000000000000000000000000000000000000000000000000000000000000000000000000000000000000000000000
310
000000000000000000000000000000000000000000000000000000000000000000000000000000000000000000000000000000000000000000000000000000000000000000000000000000000000000000000000000000000000000000000000000000000000000000000000
  0
ENDSEC
  0
EOF
