  0
SECTION
  2
HEADER
  9
$ACADVER
  1
AC1015
  9
$ACADMAINTVER
 70
     6
  9
$DWGCODEPAGE
  3
ANSI_1252
  9
$INSBASE
 10
0.0
 20
0.0
 30
0.0
  9
$EXTMIN
 10
-0.0018
 20
2.119314979195
 30
0.0
  9
$EXTMAX
 10
230.0148
 20
182.584014979195
 30
0.0
  9
$LIMMIN
 10
0.0
 20
0.0
  9
$LIMMAX
 10
12.0
 20
9.0
  9
$ORTHOMODE
 70
     0
  9
$REGENMODE
 70
     1
  9
$FILLMODE
 70
     1
  9
$QTEXTMODE
 70
     0
  9
$MIRRTEXT
 70
     1
  9
$LTSCALE
 40
1.0
  9
$ATTMODE
 70
     1
  9
$TEXTSIZE
 40
0.2
  9
$TRACEWID
 40
0.05
  9
$TEXTSTYLE
  7
Standard
  9
$CLAYER
  8
0
  9
$CELTYPE
  6
ByBlock
  9
$CECOLOR
 62
   256
  9
$CELTSCALE
 40
1.0
  9
$DISPSILH
 70
     0
  9
$DIMSCALE
 40
1.0
  9
$DIMASZ
 40
0.18
  9
$DIMEXO
 40
0.0625
  9
$DIMDLI
 40
0.38
  9
$DIMRND
 40
0.0
  9
$DIMDLE
 40
0.0
  9
$DIMEXE
 40
0.18
  9
$DIMTP
 40
0.0
  9
$DIMTM
 40
0.0
  9
$DIMTXT
 40
0.18
  9
$DIMCEN
 40
0.09
  9
$DIMTSZ
 40
0.0
  9
$DIMTOL
 70
     0
  9
$DIMLIM
 70
     0
  9
$DIMTIH
 70
     1
  9
$DIMTOH
 70
     1
  9
$DIMSE1
 70
     0
  9
$DIMSE2
 70
     0
  9
$DIMTAD
 70
     0
  9
$DIMZIN
 70
     0
  9
$DIMBLK
  1

  9
$DIMASO
 70
     1
  9
$DIMSHO
 70
     1
  9
$DIMPOST
  1

  9
$DIMAPOST
  1

  9
$DIMALT
 70
     0
  9
$DIMALTD
 70
     2
  9
$DIMALTF
 40
25.4
  9
$DIMLFAC
 40
1.0
  9
$DIMTOFL
 70
     0
  9
$DIMTVP
 40
0.0
  9
$DIMTIX
 70
     0
  9
$DIMSOXD
 70
     0
  9
$DIMSAH
 70
     0
  9
$DIMBLK1
  1

  9
$DIMBLK2
  1

  9
$DIMSTYLE
  2
Standard
  9
$DIMCLRD
 70
     0
  9
$DIMCLRE
 70
     0
  9
$DIMCLRT
 70
     0
  9
$DIMTFAC
 40
1.0
  9
$DIMGAP
 40
0.09
  9
$DIMJUST
 70
     0
  9
$DIMSD1
 70
     0
  9
$DIMSD2
 70
     0
  9
$DIMTOLJ
 70
     1
  9
$DIMTZIN
 70
     0
  9
$DIMALTZ
 70
     0
  9
$DIMALTTZ
 70
     0
  9
$DIMUPT
 70
     0
  9
$DIMDEC
 70
     4
  9
$DIMTDEC
 70
     4
  9
$DIMALTU
 70
     2
  9
$DIMALTTD
 70
     2
  9
$DIMTXSTY
  7
Standard
  9
$DIMAUNIT
 70
     0
  9
$DIMADEC
 70
     0
  9
$DIMALTRND
 40
0.0
  9
$DIMAZIN
 70
     0
  9
$DIMDSEP
 70
    46
  9
$DIMATFIT
 70
     3
  9
$DIMFRAC
 70
     0
  9
$DIMLDRBLK
  1

  9
$DIMLUNIT
 70
     2
  9
$DIMLWD
 70
    -2
  9
$DIMLWE
 70
    -2
  9
$DIMTMOVE
 70
     2
  9
$LUNITS
 70
     2
  9
$LUPREC
 70
     4
  9
$SKETCHINC
 40
0.1
  9
$FILLETRAD
 40
0.5
  9
$AUNITS
 70
     0
  9
$AUPREC
 70
     0
  9
$MENU
  1
.
  9
$ELEVATION
 40
0.0
  9
$PELEVATION
 40
0.0
  9
$THICKNESS
 40
0.0
  9
$LIMCHECK
 70
     0
  9
$CHAMFERA
 40
0.5
  9
$CHAMFERB
 40
0.5
  9
$CHAMFERC
 40
1.0
  9
$CHAMFERD
 40
0.0
  9
$SKPOLY
 70
     0
  9
$TDCREATE
 40
2456647.887603796
  9
$TDUCREATE
 40
2456647.84593713
  9
$TDUPDATE
 40
2456647.893388669
  9
$TDUUPDATE
 40
2456647.851722002
  9
$TDINDWG
 40
0.0057843403
  9
$TDUSRTIMER
 40
0.0057843403
  9
$USRTIMER
 70
     1
  9
$ANGBASE
 50
0.0
  9
$ANGDIR
 70
     0
  9
$PDMODE
 70
     0
  9
$PDSIZE
 40
0.0
  9
$PLINEWID
 40
0.0
  9
$SPLFRAME
 70
     0
  9
$SPLINETYPE
 70
     6
  9
$SPLINESEGS
 70
     8
  9
$HANDSEED
  5
23B0
  9
$SURFTAB1
 70
     6
  9
$SURFTAB2
 70
     6
  9
$SURFTYPE
 70
     6
  9
$SURFU
 70
     6
  9
$SURFV
 70
     6
  9
$UCSBASE
  2

  9
$UCSNAME
  2

  9
$UCSORG
 10
0.0
 20
0.0
 30
0.0
  9
$UCSXDIR
 10
1.0
 20
0.0
 30
0.0
  9
$UCSYDIR
 10
0.0
 20
1.0
 30
0.0
  9
$UCSORTHOREF
  2

  9
$UCSORTHOVIEW
 70
     0
  9
$UCSORGTOP
 10
0.0
 20
0.0
 30
0.0
  9
$UCSORGBOTTOM
 10
0.0
 20
0.0
 30
0.0
  9
$UCSORGLEFT
 10
0.0
 20
0.0
 30
0.0
  9
$UCSORGRIGHT
 10
0.0
 20
0.0
 30
0.0
  9
$UCSORGFRONT
 10
0.0
 20
0.0
 30
0.0
  9
$UCSORGBACK
 10
0.0
 20
0.0
 30
0.0
  9
$PUCSBASE
  2

  9
$PUCSNAME
  2

  9
$PUCSORG
 10
0.0
 20
0.0
 30
0.0
  9
$PUCSXDIR
 10
1.0
 20
0.0
 30
0.0
  9
$PUCSYDIR
 10
0.0
 20
1.0
 30
0.0
  9
$PUCSORTHOREF
  2

  9
$PUCSORTHOVIEW
 70
     0
  9
$PUCSORGTOP
 10
0.0
 20
0.0
 30
0.0
  9
$PUCSORGBOTTOM
 10
0.0
 20
0.0
 30
0.0
  9
$PUCSORGLEFT
 10
0.0
 20
0.0
 30
0.0
  9
$PUCSORGRIGHT
 10
0.0
 20
0.0
 30
0.0
  9
$PUCSORGFRONT
 10
0.0
 20
0.0
 30
0.0
  9
$PUCSORGBACK
 10
0.0
 20
0.0
 30
0.0
  9
$USERI1
 70
     0
  9
$USERI2
 70
     0
  9
$USERI3
 70
     0
  9
$USERI4
 70
     0
  9
$USERI5
 70
     0
  9
$USERR1
 40
0.0
  9
$USERR2
 40
0.0
  9
$USERR3
 40
0.0
  9
$USERR4
 40
0.0
  9
$USERR5
 40
0.0
  9
$WORLDVIEW
 70
     1
  9
$SHADEDGE
 70
     3
  9
$SHADEDIF
 70
    70
  9
$TILEMODE
 70
     1
  9
$MAXACTVP
 70
    64
  9
$PINSBASE
 10
0.0
 20
0.0
 30
0.0
  9
$PLIMCHECK
 70
     0
  9
$PEXTMIN
 10
1.000000000000E+20
 20
1.000000000000E+20
 30
1.000000000000E+20
  9
$PEXTMAX
 10
-1.000000000000E+20
 20
-1.000000000000E+20
 30
-1.000000000000E+20
  9
$PLIMMIN
 10
0.0
 20
0.0
  9
$PLIMMAX
 10
12.0
 20
9.0
  9
$UNITMODE
 70
     0
  9
$VISRETAIN
 70
     1
  9
$PLINEGEN
 70
     0
  9
$PSLTSCALE
 70
     1
  9
$TREEDEPTH
 70
  3020
  9
$CMLSTYLE
  2
Standard
  9
$CMLJUST
 70
     0
  9
$CMLSCALE
 40
1.0
  9
$PROXYGRAPHICS
 70
     1
  9
$MEASUREMENT
 70
     0
  9
$CELWEIGHT
370
    -1
  9
$ENDCAPS
280
     0
  9
$JOINSTYLE
280
     0
  9
$LWDISPLAY
290
     0
  9
$INSUNITS
 70
     0
  9
$HYPERLINKBASE
  1

  9
$STYLESHEET
  1

  9
$XEDIT
290
     1
  9
$CEPSNTYPE
380
     0
  9
$PSTYLEMODE
290
     1
  9
$FINGERPRINTGUID
  2
{11396C15-CCAA-41D5-8F6F-61712849B899}
  9
$VERSIONGUID
  2
{FAEB1C32-E019-11D5-929B-00C0DF256EC4}
  9
$EXTNAMES
290
     1
  9
$PSVPSCALE
 40
0.0
  9
$OLESTARTUP
290
     0
  0
ENDSEC
  0
SECTION
  2
CLASSES
  0
CLASS
  1
ACDBDICTIONARYWDFLT
  2
AcDbDictionaryWithDefault
  3
ObjectDBX Classes
 90
        0
280
     0
281
     0
  0
CLASS
  1
SCALE
  2
AcDbScale
  3
ObjectDBX Classes
 90
     1153
280
     0
281
     0
  0
CLASS
  1
DICTIONARYVAR
  2
AcDbDictionaryVar
  3
ObjectDBX Classes
 90
        0
280
     0
281
     0
  0
CLASS
  1
ACDBPLACEHOLDER
  2
AcDbPlaceHolder
  3
ObjectDBX Classes
 90
        0
280
     0
281
     0
  0
CLASS
  1
LAYOUT
  2
AcDbLayout
  3
ObjectDBX Classes
 90
        0
280
     0
281
     0
  0
ENDSEC
  0
SECTION
  2
TABLES
  0
TABLE
  2
VPORT
  5
8
330
0
100
AcDbSymbolTable
 70
     1
  0
VPORT
  5
D87
330
8
100
AcDbSymbolTableRecord
100
AcDbViewportTableRecord
  2
*Active
 70
     0
 10
0.0
 20
0.0
 11
1.0
 21
1.0
 12
115.0065
 22
91.292007489598
 13
0.0
 23
0.0
 14
0.5
 24
0.5
 15
0.5
 25
0.5
 16
0.0
 26
0.0
 36
1.0
 17
0.0
 27
0.0
 37
0.0
 40
186.235695278779
 41
1.729542302358
 42
50.0
 43
0.0
 44
0.0
 50
0.0
 51
0.0
 71
    16
 72
   100
 73
     1
 74
     3
 75
     0
 76
     0
 77
     0
 78
     0
281
     0
 65
     1
110
0.0
120
0.0
130
0.0
111
1.0
121
0.0
131
0.0
112
0.0
122
1.0
132
0.0
 79
     0
146
0.0
  0
ENDTAB
  0
TABLE
  2
LTYPE
  5
5
330
0
100
AcDbSymbolTable
 70
     1
  0
LTYPE
  5
14
330
5
100
AcDbSymbolTableRecord
100
AcDbLinetypeTableRecord
  2
ByBlock
 70
     0
  3

 72
    65
 73
     0
 40
0.0
  0
LTYPE
  5
15
330
5
100
AcDbSymbolTableRecord
100
AcDbLinetypeTableRecord
  2
ByLayer
 70
     0
  3

 72
    65
 73
     0
 40
0.0
  0
LTYPE
  5
16
330
5
100
AcDbSymbolTableRecord
100
AcDbLinetypeTableRecord
  2
Continuous
 70
     0
  3
Solid line
 72
    65
 73
     0
 40
0.0
  0
ENDTAB
  0
TABLE
  2
LAYER
  5
2
330
0
100
AcDbSymbolTable
 70
     1
  0
LAYER
  5
10
330
2
100
AcDbSymbolTableRecord
100
AcDbLayerTableRecord
  2
0
 70
     0
 62
     7
  6
Continuous
370
    -3
390
F
  0
ENDTAB
  0
TABLE
  2
STYLE
  5
3
330
0
100
AcDbSymbolTable
 70
     1
  0
STYLE
  5
11
330
3
100
AcDbSymbolTableRecord
100
AcDbTextStyleTableRecord
  2
Standard
 70
     0
 40
0.0
 41
1.0
 50
0.0
 71
     0
 42
0.2
  3
txt
  4

  0
ENDTAB
  0
TABLE
  2
VIEW
  5
6
330
0
100
AcDbSymbolTable
 70
     0
  0
ENDTAB
  0
TABLE
  2
UCS
  5
7
330
0
100
AcDbSymbolTable
 70
     0
  0
ENDTAB
  0
TABLE
  2
APPID
  5
9
330
0
100
AcDbSymbolTable
 70
     1
  0
APPID
  5
12
330
9
100
AcDbSymbolTableRecord
100
AcDbRegAppTableRecord
  2
ACAD
 70
     0
  0
ENDTAB
  0
TABLE
  2
DIMSTYLE
  5
A
330
0
100
AcDbSymbolTable
 70
     1
100
AcDbDimStyleTable
  0
DIMSTYLE
105
20
330
A
100
AcDbSymbolTableRecord
100
AcDbDimStyleTableRecord
  2
Standard
 70
     0
340
11
  0
ENDTAB
  0
TABLE
  2
BLOCK_RECORD
  5
1
330
0
100
AcDbSymbolTable
 70
     2
  0
BLOCK_RECORD
  5
1D
330
1
100
AcDbSymbolTableRecord
100
AcDbBlockTableRecord
  2
*Model_Space
340
1E
  0
BLOCK_RECORD
  5
1B
330
1
100
AcDbSymbolTableRecord
100
AcDbBlockTableRecord
  2
*Paper_Space
340
1C
  0
ENDTAB
  0
ENDSEC
  0
SECTION
  2
BLOCKS
  0
BLOCK
  5
D8A
330
1D
100
AcDbEntity
  8
0
100
AcDbBlockBegin
  2
*Model_Space
 70
     0
 10
0.0
 20
0.0
 30
0.0
  3
*Model_Space
  1
*Model_Space
  0
ENDBLK
  5
D8B
330
1D
100
AcDbEntity
  8
0
100
AcDbBlockEnd
  0
BLOCK
  5
D88
330
1B
100
AcDbEntity
 67
     1
  8
0
100
AcDbBlockBegin
  2
*Paper_Space
 70
     0
 10
0.0
 20
0.0
 30
0.0
  3
*Paper_Space
  1
*Paper_Space
  0
ENDBLK
  5
D89
330
1B
100
AcDbEntity
 67
     1
  8
0
100
AcDbBlockEnd
  0
ENDSEC
  0
SECTION
  2
ENTITIES
  0
LINE
  5
2F1
330
1D
100
AcDbEntity
  8
0
100
AcDbLine
 10
88.9956
 20
101.156014979195
 30
0.0
 11
89.2464
 21
101.089014979195
 31
0.0
  0
LINE
  5
2F2
330
1D
100
AcDbEntity
  8
0
100
AcDbLine
 10
88.8125
 20
101.340014979195
 30
0.0
 11
88.9956
 21
101.156014979195
 31
0.0
  0
LINE
  5
35C
330
1D
100
AcDbEntity
  8
0
100
AcDbLine
 10
122.3938
 20
101.089014979195
 30
0.0
 11
125.6888
 21
101.089014979195
 31
0.0
  0
LINE
  5
35D
330
1D
100
AcDbEntity
  8
0
100
AcDbLine
 10
125.6888
 20
101.089014979195
 30
0.0
 11
128.7718
 21
101.089014979195
 31
0.0
  0
LINE
  5
35E
330
1D
100
AcDbEntity
  8
0
100
AcDbLine
 10
89.2464
 20
101.089014979195
 30
0.0
 11
122.3938
 21
101.089014979195
 31
0.0
  0
LINE
  5
35F
330
1D
100
AcDbEntity
  8
0
100
AcDbLine
 10
128.7388
 20
101.089014979195
 30
0.0
 11
131.6428
 21
101.089014979195
 31
0.0
  0
LINE
  5
36F
330
1D
100
AcDbEntity
  8
0
100
AcDbLine
 10
131.6428
 20
101.089014979195
 30
0.0
 11
134.2098
 21
101.089014979195
 31
0.0
  0
LINE
  5
370
330
1D
100
AcDbEntity
  8
0
100
AcDbLine
 10
134.2098
 20
101.089014979195
 30
0.0
 11
136.3878
 21
101.089014979195
 31
0.0
  0
LINE
  5
378
330
1D
100
AcDbEntity
  8
0
100
AcDbLine
 10
136.3258
 20
101.089014979195
 30
0.0
 11
138.0938
 21
101.089014979195
 31
0.0
  0
LINE
  5
379
330
1D
100
AcDbEntity
  8
0
100
AcDbLine
 10
138.0938
 20
101.089014979195
 30
0.0
 11
139.2418
 21
101.089014979195
 31
0.0
  0
LINE
  5
388
330
1D
100
AcDbEntity
  8
0
100
AcDbLine
 10
139.2418
 20
101.089014979195
 30
0.0
 11
140.0748
 21
101.089014979195
 31
0.0
  0
LINE
  5
398
330
1D
100
AcDbEntity
  8
0
100
AcDbLine
 10
140.7568
 20
101.089014979195
 30
0.0
 11
141.0078
 21
101.156014979195
 31
0.0
  0
LINE
  5
399
330
1D
100
AcDbEntity
  8
0
100
AcDbLine
 10
140.4598
 20
101.089014979195
 30
0.0
 11
140.7568
 21
101.089014979195
 31
0.0
  0
LINE
  5
39A
330
1D
100
AcDbEntity
  8
0
100
AcDbLine
 10
140.1898
 20
101.089014979195
 30
0.0
 11
140.4598
 21
101.089014979195
 31
0.0
  0
LINE
  5
39B
330
1D
100
AcDbEntity
  8
0
100
AcDbLine
 10
139.4088
 20
101.089014979195
 30
0.0
 11
140.1898
 21
101.089014979195
 31
0.0
  0
LINE
  5
39C
330
1D
100
AcDbEntity
  8
0
100
AcDbLine
 10
138.1328
 20
101.089014979195
 30
0.0
 11
139.4088
 21
101.089014979195
 31
0.0
  0
LINE
  5
3A7
330
1D
100
AcDbEntity
  8
0
100
AcDbLine
 10
141.0078
 20
101.156014979195
 30
0.0
 11
141.1908
 21
101.340014979195
 31
0.0
  0
LINE
  5
3A9
330
1D
100
AcDbEntity
  8
0
100
AcDbLine
 10
141.1908
 20
101.340014979195
 30
0.0
 11
141.2568
 21
101.592014979195
 31
0.0
  0
LINE
  5
3AC
330
1D
100
AcDbEntity
  8
0
100
AcDbLine
 10
89.2464
 20
101.089014979195
 30
0.0
 11
89.4159
 21
101.089014979195
 31
0.0
  0
LINE
  5
3B2
330
1D
100
AcDbEntity
  8
0
100
AcDbLine
 10
113.8668
 20
105.955014979195
 30
0.0
 11
114.4168
 21
105.734014979195
 31
0.0
  0
LINE
  5
3B6
330
1D
100
AcDbEntity
  8
0
100
AcDbLine
 10
113.2658
 20
106.411014979195
 30
0.0
 11
113.8668
 21
105.955014979195
 31
0.0
  0
LINE
  5
3BC
330
1D
100
AcDbEntity
  8
0
100
AcDbLine
 10
114.4168
 20
105.734014979195
 30
0.0
 11
115.0018
 21
105.659014979195
 31
0.0
  0
LINE
  5
3BD
330
1D
100
AcDbEntity
  8
0
100
AcDbLine
 10
115.0018
 20
105.659014979195
 30
0.0
 11
115.5868
 21
105.734014979195
 31
0.0
  0
LINE
  5
3C6
330
1D
100
AcDbEntity
  8
0
100
AcDbLine
 10
116.8188
 20
106.497014979195
 30
0.0
 11
117.2498
 21
107.119014979195
 31
0.0
  0
LINE
  5
3C7
330
1D
100
AcDbEntity
  8
0
100
AcDbLine
 10
116.2478
 20
106.020014979195
 30
0.0
 11
116.8188
 21
106.497014979195
 31
0.0
  0
LINE
  5
3C8
330
1D
100
AcDbEntity
  8
0
100
AcDbLine
 10
115.5868
 20
105.734014979195
 30
0.0
 11
116.2478
 21
106.020014979195
 31
0.0
  0
LINE
  5
3C9
330
1D
100
AcDbEntity
  8
0
100
AcDbLine
 10
88.7464
 20
101.592014979195
 30
0.0
 11
88.9146
 21
132.904014979195
 31
0.0
  0
LINE
  5
3CA
330
1D
100
AcDbEntity
  8
0
100
AcDbLine
 10
88.7464
 20
101.592014979195
 30
0.0
 11
88.8125
 21
101.340014979195
 31
0.0
  0
LINE
  5
3E8
330
1D
100
AcDbEntity
  8
0
100
AcDbLine
 10
112.8038
 20
107.025014979195
 30
0.0
 11
113.2658
 21
106.411014979195
 31
0.0
  0
LINE
  5
3E9
330
1D
100
AcDbEntity
  8
0
100
AcDbLine
 10
112.5008
 20
107.782014979195
 30
0.0
 11
112.8038
 21
107.025014979195
 31
0.0
  0
LINE
  5
3EA
330
1D
100
AcDbEntity
  8
0
100
AcDbLine
 10
117.4948
 20
107.749014979195
 30
0.0
 11
117.5988
 21
108.423014979195
 31
0.0
  0
LINE
  5
3EB
330
1D
100
AcDbEntity
  8
0
100
AcDbLine
 10
117.2498
 20
107.119014979195
 30
0.0
 11
117.4948
 21
107.749014979195
 31
0.0
  0
LINE
  5
3EC
330
1D
100
AcDbEntity
  8
0
100
AcDbLine
 10
112.4018
 20
108.597014979195
 30
0.0
 11
112.5168
 21
109.392014979195
 31
0.0
  0
LINE
  5
3ED
330
1D
100
AcDbEntity
  8
0
100
AcDbLine
 10
112.4018
 20
108.597014979195
 30
0.0
 11
112.5008
 21
107.782014979195
 31
0.0
  0
LINE
  5
3EE
330
1D
100
AcDbEntity
  8
0
100
AcDbLine
 10
112.8368
 20
110.119014979195
 30
0.0
 11
113.2438
 21
110.626014979195
 31
0.0
  0
LINE
  5
3EF
330
1D
100
AcDbEntity
  8
0
100
AcDbLine
 10
113.2438
 20
110.626014979195
 30
0.0
 11
113.7558
 21
111.013014979195
 31
0.0
  0
LINE
  5
3F0
330
1D
100
AcDbEntity
  8
0
100
AcDbLine
 10
113.7558
 20
111.013014979195
 30
0.0
 11
114.3588
 21
111.263014979195
 31
0.0
  0
LINE
  5
3F1
330
1D
100
AcDbEntity
  8
0
100
AcDbLine
 10
112.5168
 20
109.392014979195
 30
0.0
 11
112.8368
 21
110.119014979195
 31
0.0
  0
LINE
  5
3F2
330
1D
100
AcDbEntity
  8
0
100
AcDbLine
 10
114.3588
 20
111.263014979195
 30
0.0
 11
115.0018
 21
111.347014979195
 31
0.0
  0
LINE
  5
3F3
330
1D
100
AcDbEntity
  8
0
100
AcDbLine
 10
115.0018
 20
111.347014979195
 30
0.0
 11
115.7458
 21
111.234014979195
 31
0.0
  0
LINE
  5
3F4
330
1D
100
AcDbEntity
  8
0
100
AcDbLine
 10
115.7458
 20
111.234014979195
 30
0.0
 11
116.4268
 21
110.900014979195
 31
0.0
  0
LINE
  5
3F5
330
1D
100
AcDbEntity
  8
0
100
AcDbLine
 10
117.5578
 20
109.082014979195
 30
0.0
 11
117.5988
 21
108.423014979195
 31
0.0
  0
LINE
  5
3F6
330
1D
100
AcDbEntity
  8
0
100
AcDbLine
 10
117.3758
 20
109.713014979195
 30
0.0
 11
117.5578
 21
109.082014979195
 31
0.0
  0
LINE
  5
3F7
330
1D
100
AcDbEntity
  8
0
100
AcDbLine
 10
116.9828
 20
110.380014979195
 30
0.0
 11
117.3758
 21
109.713014979195
 31
0.0
  0
LINE
  5
3F8
330
1D
100
AcDbEntity
  8
0
100
AcDbLine
 10
116.4268
 20
110.900014979195
 30
0.0
 11
116.9828
 21
110.380014979195
 31
0.0
  0
LINE
  5
405
330
1D
100
AcDbEntity
  8
0
100
AcDbLine
 10
88.9146
 20
132.904014979195
 30
0.0
 11
88.9301
 21
137.670014979195
 31
0.0
  0
LINE
  5
406
330
1D
100
AcDbEntity
  8
0
100
AcDbLine
 10
141.0658
 20
134.741014979195
 30
0.0
 11
141.0938
 21
131.957014979195
 31
0.0
  0
LINE
  5
407
330
1D
100
AcDbEntity
  8
0
100
AcDbLine
 10
141.0658
 20
134.741014979195
 30
0.0
 11
141.0738
 21
137.672014979195
 31
0.0
  0
LINE
  5
408
330
1D
100
AcDbEntity
  8
0
100
AcDbLine
 10
141.0938
 20
131.957014979195
 30
0.0
 11
141.2568
 21
101.592014979195
 31
0.0
  0
LINE
  5
40E
330
1D
100
AcDbEntity
  8
0
100
AcDbLine
 10
88.9165
 20
142.694014979195
 30
0.0
 11
88.9342
 21
141.648014979195
 31
0.0
  0
LINE
  5
40F
330
1D
100
AcDbEntity
  8
0
100
AcDbLine
 10
88.9165
 20
142.694014979195
 30
0.0
 11
89.0265
 21
144.203014979195
 31
0.0
  0
LINE
  5
410
330
1D
100
AcDbEntity
  8
0
100
AcDbLine
 10
141.068969083035
 20
141.232726897854
 30
0.0
 11
141.0768
 21
139.867014979195
 31
0.0
  0
LINE
  5
411
330
1D
100
AcDbEntity
  8
0
100
AcDbLine
 10
141.0368
 20
138.803014979195
 30
0.0
 11
141.0878
 21
142.655014979195
 31
0.0
  0
LINE
  5
412
330
1D
100
AcDbEntity
  8
0
100
AcDbLine
 10
141.0738
 20
137.672014979195
 30
0.0
 11
141.0768
 21
139.867014979195
 31
0.0
  0
LINE
  5
413
330
1D
100
AcDbEntity
  8
0
100
AcDbLine
 10
141.0128
 20
143.863014979195
 30
0.0
 11
141.0878
 21
142.655014979195
 31
0.0
  0
LINE
  5
414
330
1D
100
AcDbEntity
  8
0
100
AcDbLine
 10
89.2713
 20
145.897014979195
 30
0.0
 11
89.5644
 21
147.492014979195
 31
0.0
  0
LINE
  5
415
330
1D
100
AcDbEntity
  8
0
100
AcDbLine
 10
140.8158
 20
145.391014979195
 30
0.0
 11
141.0128
 21
143.863014979195
 31
0.0
  0
LINE
  5
416
330
1D
100
AcDbEntity
  8
0
100
AcDbLine
 10
89.0265
 20
144.203014979195
 30
0.0
 11
89.2713
 21
145.897014979195
 31
0.0
  0
LINE
  5
417
330
1D
100
AcDbEntity
  8
0
100
AcDbLine
 10
88.9266
 20
139.865014979195
 30
0.0
 11
88.9342
 21
141.648014979195
 31
0.0
  0
LINE
  5
418
330
1D
100
AcDbEntity
  8
0
100
AcDbLine
 10
88.9266
 20
139.865014979195
 30
0.0
 11
88.9301
 21
137.670014979195
 31
0.0
  0
LINE
  5
444
330
1D
100
AcDbEntity
  8
0
100
AcDbLine
 10
91.8168
 20
156.249014979195
 30
0.0
 11
94.0198
 21
163.553014979195
 31
0.0
  0
LINE
  5
445
330
1D
100
AcDbEntity
  8
0
100
AcDbLine
 10
90.7058
 20
152.279014979195
 30
0.0
 11
91.8168
 21
156.249014979195
 31
0.0
  0
LINE
  5
446
330
1D
100
AcDbEntity
  8
0
100
AcDbLine
 10
89.5644
 20
147.492014979195
 30
0.0
 11
90.7058
 21
152.279014979195
 31
0.0
  0
LINE
  5
447
330
1D
100
AcDbEntity
  8
0
100
AcDbLine
 10
139.4678
 20
151.631014979195
 30
0.0
 11
140.4388
 21
147.492014979195
 31
0.0
  0
LINE
  5
448
330
1D
100
AcDbEntity
  8
0
100
AcDbLine
 10
97.5524
 20
175.003014979195
 30
0.0
 11
97.5896
 21
175.123014979195
 31
0.0
  0
LINE
  5
449
330
1D
100
AcDbEntity
  8
0
100
AcDbLine
 10
94.0198
 20
163.553014979195
 30
0.0
 11
97.5524
 21
175.003014979195
 31
0.0
  0
LINE
  5
44A
330
1D
100
AcDbEntity
  8
0
100
AcDbLine
 10
98.2151
 20
176.854014979195
 30
0.0
 11
98.6559
 21
177.601014979195
 31
0.0
  0
LINE
  5
44B
330
1D
100
AcDbEntity
  8
0
100
AcDbLine
 10
97.902
 20
176.098014979195
 30
0.0
 11
98.2151
 21
176.854014979195
 31
0.0
  0
LINE
  5
44C
330
1D
100
AcDbEntity
  8
0
100
AcDbLine
 10
97.5896
 20
175.123014979195
 30
0.0
 11
97.902
 21
176.098014979195
 31
0.0
  0
LINE
  5
44D
330
1D
100
AcDbEntity
  8
0
100
AcDbLine
 10
98.6559
 20
177.601014979195
 30
0.0
 11
99.271
 21
178.328014979195
 31
0.0
  0
LINE
  5
44E
330
1D
100
AcDbEntity
  8
0
100
AcDbLine
 10
99.271
 20
178.328014979195
 30
0.0
 11
99.4372
 21
178.521014979195
 31
0.0
  0
LINE
  5
450
330
1D
100
AcDbEntity
  8
0
100
AcDbLine
 10
99.4372
 20
178.521014979195
 30
0.0
 11
100.2468
 21
179.215014979195
 31
0.0
  0
LINE
  5
451
330
1D
100
AcDbEntity
  8
0
100
AcDbLine
 10
130.7188
 20
178.362014979195
 30
0.0
 11
130.8868
 21
178.168014979195
 31
0.0
  0
LINE
  5
452
330
1D
100
AcDbEntity
  8
0
100
AcDbLine
 10
130.8868
 20
178.168014979195
 30
0.0
 11
131.4638
 21
177.430014979195
 31
0.0
  0
LINE
  5
453
330
1D
100
AcDbEntity
  8
0
100
AcDbLine
 10
131.4638
 20
177.430014979195
 30
0.0
 11
131.8728
 21
176.674014979195
 31
0.0
  0
LINE
  5
454
330
1D
100
AcDbEntity
  8
0
100
AcDbLine
 10
132.4138
 20
175.124014979195
 30
0.0
 11
132.4508
 21
175.003014979195
 31
0.0
  0
LINE
  5
455
330
1D
100
AcDbEntity
  8
0
100
AcDbLine
 10
131.8728
 20
176.674014979195
 30
0.0
 11
132.4138
 21
175.124014979195
 31
0.0
  0
LINE
  5
456
330
1D
100
AcDbEntity
  8
0
100
AcDbLine
 10
132.4508
 20
175.003014979195
 30
0.0
 11
135.9838
 21
163.553014979195
 31
0.0
  0
LINE
  5
457
330
1D
100
AcDbEntity
  8
0
100
AcDbLine
 10
135.9838
 20
163.553014979195
 30
0.0
 11
138.0108
 21
156.852014979195
 31
0.0
  0
LINE
  5
458
330
1D
100
AcDbEntity
  8
0
100
AcDbLine
 10
138.0108
 20
156.852014979195
 30
0.0
 11
139.4678
 21
151.631014979195
 31
0.0
  0
LINE
  5
459
330
1D
100
AcDbEntity
  8
0
100
AcDbLine
 10
140.4388
 20
147.492014979195
 30
0.0
 11
140.8158
 21
145.391014979195
 31
0.0
  0
LINE
  5
45A
330
1D
100
AcDbEntity
  8
0
100
AcDbLine
 10
101.2688
 20
179.867014979195
 30
0.0
 11
102.4968
 21
180.466014979195
 31
0.0
  0
LINE
  5
45C
330
1D
100
AcDbEntity
  8
0
100
AcDbLine
 10
100.2468
 20
179.215014979195
 30
0.0
 11
101.2688
 21
179.867014979195
 31
0.0
  0
LINE
  5
45E
330
1D
100
AcDbEntity
  8
0
100
AcDbLine
 10
128.9698
 20
179.732014979195
 30
0.0
 11
129.9518
 21
179.066014979195
 31
0.0
  0
LINE
  5
45F
330
1D
100
AcDbEntity
  8
0
100
AcDbLine
 10
103.9168
 20
181.003014979195
 30
0.0
 11
105.5038
 21
181.471014979195
 31
0.0
  0
LINE
  5
461
330
1D
100
AcDbEntity
  8
0
100
AcDbLine
 10
102.4968
 20
180.466014979195
 30
0.0
 11
103.9168
 21
181.003014979195
 31
0.0
  0
LINE
  5
463
330
1D
100
AcDbEntity
  8
0
100
AcDbLine
 10
126.3728
 20
180.905014979195
 30
0.0
 11
127.7718
 21
180.349014979195
 31
0.0
  0
LINE
  5
464
330
1D
100
AcDbEntity
  8
0
100
AcDbLine
 10
107.2318
 20
181.862014979195
 30
0.0
 11
109.0788
 21
182.174014979195
 31
0.0
  0
LINE
  5
466
330
1D
100
AcDbEntity
  8
0
100
AcDbLine
 10
105.5038
 20
181.471014979195
 30
0.0
 11
107.2318
 21
181.862014979195
 31
0.0
  0
LINE
  5
468
330
1D
100
AcDbEntity
  8
0
100
AcDbLine
 10
123.0498
 20
181.806014979195
 30
0.0
 11
124.7868
 21
181.395014979195
 31
0.0
  0
LINE
  5
46B
330
1D
100
AcDbEntity
  8
0
100
AcDbLine
 10
109.0788
 20
182.174014979195
 30
0.0
 11
111.0058
 21
182.400014979195
 31
0.0
  0
LINE
  5
46D
330
1D
100
AcDbEntity
  8
0
100
AcDbLine
 10
111.0058
 20
182.400014979195
 30
0.0
 11
112.4938
 21
182.511014979195
 31
0.0
  0
LINE
  5
46E
330
1D
100
AcDbEntity
  8
0
100
AcDbLine
 10
119.2388
 20
182.377014979195
 30
0.0
 11
121.1878
 21
182.136014979195
 31
0.0
  0
LINE
  5
470
330
1D
100
AcDbEntity
  8
0
100
AcDbLine
 10
121.1878
 20
182.136014979195
 30
0.0
 11
123.0498
 21
181.806014979195
 31
0.0
  0
LINE
  5
473
330
1D
100
AcDbEntity
  8
0
100
AcDbLine
 10
124.7868
 20
181.395014979195
 30
0.0
 11
126.3728
 21
180.905014979195
 31
0.0
  0
LINE
  5
476
330
1D
100
AcDbEntity
  8
0
100
AcDbLine
 10
127.7718
 20
180.349014979195
 30
0.0
 11
128.9698
 21
179.732014979195
 31
0.0
  0
LINE
  5
479
330
1D
100
AcDbEntity
  8
0
100
AcDbLine
 10
129.9518
 20
179.066014979195
 30
0.0
 11
130.7188
 21
178.362014979195
 31
0.0
  0
LINE
  5
47B
330
1D
100
AcDbEntity
  8
0
100
AcDbLine
 10
112.4938
 20
182.511014979195
 30
0.0
 11
115.0018
 21
182.584014979195
 31
0.0
  0
LINE
  5
47C
330
1D
100
AcDbEntity
  8
0
100
AcDbLine
 10
115.0018
 20
182.584014979195
 30
0.0
 11
117.2468
 21
182.526014979195
 31
0.0
  0
LINE
  5
47D
330
1D
100
AcDbEntity
  8
0
100
AcDbLine
 10
117.2468
 20
182.526014979195
 30
0.0
 11
119.2388
 21
182.377014979195
 31
0.0
  0
LINE
  5
2113
330
1D
100
AcDbEntity
  8
0
100
AcDbLine
 10
206.1158
 20
2.119314979195
 30
0.0
 11
210.8108
 21
2.119314979195
 31
0.0
  0
LINE
  5
2114
330
1D
100
AcDbEntity
  8
0
100
AcDbLine
 10
205.2818
 20
2.119314979195
 30
0.0
 11
209.0818
 21
2.119314979195
 31
0.0
  0
LINE
  5
2115
330
1D
100
AcDbEntity
  8
0
100
AcDbLine
 10
205.0018
 20
2.119314979195
 30
0.0
 11
209.5078
 21
2.119314979195
 31
0.0
  0
LINE
  5
2116
330
1D
100
AcDbEntity
  8
0
100
AcDbLine
 10
141.1008
 20
79.121229705158
 30
0.0
 11
218.1148
 21
78.810514979195
 31
0.0
  0
LINE
  5
2119
330
1D
100
AcDbEntity
  8
0
100
AcDbLine
 10
101.1738
 20
97.639014979195
 30
0.0
 11
103.6048
 21
97.639014979195
 31
0.0
  0
LINE
  5
211A
330
1D
100
AcDbEntity
  8
0
100
AcDbLine
 10
101.8258
 20
97.639014979195
 30
0.0
 11
104.3078
 21
97.639014979195
 31
0.0
  0
LINE
  5
211B
330
1D
100
AcDbEntity
  8
0
100
AcDbLine
 10
103.4158
 20
43.920214979195
 30
0.0
 11
104.2168
 21
43.445014979195
 31
0.0
  0
LINE
  5
211C
330
1D
100
AcDbEntity
  8
0
100
AcDbLine
 10
103.3498
 20
44.927514979195
 30
0.0
 11
103.8408
 21
44.422214979196
 31
0.0
  0
LINE
  5
211D
330
1D
100
AcDbEntity
  8
0
100
AcDbLine
 10
103.4338
 20
46.244814979195
 30
0.0
 11
104.5858
 21
45.009414979195
 31
0.0
  0
LINE
  5
211E
330
1D
100
AcDbEntity
  8
0
100
AcDbLine
 10
102.8728
 20
97.639014979195
 30
0.0
 11
105.5318
 21
97.639014979195
 31
0.0
  0
LINE
  5
211F
330
1D
100
AcDbEntity
  8
0
100
AcDbLine
 10
103.1698
 20
48.152314979195
 30
0.0
 11
103.6048
 21
48.666714979195
 31
0.0
  0
LINE
  5
2120
330
1D
100
AcDbEntity
  8
0
100
AcDbLine
 10
103.1448
 20
59.752514979195
 30
0.0
 11
105.3528
 21
60.327314979195
 31
0.0
  0
LINE
  5
2124
330
1D
100
AcDbEntity
  8
0
100
AcDbLine
 10
88.9029
 20
79.121229705158
 30
0.0
 11
141.1008
 21
79.121229705158
 31
0.0
  0
LINE
  5
2125
330
1D
100
AcDbEntity
  8
0
100
AcDbLine
 10
101.7658
 20
24.395414979195
 30
0.0
 11
104.84505
 21
24.395414979195
 31
0.0
  0
LINE
  5
2126
330
1D
100
AcDbEntity
  8
0
100
AcDbLine
 10
-0.0018
 20
2.690014979195
 30
0.0
 11
10.8304
 21
77.952714979195
 31
0.0
  0
LINE
  5
2127
330
1D
100
AcDbEntity
  8
0
100
AcDbLine
 10
-0.0018
 20
2.690014979195
 30
0.0
 11
10.8304
 21
77.952714979195
 31
0.0
  0
LINE
  5
2128
330
1D
100
AcDbEntity
  8
0
100
AcDbLine
 10
101.0028
 20
57.586814979195
 30
0.0
 11
101.0028
 21
47.505314979195
 31
0.0
  0
LINE
  5
2129
330
1D
100
AcDbEntity
  8
0
100
AcDbLine
 10
101.0028
 20
47.505314979195
 30
0.0
 11
101.0028
 21
57.586814979195
 31
0.0
  0
LINE
  5
212A
330
1D
100
AcDbEntity
  8
0
100
AcDbLine
 10
50.5863
 20
6.738514979195
 30
0.0
 11
51.9962
 21
9.985614979196
 31
0.0
  0
LINE
  5
212B
330
1D
100
AcDbEntity
  8
0
100
AcDbLine
 10
0.5284
 20
2.119314979195
 30
0.0
 11
0.6722
 21
2.119314979195
 31
0.0
  0
LINE
  5
212C
330
1D
100
AcDbEntity
  8
0
100
AcDbLine
 10
48.836
 20
2.119314979195
 30
0.0
 11
48.986
 21
2.119314979195
 31
0.0
  0
LINE
  5
212D
330
1D
100
AcDbEntity
  8
0
100
AcDbLine
 10
0.2586
 20
2.198714979195
 30
0.0
 11
0.5284
 21
2.119314979195
 31
0.0
  0
LINE
  5
212E
330
1D
100
AcDbEntity
  8
0
100
AcDbLine
 10
0.0745
 20
2.411614979195
 30
0.0
 11
0.2586
 21
2.198714979195
 31
0.0
  0
LINE
  5
212F
330
1D
100
AcDbEntity
  8
0
100
AcDbLine
 10
49.2085
 20
2.171514979195
 30
0.0
 11
49.2784
 21
2.233914979195
 31
0.0
  0
LINE
  5
2130
330
1D
100
AcDbEntity
  8
0
100
AcDbLine
 10
49.2784
 20
2.233914979195
 30
0.0
 11
49.3842
 21
2.317314979195
 31
0.0
  0
LINE
  5
2131
330
1D
100
AcDbEntity
  8
0
100
AcDbLine
 10
48.986
 20
2.119314979195
 30
0.0
 11
49.2085
 21
2.171514979195
 31
0.0
  0
LINE
  5
2132
330
1D
100
AcDbEntity
  8
0
100
AcDbLine
 10
49.3842
 20
2.317314979195
 30
0.0
 11
49.4775
 21
2.525914979195
 31
0.0
  0
LINE
  5
2133
330
1D
100
AcDbEntity
  8
0
100
AcDbLine
 10
49.9586
 20
4.670914979195
 30
0.0
 11
50.5863
 21
6.738514979195
 31
0.0
  0
LINE
  5
2134
330
1D
100
AcDbEntity
  8
0
100
AcDbLine
 10
-0.0018
 20
2.690014979195
 30
0.0
 11
0.0745
 21
2.411614979195
 31
0.0
  0
LINE
  5
2135
330
1D
100
AcDbEntity
  8
0
100
AcDbLine
 10
49.4775
 20
2.525914979195
 30
0.0
 11
49.9586
 21
4.670914979195
 31
0.0
  0
LINE
  5
2136
330
1D
100
AcDbEntity
  8
0
100
AcDbLine
 10
0.6722
 20
2.119314979195
 30
0.0
 11
48.836
 21
2.119314979195
 31
0.0
  0
LINE
  5
2137
330
1D
100
AcDbEntity
  8
0
100
AcDbLine
 10
77.0561
 20
23.016814979195
 30
0.0
 11
82.8497
 21
23.659114979195
 31
0.0
  0
LINE
  5
2138
330
1D
100
AcDbEntity
  8
0
100
AcDbLine
 10
53.850924434227
 20
12.870664577372
 30
0.0
 11
55.6448
 21
14.813414979195
 31
0.0
  0
LINE
  5
2139
330
1D
100
AcDbEntity
  8
0
100
AcDbLine
 10
55.6448
 20
14.813414979195
 30
0.0
 11
57.8537
 21
16.627414979195
 31
0.0
  0
LINE
  5
213A
330
1D
100
AcDbEntity
  8
0
100
AcDbLine
 10
57.8537
 20
16.627414979195
 30
0.0
 11
60.3716
 21
18.205714979196
 31
0.0
  0
LINE
  5
213B
330
1D
100
AcDbEntity
  8
0
100
AcDbLine
 10
69.278
 20
21.560514979195
 30
0.0
 11
73.056
 21
22.393814979195
 31
0.0
  0
LINE
  5
213C
330
1D
100
AcDbEntity
  8
0
100
AcDbLine
 10
66.1149
 20
20.646414979195
 30
0.0
 11
69.278
 21
21.560514979195
 31
0.0
  0
LINE
  5
213D
330
1D
100
AcDbEntity
  8
0
100
AcDbLine
 10
63.1889
 20
19.559314979195
 30
0.0
 11
66.1149
 21
20.646414979195
 31
0.0
  0
LINE
  5
213E
330
1D
100
AcDbEntity
  8
0
100
AcDbLine
 10
60.3716
 20
18.205714979196
 30
0.0
 11
63.1889
 21
19.559314979195
 31
0.0
  0
LINE
  5
213F
330
1D
100
AcDbEntity
  8
0
100
AcDbLine
 10
74.954950130257
 20
22.721526297924
 30
0.0
 11
77.0561
 21
23.016814979195
 31
0.0
  0
LINE
  5
2140
330
1D
100
AcDbEntity
  8
0
100
AcDbLine
 10
51.9962
 20
9.985614979196
 30
0.0
 11
53.8624
 21
12.888514979195
 31
0.0
  0
LINE
  5
2141
330
1D
100
AcDbEntity
  8
0
100
AcDbLine
 10
73.056
 20
22.393814979195
 30
0.0
 11
74.954950130257
 21
22.721526297924
 31
0.0
  0
LINE
  5
2142
330
1D
100
AcDbEntity
  8
0
100
AcDbLine
 10
82.8497
 20
23.659114979195
 30
0.0
 11
88.9501
 21
24.061914979195
 31
0.0
  0
LINE
  5
2143
330
1D
100
AcDbEntity
  8
0
100
AcDbLine
 10
95.2794
 20
24.288714979195
 30
0.0
 11
101.7658
 21
24.395414979195
 31
0.0
  0
LINE
  5
2144
330
1D
100
AcDbEntity
  8
0
100
AcDbLine
 10
88.9501
 20
24.061914979195
 30
0.0
 11
95.2794
 21
24.288714979195
 31
0.0
  0
LINE
  5
2145
330
1D
100
AcDbEntity
  8
0
100
AcDbLine
 10
101.5638
 20
45.659514979196
 30
0.0
 11
102.0008
 21
45.098014979195
 31
0.0
  0
LINE
  5
2146
330
1D
100
AcDbEntity
  8
0
100
AcDbLine
 10
102.9858
 20
45.451714979195
 30
0.0
 11
103.3498
 21
44.927514979195
 31
0.0
  0
LINE
  5
2148
330
1D
100
AcDbEntity
  8
0
100
AcDbLine
 10
102.0008
 20
45.098014979195
 30
0.0
 11
102.5688
 21
44.557814979195
 31
0.0
  0
LINE
  5
214A
330
1D
100
AcDbEntity
  8
0
100
AcDbLine
 10
102.5688
 20
44.557814979195
 30
0.0
 11
102.7318
 21
44.426814979195
 31
0.0
  0
LINE
  5
214B
330
1D
100
AcDbEntity
  8
0
100
AcDbLine
 10
102.7318
 20
44.426814979195
 30
0.0
 11
103.4158
 21
43.920214979195
 31
0.0
  0
LINE
  5
214E
330
1D
100
AcDbEntity
  8
0
100
AcDbLine
 10
101.2628
 20
46.236714979195
 30
0.0
 11
101.5638
 21
45.659514979196
 31
0.0
  0
LINE
  5
214F
330
1D
100
AcDbEntity
  8
0
100
AcDbLine
 10
101.0558
 20
46.924314979195
 30
0.0
 11
101.2628
 21
46.236714979195
 31
0.0
  0
LINE
  5
2150
330
1D
100
AcDbEntity
  8
0
100
AcDbLine
 10
101.0028
 20
47.505314979195
 30
0.0
 11
101.0558
 21
46.924314979195
 31
0.0
  0
LINE
  5
2151
330
1D
100
AcDbEntity
  8
0
100
AcDbLine
 10
102.7538
 20
45.989014979195
 30
0.0
 11
102.9858
 21
45.451714979195
 31
0.0
  0
LINE
  5
2152
330
1D
100
AcDbEntity
  8
0
100
AcDbLine
 10
102.6928
 20
47.079914979195
 30
0.0
 11
102.8648
 21
47.621414979195
 31
0.0
  0
LINE
  5
2153
330
1D
100
AcDbEntity
  8
0
100
AcDbLine
 10
102.6548
 20
46.533814979195
 30
0.0
 11
102.7538
 21
45.989014979195
 31
0.0
  0
LINE
  5
2154
330
1D
100
AcDbEntity
  8
0
100
AcDbLine
 10
102.6548
 20
46.533814979195
 30
0.0
 11
102.6928
 21
47.079914979195
 31
0.0
  0
LINE
  5
2155
330
1D
100
AcDbEntity
  8
0
100
AcDbLine
 10
102.8648
 20
47.621414979195
 30
0.0
 11
103.1698
 21
48.152314979195
 31
0.0
  0
LINE
  5
2156
330
1D
100
AcDbEntity
  8
0
100
AcDbLine
 10
103.0018
 20
47.859884815261
 30
0.0
 11
103.0018
 21
47.562614979196
 31
0.0
  0
LINE
  5
2157
330
1D
100
AcDbEntity
  8
0
100
AcDbLine
 10
103.0018
 20
47.562614979196
 30
0.0
 11
103.0018
 21
47.859884815261
 31
0.0
  0
LINE
  5
2158
330
1D
100
AcDbEntity
  8
0
100
AcDbLine
 10
103.0018
 20
47.562614979196
 30
0.0
 11
103.211140975015
 21
48.20120187011
 31
0.0
  0
LINE
  5
2159
330
1D
100
AcDbEntity
  8
0
100
AcDbLine
 10
103.0018
 20
47.562614979196
 30
0.0
 11
103.4338
 21
46.244814979195
 31
0.0
  0
LINE
  5
215A
330
1D
100
AcDbEntity
  8
0
100
AcDbLine
 10
11.8943
 20
78.809114979195
 30
0.0
 11
88.9029
 21
79.121229705158
 31
0.0
  0
LINE
  5
215B
330
1D
100
AcDbEntity
  8
0
100
AcDbLine
 10
10.8304
 20
77.952714979195
 30
0.0
 11
11.172022066956
 21
78.411604665162
 31
0.0
  0
LINE
  5
215C
330
1D
100
AcDbEntity
  8
0
100
AcDbLine
 10
11.2518
 20
78.559714979195
 30
0.0
 11
11.8943
 21
78.809114979195
 31
0.0
  0
LINE
  5
215D
330
1D
100
AcDbEntity
  8
0
100
AcDbLine
 10
10.9242
 20
77.951514979195
 30
0.0
 11
11.2518
 21
78.559714979195
 31
0.0
  0
LINE
  5
215F
330
1D
100
AcDbEntity
  8
0
100
AcDbLine
 10
100.7558
 20
56.396714979195
 30
0.0
 11
101.0028
 21
55.967158125613
 31
0.0
  0
LINE
  5
2160
330
1D
100
AcDbEntity
  8
0
100
AcDbLine
 10
100.5048
 20
57.342814979195
 30
0.0
 11
100.8418
 21
58.465214979195
 31
0.0
  0
LINE
  5
2161
330
1D
100
AcDbEntity
  8
0
100
AcDbLine
 10
100.5048
 20
57.342814979195
 30
0.0
 11
100.7558
 21
56.396714979195
 31
0.0
  0
LINE
  5
2162
330
1D
100
AcDbEntity
  8
0
100
AcDbLine
 10
101.0028
 20
57.586814979195
 30
0.0
 11
101.0818
 21
58.166314979196
 31
0.0
  0
LINE
  5
2163
330
1D
100
AcDbEntity
  8
0
100
AcDbLine
 10
100.8418
 20
58.465214979195
 30
0.0
 11
101.5448
 21
59.063414979195
 31
0.0
  0
LINE
  5
2164
330
1D
100
AcDbEntity
  8
0
100
AcDbLine
 10
101.0818
 20
58.166314979196
 30
0.0
 11
101.2968
 21
58.739814979196
 31
0.0
  0
LINE
  5
2165
330
1D
100
AcDbEntity
  8
0
100
AcDbLine
 10
101.5448
 20
59.063414979195
 30
0.0
 11
103.1448
 21
59.752514979195
 31
0.0
  0
LINE
  5
2166
330
1D
100
AcDbEntity
  8
0
100
AcDbLine
 10
101.2968
 20
58.739814979196
 30
0.0
 11
101.442307504287
 21
58.976201592374
 31
0.0
  0
LINE
  5
2167
330
1D
100
AcDbEntity
  8
0
100
AcDbLine
 10
90.5286
 20
97.639014979195
 30
0.0
 11
91.4381
 21
97.639014979195
 31
0.0
  0
LINE
  5
2168
330
1D
100
AcDbEntity
  8
0
100
AcDbLine
 10
90.4782
 20
98.753814979196
 30
0.0
 11
90.8362
 21
99.071714979196
 31
0.0
  0
LINE
  5
216A
330
1D
100
AcDbEntity
  8
0
100
AcDbLine
 10
88.9029
 20
79.121229705158
 30
0.0
 11
88.9029
 21
97.039014979196
 31
0.0
  0
LINE
  5
216B
330
1D
100
AcDbEntity
  8
0
100
AcDbLine
 10
88.9029
 20
97.039014979196
 30
0.0
 11
88.9029
 21
79.121229705158
 31
0.0
  0
LINE
  5
216C
330
1D
100
AcDbEntity
  8
0
100
AcDbLine
 10
88.9029
 20
97.039014979196
 30
0.0
 11
88.9702
 21
97.289014979196
 31
0.0
  0
LINE
  5
216D
330
1D
100
AcDbEntity
  8
0
100
AcDbLine
 10
88.9702
 20
97.289014979196
 30
0.0
 11
89.1526
 21
97.472014979196
 31
0.0
  0
LINE
  5
216E
330
1D
100
AcDbEntity
  8
0
100
AcDbLine
 10
89.5359
 20
97.739014979195
 30
0.0
 11
89.609
 21
97.665814979195
 31
0.0
  0
LINE
  5
216F
330
1D
100
AcDbEntity
  8
0
100
AcDbLine
 10
89.5089
 20
97.839014979195
 30
0.0
 11
89.5089
 21
98.439014979196
 31
0.0
  0
LINE
  5
2170
330
1D
100
AcDbEntity
  8
0
100
AcDbLine
 10
89.5089
 20
97.839014979195
 30
0.0
 11
89.5359
 21
97.739014979195
 31
0.0
  0
LINE
  5
2171
330
1D
100
AcDbEntity
  8
0
100
AcDbLine
 10
89.5089
 20
98.439014979196
 30
0.0
 11
89.5359
 21
98.539014979196
 31
0.0
  0
LINE
  5
2172
330
1D
100
AcDbEntity
  8
0
100
AcDbLine
 10
89.5089
 20
98.439014979196
 30
0.0
 11
89.5089
 21
97.839014979195
 31
0.0
  0
LINE
  5
2173
330
1D
100
AcDbEntity
  8
0
100
AcDbLine
 10
89.5359
 20
98.539014979196
 30
0.0
 11
89.609
 21
98.612214979195
 31
0.0
  0
LINE
  5
2174
330
1D
100
AcDbEntity
  8
0
100
AcDbLine
 10
89.7088
 20
97.639014979195
 30
0.0
 11
89.9492
 21
97.639014979195
 31
0.0
  0
LINE
  5
2175
330
1D
100
AcDbEntity
  8
0
100
AcDbLine
 10
89.609
 20
97.665814979195
 30
0.0
 11
89.7088
 21
97.639014979195
 31
0.0
  0
LINE
  5
2176
330
1D
100
AcDbEntity
  8
0
100
AcDbLine
 10
89.609
 20
98.612214979195
 30
0.0
 11
89.7088
 21
98.639014979195
 31
0.0
  0
LINE
  5
2177
330
1D
100
AcDbEntity
  8
0
100
AcDbLine
 10
89.9492
 20
97.639014979195
 30
0.0
 11
90.5286
 21
97.639014979195
 31
0.0
  0
LINE
  5
2178
330
1D
100
AcDbEntity
  8
0
100
AcDbLine
 10
89.9883
 20
98.639014979195
 30
0.0
 11
90.4782
 21
98.753814979196
 31
0.0
  0
LINE
  5
2179
330
1D
100
AcDbEntity
  8
0
100
AcDbLine
 10
89.7088
 20
98.639014979195
 30
0.0
 11
89.9883
 21
98.639014979195
 31
0.0
  0
LINE
  5
217A
330
1D
100
AcDbEntity
  8
0
100
AcDbLine
 10
89.1526
 20
97.472014979196
 30
0.0
 11
89.609
 21
97.665814979195
 31
0.0
  0
LINE
  5
2183
330
1D
100
AcDbEntity
  8
0
100
AcDbLine
 10
96.9484
 20
97.639014979195
 30
0.0
 11
98.9438
 21
97.639014979195
 31
0.0
  0
LINE
  5
2184
330
1D
100
AcDbEntity
  8
0
100
AcDbLine
 10
95.6663
 20
97.639014979195
 30
0.0
 11
97.4741
 21
97.639014979195
 31
0.0
  0
LINE
  5
2186
330
1D
100
AcDbEntity
  8
0
100
AcDbLine
 10
91.2333
 20
97.639014979195
 30
0.0
 11
91.4549
 21
97.639014979195
 31
0.0
  0
LINE
  5
2187
330
1D
100
AcDbEntity
  8
0
100
AcDbLine
 10
91.2333
 20
97.639014979195
 30
0.0
 11
91.3592
 21
97.639014979195
 31
0.0
  0
LINE
  5
2188
330
1D
100
AcDbEntity
  8
0
100
AcDbLine
 10
91.4549
 20
97.639014979195
 30
0.0
 11
92.0191
 21
97.639014979195
 31
0.0
  0
LINE
  5
2189
330
1D
100
AcDbEntity
  8
0
100
AcDbLine
 10
91.3592
 20
97.639014979195
 30
0.0
 11
91.8292
 21
97.639014979195
 31
0.0
  0
LINE
  5
218A
330
1D
100
AcDbEntity
  8
0
100
AcDbLine
 10
91.4381
 20
97.639014979195
 30
0.0
 11
92.6675
 21
97.639014979195
 31
0.0
  0
LINE
  5
218B
330
1D
100
AcDbEntity
  8
0
100
AcDbLine
 10
91.8292
 20
97.639014979195
 30
0.0
 11
92.6374
 21
97.639014979195
 31
0.0
  0
LINE
  5
218C
330
1D
100
AcDbEntity
  8
0
100
AcDbLine
 10
90.9808
 20
99.520014979196
 30
0.0
 11
91.251733927848
 21
101.089014979195
 31
0.0
  0
LINE
  5
218D
330
1D
100
AcDbEntity
  8
0
100
AcDbLine
 10
92.0191
 20
97.639014979195
 30
0.0
 11
92.9192
 21
97.639014979195
 31
0.0
  0
LINE
  5
218E
330
1D
100
AcDbEntity
  8
0
100
AcDbLine
 10
93.7721
 20
97.639014979195
 30
0.0
 11
95.2155
 21
97.639014979195
 31
0.0
  0
LINE
  5
218F
330
1D
100
AcDbEntity
  8
0
100
AcDbLine
 10
92.6374
 20
97.639014979195
 30
0.0
 11
93.7721
 21
97.639014979195
 31
0.0
  0
LINE
  5
2190
330
1D
100
AcDbEntity
  8
0
100
AcDbLine
 10
92.9192
 20
97.639014979195
 30
0.0
 11
94.1403
 21
97.639014979195
 31
0.0
  0
LINE
  5
2191
330
1D
100
AcDbEntity
  8
0
100
AcDbLine
 10
94.1403
 20
97.639014979195
 30
0.0
 11
95.6663
 21
97.639014979195
 31
0.0
  0
LINE
  5
2192
330
1D
100
AcDbEntity
  8
0
100
AcDbLine
 10
90.8362
 20
99.071714979196
 30
0.0
 11
90.9808
 21
99.520014979196
 31
0.0
  0
LINE
  5
2194
330
1D
100
AcDbEntity
  8
0
100
AcDbLine
 10
95.2155
 20
97.639014979195
 30
0.0
 11
96.9484
 21
97.639014979195
 31
0.0
  0
LINE
  5
2196
330
1D
100
AcDbEntity
  8
0
100
AcDbLine
 10
98.0787
 20
97.639014979195
 30
0.0
 11
100.3768
 21
97.639014979195
 31
0.0
  0
LINE
  5
2197
330
1D
100
AcDbEntity
  8
0
100
AcDbLine
 10
98.9438
 20
97.639014979195
 30
0.0
 11
101.1738
 21
97.639014979195
 31
0.0
  0
LINE
  5
2198
330
1D
100
AcDbEntity
  8
0
100
AcDbLine
 10
97.4741
 20
97.639014979195
 30
0.0
 11
99.5373
 21
97.639014979195
 31
0.0
  0
LINE
  5
2199
330
1D
100
AcDbEntity
  8
0
100
AcDbLine
 10
99.5373
 20
97.639014979195
 30
0.0
 11
101.8258
 21
97.639014979195
 31
0.0
  0
LINE
  5
219A
330
1D
100
AcDbEntity
  8
0
100
AcDbLine
 10
100.3768
 20
97.639014979195
 30
0.0
 11
102.8728
 21
97.639014979195
 31
0.0
  0
LINE
  5
21BB
330
1D
100
AcDbEntity
  8
0
100
AcDbLine
 10
112.1498
 20
51.735214979196
 30
0.0
 11
113.4208
 21
51.833414979195
 31
0.0
  0
LINE
  5
21BC
330
1D
100
AcDbEntity
  8
0
100
AcDbLine
 10
117.2838
 20
51.786514979195
 30
0.0
 11
118.5398
 21
51.657614979195
 31
0.0
  0
LINE
  5
21BD
330
1D
100
AcDbEntity
  8
0
100
AcDbLine
 10
129.0008
 20
47.378514979195
 30
0.0
 11
129.0008
 21
57.478614979195
 31
0.0
  0
LINE
  5
21BE
330
1D
100
AcDbEntity
  8
0
100
AcDbLine
 10
129.0008
 20
57.478614979195
 30
0.0
 11
129.0008
 21
47.378514979195
 31
0.0
  0
LINE
  5
21BF
330
1D
100
AcDbEntity
  8
0
100
AcDbLine
 10
156.9478
 20
22.394214979195
 30
0.0
 11
155.057419111264
 21
22.720352942024
 31
0.0
  0
LINE
  5
21D0
330
1D
100
AcDbEntity
  8
0
100
AcDbLine
 10
128.2378
 20
24.395414979195
 30
0.0
 11
134.7238
 21
24.288714979195
 31
0.0
  0
LINE
  5
21ED
330
1D
100
AcDbEntity
  8
0
100
AcDbLine
 10
128.2378
 20
24.395414979195
 30
0.0
 11
125.15855
 21
24.395414979195
 31
0.0
  0
LINE
  5
21F0
330
1D
100
AcDbEntity
  8
0
100
AcDbLine
 10
115.2928
 20
41.439114979195
 30
0.0
 11
116.5828
 21
41.480514979195
 31
0.0
  0
LINE
  5
21F1
330
1D
100
AcDbEntity
  8
0
100
AcDbLine
 10
115.0018
 20
42.415014979195
 30
0.0
 11
118.0738
 21
42.600314979195
 31
0.0
  0
LINE
  5
21F2
330
1D
100
AcDbEntity
  8
0
100
AcDbLine
 10
116.3298
 20
41.201414979195
 30
0.0
 11
116.7428
 21
41.223714979195
 31
0.0
  0
LINE
  5
21FE
330
1D
100
AcDbEntity
  8
0
100
AcDbLine
 10
109.0808
 20
42.076614979195
 30
0.0
 11
110.2468
 21
41.840214979195
 31
0.0
  0
LINE
  5
21FF
330
1D
100
AcDbEntity
  8
0
100
AcDbLine
 10
109.7938
 20
41.630214979195
 30
0.0
 11
110.9188
 21
41.450114979195
 31
0.0
  0
LINE
  5
2200
330
1D
100
AcDbEntity
  8
0
100
AcDbLine
 10
109.7138
 20
51.373714979195
 30
0.0
 11
110.9098
 21
51.581414979195
 31
0.0
  0
LINE
  5
2201
330
1D
100
AcDbEntity
  8
0
100
AcDbLine
 10
109.0498
 20
43.094514979195
 30
0.0
 11
111.9298
 21
42.600314979195
 31
0.0
  0
LINE
  5
2204
330
1D
100
AcDbEntity
  8
0
100
AcDbLine
 10
105.1258
 20
43.006214979195
 30
0.0
 11
106.1348
 21
42.608214979195
 31
0.0
  0
LINE
  5
2205
330
1D
100
AcDbEntity
  8
0
100
AcDbLine
 10
104.2168
 20
43.445014979195
 30
0.0
 11
105.1258
 21
43.006214979195
 31
0.0
  0
LINE
  5
2206
330
1D
100
AcDbEntity
  8
0
100
AcDbLine
 10
106.1348
 20
42.608214979195
 30
0.0
 11
107.2328
 21
42.254814979195
 31
0.0
  0
LINE
  5
2207
330
1D
100
AcDbEntity
  8
0
100
AcDbLine
 10
106.0218
 20
43.074014979195
 30
0.0
 11
106.9568
 21
42.696914979195
 31
0.0
  0
LINE
  5
2208
330
1D
100
AcDbEntity
  8
0
100
AcDbLine
 10
105.1848
 20
43.490314979195
 30
0.0
 11
106.0218
 21
43.074014979195
 31
0.0
  0
LINE
  5
2209
330
1D
100
AcDbEntity
  8
0
100
AcDbLine
 10
104.4548
 20
43.941414979195
 30
0.0
 11
105.1848
 21
43.490314979195
 31
0.0
  0
LINE
  5
220A
330
1D
100
AcDbEntity
  8
0
100
AcDbLine
 10
103.8408
 20
44.422214979196
 30
0.0
 11
104.4548
 21
43.941414979195
 31
0.0
  0
LINE
  5
220B
330
1D
100
AcDbEntity
  8
0
100
AcDbLine
 10
104.5858
 20
45.009414979195
 30
0.0
 11
106.5058
 21
43.918114979196
 31
0.0
  0
LINE
  5
220C
330
1D
100
AcDbEntity
  8
0
100
AcDbLine
 10
106.5058
 20
43.918114979196
 30
0.0
 11
109.0498
 21
43.094514979195
 31
0.0
  0
LINE
  5
220D
330
1D
100
AcDbEntity
  8
0
100
AcDbLine
 10
106.9568
 20
42.696914979195
 30
0.0
 11
107.9808
 21
42.363314979196
 31
0.0
  0
LINE
  5
220E
330
1D
100
AcDbEntity
  8
0
100
AcDbLine
 10
107.2328
 20
42.254814979195
 30
0.0
 11
107.5918
 21
42.143914979195
 31
0.0
  0
LINE
  5
220F
330
1D
100
AcDbEntity
  8
0
100
AcDbLine
 10
107.5918
 20
42.143914979195
 30
0.0
 11
108.7138
 21
41.853214979195
 31
0.0
  0
LINE
  5
2210
330
1D
100
AcDbEntity
  8
0
100
AcDbLine
 10
107.9808
 20
42.363314979196
 30
0.0
 11
109.0808
 21
42.076614979195
 31
0.0
  0
LINE
  5
2211
330
1D
100
AcDbEntity
  8
0
100
AcDbLine
 10
108.7138
 20
41.853214979195
 30
0.0
 11
109.7938
 21
41.630214979195
 31
0.0
  0
LINE
  5
2212
330
1D
100
AcDbEntity
  8
0
100
AcDbLine
 10
103.6048
 20
48.666714979195
 30
0.0
 11
104.1638
 21
49.159214979195
 31
0.0
  0
LINE
  5
2213
330
1D
100
AcDbEntity
  8
0
100
AcDbLine
 10
104.8418
 20
49.624414979195
 30
0.0
 11
105.6318
 21
50.056914979195
 31
0.0
  0
LINE
  5
2214
330
1D
100
AcDbEntity
  8
0
100
AcDbLine
 10
105.6318
 20
50.056914979195
 30
0.0
 11
106.5238
 21
50.452214979195
 31
0.0
  0
LINE
  5
2215
330
1D
100
AcDbEntity
  8
0
100
AcDbLine
 10
104.1638
 20
49.159214979195
 30
0.0
 11
104.8418
 21
49.624414979195
 31
0.0
  0
LINE
  5
2216
330
1D
100
AcDbEntity
  8
0
100
AcDbLine
 10
106.5238
 20
50.452214979195
 30
0.0
 11
107.5088
 21
50.805914979196
 31
0.0
  0
LINE
  5
2217
330
1D
100
AcDbEntity
  8
0
100
AcDbLine
 10
107.5088
 20
50.805914979196
 30
0.0
 11
108.5758
 21
51.114314979196
 31
0.0
  0
LINE
  5
2218
330
1D
100
AcDbEntity
  8
0
100
AcDbLine
 10
108.5758
 20
51.114314979196
 30
0.0
 11
109.7138
 21
51.373714979195
 31
0.0
  0
LINE
  5
221A
330
1D
100
AcDbEntity
  8
0
100
AcDbLine
 10
110.2468
 20
41.840214979195
 30
0.0
 11
111.4638
 21
41.656414979195
 31
0.0
  0
LINE
  5
221B
330
1D
100
AcDbEntity
  8
0
100
AcDbLine
 10
110.9188
 20
41.450114979195
 30
0.0
 11
112.0778
 21
41.314114979195
 31
0.0
  0
LINE
  5
221C
330
1D
100
AcDbEntity
  8
0
100
AcDbLine
 10
110.9098
 20
51.581414979195
 30
0.0
 11
112.1498
 21
51.735214979196
 31
0.0
  0
LINE
  5
221D
330
1D
100
AcDbEntity
  8
0
100
AcDbLine
 10
111.4638
 20
41.656414979195
 30
0.0
 11
112.7198
 21
41.527514979195
 31
0.0
  0
LINE
  5
221E
330
1D
100
AcDbEntity
  8
0
100
AcDbLine
 10
113.2608
 20
41.223714979195
 30
0.0
 11
114.1198
 21
41.188014979195
 31
0.0
  0
LINE
  5
221F
330
1D
100
AcDbEntity
  8
0
100
AcDbLine
 10
114.0008
 20
41.454814979196
 30
0.0
 11
115.2928
 21
41.439114979195
 31
0.0
  0
LINE
  5
2220
330
1D
100
AcDbEntity
  8
0
100
AcDbLine
 10
112.7198
 20
41.527514979195
 30
0.0
 11
114.0008
 21
41.454814979196
 31
0.0
  0
LINE
  5
2221
330
1D
100
AcDbEntity
  8
0
100
AcDbLine
 10
112.0778
 20
41.314114979195
 30
0.0
 11
113.2608
 21
41.223714979195
 31
0.0
  0
LINE
  5
2222
330
1D
100
AcDbEntity
  8
0
100
AcDbLine
 10
114.1198
 20
41.188014979195
 30
0.0
 11
115.5048
 21
41.182114979195
 31
0.0
  0
LINE
  5
2223
330
1D
100
AcDbEntity
  8
0
100
AcDbLine
 10
111.9298
 20
42.600314979195
 30
0.0
 11
115.0018
 21
42.415014979195
 31
0.0
  0
LINE
  5
2224
330
1D
100
AcDbEntity
  8
0
100
AcDbLine
 10
115.5048
 20
41.182114979195
 30
0.0
 11
116.3298
 21
41.201414979195
 31
0.0
  0
LINE
  5
222E
330
1D
100
AcDbEntity
  8
0
100
AcDbLine
 10
120.9538
 20
43.094514979195
 30
0.0
 11
123.4978
 21
43.918114979196
 31
0.0
  0
LINE
  5
222F
330
1D
100
AcDbEntity
  8
0
100
AcDbLine
 10
122.0228
 20
50.950714979195
 30
0.0
 11
123.0468
 21
50.617114979195
 31
0.0
  0
LINE
  5
2230
330
1D
100
AcDbEntity
  8
0
100
AcDbLine
 10
122.4948
 20
42.508114979195
 30
0.0
 11
123.4798
 21
42.861814979195
 31
0.0
  0
LINE
  5
2231
330
1D
100
AcDbEntity
  8
0
100
AcDbLine
 10
122.7798
 20
42.254514979195
 30
0.0
 11
123.1368
 21
42.364614979195
 31
0.0
  0
LINE
  5
2233
330
1D
100
AcDbEntity
  8
0
100
AcDbLine
 10
116.5828
 20
41.480514979195
 30
0.0
 11
117.8538
 21
41.578814979195
 31
0.0
  0
LINE
  5
2234
330
1D
100
AcDbEntity
  8
0
100
AcDbLine
 10
117.8538
 20
41.578814979195
 30
0.0
 11
119.0938
 21
41.732514979195
 31
0.0
  0
LINE
  5
2235
330
1D
100
AcDbEntity
  8
0
100
AcDbLine
 10
118.0358
 20
41.325014979195
 30
0.0
 11
119.2988
 21
41.480514979195
 31
0.0
  0
LINE
  5
2236
330
1D
100
AcDbEntity
  8
0
100
AcDbLine
 10
116.7428
 20
41.223714979195
 30
0.0
 11
118.0358
 21
41.325014979195
 31
0.0
  0
LINE
  5
2237
330
1D
100
AcDbEntity
  8
0
100
AcDbLine
 10
118.0738
 20
42.600314979195
 30
0.0
 11
120.9538
 21
43.094514979195
 31
0.0
  0
LINE
  5
2238
330
1D
100
AcDbEntity
  8
0
100
AcDbLine
 10
118.5398
 20
51.657614979195
 30
0.0
 11
119.7568
 21
51.473814979195
 31
0.0
  0
LINE
  5
2239
330
1D
100
AcDbEntity
  8
0
100
AcDbLine
 10
119.0938
 20
41.732514979195
 30
0.0
 11
120.2898
 21
41.940214979195
 31
0.0
  0
LINE
  5
223A
330
1D
100
AcDbEntity
  8
0
100
AcDbLine
 10
119.7568
 20
51.473814979195
 30
0.0
 11
120.9228
 21
51.237414979196
 31
0.0
  0
LINE
  5
223B
330
1D
100
AcDbEntity
  8
0
100
AcDbLine
 10
119.2988
 20
41.480514979195
 30
0.0
 11
120.5188
 21
41.688814979195
 31
0.0
  0
LINE
  5
223C
330
1D
100
AcDbEntity
  8
0
100
AcDbLine
 10
120.2898
 20
41.940214979195
 30
0.0
 11
121.4278
 21
42.199714979195
 31
0.0
  0
LINE
  5
223D
330
1D
100
AcDbEntity
  8
0
100
AcDbLine
 10
120.9228
 20
51.237414979196
 30
0.0
 11
122.0228
 21
50.950714979195
 31
0.0
  0
LINE
  5
223E
330
1D
100
AcDbEntity
  8
0
100
AcDbLine
 10
120.5188
 20
41.688814979195
 30
0.0
 11
121.6828
 21
41.947714979195
 31
0.0
  0
LINE
  5
2240
330
1D
100
AcDbEntity
  8
0
100
AcDbLine
 10
121.4278
 20
42.199714979195
 30
0.0
 11
122.4948
 21
42.508114979195
 31
0.0
  0
LINE
  5
2241
330
1D
100
AcDbEntity
  8
0
100
AcDbLine
 10
121.6828
 20
41.947714979195
 30
0.0
 11
122.7798
 21
42.254514979195
 31
0.0
  0
LINE
  5
2242
330
1D
100
AcDbEntity
  8
0
100
AcDbLine
 10
126.8338
 20
45.161714979195
 30
0.0
 11
127.1388
 21
45.692614979195
 31
0.0
  0
LINE
  5
2243
330
1D
100
AcDbEntity
  8
0
100
AcDbLine
 10
125.4178
 20
45.009414979195
 30
0.0
 11
126.5698
 21
46.244814979195
 31
0.0
  0
LINE
  5
2244
330
1D
100
AcDbEntity
  8
0
100
AcDbLine
 10
128.1598
 20
45.278514979195
 30
0.0
 11
128.5528
 21
45.845814979195
 31
0.0
  0
LINE
  5
2249
330
1D
100
AcDbEntity
  8
0
100
AcDbLine
 10
123.1368
 20
42.364614979195
 30
0.0
 11
124.2068
 21
42.732914979195
 31
0.0
  0
LINE
  5
224A
330
1D
100
AcDbEntity
  8
0
100
AcDbLine
 10
123.4798
 20
42.861814979195
 30
0.0
 11
124.3718
 21
43.257114979195
 31
0.0
  0
LINE
  5
224B
330
1D
100
AcDbEntity
  8
0
100
AcDbLine
 10
125.1618
 20
43.689614979195
 30
0.0
 11
125.8398
 21
44.154714979195
 31
0.0
  0
LINE
  5
224C
330
1D
100
AcDbEntity
  8
0
100
AcDbLine
 10
124.3718
 20
43.257114979195
 30
0.0
 11
125.1618
 21
43.689614979195
 31
0.0
  0
LINE
  5
224D
330
1D
100
AcDbEntity
  8
0
100
AcDbLine
 10
124.2068
 20
42.732914979195
 30
0.0
 11
125.1848
 21
43.144614979195
 31
0.0
  0
LINE
  5
224E
330
1D
100
AcDbEntity
  8
0
100
AcDbLine
 10
125.1848
 20
43.144614979195
 30
0.0
 11
126.0598
 21
43.595814979195
 31
0.0
  0
LINE
  5
224F
330
1D
100
AcDbEntity
  8
0
100
AcDbLine
 10
123.4978
 20
43.918114979196
 30
0.0
 11
125.4178
 21
45.009414979195
 31
0.0
  0
LINE
  5
2250
330
1D
100
AcDbEntity
  8
0
100
AcDbLine
 10
125.8398
 20
44.154714979195
 30
0.0
 11
126.3988
 21
44.647314979195
 31
0.0
  0
LINE
  5
2251
330
1D
100
AcDbEntity
  8
0
100
AcDbLine
 10
126.0598
 20
43.595814979195
 30
0.0
 11
126.8238
 21
44.081714979195
 31
0.0
  0
LINE
  5
2252
330
1D
100
AcDbEntity
  8
0
100
AcDbLine
 10
126.8238
 20
44.081714979195
 30
0.0
 11
127.4678
 21
44.597514979195
 31
0.0
  0
LINE
  5
2253
330
1D
100
AcDbEntity
  8
0
100
AcDbLine
 10
127.4678
 20
44.597514979195
 30
0.0
 11
127.6338
 21
44.730714979195
 31
0.0
  0
LINE
  5
2254
330
1D
100
AcDbEntity
  8
0
100
AcDbLine
 10
126.3988
 20
44.647314979195
 30
0.0
 11
126.8338
 21
45.161714979195
 31
0.0
  0
LINE
  5
2255
330
1D
100
AcDbEntity
  8
0
100
AcDbLine
 10
127.6338
 20
44.730714979195
 30
0.0
 11
128.1598
 21
45.278514979195
 31
0.0
  0
LINE
  5
2259
330
1D
100
AcDbEntity
  8
0
100
AcDbLine
 10
127.3108
 20
46.234114979195
 30
0.0
 11
127.3488
 21
46.780214979195
 31
0.0
  0
LINE
  5
225A
330
1D
100
AcDbEntity
  8
0
100
AcDbLine
 10
127.1388
 20
45.692614979195
 30
0.0
 11
127.3108
 21
46.234114979195
 31
0.0
  0
LINE
  5
225B
330
1D
100
AcDbEntity
  8
0
100
AcDbLine
 10
127.0018
 20
47.885356737437
 30
0.0
 11
127.0018
 21
47.562614979196
 31
0.0
  0
LINE
  5
225C
330
1D
100
AcDbEntity
  8
0
100
AcDbLine
 10
123.0468
 20
50.617114979195
 30
0.0
 11
123.9818
 21
50.240014979195
 31
0.0
  0
LINE
  5
225D
330
1D
100
AcDbEntity
  8
0
100
AcDbLine
 10
123.9818
 20
50.240014979195
 30
0.0
 11
124.8188
 21
49.823714979195
 31
0.0
  0
LINE
  5
225E
330
1D
100
AcDbEntity
  8
0
100
AcDbLine
 10
124.8188
 20
49.823714979195
 30
0.0
 11
125.5488
 21
49.372614979195
 31
0.0
  0
LINE
  5
225F
330
1D
100
AcDbEntity
  8
0
100
AcDbLine
 10
125.5488
 20
49.372614979195
 30
0.0
 11
126.1628
 21
48.891814979195
 31
0.0
  0
LINE
  5
2260
330
1D
100
AcDbEntity
  8
0
100
AcDbLine
 10
126.1628
 20
48.891814979195
 30
0.0
 11
126.6538
 21
48.386514979195
 31
0.0
  0
LINE
  5
2261
330
1D
100
AcDbEntity
  8
0
100
AcDbLine
 10
126.6538
 20
48.386514979195
 30
0.0
 11
127.0178
 21
47.862314979195
 31
0.0
  0
LINE
  5
2262
330
1D
100
AcDbEntity
  8
0
100
AcDbLine
 10
126.801383231974
 20
48.173978907215
 30
0.0
 11
127.0018
 21
47.562614979196
 31
0.0
  0
LINE
  5
2263
330
1D
100
AcDbEntity
  8
0
100
AcDbLine
 10
127.2508
 20
47.325014979195
 30
0.0
 11
127.3488
 21
46.780214979195
 31
0.0
  0
LINE
  5
2264
330
1D
100
AcDbEntity
  8
0
100
AcDbLine
 10
127.0178
 20
47.862314979195
 30
0.0
 11
127.2508
 21
47.325014979195
 31
0.0
  0
LINE
  5
2265
330
1D
100
AcDbEntity
  8
0
100
AcDbLine
 10
127.0018
 20
47.562614979196
 30
0.0
 11
127.0018
 21
47.885356737437
 31
0.0
  0
LINE
  5
2266
330
1D
100
AcDbEntity
  8
0
100
AcDbLine
 10
126.5698
 20
46.244814979195
 30
0.0
 11
127.0018
 21
47.562614979196
 31
0.0
  0
LINE
  5
2267
330
1D
100
AcDbEntity
  8
0
100
AcDbLine
 10
128.9188
 20
46.798014979195
 30
0.0
 11
129.0008
 21
47.378514979195
 31
0.0
  0
LINE
  5
2268
330
1D
100
AcDbEntity
  8
0
100
AcDbLine
 10
128.8098
 20
46.426814979195
 30
0.0
 11
128.9188
 21
46.798014979195
 31
0.0
  0
LINE
  5
2269
330
1D
100
AcDbEntity
  8
0
100
AcDbLine
 10
128.5528
 20
45.845814979195
 30
0.0
 11
128.8098
 21
46.426814979195
 31
0.0
  0
LINE
  5
226A
330
1D
100
AcDbEntity
  8
0
100
AcDbLine
 10
147.1538
 20
23.659114979195
 30
0.0
 11
152.9478
 21
23.016514979195
 31
0.0
  0
LINE
  5
226B
330
1D
100
AcDbEntity
  8
0
100
AcDbLine
 10
141.0538
 20
24.061914979195
 30
0.0
 11
147.1538
 21
23.659114979195
 31
0.0
  0
LINE
  5
226C
330
1D
100
AcDbEntity
  8
0
100
AcDbLine
 10
134.7238
 20
24.288714979195
 30
0.0
 11
141.0538
 21
24.061914979195
 31
0.0
  0
LINE
  5
226D
330
1D
100
AcDbEntity
  8
0
100
AcDbLine
 10
152.9478
 20
23.016514979195
 30
0.0
 11
155.057419111264
 21
22.720352942024
 31
0.0
  0
LINE
  5
226E
330
1D
100
AcDbEntity
  8
0
100
AcDbLine
 10
152.9478
 20
23.016514979195
 30
0.0
 11
155.057419111264
 21
22.720352942024
 31
0.0
  0
LINE
  5
226F
330
1D
100
AcDbEntity
  8
0
100
AcDbLine
 10
181.0178
 20
2.119314979195
 30
0.0
 11
181.3658
 21
2.119314979195
 31
0.0
  0
LINE
  5
2270
330
1D
100
AcDbEntity
  8
0
100
AcDbLine
 10
181.0178
 20
2.119314979195
 30
0.0
 11
181.2558
 21
2.119314979195
 31
0.0
  0
LINE
  5
2271
330
1D
100
AcDbEntity
  8
0
100
AcDbLine
 10
180.7958
 20
2.171514979195
 30
0.0
 11
181.0178
 21
2.119314979195
 31
0.0
  0
LINE
  5
2272
330
1D
100
AcDbEntity
  8
0
100
AcDbLine
 10
180.6198
 20
2.317314979195
 30
0.0
 11
180.7958
 21
2.171514979195
 31
0.0
  0
LINE
  5
2273
330
1D
100
AcDbEntity
  8
0
100
AcDbLine
 10
180.5268
 20
2.526114979195
 30
0.0
 11
180.6198
 21
2.317314979195
 31
0.0
  0
LINE
  5
2274
330
1D
100
AcDbEntity
  8
0
100
AcDbLine
 10
179.4168
 20
6.738514979195
 30
0.0
 11
180.0448
 21
4.670914979195
 31
0.0
  0
LINE
  5
2275
330
1D
100
AcDbEntity
  8
0
100
AcDbLine
 10
180.0448
 20
4.670914979195
 30
0.0
 11
180.5268
 21
2.526114979195
 31
0.0
  0
LINE
  5
2276
330
1D
100
AcDbEntity
  8
0
100
AcDbLine
 10
178.0078
 20
9.985614979196
 30
0.0
 11
179.4168
 21
6.738514979195
 31
0.0
  0
LINE
  5
2277
330
1D
100
AcDbEntity
  8
0
100
AcDbLine
 10
176.1418
 20
12.888714979195
 30
0.0
 11
178.0078
 21
9.985614979196
 31
0.0
  0
LINE
  5
2278
330
1D
100
AcDbEntity
  8
0
100
AcDbLine
 10
174.3588
 20
14.813314979195
 30
0.0
 11
176.153210696384
 21
12.870962357184
 31
0.0
  0
LINE
  5
2279
330
1D
100
AcDbEntity
  8
0
100
AcDbLine
 10
174.3588
 20
14.813314979195
 30
0.0
 11
176.153210696384
 21
12.870962357184
 31
0.0
  0
LINE
  5
227A
330
1D
100
AcDbEntity
  8
0
100
AcDbLine
 10
166.8148
 20
19.559114979195
 30
0.0
 11
169.6318
 21
18.205514979195
 31
0.0
  0
LINE
  5
227B
330
1D
100
AcDbEntity
  8
0
100
AcDbLine
 10
163.8888
 20
20.646214979195
 30
0.0
 11
166.8148
 21
19.559114979195
 31
0.0
  0
LINE
  5
227C
330
1D
100
AcDbEntity
  8
0
100
AcDbLine
 10
156.9478
 20
22.394214979195
 30
0.0
 11
160.7258
 21
21.560914979195
 31
0.0
  0
LINE
  5
227D
330
1D
100
AcDbEntity
  8
0
100
AcDbLine
 10
160.7258
 20
21.560914979195
 30
0.0
 11
163.8888
 21
20.646214979195
 31
0.0
  0
LINE
  5
227E
330
1D
100
AcDbEntity
  8
0
100
AcDbLine
 10
169.6318
 20
18.205514979195
 30
0.0
 11
172.1498
 21
16.627214979195
 31
0.0
  0
LINE
  5
227F
330
1D
100
AcDbEntity
  8
0
100
AcDbLine
 10
172.1498
 20
16.627214979195
 30
0.0
 11
174.3588
 21
14.813314979195
 31
0.0
  0
LINE
  5
2280
330
1D
100
AcDbEntity
  8
0
100
AcDbLine
 10
192.8938
 20
2.119314979195
 30
0.0
 11
196.5748
 21
2.119314979195
 31
0.0
  0
LINE
  5
2281
330
1D
100
AcDbEntity
  8
0
100
AcDbLine
 10
192.0638
 20
2.119314979195
 30
0.0
 11
195.5758
 21
2.119314979195
 31
0.0
  0
LINE
  5
2282
330
1D
100
AcDbEntity
  8
0
100
AcDbLine
 10
193.2238
 20
2.119314979195
 30
0.0
 11
196.8888
 21
2.119314979195
 31
0.0
  0
LINE
  5
2283
330
1D
100
AcDbEntity
  8
0
100
AcDbLine
 10
181.2558
 20
2.119314979195
 30
0.0
 11
181.9698
 21
2.119314979195
 31
0.0
  0
LINE
  5
2284
330
1D
100
AcDbEntity
  8
0
100
AcDbLine
 10
181.9698
 20
2.119314979195
 30
0.0
 11
183.6448
 21
2.119314979195
 31
0.0
  0
LINE
  5
2285
330
1D
100
AcDbEntity
  8
0
100
AcDbLine
 10
183.6448
 20
2.119314979195
 30
0.0
 11
186.0838
 21
2.119314979195
 31
0.0
  0
LINE
  5
2286
330
1D
100
AcDbEntity
  8
0
100
AcDbLine
 10
183.4538
 20
2.119314979195
 30
0.0
 11
185.8358
 21
2.119314979195
 31
0.0
  0
LINE
  5
2287
330
1D
100
AcDbEntity
  8
0
100
AcDbLine
 10
182.1788
 20
2.119314979195
 30
0.0
 11
183.4538
 21
2.119314979195
 31
0.0
  0
LINE
  5
2288
330
1D
100
AcDbEntity
  8
0
100
AcDbLine
 10
181.3658
 20
2.119314979195
 30
0.0
 11
182.1788
 21
2.119314979195
 31
0.0
  0
LINE
  5
2289
330
1D
100
AcDbEntity
  8
0
100
AcDbLine
 10
183.8018
 20
2.119314979195
 30
0.0
 11
184.0958
 21
2.119314979195
 31
0.0
  0
LINE
  5
228A
330
1D
100
AcDbEntity
  8
0
100
AcDbLine
 10
183.8018
 20
2.119314979195
 30
0.0
 11
184.2098
 21
2.119314979195
 31
0.0
  0
LINE
  5
228B
330
1D
100
AcDbEntity
  8
0
100
AcDbLine
 10
186.0838
 20
2.119314979195
 30
0.0
 11
189.2048
 21
2.119314979195
 31
0.0
  0
LINE
  5
228C
330
1D
100
AcDbEntity
  8
0
100
AcDbLine
 10
189.2048
 20
2.119314979195
 30
0.0
 11
192.8938
 21
2.119314979195
 31
0.0
  0
LINE
  5
228D
330
1D
100
AcDbEntity
  8
0
100
AcDbLine
 10
188.9078
 20
2.119314979195
 30
0.0
 11
192.0638
 21
2.119314979195
 31
0.0
  0
LINE
  5
228E
330
1D
100
AcDbEntity
  8
0
100
AcDbLine
 10
185.8358
 20
2.119314979195
 30
0.0
 11
188.9078
 21
2.119314979195
 31
0.0
  0
LINE
  5
228F
330
1D
100
AcDbEntity
  8
0
100
AcDbLine
 10
190.0108
 20
2.119314979195
 30
0.0
 11
193.2238
 21
2.119314979195
 31
0.0
  0
LINE
  5
2290
330
1D
100
AcDbEntity
  8
0
100
AcDbLine
 10
187.3748
 20
2.119314979195
 30
0.0
 11
190.0108
 21
2.119314979195
 31
0.0
  0
LINE
  5
2291
330
1D
100
AcDbEntity
  8
0
100
AcDbLine
 10
185.4158
 20
2.119314979195
 30
0.0
 11
187.3748
 21
2.119314979195
 31
0.0
  0
LINE
  5
2292
330
1D
100
AcDbEntity
  8
0
100
AcDbLine
 10
184.2098
 20
2.119314979195
 30
0.0
 11
185.4158
 21
2.119314979195
 31
0.0
  0
LINE
  5
2293
330
1D
100
AcDbEntity
  8
0
100
AcDbLine
 10
184.0958
 20
2.119314979195
 30
0.0
 11
184.9688
 21
2.119314979195
 31
0.0
  0
LINE
  5
2294
330
1D
100
AcDbEntity
  8
0
100
AcDbLine
 10
184.9688
 20
2.119314979195
 30
0.0
 11
186.3968
 21
2.119314979195
 31
0.0
  0
LINE
  5
2295
330
1D
100
AcDbEntity
  8
0
100
AcDbLine
 10
196.5748
 20
2.119314979195
 30
0.0
 11
200.5038
 21
2.119314979195
 31
0.0
  0
LINE
  5
2296
330
1D
100
AcDbEntity
  8
0
100
AcDbLine
 10
200.5038
 20
2.119314979195
 30
0.0
 11
205.2818
 21
2.119314979195
 31
0.0
  0
LINE
  5
2297
330
1D
100
AcDbEntity
  8
0
100
AcDbLine
 10
198.7038
 20
2.119314979195
 30
0.0
 11
201.9578
 21
2.119314979195
 31
0.0
  0
LINE
  5
2298
330
1D
100
AcDbEntity
  8
0
100
AcDbLine
 10
195.5758
 20
2.119314979195
 30
0.0
 11
198.7038
 21
2.119314979195
 31
0.0
  0
LINE
  5
2299
330
1D
100
AcDbEntity
  8
0
100
AcDbLine
 10
196.8888
 20
2.119314979195
 30
0.0
 11
200.8658
 21
2.119314979195
 31
0.0
  0
LINE
  5
229A
330
1D
100
AcDbEntity
  8
0
100
AcDbLine
 10
201.9578
 20
2.119314979195
 30
0.0
 11
205.2748
 21
2.119314979195
 31
0.0
  0
LINE
  5
229B
330
1D
100
AcDbEntity
  8
0
100
AcDbLine
 10
205.2748
 20
2.119314979195
 30
0.0
 11
206.1158
 21
2.119314979195
 31
0.0
  0
LINE
  5
229C
330
1D
100
AcDbEntity
  8
0
100
AcDbLine
 10
200.8658
 20
2.119314979195
 30
0.0
 11
205.0018
 21
2.119314979195
 31
0.0
  0
LINE
  5
229F
330
1D
100
AcDbEntity
  8
0
100
AcDbLine
 10
128.1778
 20
97.639014979195
 30
0.0
 11
130.4658
 21
97.639014979195
 31
0.0
  0
LINE
  5
22A0
330
1D
100
AcDbEntity
  8
0
100
AcDbLine
 10
128.1648
 20
97.639014979195
 30
0.0
 11
130.5848
 21
97.639014979195
 31
0.0
  0
LINE
  5
22A1
330
1D
100
AcDbEntity
  8
0
100
AcDbLine
 10
128.8298
 20
97.639014979195
 30
0.0
 11
131.0598
 21
97.639014979195
 31
0.0
  0
LINE
  5
22A2
330
1D
100
AcDbEntity
  8
0
100
AcDbLine
 10
129.1388
 20
56.162014979195
 30
0.0
 11
129.4988
 21
57.342814979195
 31
0.0
  0
LINE
  5
22A3
330
1D
100
AcDbEntity
  8
0
100
AcDbLine
 10
129.1998
 20
58.413514979195
 30
0.0
 11
129.4988
 21
57.342814979195
 31
0.0
  0
LINE
  5
22A5
330
1D
100
AcDbEntity
  8
0
100
AcDbLine
 10
105.3528
 20
60.327314979195
 30
0.0
 11
108.0498
 21
60.796814979196
 31
0.0
  0
LINE
  5
22A6
330
1D
100
AcDbEntity
  8
0
100
AcDbLine
 10
108.0498
 20
60.796814979196
 30
0.0
 11
111.1208
 21
61.120614979196
 31
0.0
  0
LINE
  5
22A7
330
1D
100
AcDbEntity
  8
0
100
AcDbLine
 10
111.1208
 20
61.120614979196
 30
0.0
 11
113.0428
 21
61.223714979195
 31
0.0
  0
LINE
  5
22A8
330
1D
100
AcDbEntity
  8
0
100
AcDbLine
 10
113.4208
 20
51.833414979195
 30
0.0
 11
114.7108
 21
51.874914979195
 31
0.0
  0
LINE
  5
22A9
330
1D
100
AcDbEntity
  8
0
100
AcDbLine
 10
113.0428
 20
61.223714979195
 30
0.0
 11
115.0018
 21
61.257514979195
 31
0.0
  0
LINE
  5
22AA
330
1D
100
AcDbEntity
  8
0
100
AcDbLine
 10
114.7108
 20
51.874914979195
 30
0.0
 11
116.0028
 21
51.859214979195
 31
0.0
  0
LINE
  5
22AB
330
1D
100
AcDbEntity
  8
0
100
AcDbLine
 10
115.0018
 20
61.257514979195
 30
0.0
 11
118.1318
 21
61.169914979195
 31
0.0
  0
LINE
  5
22AC
330
1D
100
AcDbEntity
  8
0
100
AcDbLine
 10
116.0028
 20
51.859214979195
 30
0.0
 11
117.2838
 21
51.786514979195
 31
0.0
  0
LINE
  5
22AD
330
1D
100
AcDbEntity
  8
0
100
AcDbLine
 10
118.1318
 20
61.169914979195
 30
0.0
 11
121.1958
 21
60.895714979195
 31
0.0
  0
LINE
  5
22AE
330
1D
100
AcDbEntity
  8
0
100
AcDbLine
 10
121.1958
 20
60.895714979195
 30
0.0
 11
123.9948
 21
60.460214979195
 31
0.0
  0
LINE
  5
22AF
330
1D
100
AcDbEntity
  8
0
100
AcDbLine
 10
123.9948
 20
60.460214979195
 30
0.0
 11
126.3428
 21
59.910314979195
 31
0.0
  0
LINE
  5
22B0
330
1D
100
AcDbEntity
  8
0
100
AcDbLine
 10
126.3428
 20
59.910314979195
 30
0.0
 11
128.1078
 21
59.256814979195
 31
0.0
  0
LINE
  5
22B1
330
1D
100
AcDbEntity
  8
0
100
AcDbLine
 10
128.1078
 20
59.256814979195
 30
0.0
 11
129.1998
 21
58.413514979195
 31
0.0
  0
LINE
  5
22B2
330
1D
100
AcDbEntity
  8
0
100
AcDbLine
 10
128.7568
 20
58.634014979195
 30
0.0
 11
128.9468
 21
58.058914979195
 31
0.0
  0
LINE
  5
22B3
330
1D
100
AcDbEntity
  8
0
100
AcDbLine
 10
128.63350464116
 20
58.850838125816
 30
0.0
 11
128.7568
 21
58.634014979195
 31
0.0
  0
LINE
  5
22B4
330
1D
100
AcDbEntity
  8
0
100
AcDbLine
 10
129.0008
 20
55.944429965571
 30
0.0
 11
129.1388
 21
56.162014979195
 31
0.0
  0
LINE
  5
22B5
330
1D
100
AcDbEntity
  8
0
100
AcDbLine
 10
128.9468
 20
58.058914979195
 30
0.0
 11
129.0008
 21
57.478614979195
 31
0.0
  0
LINE
  5
22D9
330
1D
100
AcDbEntity
  8
0
100
AcDbLine
 10
103.6048
 20
97.639014979195
 30
0.0
 11
106.2028
 21
97.639014979195
 31
0.0
  0
LINE
  5
22DA
330
1D
100
AcDbEntity
  8
0
100
AcDbLine
 10
104.3078
 20
97.639014979195
 30
0.0
 11
106.3458
 21
97.639014979195
 31
0.0
  0
LINE
  5
22DB
330
1D
100
AcDbEntity
  8
0
100
AcDbLine
 10
105.5318
 20
97.639014979195
 30
0.0
 11
106.3458
 21
97.639014979195
 31
0.0
  0
LINE
  5
22DC
330
1D
100
AcDbEntity
  8
0
100
AcDbLine
 10
106.2028
 20
97.639014979195
 30
0.0
 11
106.3458
 21
97.639014979195
 31
0.0
  0
LINE
  5
230F
330
1D
100
AcDbEntity
  8
0
100
AcDbLine
 10
123.6578
 20
97.639014979195
 30
0.0
 11
123.8008
 21
97.639014979195
 31
0.0
  0
LINE
  5
2310
330
1D
100
AcDbEntity
  8
0
100
AcDbLine
 10
123.6578
 20
97.639014979195
 30
0.0
 11
125.6968
 21
97.639014979195
 31
0.0
  0
LINE
  5
2313
330
1D
100
AcDbEntity
  8
0
100
AcDbLine
 10
123.8008
 20
97.639014979195
 30
0.0
 11
126.3988
 21
97.639014979195
 31
0.0
  0
LINE
  5
2314
330
1D
100
AcDbEntity
  8
0
100
AcDbLine
 10
126.3988
 20
97.639014979195
 30
0.0
 11
128.8298
 21
97.639014979195
 31
0.0
  0
LINE
  5
2315
330
1D
100
AcDbEntity
  8
0
100
AcDbLine
 10
125.6968
 20
97.639014979195
 30
0.0
 11
128.1778
 21
97.639014979195
 31
0.0
  0
LINE
  5
2316
330
1D
100
AcDbEntity
  8
0
100
AcDbLine
 10
125.5678
 20
97.639014979195
 30
0.0
 11
128.1648
 21
97.639014979195
 31
0.0
  0
LINE
  5
231C
330
1D
100
AcDbEntity
  8
0
100
AcDbLine
 10
141.1008
 20
79.121960684323
 30
0.0
 11
141.1008
 21
97.039014979196
 31
0.0
  0
LINE
  5
231D
330
1D
100
AcDbEntity
  8
0
100
AcDbLine
 10
141.1008
 20
97.039014979196
 30
0.0
 11
141.1008
 21
79.121960684323
 31
0.0
  0
LINE
  5
231E
330
1D
100
AcDbEntity
  8
0
100
AcDbLine
 10
134.7608
 20
97.639014979195
 30
0.0
 11
136.4618
 21
97.639014979195
 31
0.0
  0
LINE
  5
231F
330
1D
100
AcDbEntity
  8
0
100
AcDbLine
 10
134.7878
 20
97.639014979195
 30
0.0
 11
136.2318
 21
97.639014979195
 31
0.0
  0
LINE
  5
2320
330
1D
100
AcDbEntity
  8
0
100
AcDbLine
 10
135.8638
 20
97.639014979195
 30
0.0
 11
137.0848
 21
97.639014979195
 31
0.0
  0
LINE
  5
2322
330
1D
100
AcDbEntity
  8
0
100
AcDbLine
 10
130.4658
 20
97.639014979195
 30
0.0
 11
132.5298
 21
97.639014979195
 31
0.0
  0
LINE
  5
2323
330
1D
100
AcDbEntity
  8
0
100
AcDbLine
 10
132.5298
 20
97.639014979195
 30
0.0
 11
134.3368
 21
97.639014979195
 31
0.0
  0
LINE
  5
2324
330
1D
100
AcDbEntity
  8
0
100
AcDbLine
 10
132.7928
 20
97.639014979195
 30
0.0
 11
134.7608
 21
97.639014979195
 31
0.0
  0
LINE
  5
2325
330
1D
100
AcDbEntity
  8
0
100
AcDbLine
 10
130.5848
 20
97.639014979195
 30
0.0
 11
132.7928
 21
97.639014979195
 31
0.0
  0
LINE
  5
2326
330
1D
100
AcDbEntity
  8
0
100
AcDbLine
 10
131.9248
 20
97.639014979195
 30
0.0
 11
133.9938
 21
97.639014979195
 31
0.0
  0
LINE
  5
2327
330
1D
100
AcDbEntity
  8
0
100
AcDbLine
 10
129.6268
 20
97.639014979195
 30
0.0
 11
131.9248
 21
97.639014979195
 31
0.0
  0
LINE
  5
2328
330
1D
100
AcDbEntity
  8
0
100
AcDbLine
 10
131.0598
 20
97.639014979195
 30
0.0
 11
133.0548
 21
97.639014979195
 31
0.0
  0
LINE
  5
2329
330
1D
100
AcDbEntity
  8
0
100
AcDbLine
 10
134.3368
 20
97.639014979195
 30
0.0
 11
135.8638
 21
97.639014979195
 31
0.0
  0
LINE
  5
232A
330
1D
100
AcDbEntity
  8
0
100
AcDbLine
 10
133.0548
 20
97.639014979195
 30
0.0
 11
134.7878
 21
97.639014979195
 31
0.0
  0
LINE
  5
232C
330
1D
100
AcDbEntity
  8
0
100
AcDbLine
 10
141.0338
 20
97.289014979196
 30
0.0
 11
141.1008
 21
97.039014979196
 31
0.0
  0
LINE
  5
232D
330
1D
100
AcDbEntity
  8
0
100
AcDbLine
 10
138.9728
 20
97.639014979195
 30
0.0
 11
139.7508
 21
97.639014979195
 31
0.0
  0
LINE
  5
232E
330
1D
100
AcDbEntity
  8
0
100
AcDbLine
 10
139.0228
 20
99.520014979196
 30
0.0
 11
139.1678
 21
99.071714979196
 31
0.0
  0
LINE
  5
232F
330
1D
100
AcDbEntity
  8
0
100
AcDbLine
 10
136.2318
 20
97.639014979195
 30
0.0
 11
137.3658
 21
97.639014979195
 31
0.0
  0
LINE
  5
2330
330
1D
100
AcDbEntity
  8
0
100
AcDbLine
 10
137.3658
 20
97.639014979195
 30
0.0
 11
138.1748
 21
97.639014979195
 31
0.0
  0
LINE
  5
2331
330
1D
100
AcDbEntity
  8
0
100
AcDbLine
 10
137.0848
 20
97.639014979195
 30
0.0
 11
137.9848
 21
97.639014979195
 31
0.0
  0
LINE
  5
2332
330
1D
100
AcDbEntity
  8
0
100
AcDbLine
 10
137.3368
 20
97.639014979195
 30
0.0
 11
138.5648
 21
97.639014979195
 31
0.0
  0
LINE
  5
2333
330
1D
100
AcDbEntity
  8
0
100
AcDbLine
 10
138.5488
 20
97.639014979195
 30
0.0
 11
138.7698
 21
97.639014979195
 31
0.0
  0
LINE
  5
2334
330
1D
100
AcDbEntity
  8
0
100
AcDbLine
 10
137.9848
 20
97.639014979195
 30
0.0
 11
138.5488
 21
97.639014979195
 31
0.0
  0
LINE
  5
2335
330
1D
100
AcDbEntity
  8
0
100
AcDbLine
 10
137.8728
 20
97.639014979195
 30
0.0
 11
138.9728
 21
97.639014979195
 31
0.0
  0
LINE
  5
2336
330
1D
100
AcDbEntity
  8
0
100
AcDbLine
 10
138.1748
 20
97.639014979195
 30
0.0
 11
138.6448
 21
97.639014979195
 31
0.0
  0
LINE
  5
2337
330
1D
100
AcDbEntity
  8
0
100
AcDbLine
 10
138.6448
 20
97.639014979195
 30
0.0
 11
138.7698
 21
97.639014979195
 31
0.0
  0
LINE
  5
2338
330
1D
100
AcDbEntity
  8
0
100
AcDbLine
 10
138.751866072152
 20
101.089014979195
 30
0.0
 11
139.0228
 21
99.520014979196
 31
0.0
  0
LINE
  5
233B
330
1D
100
AcDbEntity
  8
0
100
AcDbLine
 10
140.0158
 20
98.639014979195
 30
0.0
 11
140.2948
 21
98.639014979195
 31
0.0
  0
LINE
  5
233C
330
1D
100
AcDbEntity
  8
0
100
AcDbLine
 10
139.7508
 20
97.639014979195
 30
0.0
 11
140.1928
 21
97.639014979195
 31
0.0
  0
LINE
  5
233D
330
1D
100
AcDbEntity
  8
0
100
AcDbLine
 10
140.1928
 20
97.639014979195
 30
0.0
 11
140.2948
 21
97.639014979195
 31
0.0
  0
LINE
  5
233E
330
1D
100
AcDbEntity
  8
0
100
AcDbLine
 10
139.1678
 20
99.071714979196
 30
0.0
 11
139.5258
 21
98.753814979196
 31
0.0
  0
LINE
  5
233F
330
1D
100
AcDbEntity
  8
0
100
AcDbLine
 10
139.5258
 20
98.753814979196
 30
0.0
 11
140.0158
 21
98.639014979195
 31
0.0
  0
LINE
  5
2340
330
1D
100
AcDbEntity
  8
0
100
AcDbLine
 10
140.8508
 20
97.472014979196
 30
0.0
 11
141.0338
 21
97.289014979196
 31
0.0
  0
LINE
  5
2341
330
1D
100
AcDbEntity
  8
0
100
AcDbLine
 10
140.2948
 20
97.639014979195
 30
0.0
 11
140.3948
 21
97.665814979195
 31
0.0
  0
LINE
  5
2342
330
1D
100
AcDbEntity
  8
0
100
AcDbLine
 10
140.4678
 20
97.739014979195
 30
0.0
 11
140.4948
 21
97.839014979195
 31
0.0
  0
LINE
  5
2343
330
1D
100
AcDbEntity
  8
0
100
AcDbLine
 10
140.3948
 20
97.665814979195
 30
0.0
 11
140.4678
 21
97.739014979195
 31
0.0
  0
LINE
  5
2344
330
1D
100
AcDbEntity
  8
0
100
AcDbLine
 10
140.2948
 20
98.639014979195
 30
0.0
 11
140.3948
 21
98.612214979195
 31
0.0
  0
LINE
  5
2345
330
1D
100
AcDbEntity
  8
0
100
AcDbLine
 10
140.4678
 20
98.539014979196
 30
0.0
 11
140.4948
 21
98.439014979196
 31
0.0
  0
LINE
  5
2346
330
1D
100
AcDbEntity
  8
0
100
AcDbLine
 10
140.3948
 20
98.612214979195
 30
0.0
 11
140.4678
 21
98.539014979196
 31
0.0
  0
LINE
  5
2347
330
1D
100
AcDbEntity
  8
0
100
AcDbLine
 10
140.4948
 20
97.839014979195
 30
0.0
 11
140.4948
 21
98.439014979196
 31
0.0
  0
LINE
  5
2348
330
1D
100
AcDbEntity
  8
0
100
AcDbLine
 10
140.4948
 20
98.439014979196
 30
0.0
 11
140.4948
 21
97.839014979195
 31
0.0
  0
LINE
  5
2349
330
1D
100
AcDbEntity
  8
0
100
AcDbLine
 10
140.8508
 20
97.472014979196
 30
0.0
 11
140.613724827006
 21
97.602820160907
 31
0.0
  0
LINE
  5
234A
330
1D
100
AcDbEntity
  8
0
100
AcDbLine
 10
140.613724827006
 20
97.602820160907
 30
0.0
 11
140.2948
 21
97.639014979195
 31
0.0
  0
LINE
  5
238D
330
1D
100
AcDbEntity
  8
0
100
AcDbLine
 10
219.1728
 20
77.952614979196
 30
0.0
 11
230.0148
 21
2.690614979195
 31
0.0
  0
LINE
  5
238E
330
1D
100
AcDbEntity
  8
0
100
AcDbLine
 10
219.8898
 20
2.119314979195
 30
0.0
 11
223.2368
 21
2.119314979195
 31
0.0
  0
LINE
  5
238F
330
1D
100
AcDbEntity
  8
0
100
AcDbLine
 10
219.2428
 20
2.119314979195
 30
0.0
 11
222.6888
 21
2.119314979195
 31
0.0
  0
LINE
  5
2390
330
1D
100
AcDbEntity
  8
0
100
AcDbLine
 10
217.7048
 20
2.119314979195
 30
0.0
 11
221.0218
 21
2.119314979195
 31
0.0
  0
LINE
  5
2391
330
1D
100
AcDbEntity
  8
0
100
AcDbLine
 10
209.0818
 20
2.119314979195
 30
0.0
 11
212.6378
 21
2.119314979195
 31
0.0
  0
LINE
  5
2392
330
1D
100
AcDbEntity
  8
0
100
AcDbLine
 10
212.6378
 20
2.119314979195
 30
0.0
 11
216.0268
 21
2.119314979195
 31
0.0
  0
LINE
  5
2393
330
1D
100
AcDbEntity
  8
0
100
AcDbLine
 10
210.8108
 20
2.119314979195
 30
0.0
 11
215.3028
 21
2.119314979195
 31
0.0
  0
LINE
  5
2394
330
1D
100
AcDbEntity
  8
0
100
AcDbLine
 10
216.0268
 20
2.119314979195
 30
0.0
 11
219.8898
 21
2.119314979195
 31
0.0
  0
LINE
  5
2395
330
1D
100
AcDbEntity
  8
0
100
AcDbLine
 10
215.3028
 20
2.119314979195
 30
0.0
 11
219.2428
 21
2.119314979195
 31
0.0
  0
LINE
  5
2396
330
1D
100
AcDbEntity
  8
0
100
AcDbLine
 10
213.8068
 20
2.119314979195
 30
0.0
 11
217.7048
 21
2.119314979195
 31
0.0
  0
LINE
  5
2397
330
1D
100
AcDbEntity
  8
0
100
AcDbLine
 10
209.5078
 20
2.119314979195
 30
0.0
 11
213.8068
 21
2.119314979195
 31
0.0
  0
LINE
  5
2398
330
1D
100
AcDbEntity
  8
0
100
AcDbLine
 10
221.0218
 20
2.119314979195
 30
0.0
 11
223.6068
 21
2.119314979195
 31
0.0
  0
LINE
  5
2399
330
1D
100
AcDbEntity
  8
0
100
AcDbLine
 10
223.2368
 20
2.119314979195
 30
0.0
 11
225.9668
 21
2.119314979195
 31
0.0
  0
LINE
  5
239A
330
1D
100
AcDbEntity
  8
0
100
AcDbLine
 10
225.9668
 20
2.119314979195
 30
0.0
 11
227.9658
 21
2.119314979195
 31
0.0
  0
LINE
  5
239B
330
1D
100
AcDbEntity
  8
0
100
AcDbLine
 10
227.9658
 20
2.119314979195
 30
0.0
 11
229.1648
 21
2.119314979195
 31
0.0
  0
LINE
  5
239C
330
1D
100
AcDbEntity
  8
0
100
AcDbLine
 10
229.1648
 20
2.119314979195
 30
0.0
 11
229.5198
 21
2.119314979195
 31
0.0
  0
LINE
  5
239D
330
1D
100
AcDbEntity
  8
0
100
AcDbLine
 10
229.0158
 20
2.119314979195
 30
0.0
 11
229.5198
 21
2.119314979195
 31
0.0
  0
LINE
  5
239E
330
1D
100
AcDbEntity
  8
0
100
AcDbLine
 10
229.5198
 20
2.119314979195
 30
0.0
 11
229.7898
 21
2.198714979195
 31
0.0
  0
LINE
  5
239F
330
1D
100
AcDbEntity
  8
0
100
AcDbLine
 10
227.6728
 20
2.119314979195
 30
0.0
 11
229.0158
 21
2.119314979195
 31
0.0
  0
LINE
  5
23A0
330
1D
100
AcDbEntity
  8
0
100
AcDbLine
 10
225.5398
 20
2.119314979195
 30
0.0
 11
227.6728
 21
2.119314979195
 31
0.0
  0
LINE
  5
23A1
330
1D
100
AcDbEntity
  8
0
100
AcDbLine
 10
222.6888
 20
2.119314979195
 30
0.0
 11
225.5398
 21
2.119314979195
 31
0.0
  0
LINE
  5
23A2
330
1D
100
AcDbEntity
  8
0
100
AcDbLine
 10
229.7898
 20
2.198714979195
 30
0.0
 11
229.9748
 21
2.411714979195
 31
0.0
  0
LINE
  5
23A3
330
1D
100
AcDbEntity
  8
0
100
AcDbLine
 10
229.9748
 20
2.411714979195
 30
0.0
 11
230.0148
 21
2.690614979195
 31
0.0
  0
LINE
  5
23A4
330
1D
100
AcDbEntity
  8
0
100
AcDbLine
 10
218.1148
 20
78.810514979195
 30
0.0
 11
218.7578
 21
78.561214979196
 31
0.0
  0
LINE
  5
23A5
330
1D
100
AcDbEntity
  8
0
100
AcDbLine
 10
218.7578
 20
78.561214979196
 30
0.0
 11
219.1728
 21
77.952614979196
 31
0.0
  0
LINE
  5
23AC
330
1D
100
AcDbEntity
  8
0
100
AcDbLine
 10
104.84505
 20
24.395414979195
 30
0.0
 11
125.15855
 21
24.395414979195
 31
0.0
  0
LINE
  5
23AD
330
1D
100
AcDbEntity
  8
0
100
AcDbLine
 10
105.5318
 20
97.639014979195
 30
0.0
 11
125.6968
 21
97.639014979195
 31
0.0
  0
ENDSEC
  0
SECTION
  2
OBJECTS
  0
DICTIONARY
  5
C
330
0
100
AcDbDictionary
281
     1
  3
ACAD_GROUP
350
D
  3
ACAD_LAYOUT
350
1A
  3
ACAD_MLEADERSTYLE
350
23A8
  3
ACAD_MLINESTYLE
350
17
  3
ACAD_PLOTSETTINGS
350
19
  3
ACAD_PLOTSTYLENAME
350
E
  3
ACAD_SCALELIST
350
D8C
  3
AcDbVariableDictionary
350
23A6
  3
DWGPROPS
350
23AF
  0
DICTIONARY
  5
D
102
{ACAD_REACTORS
330
C
102
}
330
C
100
AcDbDictionary
281
     1
  0
DICTIONARY
  5
1A
102
{ACAD_REACTORS
330
C
102
}
330
C
100
AcDbDictionary
281
     1
  3
Layout1
350
1C
  3
Model
350
1E
  0
DICTIONARY
  5
23A8
102
{ACAD_REACTORS
330
C
102
}
330
C
100
AcDbDictionary
281
     1
  0
DICTIONARY
  5
17
102
{ACAD_REACTORS
330
C
102
}
330
C
100
AcDbDictionary
281
     1
  3
Standard
350
18
  0
DICTIONARY
  5
19
102
{ACAD_REACTORS
330
C
102
}
330
C
100
AcDbDictionary
281
     1
  0
ACDBDICTIONARYWDFLT
  5
E
102
{ACAD_REACTORS
330
C
102
}
330
C
100
AcDbDictionary
281
     1
  3
Normal
350
F
100
AcDbDictionaryWithDefault
340
F
  0
DICTIONARY
  5
D8C
102
{ACAD_REACTORS
330
C
102
}
330
C
100
AcDbDictionary
281
     1
  3
A0
350
D8D
  3
A1
350
D8E
  3
A2
350
D8F
  3
A3
350
D90
  3
A4
350
D91
  3
A5
350
D92
  3
A6
350
D93
  3
A7
350
D94
  3
A8
350
D95
  3
A9
350
D96
  3
B0
350
D97
  3
B1
350
D98
  3
B2
350
D99
  3
B3
350
D9A
  3
B4
350
D9B
  3
B5
350
D9C
  3
B6
350
D9D
  3
B7
350
D9E
  3
B8
350
D9F
  3
B9
350
DA0
  3
C0
350
DA1
  3
C1
350
DA2
  3
C2
350
DA3
  3
C3
350
DA4
  3
C4
350
DA5
  3
C5
350
DA6
  3
C6
350
DA7
  3
C7
350
DA8
  3
C8
350
DA9
  3
C9
350
DAA
  3
D0
350
DAB
  3
D1
350
DAC
  3
D2
350
DAD
  0
DICTIONARY
  5
23A6
102
{ACAD_REACTORS
330
C
102
}
330
C
100
AcDbDictionary
281
     1
  3
CANNOSCALE
350
23A9
  0
XRECORD
  5
23AF
102
{ACAD_REACTORS
330
C
102
}
330
C
100
AcDbXrecord
280
     1
  1
DWGPROPS COOKIE
  2

  3

  4

  6

  7

  8
MARTIN
  9

300
=
301
=
302
=
303
=
304
=
305
=
306
=
307
=
308
=
309
=
 40
0.0
 41
2456647.84593713
 42
2456647.851722002
  1

 90
        0
  0
LAYOUT
  5
1C
102
{ACAD_REACTORS
330
1A
102
}
330
1A
100
AcDbPlotSettings
  1

  2
none_device
  4

  6

 40
0.0
 41
0.0
 42
0.0
 43
0.0
 44
0.0
 45
0.0
 46
0.0
 47
0.0
 48
0.0
 49
0.0
140
0.0
141
0.0
142
1.0
143
1.0
 70
   688
 72
     0
 73
     0
 74
     5
  7

 75
    16
147
1.0
148
0.0
149
0.0
100
AcDbLayout
  1
Layout1
 70
     1
 71
     1
 10
0.0
 20
0.0
 11
12.0
 21
9.0
 12
0.0
 22
0.0
 32
0.0
 14
1.000000000000E+20
 24
1.000000000000E+20
 34
1.000000000000E+20
 15
-1.000000000000E+20
 25
-1.000000000000E+20
 35
-1.000000000000E+20
146
0.0
 13
0.0
 23
0.0
 33
0.0
 16
1.0
 26
0.0
 36
0.0
 17
0.0
 27
1.0
 37
0.0
 76
     0
330
1B
  0
LAYOUT
  5
1E
102
{ACAD_REACTORS
330
1A
102
}
330
1A
100
AcDbPlotSettings
  1

  2
none_device
  4

  6

 40
0.0
 41
0.0
 42
0.0
 43
0.0
 44
0.0
 45
0.0
 46
0.0
 47
0.0
 48
0.0
 49
0.0
140
0.0
141
0.0
142
1.0
143
1.0
 70
  1712
 72
     0
 73
     0
 74
     0
  7

 75
     0
147
1.0
148
0.0
149
0.0
100
AcDbLayout
  1
Model
 70
     1
 71
     0
 10
0.0
 20
0.0
 11
12.0
 21
9.0
 12
0.0
 22
0.0
 32
0.0
 14
-0.0018
 24
2.119314979195
 34
0.0
 15
230.0148
 25
182.584014979195
 35
0.0
146
0.0
 13
0.0
 23
0.0
 33
0.0
 16
1.0
 26
0.0
 36
0.0
 17
0.0
 27
1.0
 37
0.0
 76
     0
330
1D
331
D87
  0
MLINESTYLE
  5
18
102
{ACAD_REACTORS
330
17
102
}
330
17
100
AcDbMlineStyle
  2
Standard
 70
     0
  3

 62
   256
 51
90.0
 52
90.0
 71
     2
 49
0.5
 62
   256
  6
BYLAYER
 49
-0.5
 62
   256
  6
BYLAYER
  0
ACDBPLACEHOLDER
  5
F
102
{ACAD_REACTORS
330
E
102
}
330
E
  0
SCALE
  5
D8D
102
{ACAD_REACTORS
330
D8C
102
}
330
D8C
100
AcDbScale
 70
     0
300
1:1
140
1.0
141
1.0
290
     1
  0
SCALE
  5
D8E
102
{ACAD_REACTORS
330
D8C
102
}
330
D8C
100
AcDbScale
 70
     0
300
1:2
140
1.0
141
2.0
290
     0
  0
SCALE
  5
D8F
102
{ACAD_REACTORS
330
D8C
102
}
330
D8C
100
AcDbScale
 70
     0
300
1:4
140
1.0
141
4.0
290
     0
  0
SCALE
  5
D90
102
{ACAD_REACTORS
330
D8C
102
}
330
D8C
100
AcDbScale
 70
     0
300
1:5
140
1.0
141
5.0
290
     0
  0
SCALE
  5
D91
102
{ACAD_REACTORS
330
D8C
102
}
330
D8C
100
AcDbScale
 70
     0
300
1:8
140
1.0
141
8.0
290
     0
  0
SCALE
  5
D92
102
{ACAD_REACTORS
330
D8C
102
}
330
D8C
100
AcDbScale
 70
     0
300
1:10
140
1.0
141
10.0
290
     0
  0
SCALE
  5
D93
102
{ACAD_REACTORS
330
D8C
102
}
330
D8C
100
AcDbScale
 70
     0
300
1:16
140
1.0
141
16.0
290
     0
  0
SCALE
  5
D94
102
{ACAD_REACTORS
330
D8C
102
}
330
D8C
100
AcDbScale
 70
     0
300
1:20
140
1.0
141
20.0
290
     0
  0
SCALE
  5
D95
102
{ACAD_REACTORS
330
D8C
102
}
330
D8C
100
AcDbScale
 70
     0
300
1:30
140
1.0
141
30.0
290
     0
  0
SCALE
  5
D96
102
{ACAD_REACTORS
330
D8C
102
}
330
D8C
100
AcDbScale
 70
     0
300
1:40
140
1.0
141
40.0
290
     0
  0
SCALE
  5
D97
102
{ACAD_REACTORS
330
D8C
102
}
330
D8C
100
AcDbScale
 70
     0
300
1:50
140
1.0
141
50.0
290
     0
  0
SCALE
  5
D98
102
{ACAD_REACTORS
330
D8C
102
}
330
D8C
100
AcDbScale
 70
     0
300
1:100
140
1.0
141
100.0
290
     0
  0
SCALE
  5
D99
102
{ACAD_REACTORS
330
D8C
102
}
330
D8C
100
AcDbScale
 70
     0
300
2:1
140
2.0
141
1.0
290
     0
  0
SCALE
  5
D9A
102
{ACAD_REACTORS
330
D8C
102
}
330
D8C
100
AcDbScale
 70
     0
300
4:1
140
4.0
141
1.0
290
     0
  0
SCALE
  5
D9B
102
{ACAD_REACTORS
330
D8C
102
}
330
D8C
100
AcDbScale
 70
     0
300
8:1
140
8.0
141
1.0
290
     0
  0
SCALE
  5
D9C
102
{ACAD_REACTORS
330
D8C
102
}
330
D8C
100
AcDbScale
 70
     0
300
10:1
140
10.0
141
1.0
290
     0
  0
SCALE
  5
D9D
102
{ACAD_REACTORS
330
D8C
102
}
330
D8C
100
AcDbScale
 70
     0
300
100:1
140
100.0
141
1.0
290
     0
  0
SCALE
  5
D9E
102
{ACAD_REACTORS
330
D8C
102
}
330
D8C
100
AcDbScale
 70
     0
300
1/128" = 1'-0"
140
0.0078125
141
12.0
290
     0
  0
SCALE
  5
D9F
102
{ACAD_REACTORS
330
D8C
102
}
330
D8C
100
AcDbScale
 70
     0
300
1/64" = 1'-0"
140
0.015625
141
12.0
290
     0
  0
SCALE
  5
DA0
102
{ACAD_REACTORS
330
D8C
102
}
330
D8C
100
AcDbScale
 70
     0
300
1/32" = 1'-0"
140
0.03125
141
12.0
290
     0
  0
SCALE
  5
DA1
102
{ACAD_REACTORS
330
D8C
102
}
330
D8C
100
AcDbScale
 70
     0
300
1/16" = 1'-0"
140
0.0625
141
12.0
290
     0
  0
SCALE
  5
DA2
102
{ACAD_REACTORS
330
D8C
102
}
330
D8C
100
AcDbScale
 70
     0
300
3/32" = 1'-0"
140
0.09375
141
12.0
290
     0
  0
SCALE
  5
DA3
102
{ACAD_REACTORS
330
D8C
102
}
330
D8C
100
AcDbScale
 70
     0
300
1/8" = 1'-0"
140
0.125
141
12.0
290
     0
  0
SCALE
  5
DA4
102
{ACAD_REACTORS
330
D8C
102
}
330
D8C
100
AcDbScale
 70
     0
300
3/16" = 1'-0"
140
0.1875
141
12.0
290
     0
  0
SCALE
  5
DA5
102
{ACAD_REACTORS
330
D8C
102
}
330
D8C
100
AcDbScale
 70
     0
300
1/4" = 1'-0"
140
0.25
141
12.0
290
     0
  0
SCALE
  5
DA6
102
{ACAD_REACTORS
330
D8C
102
}
330
D8C
100
AcDbScale
 70
     0
300
3/8" = 1'-0"
140
0.375
141
12.0
290
     0
  0
SCALE
  5
DA7
102
{ACAD_REACTORS
330
D8C
102
}
330
D8C
100
AcDbScale
 70
     0
300
1/2" = 1'-0"
140
0.5
141
12.0
290
     0
  0
SCALE
  5
DA8
102
{ACAD_REACTORS
330
D8C
102
}
330
D8C
100
AcDbScale
 70
     0
300
3/4" = 1'-0"
140
0.75
141
12.0
290
     0
  0
SCALE
  5
DA9
102
{ACAD_REACTORS
330
D8C
102
}
330
D8C
100
AcDbScale
 70
     0
300
1" = 1'-0"
140
1.0
141
12.0
290
     0
  0
SCALE
  5
DAA
102
{ACAD_REACTORS
330
D8C
102
}
330
D8C
100
AcDbScale
 70
     0
300
1-1/2" = 1'-0"
140
1.5
141
12.0
290
     0
  0
SCALE
  5
DAB
102
{ACAD_REACTORS
330
D8C
102
}
330
D8C
100
AcDbScale
 70
     0
300
3" = 1'-0"
140
3.0
141
12.0
290
     0
  0
SCALE
  5
DAC
102
{ACAD_REACTORS
330
D8C
102
}
330
D8C
100
AcDbScale
 70
     0
300
6" = 1'-0"
140
6.0
141
12.0
290
     0
  0
SCALE
  5
DAD
102
{ACAD_REACTORS
330
D8C
102
}
330
D8C
100
AcDbScale
 70
     0
300
1'-0" = 1'-0"
140
12.0
141
12.0
290
     0
  0
DICTIONARYVAR
  5
23A9
102
{ACAD_REACTORS
330
23A6
102
}
330
23A6
100
DictionaryVariables
280
     0
  1
1:1
  0
ENDSEC
  0
SECTION
  2
THUMBNAILIMAGE
 90
    16364
310
28000000B40000005500000001000800000000000000000000000000000000000000000000000000FFFFFF000000FF0000FFFF0000FF0000FFFF0000FF000000FF00FF000000000080808000C0C0C0000000FF007F7FFF000000A5005252A50000007F003F3F7F0000004C0026264C000000260013132600003FFF007F9FFF
310
000029A5005267A500001F7F003F4F7F0000134C00262F4C000009260013172600007FFF007FBFFF000052A500527CA500003F7F003F5F7F0000264C0026394C0000132600131C260000BFFF007FDFFF00007CA5005291A500005F7F003F6F7F0000394C0026424C00001C26001321260000FFFF007FFFFF0000A5A50052A5
310
A500007F7F003F7F7F00004C4C00264C4C00002626001326260000FFBF007FFFDF0000A57C0052A59100007F5F003F7F6F00004C3900264C420000261C001326210000FF7F007FFFBF0000A5520052A57C00007F3F003F7F5F00004C2600264C39000026130013261C0000FF3F007FFF9F0000A5290052A56700007F1F003F
310
7F4F00004C1300264C2F00002609001326170000FF00007FFF7F0000A5000052A55200007F00003F7F3F00004C0000264C260000260000132613003FFF00009FFF7F0029A5000067A552001F7F00004F7F3F00134C00002F4C260009260000172613007FFF0000BFFF7F0052A500007CA552003F7F00005F7F3F00264C0000
310
394C2600132600001C261300BFFF0000DFFF7F007CA5000091A552005F7F00006F7F3F00394C0000424C26001C26000021261300FFFF0000FFFF7F00A5A50000A5A552007F7F00007F7F3F004C4C00004C4C26002626000026261300FFBF0000FFDF7F00A57C0000A59152007F5F00007F6F3F004C3900004C422600261C00
310
0026211300FF7F0000FFBF7F00A5520000A57C52007F3F00007F5F3F004C2600004C39260026130000261C1300FF3F0000FF9F7F00A5290000A56752007F1F00007F4F3F004C1300004C2F26002609000026171300FF000000FF7F7F00A5000000A55252007F0000007F3F3F004C0000004C2626002600000026131300FF00
310
3F00FF7F9F00A5002900A55267007F001F007F3F4F004C0013004C262F002600090026131700FF007F00FF7FBF00A5005200A5527C007F003F007F3F5F004C0026004C2639002600130026131C00FF00BF00FF7FDF00A5007C00A55291007F005F007F3F6F004C0039004C26420026001C0026132100FF00FF00FF7FFF00A5
310
00A500A552A5007F007F007F3F7F004C004C004C264C002600260026132600BF00FF00DF7FFF007C00A5009152A5005F007F006F3F7F0039004C0042264C001C002600211326007F00FF00BF7FFF005200A5007C52A5003F007F005F3F7F0026004C0039264C00130026001C1326003F00FF009F7FFF002900A5006752A500
310
1F007F004F3F7F0013004C002F264C000900260017132600000000002D2D2D005B5B5B0089898900B7B7B700B3B3B30000000000000000000000000000000000000000000000000000000000000000000000000000000000000000000000000000000000000000000000000000000000000000000000000000000000000000
310
00000000000000000000000000000000000000000000000000000000000000000000070707070000000000000000000000000000000000000000000000000000000000000000000000000000000000000000000000000000000000000000000000000000000000000000000000000000000000000000000000000000000000
310
00000000000000000000000000000000000000000000000000000000000000000000000000000000000000000000000000000000000000000000000000000000000000000000000000000000000000000000000000000007070707000000000000000000000000000000000000000000000000000000000000000000000000
310
00000000000000000000000000000000000000000000000000000000000000000000000000000000000000000000000000000000000000000000000000000000000000000000000000000000000000000000000000000000000000000000000000000000000000000000000000000000000000000000000000000000000000
310
00000000000000000000000000070000070000000000000000000000000000000000000000000000000000000000000000000000000000000000000000000000000000000000000000000000000000000000000000000000000000000000000000000000000000000000000000000000000000000000000000000000000000
310
00000000000000000000000000000000000000000000000000000000000000000000000000000000000000000000000000000000000000000000000000000000000007070707000000000000000000000000000000000000000000000000000000000000000000000000000000000000000000000000000000000000000000
310
00000000000000000000000000000000000000000000000000000000000000000000000000000000000000000000000000000000000000000000000000000000000000000000000000000000000000000000000000000000000000000000000000000000000000000000000000000000000000000000000707070700000000
310
00000000000000000000000000000000000000000000000000000000000000000000000000000000000000000000000000000000000000000000000000000000000000000000000000000000000000000000000000000000000000000000000000000000000000000000000000000000000000000000000000000000000000
310
00000000000000000000000000000000000000000000000000000000000000000000000000000000000000000007070707000000000000000000000000000000000000000000000000000000000000000000000000000000000000000000000000000000000000000000000000000000000000000000000000000000000000
310
00000000000000000000000000000000000000000000000000000000000000000000000000000000000000000000000000000000000000000000000000000000000000000000000000000000000000000000000000000000000000000000000000000700000700000000000000000000000000000000000000000000000000
310
00000000000000000000000000000000000000000000000000000000000000000000000000000000000000000000000000000000000000000000000000000000000000000000000000000000000000000000000000000000000000000000000000000000000000000000000000000000000000000000000000000000000000
310
00000000000000000000000000000000000000000000000007070707000000000000000000000000000000000000000000000000000000000000000000000000000000000000000000000000000000000000000000000000000000000000000000000000000000000000000000000000000000000000000000000000000000
310
00000000000000000000000000000000000000000000000000000000000000000000000000000000000000000000000000000000000000000000000000000000000000000000000000000000000707070700000000000000000000000000000000000000000000000000000000000000000000000000000000000000000000
310
00000000000000000000000000000000000000000000000000000000000000000000000000000000000000000000000000000000000000000000000000000000000000000000000000000000000000000000000000000000000000000000000000000000000000000000000000000000000000000000000000000000000000
310
00000007070707000000000000000000000000000000000000000000000000000000000000000000000000000000000000000000000000000000000000000000000000000000000000000000000000000000000000000000000000000000000000000000000000000000000000000000000000000000000000000000000000
310
00000000000000000000000000000000000000000000000000000000000000000000000000000000000000000000000000000000000000000700000700000000000000000000000000000000000000000000000000000000000000000000000000000000000000000000000000000000000000000000000000000000000000
310
00000000000000000000000000000000000000000000000000000000000000000000000000000000000000000000000000000000000000000000000000000000000000000000000000000000000000000000000000000000000000000000000000000000000000000000000000070707070000000000000000000000000000
310
00000000000000000000000000000000000000000000000000000000000000000000000000000000000000000000000000000000000000000000000000000000000000000000000000000000000000000000000000000000000000000000000000000000000000000000000000000000000000000000000000000000000000
310
00000000000000000000000000000000000000000000000000000000000000000000000707070700000000000000000000000000000000000000000000000000000000000000000000000000000000000000000000000000000000000000000000000000000000000000000000000000000000000000000000000000000000
310
00000000000000000000000000000000000000000000000000000000000000000000000000000000000000000000000000000000000000000000000000000000000000000000000000000000000000000000000000000000070707070000000000000000000000000000000000000000000000000000000000000000000000
310
00000000000000000000000000000000000000000000000000000000000000000000000000000000000000000000000000000000000000000000000000000000000000000000000000000000000000000000000000000000000000000000000000000000000000000000000000000000000000000000000000000000000000
310
00000000000000000000000000000700000700000000000000000000000000000000000000000000000000000000000000000000000000000000000000000000000000000000000000000000000000000000000000000000000000000000000000000000000000000000000000000000000000000000000000000000000000
310
00000000000000000000000000000000000000000000000000000000000000000000000000000000000000000000000000000000000000000000000000000000000000070707070000000000000000000000000000000000000000000000000000000000000000000000000000000000000000000000000000000000000000
310
00000000000000000000000000000000000000000000000000000000000000000000000000000000000000000000000000000000000000000000000000000000000000000000000000000000000000000000000000000000000000000000000000000000000000000000000000000000000000000000000007070707000000
310
00000000000000000000000000000000000000000000000000000000000000000000000000000000000000000000000000000000000000000000000000000000000000000000000000000000000000000000000000000000000000000000000000000000000000000000000000000000000000000000000000000000000000
310
00000000000000000000000000000000000000000000000000000000000000000000000000000000000000000000070707070000000000000000000000000000000000000000000000000000000000000000000000000000000000000000000000000000000000000000000000000000000000000000000000000000000000
310
00000000000000000000000000000000000000000000000000000000000000000000000000000000000000000000000000000000000000000000000000000000000000000000000000000000000000000000000000000000000000000000000000000007000007000000000000000000000000000000000000000000000000
310
00000000000000000000000000000000000000000000000000000000000000000000000000000000000000000000000000000000000000000000000000000000000000000000000000000000000000000000000000000000000000000000000000000000000000000000000000000000000000000000000000000000000000
310
00000000000000000000000000000000000000000000000000070707070000000000000000000000000000000000000000000000000000000000000000000000000000000000000000000000000000000000000000000000000000000000000000000000000000000000000000000000000000000000000000000000000000
310
00000000000000000000000000000000000000000000000000000000000000000000000000000000000000000000000000000000000000000000000000000000000000000000000000000000000007070707000000000000000000000000000000000000000000000000000000000000000000000000000000000000000000
310
00000000000000000000000000000000000000000000000000000000000000000000000000000000000000000000000000000000000000000000000000000000000000000000000000000000000000000000000000000000000000000000000000000000000000000000000000000000000000000000000000000000000000
310
00000000070707070000000000000000000000000000000000000000000000000000000000000000000000000000000000000000000000000000000000000000000000000000000000000000000000000000000000000000000000000000000000000000000000000000000000000000000000000000000000000000000000
310
00000000000000000000000000000000000000000000000000000000000000000000000000000000000000000000000000000000000000000007070707000000000000000000000000000000000000000000000000000000000000000000000000000000000000000000000000000000000000000000000000000000000000
310
00000000000000000000000000000000000000000000000000000000000000000000000000000000000000000000000000000000000000000000000000000000000000000000000000000000000000000000000000000000000000000000000000000000000000000000000000000700000700000000000000000000000000
310
00000000000000000000000000000000000000000000000000000000000000000000000000000000000000000000000000000000000000000000000000000000000000000000000000000000000000000000000000000000000000000000000000000000000000000000000000000000000000000000000000000000000000
310
00000000000000000000000000000000000000000000000000000000000000000000000007070707000000000000000000000000000000000000000000000000000000000000000000000000000000000000000000000000000000000000000000000000000000000000000000000000000000000000000000000000000000
310
00000000000000000000000000000000000000000000000000000000000000000000000000000000000000000000000000000000070700000000000000000000000000000000000000000000000000000000000000000000000707070700000000000000000000000000000000000000000000000000000000000000000000
310
00000000000000000000000000000000000000000000000000000000000000000000000000000000000000000000000000000000000000000000000000000000000000000000000000000000000000000000000000000000000000000000000000000000000000000007070700000000000000000000000000000000000000
310
00000000000000000000000000000007070707000000000000000000000000000000000000000000000000000000000000000000000000000000000000000000000000000000000000000000000000000000000000000000000000000000000000000000000000000000000000000000000000000000000000000000000000
310
00000000000000000000000000000000000000000000000000000000000000070007000000000000000000000000000000000000000000000000000000000000000000000700000700000000000000000000000000000000000000000000000000000000000000000000000000000000000000000000000000000000000000
310
00000000000000000000000000000000000000000000000000000000000000000000000000000000000000000000000000000000000000000000000000000000000000000000000000000000000000000000000007000700000000000000000000000000000000000000000000000000000000000000000000070707070000
310
00000000000000000000000000000000000000000000000000000000000000000000000000000000000000000000000000000000000000000000000000000000000000000000000000000000000000000000000000000000000000000000000000000000000000000000000000000000000000000000000000000000000000
310
00000000000000000000070007000000000000000000000000000000000000000000000000000000000000000000000707070700000000000000000000000000000000000000000000000000000000000000000000000000000000000000000000000000000000000000000000000000000000000000000000000000000000
310
00000000000000000000000000000000000000000000000000000000000000000000000000000000000000000000000000000000000000000000000000000007000700000000000000000000000000000000000000000000000000000000000000000000070707070000000000000000000000000000000000000000000000
310
00000000000000000000000000000000000000000000000000000000000000000000000000000000000000000000000000000000000000000000000000000000000000000000000000000000000000000000000000000000000000000000000000000000000000000000000000000000000000000700070000000000000000
310
00000000000000000000000000000000000000000000000000000700000700000000000000000000000000000000000000000000000000000000000000000000000000000000000000000000000000000000000000000000000000000000000000000000000000000000000000000000000000000000000000000000000000
310
00000000000000000000000000000000000000000000000000000000000000000000000000000000000007000700000000000000000000000000000000000000000000000000000000000000000000070707070000000000000000000000000000000000000000000000000000000000000000000000000000000000000000
310
00000000000000000000000000000000000000000000000000000000000000000000000000000000000000000000000000000000000000000000000000000000000000000000000000000000000000000000000000000000000000000000000700070000000000000000000000000000000000000000000000000000000000
310
00000000000707070700000000000000000000000000000000000000000000000000000000000000000000000000000000000000000000000000000000000000000000000000000000000000000000000000000000000000000000000000000000000000000000000000000000000000000000000000000000000000000000
310
00000007070707070707070700000000000000000007000700000000000000000007070707070707070700000000000000000000000000000000070707070000000000000000000000000000000000000000000000000000000000000000000000000000000000000000000000000000000000000000000000000000000000
310
00000000000000000000000000000000000000000000000000000000000000000000000000000000000000000000000000000000000000000700000000000000000700000000000000000707070700000000000000070700000000000000070000000000000000000000000000000007000007000000000000000000000000
310
00000000000000000000000000000000000000000000000000000000000000000000000000000000000000000000000000000000000000000000000000000000000000000000000000000000000000000000000000000000000000000000000000000000000000000000000000070000000000000000070700000000000000
310
07000007000000000000070700000000000000000700000000000000000000000000000000070707070000000000000000000000000000000000000000000000000000000000000000000000000000000000000000000000000000000000000000000000000000000000000000000000000000000000000000000000000000
310
00000000000000000000000000000000000000000000000000000000000000000000000700000000000000000007070707000000000700000700000007070707000000000000000007000000000000000000000000000000000007070707000000000000000000000000000000000000000000000000000000000000000000
310
00000000000000000000000000000000000000000000000000000000000000000000000000000000000000000000000000000000000000000000000000000000000000000000000000000000000000000000000000000000000700000000000000000000000007070707000000070707070000000000000000000000000700
310
00000000000000000000000000000000070707070000000000000000000000000000000000000000000000000000000000000000000000000000000000000000000000000000000000000000000000000000000000000000000000000000000000000000000000000000000000000000000000000000000000000000000000
310
00000000000000000000000000000007000000000000000000000000000000070000000700000000000000000000000000000007000000000000000000000000000000000007070707000000000000000000000000000000000000000000000000000000000000000000000000000000000000000000000000000000000000
310
00000000000000000000000000000000000000000000000000000000000000000000000000000000000000000000000000000000000000000000000000000000000000000700000000000000000000000000000007070707070000000000000000000000000000000700000000000000000000000000000000000707000700
310
00000000000000000000000000000000000000000000000000000000000000000000000000000000000000000000000000000000000000000000000000000000000000000000000000000000000000000000000000000000000000000000000000000000000000000000000000000000000000000000000000070000000000
310
00000000000000000000070707070700000000000000000000000000000007000000000000000000000000000000000007070707000000000000000000000000000000000000000000000000000000000000000000000000000000000000000000000000000000000000000000000000000000000000000000000000000000
310
00000000000000000000000000000000000000000000000000000000000000000000000000000000000000000000000700000000000000000000000000000007070707070000000000000000000000000000000700000000000000000000000000000000000707070700000000000000000000000000000000000000000000
310
00000000000000000000000000000000000000000000000000000000000000000000000000000000000000000000000000000000000000000000000000000000000000000000000000000000000000000000000000000000000000000000000000000000070000000000000000000000000000000700000007000000000000
310
00000000000000000700000000000000000000000000000000000007070707000000000000000000000000000000000000000000000000000000000000000000000000000000000000000000000000000000000000000000000000000000000000000000000000000000000000000000000000000000000000000000000000
310
00000000000000000000000000000000000000000000000000000007000000000000000000000000000000070707070000000000000000000000000000070000000000000000000000000000000000000707070700000000000000000000000000000000000000000000000000000000000000000000000000000000000000
310
00000000000000000000000000000000000000000000000000000000000000000000000000000000000000000000000000000000000000000000000000000000000000000000000000000000000000000700000000000000000000000000000000000000000000000000000000000000000007000000000000000000000000
310
00000000000007070707000000000000000000000000000000000000000000000000000000000000000000000000000000000000000000000000000000000000000000000000000000000000000000000000000000000000000000000000000000000000000000000000000000000000000000000000000000000000000000
310
00000000000007000000000000000000000000000000000000000000000000000000000000000000070000000000000000000000000000000000000707070700000000000000000000000000000000000000000000000000000000000000000000000000000000000000000000000000000000000000000000000000000000
310
00000000000000000000000000000000000000000000000000000000000000000000000000000000000000000000000000000000000000000000000707070707070707070707070707070707070707070707070707070707070707070707000000000000000000000000000000000000070700070000000000000000000000
310
00000000000000000000000000000000000000000000000000000000000000000000000000000000000000000000000000000000000000000000000000000000000000000000000000000000000000000000000000000000000000000000000000000000000000000000000000000000000000000000000000000000000700
310
00070007000007000000000000000000000000000000000000000000000000000000000000000707070700000000000000000000000000000000000000000000000000000000000000000000000000000000000000000000000000000000000000000000000000000000000000000000000000000000000000000000000000
310
00000000000000000000000000000000000000000000000000000000000000000000000000000000000000000000000000000007000007000707000700000000000000000000000000000000000000000000000000000000000000070707070000000000000000000000000000000000000000000000000000000000000000
310
00000000000000000000000000000000000000000000000000000000000000000000000000000000000000000000000000000000000000000000000000000000000000000000000000000000000000000000000000000000000000000000000000000000000000000707070707070707070000000000000000000000000000
310
00000000000000000000000000000000000707070700000000000000000000000000000000000000000000000000000000000000000000000000000000000000000000000000000000000000000000000000000000000000000000000000000000000000000000000000000000000000000000000000000000000000000000
310
00000000000000000000000000000000000000000000000000000000000007000000070700000700000000000000000000000000000000000000000000000000000000000000070707070700000000000000000000000000000000000000000000000000000000000000000000000000000000000000000000000000000000
310
00000000000000000000000000000000000000000000000000000000000000000000000000000000000000000000000000000000000000000000000000000000000000000000000000000000000000000000000700000007070000070000000000000000000000000000000000000000000000000000000000000707070707
310
07000000000000000000000000000000000000000000000000000000000000000000000000000000000000000000000000000000000000000000000000000000000000000000000000000000000000000000000000000000000000000000000000000000000000000000000000000000000000000000000000000000000000
310
00000000000000000007000000000000000700000000000000000000000000000000000000000000000000000000000007070707070700000000000000000000000000000000000000000000000000000000000000000000000000000000000000000000000000000000000000000000000000000000000000000000000000
310
00000000000000000000000000000000000000000000000000000000000000000000000000000000000000000000000000000000000000000000000000000700000000000000070000000000000000000000000000000000000000000000000000000000000707070707070000000000000000000000000000000000000000
310
00000000000000000000000000000000000000000000000000000000000000000000000000000000000000000000000000000000000000000000000000000000000000000000000000000000000000000000000000000000000000000000000000000000000000000000000000000000000000070000000000000007000000
310
00000000000000000000000000000000000000000000000000000007070000070700000000000000000000000000000000000000000000000000000000000000000000000000000000000000000000000000000000000000000000000000000000000000000000000000000000000000000000000000000000000000000000
310
00000000000000000000000000000000000000000000000000000000000000000000000000000000000000000000000000070000000000000000000000000000000000000000000000000000000000000707000007070000000000000000000000000000000000000000000000000000000000000000000000000000000000
310
00000000000000000000000000000000000000000000000000000000000000000000000000000000000000000000000000000000000000000000000000000000000000000000000000000000000000000000000000000000000000000000070000000000000007000000000000000000000000000000000000000000000000
310
00000000000007070707070700000000000000000000000000000000000000000000000000000000000000000000000000000000000000000000000000000000000000000000000000000000000000000000000000000000000000000000000000000000000000000000000000000000000000000000000000000000000000
310
00000000000000000000000000000000000000000700000000000000070000000000000000000000000000000000000000000000000000000000000707000000070000000000000000000000000000000000000000000000000000000000000000000000000000000000000000000000000000000000000000000000000000
310
00000000000000000000000000000000000000000000000000000000000000000000000000000000000000000000000000000000000000000000000000000000000000000000000000070000000000000007000000000000000000000000000000000000000000000000000000000000070000000007000000000000000000
310
00000000000000000000000000000000000000000000000000000000000000000000000000000000000000000000000000000000000000000000000000000000000000000000000000000000000000000000000000000000000000000000000000000000000000000000000000000000000000000000000000000000000000
310
07000000000000070000000000000000000000000000000000000000000000000000000000000700000000070000000000000000000000000000000000000000000000000000000000000000000000000000000000000000000000000000000000000000000000000000000000000000000000000000000000000000000000
310
00000000000000000000000000000000000000000000000000000000000000000000000000000000000000000000000000000000000700000000000700000000000000000000000000000000000000000000000000000000000000070000000007000000000000000000000000000000000000000000000000000000000000
310
00000000000000000000000000000000000000000000000000000000000000000000000000000000000000000000000000000000000000000000000000000000000000000000000000000000000000000000000000000000000000000000000000000000000000000000070000000000070000000000000000000000000000
310
00000000000000000000000000000000000700000000070000000000000000000000000000000000000000000000000000000000000000000000000000000000000000000000000000000000000000000000000000000000000000000000000000000000000000000000000000000000000000000000000000000000000000
310
00000000000000000000000000000000000000000000000000000000000000000707070007070700000000000000000000000000000000000000000000000000000000000000070000000007000000000000000000000000000000000000000000000000000000000000000000000000000000000000000000000000000000
310
00000000000000000000000000000000000000000000000000000000000000000000000000000000000000000000000000000000000000000000000000000000000000000000000000000000000000000000000000000007070700000000000000000000000000000000000000000000000000000000000000000007000000
310
00070000000000000000000000000000000000000000000000000000000000000000000000000000000000000000000000000000000000000000000000000000000000000000000000000000000000000000000000000000000000000000000000000000000000000000000000000000000000000000000000000000000000
310
00000000000000000000000000000000000000000000000000000000000000000000000000000000000000000000000000070000000007000000000000000000000000000000000000000000000000000000000000000000000000000000000000000000000000000000000000000000000000000000000000000000000000
310
00000000000000000000000000000000000000000000000000000000000000000000000000000000000000000000000000000000000000000000000000000000000000000000000000000000000000000000000000000000000000000000000000000000000007000000000000000000000000000000000000000000000000
310
00000000000000000000000000000000000000000000000000000000000000000000000000000000000000000000000000000000000000000000000000000000000000000000000000000000000000000000000000000000000000000000000000000000000000000000000000000000000000000000000000000000000000
310
00000000000000000000000000000000000000000000000000000000070000000007000000000000000000000000000000000000000000000000000000000000000000000000000000000000000000000000000000000000000000000000000000000000000000000000000000000000000000000000000000000000000000
310
00000000000000000000000000000000000000000000000000000000000000000000000000000000000000000000000000000000000000000000000000000000000000000000000000000000000000000007000000000700000000000000000000000000000000000000000000000000000000000000000000000000000000
310
00000000000000000000000000000000000000000000000000000000000000000000000000000000000000000000000000000000000000000000000000000000000000000000000000000000000000000000000000000000000000000000000000000000000000000000000000000000000000000000000000000000000000
310
00000000000000070000000007000000000000000000000000000000000000000000000000000000000000000000000000000000000000000000000000000000000000000000000000000000000000000000000000000000000000000000000000000000000000000000000000000000000000000000000000000000000000
310
00000000000000000000000000000000000000000000000000000000000000000000000000000000000000000000000000000000000000000000000007000000000700000000000000000000000000000000000000000000000000000000000000000000000000000000000000000000000000000000000000000000000000
310
00000000000000000000000000000000000000000000000000000000000000000000000000000000000000000000000000000000000000000000000000000000000000000000000000000000000000000000000000000000000000000000000000000000000000000000000000000000000700000000070000000000000000
310
00000000000000000000000000000000000000000000000000000000000000000000000000000000000000000000000000000000000000000000000000000000000000000000000000000000000000000000000000000000000000000000000000000000000000000000000000000000000000000000000000000000000000
310
00000000000000000000000000000000000000000000000000000000000000000000000000000007000000000700000000000000000000000000000000000000000000000000000000000000000000000000000000000000000000000000000000000000000000000000000000000000000000000000000000000000000000
310
00000000000000000000000000000000000000000000000000000000000000000000000000000000000000000000000000000000000000000000000000000000000000000000000000000000000000000000000000000000000000000707070707070000000000000000000000000000000000000000000000000000000000
310
00000000000000000000000000000000000000000000000000000000000000000000000000000000000000000000000000000000000000000000000000000000000000000000000000000000000000000000000000000000000000000000000000000000000000000000000000000000000000000000000000000000000000
310
00000000000000000000000000000000070707070707070707070000000000000000000000000000000000000000000000000000000000000000000000000000000000000000000000000000000000000000000000000000000000000000000000000000000000000000000000000000000000000000000000000000000000
310
00000000000000000000000000000000000000000000000000000000000000000000000000000000000000000000000000000000000000000000000000000000000000000707070707000007070707070700000000000000000000000000000000000000000000000000000000000000000000000000000000000000000000
310
00000000000000000000000000000000000000000000000000000000000000000000000000000000000000000000000000000000000000000000000000000000000000000000000000000000000000000000000000000000000000000000000000000000000000000000000000000000000000000000000007070707070707
310
07070707070707000000000000000000000000000000000000000000000000000000000000000000000000000000000000000000000000000000000000000000000000000000000000000000000000000000000000000000000000000000000000000000000000000000000000000000000000000000000000000000000000
310
00000000000000000000000000000000000000000000000000000000000000000000000000000000000000000000070707070707070707070707070707000000000000000000000000000000000000000000000000000000000000000000000000000000000000000000000000000000000000000000000000000000000000
310
00000000000000000000000000000000000000000000000000000000000000000000000000000000000000000000000000000000000000000000000000000000000000000000000000000000000000000000000000000000000000000000000000000007070707070707070707070707000700000000000000000000000000
310
00000000000000000000000000000000000000000000000000000000000000000000000000000000000000000000000000000000000000000000000000000000000000000000000000000000000000000000000000000000000000000000000000000000000000000000000000000000000000000000000000000000000000
310
00000000000000000000000000000000000000000000000000070000070707070707070707000707000000000000000000000000000000000000000000000000000000000000000000000000000000000000000000000000000000000000000000000000000000000000000000000000000000000000000000000000000000
310
00000000000000000000000000000000000000000000000000000000000000000000000000000000000000000000000000000000000000000000000000000000000000000000000000000000000007070700000000000000000007070700000000000000000000000000000000000000000000000000000000000000000000
310
00000000000000000000000000000000000000000000000000000000000000000000000000000000000000000000000000000000000000000000000000000000000000000000000000000000000000000000000000000000000000000000000000000000000000000000000000000000000000000000000000000000000000
310
00000000000707070707000007070707070700000000000000000000000000000000000000000000000000000000000000000000000000000000000000000000000000000000000000000000000000000000000000000000000000000000000000000000000000000000000000000000000000000000000000000000000000
310
00000000000000000000000000000000000000000000000000000000000000000000000000000000000000000000000000000000000000000000070707000007070700070707000000000000000000000000000000000000000000000000000000000000000000000000000000000000000000000000000000000000000000
310
00000000000000000000000000000000000000000000000000000000000000000000000000000000000000000000000000000000000000000000000000000000000000000000000000000000000000000000000000000000000000000000000000000000000000000000000000000000000007070707070707000000000000
310
00000000000000000000000000000000000000000000000000000000000000000000000000000000000000000000000000000000000000000000000000000000000000000000000000000000000000000000000000000000000000000000000000000000000000000000000000000000000000000000000000000000000000
310
000000000000000000000000000000000000000000000000000000000000000000000000000000000000000000000000000000000000000000000000000000000000000000000000000000000000000000000000000000000000000000000000000000000000000000000000
  0
ENDSEC
  0
EOF
