  0
SECTION
  2
HEADER
  9
$ACADVER
  1
AC1015
  9
$ACADMAINTVER
 70
     6
  9
$DWGCODEPAGE
  3
ANSI_1252
  9
$INSBASE
 10
0.0
 20
0.0
 30
0.0
  9
$EXTMIN
 10
-0.0018
 20
-0.059505
 30
0.0
  9
$EXTMAX
 10
387.0018
 20
228.059395
 30
0.0
  9
$LIMMIN
 10
0.0
 20
0.0
  9
$LIMMAX
 10
12.0
 20
9.0
  9
$ORTHOMODE
 70
     0
  9
$REGENMODE
 70
     1
  9
$FILLMODE
 70
     1
  9
$QTEXTMODE
 70
     0
  9
$MIRRTEXT
 70
     1
  9
$LTSCALE
 40
1.0
  9
$ATTMODE
 70
     1
  9
$TEXTSIZE
 40
0.2
  9
$TRACEWID
 40
0.05
  9
$TEXTSTYLE
  7
Standard
  9
$CLAYER
  8
0
  9
$CELTYPE
  6
ByBlock
  9
$CECOLOR
 62
   256
  9
$CELTSCALE
 40
1.0
  9
$DISPSILH
 70
     0
  9
$DIMSCALE
 40
1.0
  9
$DIMASZ
 40
0.18
  9
$DIMEXO
 40
0.0625
  9
$DIMDLI
 40
0.38
  9
$DIMRND
 40
0.0
  9
$DIMDLE
 40
0.0
  9
$DIMEXE
 40
0.18
  9
$DIMTP
 40
0.0
  9
$DIMTM
 40
0.0
  9
$DIMTXT
 40
0.18
  9
$DIMCEN
 40
0.09
  9
$DIMTSZ
 40
0.0
  9
$DIMTOL
 70
     0
  9
$DIMLIM
 70
     0
  9
$DIMTIH
 70
     1
  9
$DIMTOH
 70
     1
  9
$DIMSE1
 70
     0
  9
$DIMSE2
 70
     0
  9
$DIMTAD
 70
     0
  9
$DIMZIN
 70
     0
  9
$DIMBLK
  1

  9
$DIMASO
 70
     1
  9
$DIMSHO
 70
     1
  9
$DIMPOST
  1

  9
$DIMAPOST
  1

  9
$DIMALT
 70
     0
  9
$DIMALTD
 70
     2
  9
$DIMALTF
 40
25.4
  9
$DIMLFAC
 40
1.0
  9
$DIMTOFL
 70
     0
  9
$DIMTVP
 40
0.0
  9
$DIMTIX
 70
     0
  9
$DIMSOXD
 70
     0
  9
$DIMSAH
 70
     0
  9
$DIMBLK1
  1

  9
$DIMBLK2
  1

  9
$DIMSTYLE
  2
Standard
  9
$DIMCLRD
 70
     0
  9
$DIMCLRE
 70
     0
  9
$DIMCLRT
 70
     0
  9
$DIMTFAC
 40
1.0
  9
$DIMGAP
 40
0.09
  9
$DIMJUST
 70
     0
  9
$DIMSD1
 70
     0
  9
$DIMSD2
 70
     0
  9
$DIMTOLJ
 70
     1
  9
$DIMTZIN
 70
     0
  9
$DIMALTZ
 70
     0
  9
$DIMALTTZ
 70
     0
  9
$DIMUPT
 70
     0
  9
$DIMDEC
 70
     4
  9
$DIMTDEC
 70
     4
  9
$DIMALTU
 70
     2
  9
$DIMALTTD
 70
     2
  9
$DIMTXSTY
  7
Standard
  9
$DIMAUNIT
 70
     0
  9
$DIMADEC
 70
     0
  9
$DIMALTRND
 40
0.0
  9
$DIMAZIN
 70
     0
  9
$DIMDSEP
 70
    46
  9
$DIMATFIT
 70
     3
  9
$DIMFRAC
 70
     0
  9
$DIMLDRBLK
  1

  9
$DIMLUNIT
 70
     2
  9
$DIMLWD
 70
    -2
  9
$DIMLWE
 70
    -2
  9
$DIMTMOVE
 70
     2
  9
$LUNITS
 70
     2
  9
$LUPREC
 70
     4
  9
$SKETCHINC
 40
0.1
  9
$FILLETRAD
 40
0.5
  9
$AUNITS
 70
     0
  9
$AUPREC
 70
     0
  9
$MENU
  1
.
  9
$ELEVATION
 40
0.0
  9
$PELEVATION
 40
0.0
  9
$THICKNESS
 40
0.0
  9
$LIMCHECK
 70
     0
  9
$CHAMFERA
 40
0.5
  9
$CHAMFERB
 40
0.5
  9
$CHAMFERC
 40
1.0
  9
$CHAMFERD
 40
0.0
  9
$SKPOLY
 70
     0
  9
$TDCREATE
 40
2456647.893673681
  9
$TDUCREATE
 40
2456647.852007014
  9
$TDUPDATE
 40
2456647.896389421
  9
$TDUUPDATE
 40
2456647.854722755
  9
$TDINDWG
 40
0.0027155787
  9
$TDUSRTIMER
 40
0.0027155787
  9
$USRTIMER
 70
     1
  9
$ANGBASE
 50
0.0
  9
$ANGDIR
 70
     0
  9
$PDMODE
 70
     0
  9
$PDSIZE
 40
0.0
  9
$PLINEWID
 40
0.0
  9
$SPLFRAME
 70
     0
  9
$SPLINETYPE
 70
     6
  9
$SPLINESEGS
 70
     8
  9
$HANDSEED
  5
856
  9
$SURFTAB1
 70
     6
  9
$SURFTAB2
 70
     6
  9
$SURFTYPE
 70
     6
  9
$SURFU
 70
     6
  9
$SURFV
 70
     6
  9
$UCSBASE
  2

  9
$UCSNAME
  2

  9
$UCSORG
 10
0.0
 20
0.0
 30
0.0
  9
$UCSXDIR
 10
1.0
 20
0.0
 30
0.0
  9
$UCSYDIR
 10
0.0
 20
1.0
 30
0.0
  9
$UCSORTHOREF
  2

  9
$UCSORTHOVIEW
 70
     0
  9
$UCSORGTOP
 10
0.0
 20
0.0
 30
0.0
  9
$UCSORGBOTTOM
 10
0.0
 20
0.0
 30
0.0
  9
$UCSORGLEFT
 10
0.0
 20
0.0
 30
0.0
  9
$UCSORGRIGHT
 10
0.0
 20
0.0
 30
0.0
  9
$UCSORGFRONT
 10
0.0
 20
0.0
 30
0.0
  9
$UCSORGBACK
 10
0.0
 20
0.0
 30
0.0
  9
$PUCSBASE
  2

  9
$PUCSNAME
  2

  9
$PUCSORG
 10
0.0
 20
0.0
 30
0.0
  9
$PUCSXDIR
 10
1.0
 20
0.0
 30
0.0
  9
$PUCSYDIR
 10
0.0
 20
1.0
 30
0.0
  9
$PUCSORTHOREF
  2

  9
$PUCSORTHOVIEW
 70
     0
  9
$PUCSORGTOP
 10
0.0
 20
0.0
 30
0.0
  9
$PUCSORGBOTTOM
 10
0.0
 20
0.0
 30
0.0
  9
$PUCSORGLEFT
 10
0.0
 20
0.0
 30
0.0
  9
$PUCSORGRIGHT
 10
0.0
 20
0.0
 30
0.0
  9
$PUCSORGFRONT
 10
0.0
 20
0.0
 30
0.0
  9
$PUCSORGBACK
 10
0.0
 20
0.0
 30
0.0
  9
$USERI1
 70
     0
  9
$USERI2
 70
     0
  9
$USERI3
 70
     0
  9
$USERI4
 70
     0
  9
$USERI5
 70
     0
  9
$USERR1
 40
0.0
  9
$USERR2
 40
0.0
  9
$USERR3
 40
0.0
  9
$USERR4
 40
0.0
  9
$USERR5
 40
0.0
  9
$WORLDVIEW
 70
     1
  9
$SHADEDGE
 70
     3
  9
$SHADEDIF
 70
    70
  9
$TILEMODE
 70
     1
  9
$MAXACTVP
 70
    64
  9
$PINSBASE
 10
0.0
 20
0.0
 30
0.0
  9
$PLIMCHECK
 70
     0
  9
$PEXTMIN
 10
1.000000000000E+20
 20
1.000000000000E+20
 30
1.000000000000E+20
  9
$PEXTMAX
 10
-1.000000000000E+20
 20
-1.000000000000E+20
 30
-1.000000000000E+20
  9
$PLIMMIN
 10
0.0
 20
0.0
  9
$PLIMMAX
 10
12.0
 20
9.0
  9
$UNITMODE
 70
     0
  9
$VISRETAIN
 70
     1
  9
$PLINEGEN
 70
     0
  9
$PSLTSCALE
 70
     1
  9
$TREEDEPTH
 70
  3020
  9
$CMLSTYLE
  2
Standard
  9
$CMLJUST
 70
     0
  9
$CMLSCALE
 40
1.0
  9
$PROXYGRAPHICS
 70
     1
  9
$MEASUREMENT
 70
     0
  9
$CELWEIGHT
370
    -1
  9
$ENDCAPS
280
     0
  9
$JOINSTYLE
280
     0
  9
$LWDISPLAY
290
     0
  9
$INSUNITS
 70
     0
  9
$HYPERLINKBASE
  1

  9
$STYLESHEET
  1

  9
$XEDIT
290
     1
  9
$CEPSNTYPE
380
     0
  9
$PSTYLEMODE
290
     1
  9
$FINGERPRINTGUID
  2
{8AF5F1C8-4C9C-4B5B-A537-CEED77E00A1C}
  9
$VERSIONGUID
  2
{FAEB1C32-E019-11D5-929B-00C0DF256EC4}
  9
$EXTNAMES
290
     1
  9
$PSVPSCALE
 40
0.0
  9
$OLESTARTUP
290
     0
  0
ENDSEC
  0
SECTION
  2
CLASSES
  0
CLASS
  1
ACDBDICTIONARYWDFLT
  2
AcDbDictionaryWithDefault
  3
ObjectDBX Classes
 90
        0
280
     0
281
     0
  0
CLASS
  1
SCALE
  2
AcDbScale
  3
ObjectDBX Classes
 90
     1153
280
     0
281
     0
  0
CLASS
  1
DICTIONARYVAR
  2
AcDbDictionaryVar
  3
ObjectDBX Classes
 90
        0
280
     0
281
     0
  0
CLASS
  1
ACDBPLACEHOLDER
  2
AcDbPlaceHolder
  3
ObjectDBX Classes
 90
        0
280
     0
281
     0
  0
CLASS
  1
LAYOUT
  2
AcDbLayout
  3
ObjectDBX Classes
 90
        0
280
     0
281
     0
  0
ENDSEC
  0
SECTION
  2
TABLES
  0
TABLE
  2
VPORT
  5
8
330
0
100
AcDbSymbolTable
 70
     1
  0
VPORT
  5
32C
330
8
100
AcDbSymbolTableRecord
100
AcDbViewportTableRecord
  2
*Active
 70
     0
 10
0.0
 20
0.0
 11
1.0
 21
1.0
 12
193.5
 22
113.999945
 13
0.0
 23
0.0
 14
0.5
 24
0.5
 15
0.5
 25
0.5
 16
0.0
 26
0.0
 36
1.0
 17
0.0
 27
0.0
 37
0.0
 40
232.681278
 41
1.729542302358
 42
50.0
 43
0.0
 44
0.0
 50
0.0
 51
0.0
 71
    16
 72
   100
 73
     1
 74
     3
 75
     0
 76
     0
 77
     0
 78
     0
281
     0
 65
     1
110
0.0
120
0.0
130
0.0
111
1.0
121
0.0
131
0.0
112
0.0
122
1.0
132
0.0
 79
     0
146
0.0
  0
ENDTAB
  0
TABLE
  2
LTYPE
  5
5
330
0
100
AcDbSymbolTable
 70
     1
  0
LTYPE
  5
14
330
5
100
AcDbSymbolTableRecord
100
AcDbLinetypeTableRecord
  2
ByBlock
 70
     0
  3

 72
    65
 73
     0
 40
0.0
  0
LTYPE
  5
15
330
5
100
AcDbSymbolTableRecord
100
AcDbLinetypeTableRecord
  2
ByLayer
 70
     0
  3

 72
    65
 73
     0
 40
0.0
  0
LTYPE
  5
16
330
5
100
AcDbSymbolTableRecord
100
AcDbLinetypeTableRecord
  2
Continuous
 70
     0
  3
Solid line
 72
    65
 73
     0
 40
0.0
  0
ENDTAB
  0
TABLE
  2
LAYER
  5
2
330
0
100
AcDbSymbolTable
 70
     1
  0
LAYER
  5
10
330
2
100
AcDbSymbolTableRecord
100
AcDbLayerTableRecord
  2
0
 70
     0
 62
     7
  6
Continuous
370
    -3
390
F
  0
ENDTAB
  0
TABLE
  2
STYLE
  5
3
330
0
100
AcDbSymbolTable
 70
     1
  0
STYLE
  5
11
330
3
100
AcDbSymbolTableRecord
100
AcDbTextStyleTableRecord
  2
Standard
 70
     0
 40
0.0
 41
1.0
 50
0.0
 71
     0
 42
0.2
  3
txt
  4

  0
ENDTAB
  0
TABLE
  2
VIEW
  5
6
330
0
100
AcDbSymbolTable
 70
     0
  0
ENDTAB
  0
TABLE
  2
UCS
  5
7
330
0
100
AcDbSymbolTable
 70
     0
  0
ENDTAB
  0
TABLE
  2
APPID
  5
9
330
0
100
AcDbSymbolTable
 70
     1
  0
APPID
  5
12
330
9
100
AcDbSymbolTableRecord
100
AcDbRegAppTableRecord
  2
ACAD
 70
     0
  0
ENDTAB
  0
TABLE
  2
DIMSTYLE
  5
A
330
0
100
AcDbSymbolTable
 70
     1
100
AcDbDimStyleTable
  0
DIMSTYLE
105
20
330
A
100
AcDbSymbolTableRecord
100
AcDbDimStyleTableRecord
  2
Standard
 70
     0
340
11
  0
ENDTAB
  0
TABLE
  2
BLOCK_RECORD
  5
1
330
0
100
AcDbSymbolTable
 70
     2
  0
BLOCK_RECORD
  5
1D
330
1
100
AcDbSymbolTableRecord
100
AcDbBlockTableRecord
  2
*Model_Space
340
1E
  0
BLOCK_RECORD
  5
1B
330
1
100
AcDbSymbolTableRecord
100
AcDbBlockTableRecord
  2
*Paper_Space
340
1C
  0
ENDTAB
  0
ENDSEC
  0
SECTION
  2
BLOCKS
  0
BLOCK
  5
32F
330
1D
100
AcDbEntity
  8
0
100
AcDbBlockBegin
  2
*Model_Space
 70
     0
 10
0.0
 20
0.0
 30
0.0
  3
*Model_Space
  1
*Model_Space
  0
ENDBLK
  5
330
330
1D
100
AcDbEntity
  8
0
100
AcDbBlockEnd
  0
BLOCK
  5
32D
330
1B
100
AcDbEntity
 67
     1
  8
0
100
AcDbBlockBegin
  2
*Paper_Space
 70
     0
 10
0.0
 20
0.0
 30
0.0
  3
*Paper_Space
  1
*Paper_Space
  0
ENDBLK
  5
32E
330
1B
100
AcDbEntity
 67
     1
  8
0
100
AcDbBlockEnd
  0
ENDSEC
  0
SECTION
  2
ENTITIES
  0
LINE
  5
2E
330
1D
100
AcDbEntity
  8
0
100
AcDbLine
 10
109.9708
 20
5.983395
 30
0.0
 11
113.4418
 21
5.498395
 31
0.0
  0
LINE
  5
2F
330
1D
100
AcDbEntity
  8
0
100
AcDbLine
 10
106.6248
 20
7.013395
 30
0.0
 11
109.9708
 21
5.983395
 31
0.0
  0
LINE
  5
69
330
1D
100
AcDbEntity
  8
0
100
AcDbLine
 10
112.4688
 20
54.312395
 30
0.0
 11
115.0018
 21
54.134395
 31
0.0
  0
LINE
  5
78
330
1D
100
AcDbEntity
  8
0
100
AcDbLine
 10
110.9668
 20
54.588395
 30
0.0
 11
112.4688
 21
54.312395
 31
0.0
  0
LINE
  5
79
330
1D
100
AcDbEntity
  8
0
100
AcDbLine
 10
109.0208
 20
55.144395
 30
0.0
 11
110.9668
 21
54.588395
 31
0.0
  0
LINE
  5
84
330
1D
100
AcDbEntity
  8
0
100
AcDbLine
 10
105.4088
 20
56.878395
 30
0.0
 11
107.1548
 21
55.913395
 31
0.0
  0
LINE
  5
8B
330
1D
100
AcDbEntity
  8
0
100
AcDbLine
 10
103.8028
 20
58.032395
 30
0.0
 11
105.4088
 21
56.878395
 31
0.0
  0
LINE
  5
8C
330
1D
100
AcDbEntity
  8
0
100
AcDbLine
 10
102.3638
 20
59.360395
 30
0.0
 11
103.8028
 21
58.032395
 31
0.0
  0
LINE
  5
8D
330
1D
100
AcDbEntity
  8
0
100
AcDbLine
 10
107.1548
 20
55.913395
 30
0.0
 11
109.0208
 21
55.144395
 31
0.0
  0
LINE
  5
A6
330
1D
100
AcDbEntity
  8
0
100
AcDbLine
 10
101.1188
 20
60.841395
 30
0.0
 11
102.3638
 21
59.360395
 31
0.0
  0
LINE
  5
A7
330
1D
100
AcDbEntity
  8
0
100
AcDbLine
 10
100.0798
 20
62.456395
 30
0.0
 11
101.1188
 21
60.841395
 31
0.0
  0
LINE
  5
A8
330
1D
100
AcDbEntity
  8
0
100
AcDbLine
 10
99.2571
 20
64.173395
 30
0.0
 11
100.0798
 21
62.456395
 31
0.0
  0
LINE
  5
B3
330
1D
100
AcDbEntity
  8
0
100
AcDbLine
 10
97.8788
 20
69.654695
 30
0.0
 11
98.1933
 21
67.801395
 31
0.0
  0
LINE
  5
B4
330
1D
100
AcDbEntity
  8
0
100
AcDbLine
 10
97.5673
 20
72.032895
 30
0.0
 11
97.8788
 21
69.654695
 31
0.0
  0
LINE
  5
BB
330
1D
100
AcDbEntity
  8
0
100
AcDbLine
 10
98.6373
 20
65.965395
 30
0.0
 11
99.2571
 21
64.173395
 31
0.0
  0
LINE
  5
BC
330
1D
100
AcDbEntity
  8
0
100
AcDbLine
 10
98.1933
 20
67.801395
 30
0.0
 11
98.6373
 21
65.965395
 31
0.0
  0
LINE
  5
BF
330
1D
100
AcDbEntity
  8
0
100
AcDbLine
 10
97.5304
 20
72.325595
 30
0.0
 11
97.5673
 21
72.032895
 31
0.0
  0
LINE
  5
105
330
1D
100
AcDbEntity
  8
0
100
AcDbLine
 10
90.0666
 20
133.735395
 30
0.0
 11
90.6949
 21
127.777395
 31
0.0
  0
LINE
  5
143
330
1D
100
AcDbEntity
  8
0
100
AcDbLine
 10
88.9165
 20
150.816395
 30
0.0
 11
89.0265
 21
147.076395
 31
0.0
  0
LINE
  5
164
330
1D
100
AcDbEntity
  8
0
100
AcDbLine
 10
89.0265
 20
147.076395
 30
0.0
 11
89.2713
 21
142.878395
 31
0.0
  0
LINE
  5
175
330
1D
100
AcDbEntity
  8
0
100
AcDbLine
 10
89.2713
 20
142.878395
 30
0.0
 11
89.5273
 21
139.561395
 31
0.0
  0
LINE
  5
176
330
1D
100
AcDbEntity
  8
0
100
AcDbLine
 10
89.5273
 20
139.561395
 30
0.0
 11
90.0666
 21
133.735395
 31
0.0
  0
LINE
  5
191
330
1D
100
AcDbEntity
  8
0
100
AcDbLine
 10
88.7464
 20
154.254395
 30
0.0
 11
88.8013
 21
155.964395
 31
0.0
  0
LINE
  5
192
330
1D
100
AcDbEntity
  8
0
100
AcDbLine
 10
88.7464
 20
154.254395
 30
0.0
 11
88.9191
 21
151.324395
 31
0.0
  0
LINE
  5
196
330
1D
100
AcDbEntity
  8
0
100
AcDbLine
 10
88.9699
 20
157.668395
 30
0.0
 11
89.2512
 21
159.359395
 31
0.0
  0
LINE
  5
19B
330
1D
100
AcDbEntity
  8
0
100
AcDbLine
 10
89.2512
 20
159.359395
 30
0.0
 11
89.645
 21
161.029395
 31
0.0
  0
LINE
  5
1A2
330
1D
100
AcDbEntity
  8
0
100
AcDbLine
 10
89.645
 20
161.029395
 30
0.0
 11
90.1502
 21
162.674395
 31
0.0
  0
LINE
  5
1A5
330
1D
100
AcDbEntity
  8
0
100
AcDbLine
 10
90.1502
 20
162.674395
 30
0.0
 11
90.7652
 21
164.286395
 31
0.0
  0
LINE
  5
1AD
330
1D
100
AcDbEntity
  8
0
100
AcDbLine
 10
91.4883
 20
165.858395
 30
0.0
 11
92.318
 21
167.383395
 31
0.0
  0
LINE
  5
1AF
330
1D
100
AcDbEntity
  8
0
100
AcDbLine
 10
93.2223
 20
168.812395
 30
0.0
 11
94.2215
 21
170.185395
 31
0.0
  0
LINE
  5
1B0
330
1D
100
AcDbEntity
  8
0
100
AcDbLine
 10
94.2215
 20
170.185395
 30
0.0
 11
95.3128
 21
171.495395
 31
0.0
  0
LINE
  5
1B1
330
1D
100
AcDbEntity
  8
0
100
AcDbLine
 10
92.318
 20
167.383395
 30
0.0
 11
93.2223
 21
168.812395
 31
0.0
  0
LINE
  5
1BD
330
1D
100
AcDbEntity
  8
0
100
AcDbLine
 10
96.493
 20
172.737395
 30
0.0
 11
97.7587
 21
173.905395
 31
0.0
  0
LINE
  5
1BE
330
1D
100
AcDbEntity
  8
0
100
AcDbLine
 10
95.3128
 20
171.495395
 30
0.0
 11
96.493
 21
172.737395
 31
0.0
  0
LINE
  5
1C2
330
1D
100
AcDbEntity
  8
0
100
AcDbLine
 10
99.1047
 20
174.992395
 30
0.0
 11
100.5268
 21
175.992395
 31
0.0
  0
LINE
  5
1C3
330
1D
100
AcDbEntity
  8
0
100
AcDbLine
 10
97.7587
 20
173.905395
 30
0.0
 11
99.1047
 21
174.992395
 31
0.0
  0
LINE
  5
1C4
330
1D
100
AcDbEntity
  8
0
100
AcDbLine
 10
90.7652
 20
164.286395
 30
0.0
 11
91.4883
 21
165.858395
 31
0.0
  0
LINE
  5
1E4
330
1D
100
AcDbEntity
  8
0
100
AcDbLine
 10
100.5268
 20
175.992395
 30
0.0
 11
102.0198
 21
176.901395
 31
0.0
  0
LINE
  5
1E5
330
1D
100
AcDbEntity
  8
0
100
AcDbLine
 10
88.8013
 20
155.964395
 30
0.0
 11
88.9699
 21
157.668395
 31
0.0
  0
LINE
  5
22C
330
1D
100
AcDbEntity
  8
0
100
AcDbLine
 10
102.0198
 20
176.901395
 30
0.0
 11
103.5008
 21
177.676395
 31
0.0
  0
LINE
  5
22D
330
1D
100
AcDbEntity
  8
0
100
AcDbLine
 10
103.5008
 20
177.676395
 30
0.0
 11
105.0358
 21
178.358395
 31
0.0
  0
LINE
  5
233
330
1D
100
AcDbEntity
  8
0
100
AcDbLine
 10
106.6168
 20
178.943395
 30
0.0
 11
108.2398
 21
179.429395
 31
0.0
  0
LINE
  5
234
330
1D
100
AcDbEntity
  8
0
100
AcDbLine
 10
105.0358
 20
178.358395
 30
0.0
 11
106.6168
 21
178.943395
 31
0.0
  0
LINE
  5
237
330
1D
100
AcDbEntity
  8
0
100
AcDbLine
 10
109.8968
 20
179.810395
 30
0.0
 11
111.5808
 21
180.084395
 31
0.0
  0
LINE
  5
238
330
1D
100
AcDbEntity
  8
0
100
AcDbLine
 10
108.2398
 20
179.429395
 30
0.0
 11
109.8968
 21
179.810395
 31
0.0
  0
LINE
  5
25F
330
1D
100
AcDbEntity
  8
0
100
AcDbLine
 10
113.2848
 20
180.251395
 30
0.0
 11
115.0018
 21
180.306395
 31
0.0
  0
LINE
  5
260
330
1D
100
AcDbEntity
  8
0
100
AcDbLine
 10
111.5808
 20
180.084395
 30
0.0
 11
113.2848
 21
180.251395
 31
0.0
  0
LINE
  5
2C7
330
1D
100
AcDbEntity
  8
0
100
AcDbLine
 10
328.0018
 20
228.059395
 30
0.0
 11
328.1018
 21
228.059395
 31
0.0
  0
LINE
  5
2C9
330
1D
100
AcDbEntity
  8
0
100
AcDbLine
 10
341.2018
 20
228.059395
 30
0.0
 11
344.0018
 21
228.059395
 31
0.0
  0
LINE
  5
2CA
330
1D
100
AcDbEntity
  8
0
100
AcDbLine
 10
338.5018
 20
228.059395
 30
0.0
 11
341.2018
 21
228.059395
 31
0.0
  0
LINE
  5
2CB
330
1D
100
AcDbEntity
  8
0
100
AcDbLine
 10
336.2018
 20
228.059395
 30
0.0
 11
338.5018
 21
228.059395
 31
0.0
  0
LINE
  5
2CC
330
1D
100
AcDbEntity
  8
0
100
AcDbLine
 10
334.5018
 20
228.059395
 30
0.0
 11
336.2018
 21
228.059395
 31
0.0
  0
LINE
  5
2CD
330
1D
100
AcDbEntity
  8
0
100
AcDbLine
 10
333.4018
 20
228.059395
 30
0.0
 11
334.5018
 21
228.059395
 31
0.0
  0
LINE
  5
2CE
330
1D
100
AcDbEntity
  8
0
100
AcDbLine
 10
333.0018
 20
228.059395
 30
0.0
 11
333.4018
 21
228.059395
 31
0.0
  0
LINE
  5
2CF
330
1D
100
AcDbEntity
  8
0
100
AcDbLine
 10
331.6018
 20
228.059395
 30
0.0
 11
333.0018
 21
228.059395
 31
0.0
  0
LINE
  5
2D0
330
1D
100
AcDbEntity
  8
0
100
AcDbLine
 10
330.3018
 20
228.059395
 30
0.0
 11
331.6018
 21
228.059395
 31
0.0
  0
LINE
  5
2D1
330
1D
100
AcDbEntity
  8
0
100
AcDbLine
 10
329.8018
 20
228.059395
 30
0.0
 11
330.3018
 21
228.059395
 31
0.0
  0
LINE
  5
2D2
330
1D
100
AcDbEntity
  8
0
100
AcDbLine
 10
329.7018
 20
228.059395
 30
0.0
 11
329.8018
 21
228.059395
 31
0.0
  0
LINE
  5
2D3
330
1D
100
AcDbEntity
  8
0
100
AcDbLine
 10
329.3018
 20
228.059395
 30
0.0
 11
329.7018
 21
228.059395
 31
0.0
  0
LINE
  5
2D4
330
1D
100
AcDbEntity
  8
0
100
AcDbLine
 10
329.0018
 20
228.059395
 30
0.0
 11
329.3018
 21
228.059395
 31
0.0
  0
LINE
  5
2D5
330
1D
100
AcDbEntity
  8
0
100
AcDbLine
 10
328.7018
 20
228.059395
 30
0.0
 11
329.0018
 21
228.059395
 31
0.0
  0
LINE
  5
2D6
330
1D
100
AcDbEntity
  8
0
100
AcDbLine
 10
328.4018
 20
228.059395
 30
0.0
 11
328.7018
 21
228.059395
 31
0.0
  0
LINE
  5
2D7
330
1D
100
AcDbEntity
  8
0
100
AcDbLine
 10
328.1018
 20
228.059395
 30
0.0
 11
328.4018
 21
228.059395
 31
0.0
  0
LINE
  5
2D8
330
1D
100
AcDbEntity
  8
0
100
AcDbLine
 10
344.0018
 20
228.059395
 30
0.0
 11
346.8018
 21
228.059395
 31
0.0
  0
LINE
  5
2D9
330
1D
100
AcDbEntity
  8
0
100
AcDbLine
 10
346.8018
 20
228.059395
 30
0.0
 11
349.5018
 21
228.059395
 31
0.0
  0
LINE
  5
2DA
330
1D
100
AcDbEntity
  8
0
100
AcDbLine
 10
349.5018
 20
228.059395
 30
0.0
 11
351.8018
 21
228.059395
 31
0.0
  0
LINE
  5
2DB
330
1D
100
AcDbEntity
  8
0
100
AcDbLine
 10
351.8018
 20
228.059395
 30
0.0
 11
353.5018
 21
228.059395
 31
0.0
  0
LINE
  5
2DC
330
1D
100
AcDbEntity
  8
0
100
AcDbLine
 10
353.5018
 20
228.059395
 30
0.0
 11
354.6018
 21
228.059395
 31
0.0
  0
LINE
  5
2DD
330
1D
100
AcDbEntity
  8
0
100
AcDbLine
 10
354.6018
 20
228.059395
 30
0.0
 11
355.0018
 21
228.059395
 31
0.0
  0
LINE
  5
2DE
330
1D
100
AcDbEntity
  8
0
100
AcDbLine
 10
355.0018
 20
228.059395
 30
0.0
 11
356.4018
 21
228.059395
 31
0.0
  0
LINE
  5
2DF
330
1D
100
AcDbEntity
  8
0
100
AcDbLine
 10
356.4018
 20
228.059395
 30
0.0
 11
357.7018
 21
228.059395
 31
0.0
  0
LINE
  5
2E0
330
1D
100
AcDbEntity
  8
0
100
AcDbLine
 10
357.7018
 20
228.059395
 30
0.0
 11
358.2018
 21
228.059395
 31
0.0
  0
LINE
  5
2E1
330
1D
100
AcDbEntity
  8
0
100
AcDbLine
 10
358.2018
 20
228.059395
 30
0.0
 11
358.3018
 21
228.059395
 31
0.0
  0
LINE
  5
2E2
330
1D
100
AcDbEntity
  8
0
100
AcDbLine
 10
358.3018
 20
228.059395
 30
0.0
 11
358.7018
 21
228.059395
 31
0.0
  0
LINE
  5
2E3
330
1D
100
AcDbEntity
  8
0
100
AcDbLine
 10
358.7018
 20
228.059395
 30
0.0
 11
359.0018
 21
228.059395
 31
0.0
  0
LINE
  5
2E4
330
1D
100
AcDbEntity
  8
0
100
AcDbLine
 10
359.0018
 20
228.059395
 30
0.0
 11
359.3018
 21
228.059395
 31
0.0
  0
LINE
  5
2E5
330
1D
100
AcDbEntity
  8
0
100
AcDbLine
 10
359.3018
 20
228.059395
 30
0.0
 11
359.6018
 21
228.059395
 31
0.0
  0
LINE
  5
2E6
330
1D
100
AcDbEntity
  8
0
100
AcDbLine
 10
359.6018
 20
228.059395
 30
0.0
 11
359.9018
 21
228.059395
 31
0.0
  0
LINE
  5
2E7
330
1D
100
AcDbEntity
  8
0
100
AcDbLine
 10
359.9018
 20
228.059395
 30
0.0
 11
360.0018
 21
228.059395
 31
0.0
  0
LINE
  5
464
330
1D
100
AcDbEntity
  8
0
100
AcDbLine
 10
343.0578
 20
-0.059505
 30
0.0
 11
344.0018
 21
-0.031805
 31
0.0
  0
LINE
  5
465
330
1D
100
AcDbEntity
  8
0
100
AcDbLine
 10
338.4258
 20
0.266095
 30
0.0
 11
343.0578
 21
-0.059505
 31
0.0
  0
LINE
  5
466
330
1D
100
AcDbEntity
  8
0
100
AcDbLine
 10
333.5328
 20
1.116195
 30
0.0
 11
333.8668
 21
1.048995
 31
0.0
  0
LINE
  5
467
330
1D
100
AcDbEntity
  8
0
100
AcDbLine
 10
333.8668
 20
1.048995
 30
0.0
 11
338.4258
 21
0.266095
 31
0.0
  0
LINE
  5
468
330
1D
100
AcDbEntity
  8
0
100
AcDbLine
 10
344.0018
 20
-0.031805
 30
0.0
 11
344.9458
 21
-0.059505
 31
0.0
  0
LINE
  5
469
330
1D
100
AcDbEntity
  8
0
100
AcDbLine
 10
320.5018
 20
6.244795
 30
0.0
 11
324.6028
 21
4.105695
 31
0.0
  0
LINE
  5
46A
330
1D
100
AcDbEntity
  8
0
100
AcDbLine
 10
301.226424822559
 20
36.767087147832
 30
0.0
 11
301.2298
 21
36.559795
 31
0.0
  0
LINE
  5
46B
330
1D
100
AcDbEntity
  8
0
100
AcDbLine
 10
301.2298
 20
36.559795
 30
0.0
 11
301.250084054331
 21
36.373005699683
 31
0.0
  0
LINE
  5
46C
330
1D
100
AcDbEntity
  8
0
100
AcDbLine
 10
301.2298
 20
36.559795
 30
0.0
 11
301.250084054331
 21
36.373005699683
 31
0.0
  0
LINE
  5
46D
330
1D
100
AcDbEntity
  8
0
100
AcDbLine
 10
301.226424822559
 20
36.767087147832
 30
0.0
 11
301.2298
 21
36.559795
 31
0.0
  0
LINE
  5
46E
330
1D
100
AcDbEntity
  8
0
100
AcDbLine
 10
301.0939
 20
38.974495
 30
0.0
 11
301.3347
 21
34.963595
 31
0.0
  0
LINE
  5
46F
330
1D
100
AcDbEntity
  8
0
100
AcDbLine
 10
301.0939
 20
38.974495
 30
0.0
 11
301.3347
 21
34.963595
 31
0.0
  0
LINE
  5
470
330
1D
100
AcDbEntity
  8
0
100
AcDbLine
 10
316.7188
 20
8.777095
 30
0.0
 11
320.5018
 21
6.244795
 31
0.0
  0
LINE
  5
471
330
1D
100
AcDbEntity
  8
0
100
AcDbLine
 10
313.3038
 20
11.669595
 30
0.0
 11
316.7188
 21
8.777095
 31
0.0
  0
LINE
  5
472
330
1D
100
AcDbEntity
  8
0
100
AcDbLine
 10
316.7934
 20
10.246595
 30
0.0
 11
318.9374
 21
8.804395
 31
0.0
  0
LINE
  5
473
330
1D
100
AcDbEntity
  8
0
100
AcDbLine
 10
309.5118
 20
15.627195
 30
0.0
 11
312.5808
 21
12.339795
 31
0.0
  0
LINE
  5
474
330
1D
100
AcDbEntity
  8
0
100
AcDbLine
 10
312.5808
 20
12.339795
 30
0.0
 11
313.3038
 21
11.669595
 31
0.0
  0
LINE
  5
475
330
1D
100
AcDbEntity
  8
0
100
AcDbLine
 10
312.8799
 20
13.367695
 30
0.0
 11
314.8094
 21
11.707195
 31
0.0
  0
LINE
  5
476
330
1D
100
AcDbEntity
  8
0
100
AcDbLine
 10
311.1346
 20
15.027595
 30
0.0
 11
312.8799
 21
13.367695
 31
0.0
  0
LINE
  5
477
330
1D
100
AcDbEntity
  8
0
100
AcDbLine
 10
314.8094
 20
11.707195
 30
0.0
 11
316.7934
 21
10.246595
 31
0.0
  0
LINE
  5
478
330
1D
100
AcDbEntity
  8
0
100
AcDbLine
 10
309.45
 20
16.880495
 30
0.0
 11
311.1346
 21
15.027595
 31
0.0
  0
LINE
  5
479
330
1D
100
AcDbEntity
  8
0
100
AcDbLine
 10
301.518724803833
 20
33.899179865006
 30
0.0
 11
301.6908
 21
32.314595
 31
0.0
  0
LINE
  5
47A
330
1D
100
AcDbEntity
  8
0
100
AcDbLine
 10
301.518724803833
 20
33.899179865006
 30
0.0
 11
301.6908
 21
32.314595
 31
0.0
  0
LINE
  5
47B
330
1D
100
AcDbEntity
  8
0
100
AcDbLine
 10
301.6908
 20
32.314595
 30
0.0
 11
302.7238
 21
28.144695
 31
0.0
  0
LINE
  5
47C
330
1D
100
AcDbEntity
  8
0
100
AcDbLine
 10
301.3347
 20
34.963595
 30
0.0
 11
301.9266
 21
31.539995
 31
0.0
  0
LINE
  5
47D
330
1D
100
AcDbEntity
  8
0
100
AcDbLine
 10
302.7238
 20
28.144695
 30
0.0
 11
304.3148
 21
24.107295
 31
0.0
  0
LINE
  5
47E
330
1D
100
AcDbEntity
  8
0
100
AcDbLine
 10
304.3148
 20
24.107295
 30
0.0
 11
304.8048
 21
23.003995
 31
0.0
  0
LINE
  5
47F
330
1D
100
AcDbEntity
  8
0
100
AcDbLine
 10
304.8048
 20
23.003995
 30
0.0
 11
306.6528
 21
19.631195
 31
0.0
  0
LINE
  5
480
330
1D
100
AcDbEntity
  8
0
100
AcDbLine
 10
306.6528
 20
19.631195
 30
0.0
 11
306.9948
 21
19.081995
 31
0.0
  0
LINE
  5
481
330
1D
100
AcDbEntity
  8
0
100
AcDbLine
 10
306.9948
 20
19.081995
 30
0.0
 11
309.5118
 21
15.627195
 31
0.0
  0
LINE
  5
482
330
1D
100
AcDbEntity
  8
0
100
AcDbLine
 10
305.9099
 20
21.764095
 30
0.0
 11
307.9698
 21
18.713695
 31
0.0
  0
LINE
  5
483
330
1D
100
AcDbEntity
  8
0
100
AcDbLine
 10
305.5831
 20
22.324395
 30
0.0
 11
305.9099
 21
21.764095
 31
0.0
  0
LINE
  5
484
330
1D
100
AcDbEntity
  8
0
100
AcDbLine
 10
303.689
 20
26.143095
 30
0.0
 11
304.2243
 21
24.910395
 31
0.0
  0
LINE
  5
485
330
1D
100
AcDbEntity
  8
0
100
AcDbLine
 10
304.2243
 20
24.910395
 30
0.0
 11
305.5831
 21
22.324395
 31
0.0
  0
LINE
  5
486
330
1D
100
AcDbEntity
  8
0
100
AcDbLine
 10
302.8928
 20
28.177995
 30
0.0
 11
303.689
 21
26.143095
 31
0.0
  0
LINE
  5
487
330
1D
100
AcDbEntity
  8
0
100
AcDbLine
 10
302.255612585186
 20
30.395159239915
 30
0.0
 11
302.311
 21
30.120395
 31
0.0
  0
LINE
  5
488
330
1D
100
AcDbEntity
  8
0
100
AcDbLine
 10
302.311
 20
30.120395
 30
0.0
 11
302.8928
 21
28.177995
 31
0.0
  0
LINE
  5
489
330
1D
100
AcDbEntity
  8
0
100
AcDbLine
 10
301.9266
 20
31.539995
 30
0.0
 11
302.311
 21
30.120395
 31
0.0
  0
LINE
  5
48A
330
1D
100
AcDbEntity
  8
0
100
AcDbLine
 10
307.9698
 20
18.713695
 30
0.0
 11
309.45
 21
16.880495
 31
0.0
  0
LINE
  5
48B
330
1D
100
AcDbEntity
  8
0
100
AcDbLine
 10
301.3347
 20
34.963595
 30
0.0
 11
301.4652
 21
34.205895
 31
0.0
  0
LINE
  5
48C
330
1D
100
AcDbEntity
  8
0
100
AcDbLine
 10
301.3347
 20
34.963595
 30
0.0
 11
301.9266
 21
31.539995
 31
0.0
  0
LINE
  5
48D
330
1D
100
AcDbEntity
  8
0
100
AcDbLine
 10
301.0666
 20
43.403095
 30
0.0
 11
301.2568
 21
45.417795
 31
0.0
  0
LINE
  5
48E
330
1D
100
AcDbEntity
  8
0
100
AcDbLine
 10
301.2568
 20
45.417795
 30
0.0
 11
301.5714
 21
47.421395
 31
0.0
  0
LINE
  5
48F
330
1D
100
AcDbEntity
  8
0
100
AcDbLine
 10
301.0666
 20
43.403095
 30
0.0
 11
301.2568
 21
45.417795
 31
0.0
  0
LINE
  5
490
330
1D
100
AcDbEntity
  8
0
100
AcDbLine
 10
303.2469
 20
53.310395
 30
0.0
 11
304.0462
 21
55.217395
 31
0.0
  0
LINE
  5
491
330
1D
100
AcDbEntity
  8
0
100
AcDbLine
 10
302.568
 20
51.373395
 30
0.0
 11
303.2469
 21
53.310395
 31
0.0
  0
LINE
  5
492
330
1D
100
AcDbEntity
  8
0
100
AcDbLine
 10
306.3905
 20
59.549395
 30
0.0
 11
308.0315
 21
61.935395
 31
0.0
  0
LINE
  5
493
330
1D
100
AcDbEntity
  8
0
100
AcDbLine
 10
304.9639
 20
57.089395
 30
0.0
 11
306.3905
 21
59.549395
 31
0.0
  0
LINE
  5
494
330
1D
100
AcDbEntity
  8
0
100
AcDbLine
 10
304.0462
 20
55.217395
 30
0.0
 11
304.9639
 21
57.089395
 31
0.0
  0
LINE
  5
495
330
1D
100
AcDbEntity
  8
0
100
AcDbLine
 10
302.0085
 20
49.408395
 30
0.0
 11
302.568
 21
51.373395
 31
0.0
  0
LINE
  5
496
330
1D
100
AcDbEntity
  8
0
100
AcDbLine
 10
301.5714
 20
47.421395
 30
0.0
 11
302.0085
 21
49.408395
 31
0.0
  0
LINE
  5
497
330
1D
100
AcDbEntity
  8
0
100
AcDbLine
 10
309.8831
 20
64.241395
 30
0.0
 11
312.0179
 21
66.413395
 31
0.0
  0
LINE
  5
498
330
1D
100
AcDbEntity
  8
0
100
AcDbLine
 10
312.0179
 20
66.413395
 30
0.0
 11
313.9261
 21
68.254395
 31
0.0
  0
LINE
  5
499
330
1D
100
AcDbEntity
  8
0
100
AcDbLine
 10
318.1451
 20
72.153395
 30
0.0
 11
319.9097
 21
73.869395
 31
0.0
  0
LINE
  5
49A
330
1D
100
AcDbEntity
  8
0
100
AcDbLine
 10
315.3264
 20
69.543395
 30
0.0
 11
318.1451
 21
72.153395
 31
0.0
  0
LINE
  5
49B
330
1D
100
AcDbEntity
  8
0
100
AcDbLine
 10
313.9261
 20
68.254395
 30
0.0
 11
315.3264
 21
69.543395
 31
0.0
  0
LINE
  5
49C
330
1D
100
AcDbEntity
  8
0
100
AcDbLine
 10
308.0315
 20
61.935395
 30
0.0
 11
309.8831
 21
64.241395
 31
0.0
  0
LINE
  5
49D
330
1D
100
AcDbEntity
  8
0
100
AcDbLine
 10
301.0018
 20
41.383395
 30
0.0
 11
301.0939
 21
38.974495
 31
0.0
  0
LINE
  5
49E
330
1D
100
AcDbEntity
  8
0
100
AcDbLine
 10
301.0018
 20
41.383395
 30
0.0
 11
301.0666
 21
43.403095
 31
0.0
  0
LINE
  5
49F
330
1D
100
AcDbEntity
  8
0
100
AcDbLine
 10
319.9097
 20
73.869395
 30
0.0
 11
321.5376
 21
75.593395
 31
0.0
  0
LINE
  5
4A0
330
1D
100
AcDbEntity
  8
0
100
AcDbLine
 10
318.9374
 20
8.804395
 30
0.0
 11
321.1288
 21
7.567295
 31
0.0
  0
LINE
  5
4A1
330
1D
100
AcDbEntity
  8
0
100
AcDbLine
 10
321.1288
 20
7.567295
 30
0.0
 11
323.4559
 21
6.364295
 31
0.0
  0
LINE
  5
4A2
330
1D
100
AcDbEntity
  8
0
100
AcDbLine
 10
328.9668
 20
2.387595
 30
0.0
 11
333.5328
 21
1.116195
 31
0.0
  0
LINE
  5
4A3
330
1D
100
AcDbEntity
  8
0
100
AcDbLine
 10
324.6028
 20
4.105695
 30
0.0
 11
328.9668
 21
2.387595
 31
0.0
  0
LINE
  5
4A4
330
1D
100
AcDbEntity
  8
0
100
AcDbLine
 10
325.7981
 20
5.379395
 30
0.0
 11
328.2466
 21
4.439795
 31
0.0
  0
LINE
  5
4A5
330
1D
100
AcDbEntity
  8
0
100
AcDbLine
 10
323.4559
 20
6.364295
 30
0.0
 11
325.7981
 21
5.379395
 31
0.0
  0
LINE
  5
4A6
330
1D
100
AcDbEntity
  8
0
100
AcDbLine
 10
328.2466
 20
4.439795
 30
0.0
 11
330.7244
 21
3.710495
 31
0.0
  0
LINE
  5
4A7
330
1D
100
AcDbEntity
  8
0
100
AcDbLine
 10
321.3818
 20
75.387395
 30
0.0
 11
323.3244
 21
77.725395
 31
0.0
  0
LINE
  5
4A8
330
1D
100
AcDbEntity
  8
0
100
AcDbLine
 10
322.964250918468
 20
77.291940581889
 30
0.0
 11
324.8258
 21
79.981395
 31
0.0
  0
LINE
  5
4A9
330
1D
100
AcDbEntity
  8
0
100
AcDbLine
 10
326.2726
 20
82.745395
 30
0.0
 11
327.3694
 21
85.660395
 31
0.0
  0
LINE
  5
4AA
330
1D
100
AcDbEntity
  8
0
100
AcDbLine
 10
324.8258
 20
79.981395
 30
0.0
 11
326.2726
 21
82.745395
 31
0.0
  0
LINE
  5
4AB
330
1D
100
AcDbEntity
  8
0
100
AcDbLine
 10
328.5329
 20
112.809395
 30
0.0
 11
328.8233
 21
107.254395
 31
0.0
  0
LINE
  5
4AC
330
1D
100
AcDbEntity
  8
0
100
AcDbLine
 10
328.2122
 20
122.419395
 30
0.0
 11
328.3437
 21
117.825395
 31
0.0
  0
LINE
  5
4AD
330
1D
100
AcDbEntity
  8
0
100
AcDbLine
 10
328.3437
 20
117.825395
 30
0.0
 11
328.5329
 21
112.809395
 31
0.0
  0
LINE
  5
4AE
330
1D
100
AcDbEntity
  8
0
100
AcDbLine
 10
328.108
 20
126.976395
 30
0.0
 11
328.2122
 21
122.419395
 31
0.0
  0
LINE
  5
4AF
330
1D
100
AcDbEntity
  8
0
100
AcDbLine
 10
327.936
 20
144.832395
 30
0.0
 11
328.1464
 21
151.401395
 31
0.0
  0
LINE
  5
4B0
330
1D
100
AcDbEntity
  8
0
100
AcDbLine
 10
327.9016
 20
140.418395
 30
0.0
 11
328.0018
 21
135.974395
 31
0.0
  0
LINE
  5
4B1
330
1D
100
AcDbEntity
  8
0
100
AcDbLine
 10
327.9016
 20
140.418395
 30
0.0
 11
327.936
 21
144.832395
 31
0.0
  0
LINE
  5
4B2
330
1D
100
AcDbEntity
  8
0
100
AcDbLine
 10
328.3134
 20
157.927395
 30
0.0
 11
328.5299
 21
164.426395
 31
0.0
  0
LINE
  5
4B3
330
1D
100
AcDbEntity
  8
0
100
AcDbLine
 10
328.1464
 20
151.401395
 30
0.0
 11
328.3134
 21
157.927395
 31
0.0
  0
LINE
  5
4B8
330
1D
100
AcDbEntity
  8
0
100
AcDbLine
 10
328.0018
 20
135.974395
 30
0.0
 11
328.108
 21
126.976395
 31
0.0
  0
LINE
  5
4B9
330
1D
100
AcDbEntity
  8
0
100
AcDbLine
 10
328.8233
 20
107.254395
 30
0.0
 11
329.0631
 21
101.191395
 31
0.0
  0
LINE
  5
4BA
330
1D
100
AcDbEntity
  8
0
100
AcDbLine
 10
328.7181
 20
92.384395
 30
0.0
 11
328.9427
 21
94.868395
 31
0.0
  0
LINE
  5
4BB
330
1D
100
AcDbEntity
  8
0
100
AcDbLine
 10
328.3721
 20
89.942395
 30
0.0
 11
328.7181
 21
92.384395
 31
0.0
  0
LINE
  5
4BC
330
1D
100
AcDbEntity
  8
0
100
AcDbLine
 10
327.8884
 20
87.563395
 30
0.0
 11
328.3721
 21
89.942395
 31
0.0
  0
LINE
  5
4BD
330
1D
100
AcDbEntity
  8
0
100
AcDbLine
 10
327.33097772859
 20
85.558278915791
 30
0.0
 11
327.8884
 21
87.563395
 31
0.0
  0
LINE
  5
4BE
330
1D
100
AcDbEntity
  8
0
100
AcDbLine
 10
328.9427
 20
94.868395
 30
0.0
 11
329.0712
 21
98.042395
 31
0.0
  0
LINE
  5
4BF
330
1D
100
AcDbEntity
  8
0
100
AcDbLine
 10
321.5376
 20
75.593395
 30
0.0
 11
322.331252662427
 21
76.530100819394
 31
0.0
  0
LINE
  5
4C0
330
1D
100
AcDbEntity
  8
0
100
AcDbLine
 10
321.5376
 20
75.593395
 30
0.0
 11
322.331252662427
 21
76.530100819394
 31
0.0
  0
LINE
  5
4C1
330
1D
100
AcDbEntity
  8
0
100
AcDbLine
 10
338.4745
 20
2.176495
 30
0.0
 11
341.1061
 21
1.991395
 31
0.0
  0
LINE
  5
4C2
330
1D
100
AcDbEntity
  8
0
100
AcDbLine
 10
341.1061
 20
1.991395
 30
0.0
 11
344.0018
 21
1.870595
 31
0.0
  0
LINE
  5
4C3
330
1D
100
AcDbEntity
  8
0
100
AcDbLine
 10
330.7244
 20
3.710495
 30
0.0
 11
333.2791
 21
3.036895
 31
0.0
  0
LINE
  5
4C4
330
1D
100
AcDbEntity
  8
0
100
AcDbLine
 10
333.2791
 20
3.036895
 30
0.0
 11
335.853
 21
2.575395
 31
0.0
  0
LINE
  5
4C5
330
1D
100
AcDbEntity
  8
0
100
AcDbLine
 10
335.853
 20
2.575395
 30
0.0
 11
338.4745
 21
2.176495
 31
0.0
  0
LINE
  5
4C6
330
1D
100
AcDbEntity
  8
0
100
AcDbLine
 10
329.0631
 20
101.191395
 30
0.0
 11
329.0712
 21
98.042395
 31
0.0
  0
LINE
  5
4C7
330
1D
100
AcDbEntity
  8
0
100
AcDbLine
 10
344.0018
 20
1.870595
 30
0.0
 11
346.8975
 21
1.991395
 31
0.0
  0
LINE
  5
4C8
330
1D
100
AcDbEntity
  8
0
100
AcDbLine
 10
328.8476
 20
171.205395
 30
0.0
 11
328.9012
 21
171.531395
 31
0.0
  0
LINE
  5
4C9
330
1D
100
AcDbEntity
  8
0
100
AcDbLine
 10
328.9012
 20
171.531395
 30
0.0
 11
329.057
 21
171.897395
 31
0.0
  0
LINE
  5
4CA
330
1D
100
AcDbEntity
  8
0
100
AcDbLine
 10
328.8051
 20
171.056395
 30
0.0
 11
328.8476
 21
171.205395
 31
0.0
  0
LINE
  5
4CB
330
1D
100
AcDbEntity
  8
0
100
AcDbLine
 10
328.795
 20
170.918395
 30
0.0
 11
328.8051
 21
171.056395
 31
0.0
  0
LINE
  5
4CC
330
1D
100
AcDbEntity
  8
0
100
AcDbLine
 10
328.5299
 20
164.426395
 30
0.0
 11
328.795
 21
170.918395
 31
0.0
  0
LINE
  5
4CD
330
1D
100
AcDbEntity
  8
0
100
AcDbLine
 10
344.9458
 20
-0.059505
 30
0.0
 11
349.5778
 21
0.266095
 31
0.0
  0
LINE
  5
4CE
330
1D
100
AcDbEntity
  8
0
100
AcDbLine
 10
346.8975
 20
1.991395
 30
0.0
 11
349.5291
 21
2.176495
 31
0.0
  0
LINE
  5
4CF
330
1D
100
AcDbEntity
  8
0
100
AcDbLine
 10
354.1368
 20
1.048995
 30
0.0
 11
354.4708
 21
1.116195
 31
0.0
  0
LINE
  5
4D0
330
1D
100
AcDbEntity
  8
0
100
AcDbLine
 10
349.5778
 20
0.266095
 30
0.0
 11
354.1368
 21
1.048995
 31
0.0
  0
LINE
  5
4D1
330
1D
100
AcDbEntity
  8
0
100
AcDbLine
 10
354.4708
 20
1.116195
 30
0.0
 11
359.0368
 21
2.387595
 31
0.0
  0
LINE
  5
4D2
330
1D
100
AcDbEntity
  8
0
100
AcDbLine
 10
349.5291
 20
2.176495
 30
0.0
 11
352.1506
 21
2.575395
 31
0.0
  0
LINE
  5
4D3
330
1D
100
AcDbEntity
  8
0
100
AcDbLine
 10
352.1506
 20
2.575395
 30
0.0
 11
354.7245
 21
3.036895
 31
0.0
  0
LINE
  5
4D4
330
1D
100
AcDbEntity
  8
0
100
AcDbLine
 10
359.0368
 20
2.387595
 30
0.0
 11
363.4008
 21
4.105695
 31
0.0
  0
LINE
  5
4D5
330
1D
100
AcDbEntity
  8
0
100
AcDbLine
 10
354.7245
 20
3.036895
 30
0.0
 11
357.2792
 21
3.710495
 31
0.0
  0
LINE
  5
4D6
330
1D
100
AcDbEntity
  8
0
100
AcDbLine
 10
357.2792
 20
3.710495
 30
0.0
 11
359.757
 21
4.439795
 31
0.0
  0
LINE
  5
4D7
330
1D
100
AcDbEntity
  8
0
100
AcDbLine
 10
359.0609
 20
94.868395
 30
0.0
 11
359.2855
 21
92.384395
 31
0.0
  0
LINE
  5
4D8
330
1D
100
AcDbEntity
  8
0
100
AcDbLine
 10
358.9405
 20
101.191395
 30
0.0
 11
359.1803
 21
107.254395
 31
0.0
  0
LINE
  5
4D9
330
1D
100
AcDbEntity
  8
0
100
AcDbLine
 10
358.9324
 20
98.042395
 30
0.0
 11
359.0609
 21
94.868395
 31
0.0
  0
LINE
  5
4DA
330
1D
100
AcDbEntity
  8
0
100
AcDbLine
 10
358.9324
 20
98.042395
 30
0.0
 11
358.9405
 21
101.191395
 31
0.0
  0
LINE
  5
4DB
330
1D
100
AcDbEntity
  8
0
100
AcDbLine
 10
329.057
 20
171.897395
 30
0.0
 11
329.1005
 21
171.982395
 31
0.0
  0
LINE
  5
4DC
330
1D
100
AcDbEntity
  8
0
100
AcDbLine
 10
329.1005
 20
171.982395
 30
0.0
 11
330.5372
 21
174.499395
 31
0.0
  0
LINE
  5
4DD
330
1D
100
AcDbEntity
  8
0
100
AcDbLine
 10
328.6482
 20
176.590395
 30
0.0
 11
329.282972519122
 21
172.302074355907
 31
0.0
  0
LINE
  5
4DE
330
1D
100
AcDbEntity
  8
0
100
AcDbLine
 10
330.5372
 20
174.499395
 30
0.0
 11
332.4009
 21
176.778395
 31
0.0
  0
LINE
  5
4DF
330
1D
100
AcDbEntity
  8
0
100
AcDbLine
 10
333.4916
 20
177.798395
 30
0.0
 11
334.6875
 21
178.722395
 31
0.0
  0
LINE
  5
4E0
330
1D
100
AcDbEntity
  8
0
100
AcDbLine
 10
332.4009
 20
176.778395
 30
0.0
 11
333.4916
 21
177.798395
 31
0.0
  0
LINE
  5
4E1
330
1D
100
AcDbEntity
  8
0
100
AcDbLine
 10
328.0018
 20
185.855395
 30
0.0
 11
328.0018
 21
195.119395
 31
0.0
  0
LINE
  5
4E2
330
1D
100
AcDbEntity
  8
0
100
AcDbLine
 10
328.0018
 20
185.855395
 30
0.0
 11
328.6425
 21
176.590395
 31
0.0
  0
LINE
  5
4E3
330
1D
100
AcDbEntity
  8
0
100
AcDbLine
 10
328.0018
 20
195.119395
 30
0.0
 11
328.0018
 21
202.325395
 31
0.0
  0
LINE
  5
4E4
330
1D
100
AcDbEntity
  8
0
100
AcDbLine
 10
328.0018
 20
195.119395
 30
0.0
 11
328.0018
 21
185.855395
 31
0.0
  0
LINE
  5
4E5
330
1D
100
AcDbEntity
  8
0
100
AcDbLine
 10
328.0018
 20
202.325395
 30
0.0
 11
328.0018
 21
213.648395
 31
0.0
  0
LINE
  5
4E6
330
1D
100
AcDbEntity
  8
0
100
AcDbLine
 10
328.0018
 20
202.325395
 30
0.0
 11
328.0018
 21
195.119395
 31
0.0
  0
LINE
  5
4E7
330
1D
100
AcDbEntity
  8
0
100
AcDbLine
 10
328.0018
 20
213.648395
 30
0.0
 11
328.0018
 21
228.059395
 31
0.0
  0
LINE
  5
4E8
330
1D
100
AcDbEntity
  8
0
100
AcDbLine
 10
328.0018
 20
213.648395
 30
0.0
 11
328.0018
 21
202.325395
 31
0.0
  0
LINE
  5
4E9
330
1D
100
AcDbEntity
  8
0
100
AcDbLine
 10
328.0018
 20
228.059395
 30
0.0
 11
328.0018
 21
213.648395
 31
0.0
  0
LINE
  5
4EA
330
1D
100
AcDbEntity
  8
0
100
AcDbLine
 10
328.0018
 20
228.059395
 30
0.0
 11
328.1018
 21
228.059395
 31
0.0
  0
LINE
  5
4EB
330
1D
100
AcDbEntity
  8
0
100
AcDbLine
 10
328.1018
 20
228.059395
 30
0.0
 11
328.4018
 21
228.059395
 31
0.0
  0
LINE
  5
4EC
330
1D
100
AcDbEntity
  8
0
100
AcDbLine
 10
328.4018
 20
228.059395
 30
0.0
 11
328.7018
 21
228.059395
 31
0.0
  0
LINE
  5
4ED
330
1D
100
AcDbEntity
  8
0
100
AcDbLine
 10
328.7018
 20
228.059395
 30
0.0
 11
329.0018
 21
228.059395
 31
0.0
  0
LINE
  5
4EE
330
1D
100
AcDbEntity
  8
0
100
AcDbLine
 10
329.0018
 20
228.059395
 30
0.0
 11
329.3018
 21
228.059395
 31
0.0
  0
LINE
  5
4EF
330
1D
100
AcDbEntity
  8
0
100
AcDbLine
 10
329.3018
 20
228.059395
 30
0.0
 11
329.7018
 21
228.059395
 31
0.0
  0
LINE
  5
4F0
330
1D
100
AcDbEntity
  8
0
100
AcDbLine
 10
329.7018
 20
228.059395
 30
0.0
 11
329.8018
 21
228.059395
 31
0.0
  0
LINE
  5
4F1
330
1D
100
AcDbEntity
  8
0
100
AcDbLine
 10
329.8018
 20
228.059395
 30
0.0
 11
330.3018
 21
228.059395
 31
0.0
  0
LINE
  5
4F2
330
1D
100
AcDbEntity
  8
0
100
AcDbLine
 10
330.3018
 20
228.059395
 30
0.0
 11
331.6018
 21
228.059395
 31
0.0
  0
LINE
  5
4F3
330
1D
100
AcDbEntity
  8
0
100
AcDbLine
 10
331.6018
 20
228.059395
 30
0.0
 11
333.0018
 21
228.059395
 31
0.0
  0
LINE
  5
4F4
330
1D
100
AcDbEntity
  8
0
100
AcDbLine
 10
333.0018
 20
228.059395
 30
0.0
 11
333.4018
 21
228.059395
 31
0.0
  0
LINE
  5
4F5
330
1D
100
AcDbEntity
  8
0
100
AcDbLine
 10
333.4018
 20
228.059395
 30
0.0
 11
334.5018
 21
228.059395
 31
0.0
  0
LINE
  5
4F6
330
1D
100
AcDbEntity
  8
0
100
AcDbLine
 10
334.5018
 20
228.059395
 30
0.0
 11
336.2018
 21
228.059395
 31
0.0
  0
LINE
  5
4F7
330
1D
100
AcDbEntity
  8
0
100
AcDbLine
 10
336.2018
 20
228.059395
 30
0.0
 11
338.5018
 21
228.059395
 31
0.0
  0
LINE
  5
4F8
330
1D
100
AcDbEntity
  8
0
100
AcDbLine
 10
346.8018
 20
228.059395
 30
0.0
 11
349.5018
 21
228.059395
 31
0.0
  0
LINE
  5
4F9
330
1D
100
AcDbEntity
  8
0
100
AcDbLine
 10
344.0018
 20
228.059395
 30
0.0
 11
346.8018
 21
228.059395
 31
0.0
  0
LINE
  5
4FA
330
1D
100
AcDbEntity
  8
0
100
AcDbLine
 10
338.5018
 20
228.059395
 30
0.0
 11
341.2018
 21
228.059395
 31
0.0
  0
LINE
  5
4FB
330
1D
100
AcDbEntity
  8
0
100
AcDbLine
 10
341.2018
 20
228.059395
 30
0.0
 11
344.0018
 21
228.059395
 31
0.0
  0
LINE
  5
4FC
330
1D
100
AcDbEntity
  8
0
100
AcDbLine
 10
336.6746
 20
179.901395
 30
0.0
 11
338.546814508416
 21
180.657273737384
 31
0.0
  0
LINE
  5
4FD
330
1D
100
AcDbEntity
  8
0
100
AcDbLine
 10
334.6875
 20
178.722395
 30
0.0
 11
336.6746
 21
179.901395
 31
0.0
  0
LINE
  5
4FE
330
1D
100
AcDbEntity
  8
0
100
AcDbLine
 10
358.720627480878
 20
172.302074355907
 30
0.0
 11
359.3554
 21
176.590395
 31
0.0
  0
LINE
  5
4FF
330
1D
100
AcDbEntity
  8
0
100
AcDbLine
 10
351.8018
 20
228.059395
 30
0.0
 11
353.5018
 21
228.059395
 31
0.0
  0
LINE
  5
500
330
1D
100
AcDbEntity
  8
0
100
AcDbLine
 10
349.5018
 20
228.059395
 30
0.0
 11
351.8018
 21
228.059395
 31
0.0
  0
LINE
  5
501
330
1D
100
AcDbEntity
  8
0
100
AcDbLine
 10
351.329
 20
179.901395
 30
0.0
 11
353.3161
 21
178.722395
 31
0.0
  0
LINE
  5
502
330
1D
100
AcDbEntity
  8
0
100
AcDbLine
 10
355.0018
 20
228.059395
 30
0.0
 11
356.4018
 21
228.059395
 31
0.0
  0
LINE
  5
503
330
1D
100
AcDbEntity
  8
0
100
AcDbLine
 10
354.6018
 20
228.059395
 30
0.0
 11
355.0018
 21
228.059395
 31
0.0
  0
LINE
  5
504
330
1D
100
AcDbEntity
  8
0
100
AcDbLine
 10
353.5018
 20
228.059395
 30
0.0
 11
354.6018
 21
228.059395
 31
0.0
  0
LINE
  5
505
330
1D
100
AcDbEntity
  8
0
100
AcDbLine
 10
353.3161
 20
178.722395
 30
0.0
 11
354.512
 21
177.798395
 31
0.0
  0
LINE
  5
506
330
1D
100
AcDbEntity
  8
0
100
AcDbLine
 10
354.512
 20
177.798395
 30
0.0
 11
355.6027
 21
176.778395
 31
0.0
  0
LINE
  5
507
330
1D
100
AcDbEntity
  8
0
100
AcDbLine
 10
358.7018
 20
228.059395
 30
0.0
 11
359.0018
 21
228.059395
 31
0.0
  0
LINE
  5
508
330
1D
100
AcDbEntity
  8
0
100
AcDbLine
 10
358.3018
 20
228.059395
 30
0.0
 11
358.7018
 21
228.059395
 31
0.0
  0
LINE
  5
509
330
1D
100
AcDbEntity
  8
0
100
AcDbLine
 10
358.2018
 20
228.059395
 30
0.0
 11
358.3018
 21
228.059395
 31
0.0
  0
LINE
  5
50A
330
1D
100
AcDbEntity
  8
0
100
AcDbLine
 10
357.7018
 20
228.059395
 30
0.0
 11
358.2018
 21
228.059395
 31
0.0
  0
LINE
  5
50B
330
1D
100
AcDbEntity
  8
0
100
AcDbLine
 10
356.4018
 20
228.059395
 30
0.0
 11
357.7018
 21
228.059395
 31
0.0
  0
LINE
  5
50C
330
1D
100
AcDbEntity
  8
0
100
AcDbLine
 10
355.6027
 20
176.778395
 30
0.0
 11
357.4664
 21
174.499395
 31
0.0
  0
LINE
  5
50D
330
1D
100
AcDbEntity
  8
0
100
AcDbLine
 10
357.4664
 20
174.499395
 30
0.0
 11
358.9031
 21
171.982395
 31
0.0
  0
LINE
  5
50E
330
1D
100
AcDbEntity
  8
0
100
AcDbLine
 10
349.456785491584
 20
180.657273737384
 30
0.0
 11
351.329
 21
179.901395
 31
0.0
  0
LINE
  5
50F
330
1D
100
AcDbEntity
  8
0
100
AcDbLine
 10
358.9031
 20
171.982395
 30
0.0
 11
358.9466
 21
171.897395
 31
0.0
  0
LINE
  5
510
330
1D
100
AcDbEntity
  8
0
100
AcDbLine
 10
359.0018
 20
228.059395
 30
0.0
 11
359.3018
 21
228.059395
 31
0.0
  0
LINE
  5
511
330
1D
100
AcDbEntity
  8
0
100
AcDbLine
 10
358.9466
 20
171.897395
 30
0.0
 11
359.1024
 21
171.531395
 31
0.0
  0
LINE
  5
512
330
1D
100
AcDbEntity
  8
0
100
AcDbLine
 10
359.1024
 20
171.531395
 30
0.0
 11
359.156
 21
171.205395
 31
0.0
  0
LINE
  5
513
330
1D
100
AcDbEntity
  8
0
100
AcDbLine
 10
359.2855
 20
92.384395
 30
0.0
 11
359.6315
 21
89.942395
 31
0.0
  0
LINE
  5
514
330
1D
100
AcDbEntity
  8
0
100
AcDbLine
 10
359.6315
 20
89.942395
 30
0.0
 11
360.1152
 21
87.563395
 31
0.0
  0
LINE
  5
515
330
1D
100
AcDbEntity
  8
0
100
AcDbLine
 10
359.4707
 20
112.809395
 30
0.0
 11
359.6599
 21
117.825395
 31
0.0
  0
LINE
  5
516
330
1D
100
AcDbEntity
  8
0
100
AcDbLine
 10
359.1803
 20
107.254395
 30
0.0
 11
359.4707
 21
112.809395
 31
0.0
  0
LINE
  5
517
330
1D
100
AcDbEntity
  8
0
100
AcDbLine
 10
359.2086
 20
170.918395
 30
0.0
 11
359.4737
 21
164.426395
 31
0.0
  0
LINE
  5
518
330
1D
100
AcDbEntity
  8
0
100
AcDbLine
 10
359.4737
 20
164.426395
 30
0.0
 11
359.6902
 21
157.927395
 31
0.0
  0
LINE
  5
519
330
1D
100
AcDbEntity
  8
0
100
AcDbLine
 10
359.757
 20
4.439795
 30
0.0
 11
362.2055
 21
5.379395
 31
0.0
  0
LINE
  5
51A
330
1D
100
AcDbEntity
  8
0
100
AcDbLine
 10
363.4008
 20
4.105695
 30
0.0
 11
367.5018
 21
6.244795
 31
0.0
  0
LINE
  5
51B
330
1D
100
AcDbEntity
  8
0
100
AcDbLine
 10
362.2055
 20
5.379395
 30
0.0
 11
364.5477
 21
6.364295
 31
0.0
  0
LINE
  5
51C
330
1D
100
AcDbEntity
  8
0
100
AcDbLine
 10
364.5477
 20
6.364295
 30
0.0
 11
366.8748
 21
7.567295
 31
0.0
  0
LINE
  5
51D
330
1D
100
AcDbEntity
  8
0
100
AcDbLine
 10
367.5018
 20
6.244795
 30
0.0
 11
371.2848
 21
8.777095
 31
0.0
  0
LINE
  5
51E
330
1D
100
AcDbEntity
  8
0
100
AcDbLine
 10
371.2848
 20
8.777095
 30
0.0
 11
374.6998
 21
11.669595
 31
0.0
  0
LINE
  5
51F
330
1D
100
AcDbEntity
  8
0
100
AcDbLine
 10
371.2102
 20
10.246595
 30
0.0
 11
373.1942
 21
11.707195
 31
0.0
  0
LINE
  5
520
330
1D
100
AcDbEntity
  8
0
100
AcDbLine
 10
369.0662
 20
8.804395
 30
0.0
 11
371.2102
 21
10.246595
 31
0.0
  0
LINE
  5
521
330
1D
100
AcDbEntity
  8
0
100
AcDbLine
 10
374.6998
 20
11.669595
 30
0.0
 11
375.4228
 21
12.339795
 31
0.0
  0
LINE
  5
522
330
1D
100
AcDbEntity
  8
0
100
AcDbLine
 10
375.4228
 20
12.339795
 30
0.0
 11
378.4918
 21
15.627195
 31
0.0
  0
LINE
  5
523
330
1D
100
AcDbEntity
  8
0
100
AcDbLine
 10
373.1942
 20
11.707195
 30
0.0
 11
375.1237
 21
13.367695
 31
0.0
  0
LINE
  5
524
330
1D
100
AcDbEntity
  8
0
100
AcDbLine
 10
375.1237
 20
13.367695
 30
0.0
 11
376.869
 21
15.027595
 31
0.0
  0
LINE
  5
525
330
1D
100
AcDbEntity
  8
0
100
AcDbLine
 10
366.8748
 20
7.567295
 30
0.0
 11
369.0662
 21
8.804395
 31
0.0
  0
LINE
  5
526
330
1D
100
AcDbEntity
  8
0
100
AcDbLine
 10
378.4918
 20
15.627195
 30
0.0
 11
381.0088
 21
19.081995
 31
0.0
  0
LINE
  5
527
330
1D
100
AcDbEntity
  8
0
100
AcDbLine
 10
376.869
 20
15.027595
 30
0.0
 11
378.5536
 21
16.880495
 31
0.0
  0
LINE
  5
528
330
1D
100
AcDbEntity
  8
0
100
AcDbLine
 10
381.3508
 20
19.631195
 30
0.0
 11
383.1988
 21
23.003995
 31
0.0
  0
LINE
  5
529
330
1D
100
AcDbEntity
  8
0
100
AcDbLine
 10
381.0088
 20
19.081995
 30
0.0
 11
381.3508
 21
19.631195
 31
0.0
  0
LINE
  5
52A
330
1D
100
AcDbEntity
  8
0
100
AcDbLine
 10
380.0338
 20
18.713695
 30
0.0
 11
382.0937
 21
21.764095
 31
0.0
  0
LINE
  5
52B
330
1D
100
AcDbEntity
  8
0
100
AcDbLine
 10
382.0937
 20
21.764095
 30
0.0
 11
382.4205
 21
22.324395
 31
0.0
  0
LINE
  5
52C
330
1D
100
AcDbEntity
  8
0
100
AcDbLine
 10
383.1988
 20
23.003995
 30
0.0
 11
383.6878
 21
24.107295
 31
0.0
  0
LINE
  5
52D
330
1D
100
AcDbEntity
  8
0
100
AcDbLine
 10
383.6878
 20
24.107295
 30
0.0
 11
385.2798
 21
28.144695
 31
0.0
  0
LINE
  5
52E
330
1D
100
AcDbEntity
  8
0
100
AcDbLine
 10
382.4205
 20
22.324395
 30
0.0
 11
383.7793
 21
24.910395
 31
0.0
  0
LINE
  5
52F
330
1D
100
AcDbEntity
  8
0
100
AcDbLine
 10
383.7793
 20
24.910395
 30
0.0
 11
384.3146
 21
26.143095
 31
0.0
  0
LINE
  5
530
330
1D
100
AcDbEntity
  8
0
100
AcDbLine
 10
384.3146
 20
26.143095
 30
0.0
 11
385.1108
 21
28.177995
 31
0.0
  0
LINE
  5
531
330
1D
100
AcDbEntity
  8
0
100
AcDbLine
 10
385.2798
 20
28.144695
 30
0.0
 11
386.3128
 21
32.314595
 31
0.0
  0
LINE
  5
532
330
1D
100
AcDbEntity
  8
0
100
AcDbLine
 10
385.1108
 20
28.177995
 30
0.0
 11
385.6926
 21
30.120395
 31
0.0
  0
LINE
  5
533
330
1D
100
AcDbEntity
  8
0
100
AcDbLine
 10
385.6926
 20
30.120395
 30
0.0
 11
386.077
 21
31.539995
 31
0.0
  0
LINE
  5
534
330
1D
100
AcDbEntity
  8
0
100
AcDbLine
 10
385.6926
 20
30.120395
 30
0.0
 11
385.747987414814
 21
30.395159239915
 31
0.0
  0
LINE
  5
535
330
1D
100
AcDbEntity
  8
0
100
AcDbLine
 10
378.5536
 20
16.880495
 30
0.0
 11
380.0338
 21
18.713695
 31
0.0
  0
LINE
  5
536
330
1D
100
AcDbEntity
  8
0
100
AcDbLine
 10
386.3128
 20
32.314595
 30
0.0
 11
386.484875196167
 21
33.899179865006
 31
0.0
  0
LINE
  5
537
330
1D
100
AcDbEntity
  8
0
100
AcDbLine
 10
386.5384
 20
34.205895
 30
0.0
 11
386.6689
 21
34.963595
 31
0.0
  0
LINE
  5
538
330
1D
100
AcDbEntity
  8
0
100
AcDbLine
 10
386.4322
 20
47.421395
 30
0.0
 11
386.7468
 21
45.417795
 31
0.0
  0
LINE
  5
539
330
1D
100
AcDbEntity
  8
0
100
AcDbLine
 10
385.9951
 20
49.408395
 30
0.0
 11
386.4322
 21
47.421395
 31
0.0
  0
LINE
  5
53A
330
1D
100
AcDbEntity
  8
0
100
AcDbLine
 10
385.4356
 20
51.373395
 30
0.0
 11
385.9951
 21
49.408395
 31
0.0
  0
LINE
  5
53B
330
1D
100
AcDbEntity
  8
0
100
AcDbLine
 10
384.7567
 20
53.310395
 30
0.0
 11
385.4356
 21
51.373395
 31
0.0
  0
LINE
  5
53C
330
1D
100
AcDbEntity
  8
0
100
AcDbLine
 10
383.9574
 20
55.217395
 30
0.0
 11
384.7567
 21
53.310395
 31
0.0
  0
LINE
  5
53D
330
1D
100
AcDbEntity
  8
0
100
AcDbLine
 10
383.0397
 20
57.089395
 30
0.0
 11
383.9574
 21
55.217395
 31
0.0
  0
LINE
  5
53E
330
1D
100
AcDbEntity
  8
0
100
AcDbLine
 10
386.077
 20
31.539995
 30
0.0
 11
386.6689
 21
34.963595
 31
0.0
  0
LINE
  5
53F
330
1D
100
AcDbEntity
  8
0
100
AcDbLine
 10
386.7738
 20
36.559795
 30
0.0
 11
386.777175177441
 21
36.767087147832
 31
0.0
  0
LINE
  5
540
330
1D
100
AcDbEntity
  8
0
100
AcDbLine
 10
386.753515945669
 20
36.373005699683
 30
0.0
 11
386.7738
 21
36.559795
 31
0.0
  0
LINE
  5
541
330
1D
100
AcDbEntity
  8
0
100
AcDbLine
 10
386.7468
 20
45.417795
 30
0.0
 11
386.937
 21
43.403095
 31
0.0
  0
LINE
  5
542
330
1D
100
AcDbEntity
  8
0
100
AcDbLine
 10
386.6689
 20
34.963595
 30
0.0
 11
386.9097
 21
38.974495
 31
0.0
  0
LINE
  5
543
330
1D
100
AcDbEntity
  8
0
100
AcDbLine
 10
381.6131
 20
59.549395
 30
0.0
 11
383.0397
 21
57.089395
 31
0.0
  0
LINE
  5
544
330
1D
100
AcDbEntity
  8
0
100
AcDbLine
 10
386.937
 20
43.403095
 30
0.0
 11
387.0018
 21
41.383395
 31
0.0
  0
LINE
  5
545
330
1D
100
AcDbEntity
  8
0
100
AcDbLine
 10
386.9097
 20
38.974495
 30
0.0
 11
387.0018
 21
41.383395
 31
0.0
  0
LINE
  5
546
330
1D
100
AcDbEntity
  8
0
100
AcDbLine
 10
365.672347337573
 20
76.530100819394
 30
0.0
 11
366.466
 21
75.593395
 31
0.0
  0
LINE
  5
547
330
1D
100
AcDbEntity
  8
0
100
AcDbLine
 10
372.6772
 20
69.543395
 30
0.0
 11
374.0775
 21
68.254395
 31
0.0
  0
LINE
  5
548
330
1D
100
AcDbEntity
  8
0
100
AcDbLine
 10
369.8585
 20
72.153395
 30
0.0
 11
372.6772
 21
69.543395
 31
0.0
  0
LINE
  5
549
330
1D
100
AcDbEntity
  8
0
100
AcDbLine
 10
368.0939
 20
73.869395
 30
0.0
 11
369.8585
 21
72.153395
 31
0.0
  0
LINE
  5
54A
330
1D
100
AcDbEntity
  8
0
100
AcDbLine
 10
366.466
 20
75.593395
 30
0.0
 11
368.0939
 21
73.869395
 31
0.0
  0
LINE
  5
54B
330
1D
100
AcDbEntity
  8
0
100
AcDbLine
 10
365.672347337573
 20
76.530100819394
 30
0.0
 11
366.466
 21
75.593395
 31
0.0
  0
LINE
  5
54C
330
1D
100
AcDbEntity
  8
0
100
AcDbLine
 10
379.9721
 20
61.935395
 30
0.0
 11
381.6131
 21
59.549395
 31
0.0
  0
LINE
  5
54D
330
1D
100
AcDbEntity
  8
0
100
AcDbLine
 10
378.1205
 20
64.241395
 30
0.0
 11
379.9721
 21
61.935395
 31
0.0
  0
LINE
  5
54E
330
1D
100
AcDbEntity
  8
0
100
AcDbLine
 10
375.9857
 20
66.413395
 30
0.0
 11
378.1205
 21
64.241395
 31
0.0
  0
LINE
  5
54F
330
1D
100
AcDbEntity
  8
0
100
AcDbLine
 10
374.0775
 20
68.254395
 30
0.0
 11
375.9857
 21
66.413395
 31
0.0
  0
LINE
  5
550
330
1D
100
AcDbEntity
  8
0
100
AcDbLine
 10
364.6792
 20
77.725395
 30
0.0
 11
366.6218
 21
75.387395
 31
0.0
  0
LINE
  5
551
330
1D
100
AcDbEntity
  8
0
100
AcDbLine
 10
360.6342
 20
85.660395
 30
0.0
 11
361.731
 21
82.745395
 31
0.0
  0
LINE
  5
552
330
1D
100
AcDbEntity
  8
0
100
AcDbLine
 10
361.731
 20
82.745395
 30
0.0
 11
363.1778
 21
79.981395
 31
0.0
  0
LINE
  5
553
330
1D
100
AcDbEntity
  8
0
100
AcDbLine
 10
363.1778
 20
79.981395
 30
0.0
 11
365.039349081532
 21
77.291940581889
 31
0.0
  0
LINE
  5
554
330
1D
100
AcDbEntity
  8
0
100
AcDbLine
 10
363.1778
 20
79.981395
 30
0.0
 11
365.039349081532
 21
77.291940581889
 31
0.0
  0
LINE
  5
555
330
1D
100
AcDbEntity
  8
0
100
AcDbLine
 10
360.1152
 20
87.563395
 30
0.0
 11
360.67262227141
 21
85.558278915791
 31
0.0
  0
LINE
  5
556
330
1D
100
AcDbEntity
  8
0
100
AcDbLine
 10
359.6902
 20
157.927395
 30
0.0
 11
359.8572
 21
151.401395
 31
0.0
  0
LINE
  5
557
330
1D
100
AcDbEntity
  8
0
100
AcDbLine
 10
359.8572
 20
151.401395
 30
0.0
 11
360.0676
 21
144.832395
 31
0.0
  0
LINE
  5
55C
330
1D
100
AcDbEntity
  8
0
100
AcDbLine
 10
360.0676
 20
144.832395
 30
0.0
 11
360.102
 21
140.418395
 31
0.0
  0
LINE
  5
55D
330
1D
100
AcDbEntity
  8
0
100
AcDbLine
 10
360.0018
 20
135.974395
 30
0.0
 11
360.102
 21
140.418395
 31
0.0
  0
LINE
  5
55E
330
1D
100
AcDbEntity
  8
0
100
AcDbLine
 10
359.8956
 20
126.976395
 30
0.0
 11
360.0018
 21
135.974395
 31
0.0
  0
LINE
  5
55F
330
1D
100
AcDbEntity
  8
0
100
AcDbLine
 10
359.7914
 20
122.419395
 30
0.0
 11
359.8956
 21
126.976395
 31
0.0
  0
LINE
  5
560
330
1D
100
AcDbEntity
  8
0
100
AcDbLine
 10
359.6599
 20
117.825395
 30
0.0
 11
359.7914
 21
122.419395
 31
0.0
  0
LINE
  5
561
330
1D
100
AcDbEntity
  8
0
100
AcDbLine
 10
359.3611
 20
176.590395
 30
0.0
 11
360.0018
 21
185.855395
 31
0.0
  0
LINE
  5
562
330
1D
100
AcDbEntity
  8
0
100
AcDbLine
 10
359.3018
 20
228.059395
 30
0.0
 11
359.6018
 21
228.059395
 31
0.0
  0
LINE
  5
563
330
1D
100
AcDbEntity
  8
0
100
AcDbLine
 10
359.6018
 20
228.059395
 30
0.0
 11
359.9018
 21
228.059395
 31
0.0
  0
LINE
  5
564
330
1D
100
AcDbEntity
  8
0
100
AcDbLine
 10
360.0018
 20
195.119395
 30
0.0
 11
360.0018
 21
185.855395
 31
0.0
  0
LINE
  5
565
330
1D
100
AcDbEntity
  8
0
100
AcDbLine
 10
360.0018
 20
195.119395
 30
0.0
 11
360.0018
 21
202.325395
 31
0.0
  0
LINE
  5
566
330
1D
100
AcDbEntity
  8
0
100
AcDbLine
 10
360.0018
 20
185.855395
 30
0.0
 11
360.0018
 21
195.119395
 31
0.0
  0
LINE
  5
567
330
1D
100
AcDbEntity
  8
0
100
AcDbLine
 10
360.0018
 20
202.325395
 30
0.0
 11
360.0018
 21
213.648395
 31
0.0
  0
LINE
  5
568
330
1D
100
AcDbEntity
  8
0
100
AcDbLine
 10
360.0018
 20
202.325395
 30
0.0
 11
360.0018
 21
195.119395
 31
0.0
  0
LINE
  5
569
330
1D
100
AcDbEntity
  8
0
100
AcDbLine
 10
360.0018
 20
228.059395
 30
0.0
 11
360.0018
 21
213.648395
 31
0.0
  0
LINE
  5
56A
330
1D
100
AcDbEntity
  8
0
100
AcDbLine
 10
360.0018
 20
213.648395
 30
0.0
 11
360.0018
 21
228.059395
 31
0.0
  0
LINE
  5
56B
330
1D
100
AcDbEntity
  8
0
100
AcDbLine
 10
360.0018
 20
213.648395
 30
0.0
 11
360.0018
 21
202.325395
 31
0.0
  0
LINE
  5
56C
330
1D
100
AcDbEntity
  8
0
100
AcDbLine
 10
359.9018
 20
228.059395
 30
0.0
 11
360.0018
 21
228.059395
 31
0.0
  0
LINE
  5
56D
330
1D
100
AcDbEntity
  8
0
100
AcDbLine
 10
359.1985
 20
171.056395
 30
0.0
 11
359.2086
 21
170.918395
 31
0.0
  0
LINE
  5
56E
330
1D
100
AcDbEntity
  8
0
100
AcDbLine
 10
359.156
 20
171.205395
 30
0.0
 11
359.1985
 21
171.056395
 31
0.0
  0
LINE
  5
56F
330
1D
100
AcDbEntity
  8
0
100
AcDbLine
 10
338.546814508416
 20
180.657273737384
 30
0.0
 11
341.899016744892
 21
181.303645319154
 31
0.0
  0
LINE
  5
570
330
1D
100
AcDbEntity
  8
0
100
AcDbLine
 10
341.899016744892
 20
181.303645319154
 30
0.0
 11
345.598663312494
 21
181.303645319154
 31
0.0
  0
LINE
  5
571
330
1D
100
AcDbEntity
  8
0
100
AcDbLine
 10
345.598663312494
 20
181.303645319154
 30
0.0
 11
349.456785491584
 21
180.657273737384
 31
0.0
  0
LINE
  5
572
330
1D
100
AcDbEntity
  8
0
100
AcDbLine
 10
97.5304
 20
72.325595
 30
0.0
 11
90.6949
 21
127.777395
 31
0.0
  0
LINE
  5
573
330
1D
100
AcDbEntity
  8
0
100
AcDbLine
 10
132.4696
 20
72.325595
 30
0.0
 11
139.3051
 21
127.777395
 31
0.0
  0
LINE
  5
574
330
1D
100
AcDbEntity
  8
0
100
AcDbLine
 10
133.507
 20
172.737395
 30
0.0
 11
132.2413
 21
173.905395
 31
0.0
  0
LINE
  5
575
330
1D
100
AcDbEntity
  8
0
100
AcDbLine
 10
140.9735
 20
147.076395
 30
0.0
 11
140.7287
 21
142.878395
 31
0.0
  0
LINE
  5
576
330
1D
100
AcDbEntity
  8
0
100
AcDbLine
 10
139.9334
 20
133.735395
 30
0.0
 11
139.3051
 21
127.777395
 31
0.0
  0
LINE
  5
577
330
1D
100
AcDbEntity
  8
0
100
AcDbLine
 10
140.7287
 20
142.878395
 30
0.0
 11
140.4727
 21
139.561395
 31
0.0
  0
LINE
  5
578
330
1D
100
AcDbEntity
  8
0
100
AcDbLine
 10
140.4727
 20
139.561395
 30
0.0
 11
139.9334
 21
133.735395
 31
0.0
  0
LINE
  5
579
330
1D
100
AcDbEntity
  8
0
100
AcDbLine
 10
136.7777
 20
168.812395
 30
0.0
 11
135.7785
 21
170.185395
 31
0.0
  0
LINE
  5
57A
330
1D
100
AcDbEntity
  8
0
100
AcDbLine
 10
141.1987
 20
155.964395
 30
0.0
 11
141.0301
 21
157.668395
 31
0.0
  0
LINE
  5
57B
330
1D
100
AcDbEntity
  8
0
100
AcDbLine
 10
141.0835
 20
150.816395
 30
0.0
 11
140.9735
 21
147.076395
 31
0.0
  0
LINE
  5
57C
330
1D
100
AcDbEntity
  8
0
100
AcDbLine
 10
141.2536
 20
154.254395
 30
0.0
 11
141.1987
 21
155.964395
 31
0.0
  0
LINE
  5
57D
330
1D
100
AcDbEntity
  8
0
100
AcDbLine
 10
141.2536
 20
154.254395
 30
0.0
 11
141.0809
 21
151.324395
 31
0.0
  0
LINE
  5
57E
330
1D
100
AcDbEntity
  8
0
100
AcDbLine
 10
141.0301
 20
157.668395
 30
0.0
 11
140.7488
 21
159.359395
 31
0.0
  0
LINE
  5
57F
330
1D
100
AcDbEntity
  8
0
100
AcDbLine
 10
140.7488
 20
159.359395
 30
0.0
 11
140.355
 21
161.029395
 31
0.0
  0
LINE
  5
580
330
1D
100
AcDbEntity
  8
0
100
AcDbLine
 10
140.355
 20
161.029395
 30
0.0
 11
139.8498
 21
162.674395
 31
0.0
  0
LINE
  5
581
330
1D
100
AcDbEntity
  8
0
100
AcDbLine
 10
139.8498
 20
162.674395
 30
0.0
 11
139.2348
 21
164.286395
 31
0.0
  0
LINE
  5
582
330
1D
100
AcDbEntity
  8
0
100
AcDbLine
 10
138.5117
 20
165.858395
 30
0.0
 11
137.682
 21
167.383395
 31
0.0
  0
LINE
  5
583
330
1D
100
AcDbEntity
  8
0
100
AcDbLine
 10
137.682
 20
167.383395
 30
0.0
 11
136.7777
 21
168.812395
 31
0.0
  0
LINE
  5
584
330
1D
100
AcDbEntity
  8
0
100
AcDbLine
 10
139.2348
 20
164.286395
 30
0.0
 11
138.5117
 21
165.858395
 31
0.0
  0
LINE
  5
585
330
1D
100
AcDbEntity
  8
0
100
AcDbLine
 10
135.7785
 20
170.185395
 30
0.0
 11
134.6872
 21
171.495395
 31
0.0
  0
LINE
  5
586
330
1D
100
AcDbEntity
  8
0
100
AcDbLine
 10
134.6872
 20
171.495395
 30
0.0
 11
133.507
 21
172.737395
 31
0.0
  0
LINE
  5
587
330
1D
100
AcDbEntity
  8
0
100
AcDbLine
 10
122.8452
 20
55.913395
 30
0.0
 11
120.9792
 21
55.144395
 31
0.0
  0
LINE
  5
588
330
1D
100
AcDbEntity
  8
0
100
AcDbLine
 10
128.8812
 20
60.841395
 30
0.0
 11
127.6362
 21
59.360395
 31
0.0
  0
LINE
  5
589
330
1D
100
AcDbEntity
  8
0
100
AcDbLine
 10
124.5912
 20
56.878395
 30
0.0
 11
122.8452
 21
55.913395
 31
0.0
  0
LINE
  5
58A
330
1D
100
AcDbEntity
  8
0
100
AcDbLine
 10
126.1972
 20
58.032395
 30
0.0
 11
124.5912
 21
56.878395
 31
0.0
  0
LINE
  5
58B
330
1D
100
AcDbEntity
  8
0
100
AcDbLine
 10
127.6362
 20
59.360395
 30
0.0
 11
126.1972
 21
58.032395
 31
0.0
  0
LINE
  5
58C
330
1D
100
AcDbEntity
  8
0
100
AcDbLine
 10
129.9202
 20
62.456395
 30
0.0
 11
128.8812
 21
60.841395
 31
0.0
  0
LINE
  5
58D
330
1D
100
AcDbEntity
  8
0
100
AcDbLine
 10
130.7429
 20
64.173395
 30
0.0
 11
129.9202
 21
62.456395
 31
0.0
  0
LINE
  5
58E
330
1D
100
AcDbEntity
  8
0
100
AcDbLine
 10
132.1212
 20
69.654695
 30
0.0
 11
131.8067
 21
67.801395
 31
0.0
  0
LINE
  5
58F
330
1D
100
AcDbEntity
  8
0
100
AcDbLine
 10
132.4327
 20
72.032895
 30
0.0
 11
132.1212
 21
69.654695
 31
0.0
  0
LINE
  5
590
330
1D
100
AcDbEntity
  8
0
100
AcDbLine
 10
131.3627
 20
65.965395
 30
0.0
 11
130.7429
 21
64.173395
 31
0.0
  0
LINE
  5
591
330
1D
100
AcDbEntity
  8
0
100
AcDbLine
 10
131.8067
 20
67.801395
 30
0.0
 11
131.3627
 21
65.965395
 31
0.0
  0
LINE
  5
592
330
1D
100
AcDbEntity
  8
0
100
AcDbLine
 10
132.4696
 20
72.325595
 30
0.0
 11
132.4327
 21
72.032895
 31
0.0
  0
LINE
  5
593
330
1D
100
AcDbEntity
  8
0
100
AcDbLine
 10
117.5312
 20
54.312395
 30
0.0
 11
114.9982
 21
54.134395
 31
0.0
  0
LINE
  5
594
330
1D
100
AcDbEntity
  8
0
100
AcDbLine
 10
119.0332
 20
54.588395
 30
0.0
 11
117.5312
 21
54.312395
 31
0.0
  0
LINE
  5
595
330
1D
100
AcDbEntity
  8
0
100
AcDbLine
 10
120.9792
 20
55.144395
 30
0.0
 11
119.0332
 21
54.588395
 31
0.0
  0
LINE
  5
596
330
1D
100
AcDbEntity
  8
0
100
AcDbLine
 10
121.7602
 20
179.429395
 30
0.0
 11
120.1032
 21
179.810395
 31
0.0
  0
LINE
  5
597
330
1D
100
AcDbEntity
  8
0
100
AcDbLine
 10
130.8953
 20
174.992395
 30
0.0
 11
129.4732
 21
175.992395
 31
0.0
  0
LINE
  5
598
330
1D
100
AcDbEntity
  8
0
100
AcDbLine
 10
132.2413
 20
173.905395
 30
0.0
 11
130.8953
 21
174.992395
 31
0.0
  0
LINE
  5
599
330
1D
100
AcDbEntity
  8
0
100
AcDbLine
 10
129.4732
 20
175.992395
 30
0.0
 11
127.9802
 21
176.901395
 31
0.0
  0
LINE
  5
59A
330
1D
100
AcDbEntity
  8
0
100
AcDbLine
 10
127.9802
 20
176.901395
 30
0.0
 11
126.4992
 21
177.676395
 31
0.0
  0
LINE
  5
59B
330
1D
100
AcDbEntity
  8
0
100
AcDbLine
 10
126.4992
 20
177.676395
 30
0.0
 11
124.9642
 21
178.358395
 31
0.0
  0
LINE
  5
59C
330
1D
100
AcDbEntity
  8
0
100
AcDbLine
 10
123.3832
 20
178.943395
 30
0.0
 11
121.7602
 21
179.429395
 31
0.0
  0
LINE
  5
59D
330
1D
100
AcDbEntity
  8
0
100
AcDbLine
 10
124.9642
 20
178.358395
 30
0.0
 11
123.3832
 21
178.943395
 31
0.0
  0
LINE
  5
59E
330
1D
100
AcDbEntity
  8
0
100
AcDbLine
 10
120.1032
 20
179.810395
 30
0.0
 11
118.4192
 21
180.084395
 31
0.0
  0
LINE
  5
59F
330
1D
100
AcDbEntity
  8
0
100
AcDbLine
 10
116.7152
 20
180.251395
 30
0.0
 11
114.9982
 21
180.306395
 31
0.0
  0
LINE
  5
5A0
330
1D
100
AcDbEntity
  8
0
100
AcDbLine
 10
118.4192
 20
180.084395
 30
0.0
 11
116.7152
 21
180.251395
 31
0.0
  0
LINE
  5
6FA
330
1D
100
AcDbEntity
  8
0
100
AcDbLine
 10
198.0409
 20
137.678395
 30
0.0
 11
196.2362
 21
137.731395
 31
0.0
  0
LINE
  5
6FB
330
1D
100
AcDbEntity
  8
0
100
AcDbLine
 10
197.2651
 20
185.989395
 30
0.0
 11
195.8181
 21
185.949395
 31
0.0
  0
LINE
  5
6FC
330
1D
100
AcDbEntity
  8
0
100
AcDbLine
 10
98.0652
 20
14.099395
 30
0.0
 11
99.331
 21
12.330395
 31
0.0
  0
LINE
  5
6FF
330
1D
100
AcDbEntity
  8
0
100
AcDbLine
 10
88.1494
 20
185.772395
 30
0.0
 11
100.7628
 21
185.772395
 31
0.0
  0
LINE
  5
700
330
1D
100
AcDbEntity
  8
0
100
AcDbLine
 10
90.534045448579
 20
107.54900142588
 30
0.0
 11
95.2287
 21
25.028395
 31
0.0
  0
LINE
  5
701
330
1D
100
AcDbEntity
  8
0
100
AcDbLine
 10
90.534045448579
 20
107.54900142588
 30
0.0
 11
95.2287
 21
25.028395
 31
0.0
  0
LINE
  5
704
330
1D
100
AcDbEntity
  8
0
100
AcDbLine
 10
97.0587
 20
15.960395
 30
0.0
 11
98.0652
 21
14.099395
 31
0.0
  0
LINE
  5
705
330
1D
100
AcDbEntity
  8
0
100
AcDbLine
 10
96.0227
 20
18.836395
 30
0.0
 11
97.0587
 21
15.960395
 31
0.0
  0
LINE
  5
706
330
1D
100
AcDbEntity
  8
0
100
AcDbLine
 10
95.2287
 20
25.028395
 30
0.0
 11
95.2497
 21
24.662395
 31
0.0
  0
LINE
  5
707
330
1D
100
AcDbEntity
  8
0
100
AcDbLine
 10
95.2497
 20
24.662395
 30
0.0
 11
95.5402
 21
21.260395
 31
0.0
  0
LINE
  5
708
330
1D
100
AcDbEntity
  8
0
100
AcDbLine
 10
95.5402
 20
21.260395
 30
0.0
 11
96.0227
 21
18.836395
 31
0.0
  0
LINE
  5
71E
330
1D
100
AcDbEntity
  8
0
100
AcDbLine
 10
47.8895
 20
137.883395
 30
0.0
 11
51.3538
 21
137.891395
 31
0.0
  0
LINE
  5
71F
330
1D
100
AcDbEntity
  8
0
100
AcDbLine
 10
48.1669
 20
185.794395
 30
0.0
 11
53.5174
 21
185.779395
 31
0.0
  0
LINE
  5
720
330
1D
100
AcDbEntity
  8
0
100
AcDbLine
 10
1.1964
 20
154.211395
 30
0.0
 11
2.0187
 21
152.028395
 31
0.0
  0
LINE
  5
721
330
1D
100
AcDbEntity
  8
0
100
AcDbLine
 10
12.0373
 20
155.541395
 30
0.0
 11
13.1373
 21
152.526395
 31
0.0
  0
LINE
  5
722
330
1D
100
AcDbEntity
  8
0
100
AcDbLine
 10
21.5697
 20
137.372395
 30
0.0
 11
24.7214
 21
137.145395
 31
0.0
  0
LINE
  5
723
330
1D
100
AcDbEntity
  8
0
100
AcDbLine
 10
22.6776
 20
142.067395
 30
0.0
 11
25.2143
 21
140.848395
 31
0.0
  0
LINE
  5
724
330
1D
100
AcDbEntity
  8
0
100
AcDbLine
 10
19.2805
 20
137.772395
 30
0.0
 11
21.5697
 21
137.372395
 31
0.0
  0
LINE
  5
725
330
1D
100
AcDbEntity
  8
0
100
AcDbLine
 10
12.7622
 20
140.209395
 30
0.0
 11
14.8559
 21
139.192395
 31
0.0
  0
LINE
  5
726
330
1D
100
AcDbEntity
  8
0
100
AcDbLine
 10
14.8559
 20
139.192395
 30
0.0
 11
17.0358
 21
138.379395
 31
0.0
  0
LINE
  5
727
330
1D
100
AcDbEntity
  8
0
100
AcDbLine
 10
10.7841
 20
141.415395
 30
0.0
 11
12.7622
 21
140.209395
 31
0.0
  0
LINE
  5
728
330
1D
100
AcDbEntity
  8
0
100
AcDbLine
 10
17.0358
 20
138.379395
 30
0.0
 11
19.2805
 21
137.772395
 31
0.0
  0
LINE
  5
729
330
1D
100
AcDbEntity
  8
0
100
AcDbLine
 10
3.0422
 20
149.933395
 30
0.0
 11
4.2584
 21
147.944395
 31
0.0
  0
LINE
  5
72A
330
1D
100
AcDbEntity
  8
0
100
AcDbLine
 10
4.2584
 20
147.944395
 30
0.0
 11
5.6571
 21
146.077395
 31
0.0
  0
LINE
  5
72B
330
1D
100
AcDbEntity
  8
0
100
AcDbLine
 10
2.0187
 20
152.028395
 30
0.0
 11
3.0422
 21
149.933395
 31
0.0
  0
LINE
  5
72C
330
1D
100
AcDbEntity
  8
0
100
AcDbLine
 10
20.2112
 20
143.671395
 30
0.0
 11
22.6776
 21
142.067395
 31
0.0
  0
LINE
  5
72D
330
1D
100
AcDbEntity
  8
0
100
AcDbLine
 10
17.2157
 20
146.362395
 30
0.0
 11
20.2112
 21
143.671395
 31
0.0
  0
LINE
  5
72E
330
1D
100
AcDbEntity
  8
0
100
AcDbLine
 10
13.1373
 20
152.526395
 30
0.0
 11
14.5315
 21
149.890395
 31
0.0
  0
LINE
  5
72F
330
1D
100
AcDbEntity
  8
0
100
AcDbLine
 10
7.2157
 20
144.363395
 30
0.0
 11
8.9297
 21
142.804395
 31
0.0
  0
LINE
  5
730
330
1D
100
AcDbEntity
  8
0
100
AcDbLine
 10
5.6571
 20
146.077395
 30
0.0
 11
7.2157
 21
144.363395
 31
0.0
  0
LINE
  5
731
330
1D
100
AcDbEntity
  8
0
100
AcDbLine
 10
8.9297
 20
142.804395
 30
0.0
 11
10.7841
 21
141.415395
 31
0.0
  0
LINE
  5
732
330
1D
100
AcDbEntity
  8
0
100
AcDbLine
 10
17.2157
 20
146.362395
 30
0.0
 11
14.5315
 21
149.890395
 31
0.0
  0
LINE
  5
733
330
1D
100
AcDbEntity
  8
0
100
AcDbLine
 10
24.9072
 20
137.143395
 30
0.0
 11
28.8753
 21
137.458395
 31
0.0
  0
LINE
  5
734
330
1D
100
AcDbEntity
  8
0
100
AcDbLine
 10
24.7214
 20
137.145395
 30
0.0
 11
24.9072
 21
137.143395
 31
0.0
  0
LINE
  5
735
330
1D
100
AcDbEntity
  8
0
100
AcDbLine
 10
28.8753
 20
137.458395
 30
0.0
 11
29.3728
 21
137.532395
 31
0.0
  0
LINE
  5
736
330
1D
100
AcDbEntity
  8
0
100
AcDbLine
 10
29.3728
 20
137.532395
 30
0.0
 11
30.1738
 21
137.618395
 31
0.0
  0
LINE
  5
737
330
1D
100
AcDbEntity
  8
0
100
AcDbLine
 10
31.7121
 20
137.678395
 30
0.0
 11
33.5168
 21
137.731395
 31
0.0
  0
LINE
  5
738
330
1D
100
AcDbEntity
  8
0
100
AcDbLine
 10
33.5168
 20
137.731395
 30
0.0
 11
36.017
 21
137.783395
 31
0.0
  0
LINE
  5
739
330
1D
100
AcDbEntity
  8
0
100
AcDbLine
 10
36.017
 20
137.783395
 30
0.0
 11
38.9209
 21
137.824395
 31
0.0
  0
LINE
  5
73A
330
1D
100
AcDbEntity
  8
0
100
AcDbLine
 10
41.6676
 20
137.850395
 30
0.0
 11
44.6821
 21
137.870395
 31
0.0
  0
LINE
  5
73B
330
1D
100
AcDbEntity
  8
0
100
AcDbLine
 10
38.9209
 20
137.824395
 30
0.0
 11
41.6676
 21
137.850395
 31
0.0
  0
LINE
  5
73C
330
1D
100
AcDbEntity
  8
0
100
AcDbLine
 10
30.1466
 20
137.618395
 30
0.0
 11
31.7121
 21
137.678395
 31
0.0
  0
LINE
  5
73D
330
1D
100
AcDbEntity
  8
0
100
AcDbLine
 10
27.5903
 20
140.033395
 30
0.0
 11
29.9796
 21
139.487395
 31
0.0
  0
LINE
  5
73E
330
1D
100
AcDbEntity
  8
0
100
AcDbLine
 10
25.2143
 20
140.848395
 30
0.0
 11
27.5903
 21
140.033395
 31
0.0
  0
LINE
  5
73F
330
1D
100
AcDbEntity
  8
0
100
AcDbLine
 10
44.6821
 20
137.870395
 30
0.0
 11
47.8895
 21
137.883395
 31
0.0
  0
LINE
  5
740
330
1D
100
AcDbEntity
  8
0
100
AcDbLine
 10
23.9594
 20
182.183395
 30
0.0
 11
26.2803
 21
183.149395
 31
0.0
  0
LINE
  5
741
330
1D
100
AcDbEntity
  8
0
100
AcDbLine
 10
21.4892
 20
186.401395
 30
0.0
 11
24.7218
 21
186.605395
 31
0.0
  0
LINE
  5
742
330
1D
100
AcDbEntity
  8
0
100
AcDbLine
 10
4.6945
 20
176.420395
 30
0.0
 11
6.1463
 21
178.241395
 31
0.0
  0
LINE
  5
743
330
1D
100
AcDbEntity
  8
0
100
AcDbLine
 10
17.038
 20
177.016395
 30
0.0
 11
19.3511
 21
179.225395
 31
0.0
  0
LINE
  5
744
330
1D
100
AcDbEntity
  8
0
100
AcDbLine
 10
0.582
 20
156.462395
 30
0.0
 11
1.1964
 21
154.211395
 31
0.0
  0
LINE
  5
745
330
1D
100
AcDbEntity
  8
0
100
AcDbLine
 10
0.1813
 20
158.761395
 30
0.0
 11
0.582
 21
156.462395
 31
0.0
  0
LINE
  5
746
330
1D
100
AcDbEntity
  8
0
100
AcDbLine
 10
0.0343
 20
163.421395
 30
0.0
 11
0.2892
 21
165.741395
 31
0.0
  0
LINE
  5
747
330
1D
100
AcDbEntity
  8
0
100
AcDbLine
 10
0.2892
 20
165.741395
 30
0.0
 11
0.7608
 21
168.026395
 31
0.0
  0
LINE
  5
748
330
1D
100
AcDbEntity
  8
0
100
AcDbLine
 10
-0.0018
 20
161.088395
 30
0.0
 11
0.0343
 21
163.421395
 31
0.0
  0
LINE
  5
749
330
1D
100
AcDbEntity
  8
0
100
AcDbLine
 10
-0.0018
 20
161.088395
 30
0.0
 11
0.1813
 21
158.761395
 31
0.0
  0
LINE
  5
74A
330
1D
100
AcDbEntity
  8
0
100
AcDbLine
 10
1.4444
 20
170.257395
 30
0.0
 11
2.3345
 21
172.414395
 31
0.0
  0
LINE
  5
74B
330
1D
100
AcDbEntity
  8
0
100
AcDbLine
 10
12.2219
 20
168.653395
 30
0.0
 11
13.427
 21
171.675395
 31
0.0
  0
LINE
  5
74C
330
1D
100
AcDbEntity
  8
0
100
AcDbLine
 10
13.427
 20
171.675395
 30
0.0
 11
14.9205
 21
174.294395
 31
0.0
  0
LINE
  5
74D
330
1D
100
AcDbEntity
  8
0
100
AcDbLine
 10
14.9205
 20
174.294395
 30
0.0
 11
17.038
 21
177.016395
 31
0.0
  0
LINE
  5
74E
330
1D
100
AcDbEntity
  8
0
100
AcDbLine
 10
2.3345
 20
172.414395
 30
0.0
 11
3.4206
 21
174.473395
 31
0.0
  0
LINE
  5
74F
330
1D
100
AcDbEntity
  8
0
100
AcDbLine
 10
3.4206
 20
174.473395
 30
0.0
 11
4.6945
 21
176.420395
 31
0.0
  0
LINE
  5
750
330
1D
100
AcDbEntity
  8
0
100
AcDbLine
 10
0.7608
 20
168.026395
 30
0.0
 11
1.4444
 21
170.257395
 31
0.0
  0
LINE
  5
751
330
1D
100
AcDbEntity
  8
0
100
AcDbLine
 10
12.0373
 20
155.541395
 30
0.0
 11
11.481402151277
 21
158.360127479282
 31
0.0
  0
LINE
  5
752
330
1D
100
AcDbEntity
  8
0
100
AcDbLine
 10
11.481402151277
 20
158.360127479282
 30
0.0
 11
11.288447754424
 21
160.859326798037
 31
0.0
  0
LINE
  5
753
330
1D
100
AcDbEntity
  8
0
100
AcDbLine
 10
11.288447754424
 20
160.859326798037
 30
0.0
 11
11.288447754424
 21
162.771909567438
 31
0.0
  0
LINE
  5
754
330
1D
100
AcDbEntity
  8
0
100
AcDbLine
 10
11.288447754424
 20
162.771909567438
 30
0.0
 11
11.764990604096
 21
166.388849050879
 31
0.0
  0
LINE
  5
755
330
1D
100
AcDbEntity
  8
0
100
AcDbLine
 10
11.764990604096
 20
166.388849050879
 30
0.0
 11
12.2219
 21
168.653395
 31
0.0
  0
LINE
  5
756
330
1D
100
AcDbEntity
  8
0
100
AcDbLine
 10
19.3511
 20
179.225395
 30
0.0
 11
21.6167
 21
180.877395
 31
0.0
  0
LINE
  5
757
330
1D
100
AcDbEntity
  8
0
100
AcDbLine
 10
7.7625
 20
179.916395
 30
0.0
 11
9.5213
 21
181.425395
 31
0.0
  0
LINE
  5
758
330
1D
100
AcDbEntity
  8
0
100
AcDbLine
 10
6.1463
 20
178.241395
 30
0.0
 11
7.7625
 21
179.916395
 31
0.0
  0
LINE
  5
759
330
1D
100
AcDbEntity
  8
0
100
AcDbLine
 10
9.5213
 20
181.425395
 30
0.0
 11
11.4145
 21
182.761395
 31
0.0
  0
LINE
  5
75A
330
1D
100
AcDbEntity
  8
0
100
AcDbLine
 10
21.6167
 20
180.877395
 30
0.0
 11
23.9594
 21
182.183395
 31
0.0
  0
LINE
  5
75B
330
1D
100
AcDbEntity
  8
0
100
AcDbLine
 10
11.4145
 20
182.761395
 30
0.0
 11
13.4252
 21
183.912395
 31
0.0
  0
LINE
  5
75C
330
1D
100
AcDbEntity
  8
0
100
AcDbLine
 10
13.4252
 20
183.912395
 30
0.0
 11
15.5365
 21
184.869395
 31
0.0
  0
LINE
  5
75D
330
1D
100
AcDbEntity
  8
0
100
AcDbLine
 10
15.5365
 20
184.869395
 30
0.0
 11
17.4761
 21
185.545395
 31
0.0
  0
LINE
  5
75E
330
1D
100
AcDbEntity
  8
0
100
AcDbLine
 10
17.4761
 20
185.545395
 30
0.0
 11
19.465
 21
186.057395
 31
0.0
  0
LINE
  5
75F
330
1D
100
AcDbEntity
  8
0
100
AcDbLine
 10
19.465
 20
186.057395
 30
0.0
 11
21.4892
 21
186.401395
 31
0.0
  0
LINE
  5
760
330
1D
100
AcDbEntity
  8
0
100
AcDbLine
 10
26.2803
 20
183.149395
 30
0.0
 11
28.6357
 21
183.842395
 31
0.0
  0
LINE
  5
761
330
1D
100
AcDbEntity
  8
0
100
AcDbLine
 10
37.257
 20
185.884395
 30
0.0
 11
39.1336
 21
185.858395
 31
0.0
  0
LINE
  5
762
330
1D
100
AcDbEntity
  8
0
100
AcDbLine
 10
41.1548
 20
185.837395
 30
0.0
 11
43.3165
 21
185.820395
 31
0.0
  0
LINE
  5
763
330
1D
100
AcDbEntity
  8
0
100
AcDbLine
 10
43.3165
 20
185.820395
 30
0.0
 11
48.1669
 21
185.794395
 31
0.0
  0
LINE
  5
764
330
1D
100
AcDbEntity
  8
0
100
AcDbLine
 10
39.1336
 20
185.858395
 30
0.0
 11
41.1548
 21
185.837395
 31
0.0
  0
LINE
  5
765
330
1D
100
AcDbEntity
  8
0
100
AcDbLine
 10
33.9349
 20
185.949395
 30
0.0
 11
35.5234
 21
185.914395
 31
0.0
  0
LINE
  5
766
330
1D
100
AcDbEntity
  8
0
100
AcDbLine
 10
35.5234
 20
185.914395
 30
0.0
 11
37.257
 21
185.884395
 31
0.0
  0
LINE
  5
767
330
1D
100
AcDbEntity
  8
0
100
AcDbLine
 10
30.268126336957
 20
186.074587798033
 30
0.0
 11
32.4879
 21
185.989395
 31
0.0
  0
LINE
  5
768
330
1D
100
AcDbEntity
  8
0
100
AcDbLine
 10
32.4879
 20
185.989395
 30
0.0
 11
33.9349
 21
185.949395
 31
0.0
  0
LINE
  5
769
330
1D
100
AcDbEntity
  8
0
100
AcDbLine
 10
29.4925
 20
186.160395
 30
0.0
 11
30.268126336957
 21
186.074587798033
 31
0.0
  0
LINE
  5
76A
330
1D
100
AcDbEntity
  8
0
100
AcDbLine
 10
28.8336
 20
186.260395
 30
0.0
 11
29.4925
 21
186.160395
 31
0.0
  0
LINE
  5
76B
330
1D
100
AcDbEntity
  8
0
100
AcDbLine
 10
24.7218
 20
186.605395
 30
0.0
 11
28.8336
 21
186.260395
 31
0.0
  0
LINE
  5
76D
330
1D
100
AcDbEntity
  8
0
100
AcDbLine
 10
71.9091
 20
137.897395
 30
0.0
 11
76.3311
 21
137.786395
 31
0.0
  0
LINE
  5
76E
330
1D
100
AcDbEntity
  8
0
100
AcDbLine
 10
51.3538
 20
137.891395
 30
0.0
 11
54.5421
 21
137.895395
 31
0.0
  0
LINE
  5
76F
330
1D
100
AcDbEntity
  8
0
100
AcDbLine
 10
63.4427
 20
137.897395
 30
0.0
 11
67.8397
 21
137.897395
 31
0.0
  0
LINE
  5
770
330
1D
100
AcDbEntity
  8
0
100
AcDbLine
 10
59.268
 20
137.897395
 30
0.0
 11
63.4427
 21
137.897395
 31
0.0
  0
LINE
  5
771
330
1D
100
AcDbEntity
  8
0
100
AcDbLine
 10
54.5421
 20
137.895395
 30
0.0
 11
59.268
 21
137.897395
 31
0.0
  0
LINE
  5
772
330
1D
100
AcDbEntity
  8
0
100
AcDbLine
 10
67.8397
 20
137.897395
 30
0.0
 11
71.9091
 21
137.897395
 31
0.0
  0
LINE
  5
773
330
1D
100
AcDbEntity
  8
0
100
AcDbLine
 10
89.832
 20
119.664395
 30
0.0
 11
90.534045448579
 21
107.54900142588
 31
0.0
  0
LINE
  5
774
330
1D
100
AcDbEntity
  8
0
100
AcDbLine
 10
89.832
 20
119.664395
 30
0.0
 11
90.534045448579
 21
107.54900142588
 31
0.0
  0
LINE
  5
775
330
1D
100
AcDbEntity
  8
0
100
AcDbLine
 10
89.0543
 20
126.466395
 30
0.0
 11
89.344656985982
 21
124.869974808132
 31
0.0
  0
LINE
  5
776
330
1D
100
AcDbEntity
  8
0
100
AcDbLine
 10
89.344656985982
 20
124.869974808132
 30
0.0
 11
89.832
 21
119.664395
 31
0.0
  0
LINE
  5
777
330
1D
100
AcDbEntity
  8
0
100
AcDbLine
 10
86.9181
 20
131.751395
 30
0.0
 11
87.9748
 21
129.766395
 31
0.0
  0
LINE
  5
778
330
1D
100
AcDbEntity
  8
0
100
AcDbLine
 10
87.9748
 20
129.766395
 30
0.0
 11
88.5867
 21
128.157395
 31
0.0
  0
LINE
  5
779
330
1D
100
AcDbEntity
  8
0
100
AcDbLine
 10
82.318405596311
 20
136.06929627528
 30
0.0
 11
83.9592
 21
135.011395
 31
0.0
  0
LINE
  5
77A
330
1D
100
AcDbEntity
  8
0
100
AcDbLine
 10
80.3172
 20
136.966395
 30
0.0
 11
82.318405596311
 21
136.06929627528
 31
0.0
  0
LINE
  5
77B
330
1D
100
AcDbEntity
  8
0
100
AcDbLine
 10
83.9592
 20
135.011395
 30
0.0
 11
85.5781
 21
133.512395
 31
0.0
  0
LINE
  5
77C
330
1D
100
AcDbEntity
  8
0
100
AcDbLine
 10
85.5781
 20
133.512395
 30
0.0
 11
86.9181
 21
131.751395
 31
0.0
  0
LINE
  5
77D
330
1D
100
AcDbEntity
  8
0
100
AcDbLine
 10
77.732329413691
 20
137.62672384055
 30
0.0
 11
80.3172
 21
136.966395
 31
0.0
  0
LINE
  5
77E
330
1D
100
AcDbEntity
  8
0
100
AcDbLine
 10
76.3311
 20
137.786395
 30
0.0
 11
77.732329413689
 21
137.62672384055
 31
0.0
  0
LINE
  5
77F
330
1D
100
AcDbEntity
  8
0
100
AcDbLine
 10
88.5867
 20
128.157395
 30
0.0
 11
89.0543
 21
126.466395
 31
0.0
  0
LINE
  5
793
330
1D
100
AcDbEntity
  8
0
100
AcDbLine
 10
65.3722
 20
185.770395
 30
0.0
 11
71.2912
 21
185.770395
 31
0.0
  0
LINE
  5
794
330
1D
100
AcDbEntity
  8
0
100
AcDbLine
 10
59.5099
 20
185.772395
 30
0.0
 11
65.3722
 21
185.770395
 31
0.0
  0
LINE
  5
795
330
1D
100
AcDbEntity
  8
0
100
AcDbLine
 10
71.2912
 20
185.770395
 30
0.0
 11
88.1494
 21
185.772395
 31
0.0
  0
LINE
  5
796
330
1D
100
AcDbEntity
  8
0
100
AcDbLine
 10
53.5174
 20
185.779395
 30
0.0
 11
59.5099
 21
185.772395
 31
0.0
  0
LINE
  5
797
330
1D
100
AcDbEntity
  8
0
100
AcDbLine
 10
139.218954551421
 20
107.54900142588
 30
0.0
 11
134.5243
 21
25.028395
 31
0.0
  0
LINE
  5
798
330
1D
100
AcDbEntity
  8
0
100
AcDbLine
 10
139.218954551421
 20
107.54900142588
 30
0.0
 11
134.5243
 21
25.028395
 31
0.0
  0
LINE
  5
79B
330
1D
100
AcDbEntity
  8
0
100
AcDbLine
 10
123.1282
 20
7.013395
 30
0.0
 11
119.7822
 21
5.983395
 31
0.0
  0
LINE
  5
79D
330
1D
100
AcDbEntity
  8
0
100
AcDbLine
 10
102.5888
 20
9.248395
 30
0.0
 11
104.5288
 21
8.011395
 31
0.0
  0
LINE
  5
79E
330
1D
100
AcDbEntity
  8
0
100
AcDbLine
 10
100.8468
 20
10.699395
 30
0.0
 11
102.5888
 21
9.248395
 31
0.0
  0
LINE
  5
79F
330
1D
100
AcDbEntity
  8
0
100
AcDbLine
 10
99.331
 20
12.330395
 30
0.0
 11
100.8468
 21
10.699395
 31
0.0
  0
LINE
  5
7A0
330
1D
100
AcDbEntity
  8
0
100
AcDbLine
 10
104.5288
 20
8.011395
 30
0.0
 11
106.6248
 21
7.013395
 31
0.0
  0
LINE
  5
7A3
330
1D
100
AcDbEntity
  8
0
100
AcDbLine
 10
106.6248
 20
7.013395
 30
0.0
 11
109.9708
 21
5.983395
 31
0.0
  0
LINE
  5
7A4
330
1D
100
AcDbEntity
  8
0
100
AcDbLine
 10
109.9708
 20
5.983395
 30
0.0
 11
113.4418
 21
5.498395
 31
0.0
  0
LINE
  5
7A6
330
1D
100
AcDbEntity
  8
0
100
AcDbLine
 10
119.7822
 20
5.983395
 30
0.0
 11
116.3112
 21
5.498395
 31
0.0
  0
LINE
  5
7A8
330
1D
100
AcDbEntity
  8
0
100
AcDbLine
 10
113.4418
 20
5.498395
 30
0.0
 11
116.3112
 21
5.498395
 31
0.0
  0
LINE
  5
7AA
330
1D
100
AcDbEntity
  8
0
100
AcDbLine
 10
131.6878
 20
14.099395
 30
0.0
 11
130.422
 21
12.330395
 31
0.0
  0
LINE
  5
7AC
330
1D
100
AcDbEntity
  8
0
100
AcDbLine
 10
132.6943
 20
15.960395
 30
0.0
 11
131.6878
 21
14.099395
 31
0.0
  0
LINE
  5
7AD
330
1D
100
AcDbEntity
  8
0
100
AcDbLine
 10
133.7303
 20
18.836395
 30
0.0
 11
132.6943
 21
15.960395
 31
0.0
  0
LINE
  5
7AE
330
1D
100
AcDbEntity
  8
0
100
AcDbLine
 10
134.5243
 20
25.028395
 30
0.0
 11
134.5033
 21
24.662395
 31
0.0
  0
LINE
  5
7AF
330
1D
100
AcDbEntity
  8
0
100
AcDbLine
 10
134.5033
 20
24.662395
 30
0.0
 11
134.2128
 21
21.260395
 31
0.0
  0
LINE
  5
7B0
330
1D
100
AcDbEntity
  8
0
100
AcDbLine
 10
134.2128
 20
21.260395
 30
0.0
 11
133.7303
 21
18.836395
 31
0.0
  0
LINE
  5
7B4
330
1D
100
AcDbEntity
  8
0
100
AcDbLine
 10
127.1642
 20
9.248395
 30
0.0
 11
125.2242
 21
8.011395
 31
0.0
  0
LINE
  5
7B5
330
1D
100
AcDbEntity
  8
0
100
AcDbLine
 10
128.9062
 20
10.699395
 30
0.0
 11
127.1642
 21
9.248395
 31
0.0
  0
LINE
  5
7B6
330
1D
100
AcDbEntity
  8
0
100
AcDbLine
 10
130.422
 20
12.330395
 30
0.0
 11
128.9062
 21
10.699395
 31
0.0
  0
LINE
  5
7B7
330
1D
100
AcDbEntity
  8
0
100
AcDbLine
 10
125.2242
 20
8.011395
 30
0.0
 11
123.1282
 21
7.013395
 31
0.0
  0
LINE
  5
7CB
330
1D
100
AcDbEntity
  8
0
100
AcDbLine
 10
147.434594403689
 20
136.06929627528
 30
0.0
 11
145.7938
 21
135.011395
 31
0.0
  0
LINE
  5
7CC
330
1D
100
AcDbEntity
  8
0
100
AcDbLine
 10
158.4618
 20
185.770395
 30
0.0
 11
141.6036
 21
185.772395
 31
0.0
  0
LINE
  5
7CE
330
1D
100
AcDbEntity
  8
0
100
AcDbLine
 10
140.408343014018
 20
124.869974808132
 30
0.0
 11
139.921
 21
119.664395
 31
0.0
  0
LINE
  5
7D2
330
1D
100
AcDbEntity
  8
0
100
AcDbLine
 10
141.7782
 20
129.766395
 30
0.0
 11
141.1663
 21
128.157395
 31
0.0
  0
LINE
  5
7D3
330
1D
100
AcDbEntity
  8
0
100
AcDbLine
 10
139.921
 20
119.664395
 30
0.0
 11
139.218954551421
 21
107.54900142588
 31
0.0
  0
LINE
  5
7D4
330
1D
100
AcDbEntity
  8
0
100
AcDbLine
 10
139.921
 20
119.664395
 30
0.0
 11
139.218954551421
 21
107.54900142588
 31
0.0
  0
LINE
  5
7D5
330
1D
100
AcDbEntity
  8
0
100
AcDbLine
 10
140.6987
 20
126.466395
 30
0.0
 11
140.408343014018
 21
124.869974808132
 31
0.0
  0
LINE
  5
7D6
330
1D
100
AcDbEntity
  8
0
100
AcDbLine
 10
141.1663
 20
128.157395
 30
0.0
 11
140.6987
 21
126.466395
 31
0.0
  0
LINE
  5
7D7
330
1D
100
AcDbEntity
  8
0
100
AcDbLine
 10
144.1749
 20
133.512395
 30
0.0
 11
142.8349
 21
131.751395
 31
0.0
  0
LINE
  5
7D8
330
1D
100
AcDbEntity
  8
0
100
AcDbLine
 10
145.7938
 20
135.011395
 30
0.0
 11
144.1749
 21
133.512395
 31
0.0
  0
LINE
  5
7D9
330
1D
100
AcDbEntity
  8
0
100
AcDbLine
 10
142.8349
 20
131.751395
 30
0.0
 11
141.7782
 21
129.766395
 31
0.0
  0
LINE
  5
7DC
330
1D
100
AcDbEntity
  8
0
100
AcDbLine
 10
100.7628
 20
185.772395
 30
0.0
 11
128.9902
 21
185.772395
 31
0.0
  0
LINE
  5
7E5
330
1D
100
AcDbEntity
  8
0
100
AcDbLine
 10
141.6036
 20
185.772395
 30
0.0
 11
128.9902
 21
185.772395
 31
0.0
  0
LINE
  5
7F8
330
1D
100
AcDbEntity
  8
0
100
AcDbLine
 10
152.020670586309
 20
137.62672384055
 30
0.0
 11
149.4358
 21
136.966395
 31
0.0
  0
LINE
  5
7F9
330
1D
100
AcDbEntity
  8
0
100
AcDbLine
 10
181.8635
 20
137.883395
 30
0.0
 11
178.3992
 21
137.891395
 31
0.0
  0
LINE
  5
7FA
330
1D
100
AcDbEntity
  8
0
100
AcDbLine
 10
196.2362
 20
137.731395
 30
0.0
 11
193.736
 21
137.783395
 31
0.0
  0
LINE
  5
7FB
330
1D
100
AcDbEntity
  8
0
100
AcDbLine
 10
193.736
 20
137.783395
 30
0.0
 11
190.8321
 21
137.824395
 31
0.0
  0
LINE
  5
7FC
330
1D
100
AcDbEntity
  8
0
100
AcDbLine
 10
188.0854
 20
137.850395
 30
0.0
 11
185.0709
 21
137.870395
 31
0.0
  0
LINE
  5
7FD
330
1D
100
AcDbEntity
  8
0
100
AcDbLine
 10
190.8321
 20
137.824395
 30
0.0
 11
188.0854
 21
137.850395
 31
0.0
  0
LINE
  5
7FE
330
1D
100
AcDbEntity
  8
0
100
AcDbLine
 10
185.0709
 20
137.870395
 30
0.0
 11
181.8635
 21
137.883395
 31
0.0
  0
LINE
  5
7FF
330
1D
100
AcDbEntity
  8
0
100
AcDbLine
 10
157.8439
 20
137.897395
 30
0.0
 11
153.4219
 21
137.786395
 31
0.0
  0
LINE
  5
800
330
1D
100
AcDbEntity
  8
0
100
AcDbLine
 10
178.3992
 20
137.891395
 30
0.0
 11
175.2109
 21
137.895395
 31
0.0
  0
LINE
  5
801
330
1D
100
AcDbEntity
  8
0
100
AcDbLine
 10
166.3103
 20
137.897395
 30
0.0
 11
161.9133
 21
137.897395
 31
0.0
  0
LINE
  5
802
330
1D
100
AcDbEntity
  8
0
100
AcDbLine
 10
170.485
 20
137.897395
 30
0.0
 11
166.3103
 21
137.897395
 31
0.0
  0
LINE
  5
803
330
1D
100
AcDbEntity
  8
0
100
AcDbLine
 10
175.2109
 20
137.895395
 30
0.0
 11
170.485
 21
137.897395
 31
0.0
  0
LINE
  5
804
330
1D
100
AcDbEntity
  8
0
100
AcDbLine
 10
161.9133
 20
137.897395
 30
0.0
 11
157.8439
 21
137.897395
 31
0.0
  0
LINE
  5
805
330
1D
100
AcDbEntity
  8
0
100
AcDbLine
 10
149.4358
 20
136.966395
 30
0.0
 11
147.434594403689
 21
136.06929627528
 31
0.0
  0
LINE
  5
806
330
1D
100
AcDbEntity
  8
0
100
AcDbLine
 10
153.4219
 20
137.786395
 30
0.0
 11
152.020670586311
 21
137.62672384055
 31
0.0
  0
LINE
  5
807
330
1D
100
AcDbEntity
  8
0
100
AcDbLine
 10
181.5861
 20
185.794395
 30
0.0
 11
176.2356
 21
185.779395
 31
0.0
  0
LINE
  5
808
330
1D
100
AcDbEntity
  8
0
100
AcDbLine
 10
192.496
 20
185.884395
 30
0.0
 11
190.6194
 21
185.858395
 31
0.0
  0
LINE
  5
809
330
1D
100
AcDbEntity
  8
0
100
AcDbLine
 10
188.5982
 20
185.837395
 30
0.0
 11
186.4365
 21
185.820395
 31
0.0
  0
LINE
  5
80A
330
1D
100
AcDbEntity
  8
0
100
AcDbLine
 10
186.4365
 20
185.820395
 30
0.0
 11
181.5861
 21
185.794395
 31
0.0
  0
LINE
  5
80B
330
1D
100
AcDbEntity
  8
0
100
AcDbLine
 10
190.6194
 20
185.858395
 30
0.0
 11
188.5982
 21
185.837395
 31
0.0
  0
LINE
  5
80C
330
1D
100
AcDbEntity
  8
0
100
AcDbLine
 10
195.8181
 20
185.949395
 30
0.0
 11
194.2296
 21
185.914395
 31
0.0
  0
LINE
  5
80D
330
1D
100
AcDbEntity
  8
0
100
AcDbLine
 10
194.2296
 20
185.914395
 30
0.0
 11
192.496
 21
185.884395
 31
0.0
  0
LINE
  5
80E
330
1D
100
AcDbEntity
  8
0
100
AcDbLine
 10
164.3808
 20
185.770395
 30
0.0
 11
158.4618
 21
185.770395
 31
0.0
  0
LINE
  5
80F
330
1D
100
AcDbEntity
  8
0
100
AcDbLine
 10
170.2431
 20
185.772395
 30
0.0
 11
164.3808
 21
185.770395
 31
0.0
  0
LINE
  5
810
330
1D
100
AcDbEntity
  8
0
100
AcDbLine
 10
176.2356
 20
185.779395
 30
0.0
 11
170.2431
 21
185.772395
 31
0.0
  0
LINE
  5
811
330
1D
100
AcDbEntity
  8
0
100
AcDbLine
 10
228.5566
 20
154.211395
 30
0.0
 11
227.7343
 21
152.028395
 31
0.0
  0
LINE
  5
812
330
1D
100
AcDbEntity
  8
0
100
AcDbLine
 10
217.7157
 20
155.541395
 30
0.0
 11
216.6157
 21
152.526395
 31
0.0
  0
LINE
  5
813
330
1D
100
AcDbEntity
  8
0
100
AcDbLine
 10
222.5373
 20
144.363395
 30
0.0
 11
220.8233
 21
142.804395
 31
0.0
  0
LINE
  5
814
330
1D
100
AcDbEntity
  8
0
100
AcDbLine
 10
212.5373
 20
146.362395
 30
0.0
 11
215.2215
 21
149.890395
 31
0.0
  0
LINE
  5
815
330
1D
100
AcDbEntity
  8
0
100
AcDbLine
 10
208.1833
 20
137.372395
 30
0.0
 11
205.0316
 21
137.145395
 31
0.0
  0
LINE
  5
816
330
1D
100
AcDbEntity
  8
0
100
AcDbLine
 10
207.0754
 20
142.067395
 30
0.0
 11
204.5387
 21
140.848395
 31
0.0
  0
LINE
  5
817
330
1D
100
AcDbEntity
  8
0
100
AcDbLine
 10
210.4725
 20
137.772395
 30
0.0
 11
208.1833
 21
137.372395
 31
0.0
  0
LINE
  5
818
330
1D
100
AcDbEntity
  8
0
100
AcDbLine
 10
216.9908
 20
140.209395
 30
0.0
 11
214.8971
 21
139.192395
 31
0.0
  0
LINE
  5
819
330
1D
100
AcDbEntity
  8
0
100
AcDbLine
 10
214.8971
 20
139.192395
 30
0.0
 11
212.7172
 21
138.379395
 31
0.0
  0
LINE
  5
81A
330
1D
100
AcDbEntity
  8
0
100
AcDbLine
 10
218.9689
 20
141.415395
 30
0.0
 11
216.9908
 21
140.209395
 31
0.0
  0
LINE
  5
81B
330
1D
100
AcDbEntity
  8
0
100
AcDbLine
 10
212.7172
 20
138.379395
 30
0.0
 11
210.4725
 21
137.772395
 31
0.0
  0
LINE
  5
81C
330
1D
100
AcDbEntity
  8
0
100
AcDbLine
 10
209.5418
 20
143.671395
 30
0.0
 11
207.0754
 21
142.067395
 31
0.0
  0
LINE
  5
81D
330
1D
100
AcDbEntity
  8
0
100
AcDbLine
 10
212.5373
 20
146.362395
 30
0.0
 11
209.5418
 21
143.671395
 31
0.0
  0
LINE
  5
81E
330
1D
100
AcDbEntity
  8
0
100
AcDbLine
 10
216.6157
 20
152.526395
 30
0.0
 11
215.2215
 21
149.890395
 31
0.0
  0
LINE
  5
81F
330
1D
100
AcDbEntity
  8
0
100
AcDbLine
 10
220.8233
 20
142.804395
 30
0.0
 11
218.9689
 21
141.415395
 31
0.0
  0
LINE
  5
820
330
1D
100
AcDbEntity
  8
0
100
AcDbLine
 10
204.8458
 20
137.143395
 30
0.0
 11
200.8777
 21
137.458395
 31
0.0
  0
LINE
  5
821
330
1D
100
AcDbEntity
  8
0
100
AcDbLine
 10
205.0316
 20
137.145395
 30
0.0
 11
204.8458
 21
137.143395
 31
0.0
  0
LINE
  5
822
330
1D
100
AcDbEntity
  8
0
100
AcDbLine
 10
200.8777
 20
137.458395
 30
0.0
 11
200.3802
 21
137.532395
 31
0.0
  0
LINE
  5
823
330
1D
100
AcDbEntity
  8
0
100
AcDbLine
 10
200.3802
 20
137.532395
 30
0.0
 11
199.5792
 21
137.618395
 31
0.0
  0
LINE
  5
824
330
1D
100
AcDbEntity
  8
0
100
AcDbLine
 10
199.6064
 20
137.618395
 30
0.0
 11
198.0409
 21
137.678395
 31
0.0
  0
LINE
  5
825
330
1D
100
AcDbEntity
  8
0
100
AcDbLine
 10
202.1627
 20
140.033395
 30
0.0
 11
199.7734
 21
139.487395
 31
0.0
  0
LINE
  5
826
330
1D
100
AcDbEntity
  8
0
100
AcDbLine
 10
204.5387
 20
140.848395
 30
0.0
 11
202.1627
 21
140.033395
 31
0.0
  0
LINE
  5
827
330
1D
100
AcDbEntity
  8
0
100
AcDbLine
 10
226.7108
 20
149.933395
 30
0.0
 11
225.4946
 21
147.944395
 31
0.0
  0
LINE
  5
828
330
1D
100
AcDbEntity
  8
0
100
AcDbLine
 10
225.4946
 20
147.944395
 30
0.0
 11
224.0959
 21
146.077395
 31
0.0
  0
LINE
  5
829
330
1D
100
AcDbEntity
  8
0
100
AcDbLine
 10
227.7343
 20
152.028395
 30
0.0
 11
226.7108
 21
149.933395
 31
0.0
  0
LINE
  5
82A
330
1D
100
AcDbEntity
  8
0
100
AcDbLine
 10
224.0959
 20
146.077395
 30
0.0
 11
222.5373
 21
144.363395
 31
0.0
  0
LINE
  5
82B
330
1D
100
AcDbEntity
  8
0
100
AcDbLine
 10
221.9905
 20
179.916395
 30
0.0
 11
220.2317
 21
181.425395
 31
0.0
  0
LINE
  5
82C
330
1D
100
AcDbEntity
  8
0
100
AcDbLine
 10
212.715
 20
177.016395
 30
0.0
 11
210.4019
 21
179.225395
 31
0.0
  0
LINE
  5
82D
330
1D
100
AcDbEntity
  8
0
100
AcDbLine
 10
217.7157
 20
155.541395
 30
0.0
 11
218.271597848723
 21
158.360127479282
 31
0.0
  0
LINE
  5
82E
330
1D
100
AcDbEntity
  8
0
100
AcDbLine
 10
218.271597848723
 20
158.360127479282
 30
0.0
 11
218.464552245576
 21
160.859326798037
 31
0.0
  0
LINE
  5
82F
330
1D
100
AcDbEntity
  8
0
100
AcDbLine
 10
218.464552245576
 20
160.859326798037
 30
0.0
 11
218.464552245576
 21
162.771909567438
 31
0.0
  0
LINE
  5
830
330
1D
100
AcDbEntity
  8
0
100
AcDbLine
 10
218.464552245576
 20
162.771909567438
 30
0.0
 11
217.988009395904
 21
166.388849050879
 31
0.0
  0
LINE
  5
831
330
1D
100
AcDbEntity
  8
0
100
AcDbLine
 10
217.988009395904
 20
166.388849050879
 30
0.0
 11
217.5311
 21
168.653395
 31
0.0
  0
LINE
  5
832
330
1D
100
AcDbEntity
  8
0
100
AcDbLine
 10
217.5311
 20
168.653395
 30
0.0
 11
216.326
 21
171.675395
 31
0.0
  0
LINE
  5
833
330
1D
100
AcDbEntity
  8
0
100
AcDbLine
 10
216.326
 20
171.675395
 30
0.0
 11
214.8325
 21
174.294395
 31
0.0
  0
LINE
  5
834
330
1D
100
AcDbEntity
  8
0
100
AcDbLine
 10
214.8325
 20
174.294395
 30
0.0
 11
212.715
 21
177.016395
 31
0.0
  0
LINE
  5
835
330
1D
100
AcDbEntity
  8
0
100
AcDbLine
 10
199.484873663043
 20
186.074587798033
 30
0.0
 11
197.2651
 21
185.989395
 31
0.0
  0
LINE
  5
836
330
1D
100
AcDbEntity
  8
0
100
AcDbLine
 10
205.7936
 20
182.183395
 30
0.0
 11
203.4727
 21
183.149395
 31
0.0
  0
LINE
  5
837
330
1D
100
AcDbEntity
  8
0
100
AcDbLine
 10
208.2638
 20
186.401395
 30
0.0
 11
205.0312
 21
186.605395
 31
0.0
  0
LINE
  5
838
330
1D
100
AcDbEntity
  8
0
100
AcDbLine
 10
210.4019
 20
179.225395
 30
0.0
 11
208.1363
 21
180.877395
 31
0.0
  0
LINE
  5
839
330
1D
100
AcDbEntity
  8
0
100
AcDbLine
 10
220.2317
 20
181.425395
 30
0.0
 11
218.3385
 21
182.761395
 31
0.0
  0
LINE
  5
83A
330
1D
100
AcDbEntity
  8
0
100
AcDbLine
 10
208.1363
 20
180.877395
 30
0.0
 11
205.7936
 21
182.183395
 31
0.0
  0
LINE
  5
83B
330
1D
100
AcDbEntity
  8
0
100
AcDbLine
 10
218.3385
 20
182.761395
 30
0.0
 11
216.3278
 21
183.912395
 31
0.0
  0
LINE
  5
83C
330
1D
100
AcDbEntity
  8
0
100
AcDbLine
 10
216.3278
 20
183.912395
 30
0.0
 11
214.2165
 21
184.869395
 31
0.0
  0
LINE
  5
83D
330
1D
100
AcDbEntity
  8
0
100
AcDbLine
 10
214.2165
 20
184.869395
 30
0.0
 11
212.2769
 21
185.545395
 31
0.0
  0
LINE
  5
83E
330
1D
100
AcDbEntity
  8
0
100
AcDbLine
 10
212.2769
 20
185.545395
 30
0.0
 11
210.288
 21
186.057395
 31
0.0
  0
LINE
  5
83F
330
1D
100
AcDbEntity
  8
0
100
AcDbLine
 10
210.288
 20
186.057395
 30
0.0
 11
208.2638
 21
186.401395
 31
0.0
  0
LINE
  5
840
330
1D
100
AcDbEntity
  8
0
100
AcDbLine
 10
203.4727
 20
183.149395
 30
0.0
 11
201.1173
 21
183.842395
 31
0.0
  0
LINE
  5
841
330
1D
100
AcDbEntity
  8
0
100
AcDbLine
 10
200.2605
 20
186.160395
 30
0.0
 11
199.484873663043
 21
186.074587798033
 31
0.0
  0
LINE
  5
842
330
1D
100
AcDbEntity
  8
0
100
AcDbLine
 10
200.9194
 20
186.260395
 30
0.0
 11
200.2605
 21
186.160395
 31
0.0
  0
LINE
  5
843
330
1D
100
AcDbEntity
  8
0
100
AcDbLine
 10
205.0312
 20
186.605395
 30
0.0
 11
200.9194
 21
186.260395
 31
0.0
  0
LINE
  5
844
330
1D
100
AcDbEntity
  8
0
100
AcDbLine
 10
225.0585
 20
176.420395
 30
0.0
 11
223.6067
 21
178.241395
 31
0.0
  0
LINE
  5
845
330
1D
100
AcDbEntity
  8
0
100
AcDbLine
 10
229.171
 20
156.462395
 30
0.0
 11
228.5566
 21
154.211395
 31
0.0
  0
LINE
  5
846
330
1D
100
AcDbEntity
  8
0
100
AcDbLine
 10
229.5717
 20
158.761395
 30
0.0
 11
229.171
 21
156.462395
 31
0.0
  0
LINE
  5
847
330
1D
100
AcDbEntity
  8
0
100
AcDbLine
 10
229.7187
 20
163.421395
 30
0.0
 11
229.4638
 21
165.741395
 31
0.0
  0
LINE
  5
848
330
1D
100
AcDbEntity
  8
0
100
AcDbLine
 10
229.4638
 20
165.741395
 30
0.0
 11
228.9922
 21
168.026395
 31
0.0
  0
LINE
  5
849
330
1D
100
AcDbEntity
  8
0
100
AcDbLine
 10
229.7548
 20
161.088395
 30
0.0
 11
229.7187
 21
163.421395
 31
0.0
  0
LINE
  5
84A
330
1D
100
AcDbEntity
  8
0
100
AcDbLine
 10
229.7548
 20
161.088395
 30
0.0
 11
229.5717
 21
158.761395
 31
0.0
  0
LINE
  5
84B
330
1D
100
AcDbEntity
  8
0
100
AcDbLine
 10
228.3086
 20
170.257395
 30
0.0
 11
227.4185
 21
172.414395
 31
0.0
  0
LINE
  5
84C
330
1D
100
AcDbEntity
  8
0
100
AcDbLine
 10
227.4185
 20
172.414395
 30
0.0
 11
226.3324
 21
174.473395
 31
0.0
  0
LINE
  5
84D
330
1D
100
AcDbEntity
  8
0
100
AcDbLine
 10
226.3324
 20
174.473395
 30
0.0
 11
225.0585
 21
176.420395
 31
0.0
  0
LINE
  5
84E
330
1D
100
AcDbEntity
  8
0
100
AcDbLine
 10
228.9922
 20
168.026395
 30
0.0
 11
228.3086
 21
170.257395
 31
0.0
  0
LINE
  5
84F
330
1D
100
AcDbEntity
  8
0
100
AcDbLine
 10
223.6067
 20
178.241395
 30
0.0
 11
221.9905
 21
179.916395
 31
0.0
  0
ENDSEC
  0
SECTION
  2
OBJECTS
  0
DICTIONARY
  5
C
330
0
100
AcDbDictionary
281
     1
  3
ACAD_GROUP
350
D
  3
ACAD_LAYOUT
350
1A
  3
ACAD_MLEADERSTYLE
350
852
  3
ACAD_MLINESTYLE
350
17
  3
ACAD_PLOTSETTINGS
350
19
  3
ACAD_PLOTSTYLENAME
350
E
  3
ACAD_SCALELIST
350
331
  3
AcDbVariableDictionary
350
850
  3
DWGPROPS
350
855
  0
DICTIONARY
  5
D
102
{ACAD_REACTORS
330
C
102
}
330
C
100
AcDbDictionary
281
     1
  0
DICTIONARY
  5
1A
102
{ACAD_REACTORS
330
C
102
}
330
C
100
AcDbDictionary
281
     1
  3
Layout1
350
1C
  3
Model
350
1E
  0
DICTIONARY
  5
852
102
{ACAD_REACTORS
330
C
102
}
330
C
100
AcDbDictionary
281
     1
  0
DICTIONARY
  5
17
102
{ACAD_REACTORS
330
C
102
}
330
C
100
AcDbDictionary
281
     1
  3
Standard
350
18
  0
DICTIONARY
  5
19
102
{ACAD_REACTORS
330
C
102
}
330
C
100
AcDbDictionary
281
     1
  0
ACDBDICTIONARYWDFLT
  5
E
102
{ACAD_REACTORS
330
C
102
}
330
C
100
AcDbDictionary
281
     1
  3
Normal
350
F
100
AcDbDictionaryWithDefault
340
F
  0
DICTIONARY
  5
331
102
{ACAD_REACTORS
330
C
102
}
330
C
100
AcDbDictionary
281
     1
  3
A0
350
332
  3
A1
350
333
  3
A2
350
334
  3
A3
350
335
  3
A4
350
336
  3
A5
350
337
  3
A6
350
338
  3
A7
350
339
  3
A8
350
33A
  3
A9
350
33B
  3
B0
350
33C
  3
B1
350
33D
  3
B2
350
33E
  3
B3
350
33F
  3
B4
350
340
  3
B5
350
341
  3
B6
350
342
  3
B7
350
343
  3
B8
350
344
  3
B9
350
345
  3
C0
350
346
  3
C1
350
347
  3
C2
350
348
  3
C3
350
349
  3
C4
350
34A
  3
C5
350
34B
  3
C6
350
34C
  3
C7
350
34D
  3
C8
350
34E
  3
C9
350
34F
  3
D0
350
350
  3
D1
350
351
  3
D2
350
352
  0
DICTIONARY
  5
850
102
{ACAD_REACTORS
330
C
102
}
330
C
100
AcDbDictionary
281
     1
  3
CANNOSCALE
350
853
  0
XRECORD
  5
855
102
{ACAD_REACTORS
330
C
102
}
330
C
100
AcDbXrecord
280
     1
  1
DWGPROPS COOKIE
  2

  3

  4

  6

  7

  8
MARTIN
  9

300
=
301
=
302
=
303
=
304
=
305
=
306
=
307
=
308
=
309
=
 40
0.0
 41
2456647.852007014
 42
2456647.854722755
  1

 90
        0
  0
LAYOUT
  5
1C
102
{ACAD_REACTORS
330
1A
102
}
330
1A
100
AcDbPlotSettings
  1

  2
none_device
  4

  6

 40
0.0
 41
0.0
 42
0.0
 43
0.0
 44
0.0
 45
0.0
 46
0.0
 47
0.0
 48
0.0
 49
0.0
140
0.0
141
0.0
142
1.0
143
1.0
 70
   688
 72
     0
 73
     0
 74
     5
  7

 75
    16
147
1.0
148
0.0
149
0.0
100
AcDbLayout
  1
Layout1
 70
     1
 71
     1
 10
0.0
 20
0.0
 11
12.0
 21
9.0
 12
0.0
 22
0.0
 32
0.0
 14
1.000000000000E+20
 24
1.000000000000E+20
 34
1.000000000000E+20
 15
-1.000000000000E+20
 25
-1.000000000000E+20
 35
-1.000000000000E+20
146
0.0
 13
0.0
 23
0.0
 33
0.0
 16
1.0
 26
0.0
 36
0.0
 17
0.0
 27
1.0
 37
0.0
 76
     0
330
1B
  0
LAYOUT
  5
1E
102
{ACAD_REACTORS
330
1A
102
}
330
1A
100
AcDbPlotSettings
  1

  2
none_device
  4

  6

 40
0.0
 41
0.0
 42
0.0
 43
0.0
 44
0.0
 45
0.0
 46
0.0
 47
0.0
 48
0.0
 49
0.0
140
0.0
141
0.0
142
1.0
143
1.0
 70
  1712
 72
     0
 73
     0
 74
     0
  7

 75
     0
147
1.0
148
0.0
149
0.0
100
AcDbLayout
  1
Model
 70
     1
 71
     0
 10
0.0
 20
0.0
 11
12.0
 21
9.0
 12
0.0
 22
0.0
 32
0.0
 14
-0.0018
 24
-0.059505
 34
0.0
 15
387.0018
 25
228.059395
 35
0.0
146
0.0
 13
0.0
 23
0.0
 33
0.0
 16
1.0
 26
0.0
 36
0.0
 17
0.0
 27
1.0
 37
0.0
 76
     0
330
1D
331
32C
  0
MLINESTYLE
  5
18
102
{ACAD_REACTORS
330
17
102
}
330
17
100
AcDbMlineStyle
  2
Standard
 70
     0
  3

 62
   256
 51
90.0
 52
90.0
 71
     2
 49
0.5
 62
   256
  6
BYLAYER
 49
-0.5
 62
   256
  6
BYLAYER
  0
ACDBPLACEHOLDER
  5
F
102
{ACAD_REACTORS
330
E
102
}
330
E
  0
SCALE
  5
332
102
{ACAD_REACTORS
330
331
102
}
330
331
100
AcDbScale
 70
     0
300
1:1
140
1.0
141
1.0
290
     1
  0
SCALE
  5
333
102
{ACAD_REACTORS
330
331
102
}
330
331
100
AcDbScale
 70
     0
300
1:2
140
1.0
141
2.0
290
     0
  0
SCALE
  5
334
102
{ACAD_REACTORS
330
331
102
}
330
331
100
AcDbScale
 70
     0
300
1:4
140
1.0
141
4.0
290
     0
  0
SCALE
  5
335
102
{ACAD_REACTORS
330
331
102
}
330
331
100
AcDbScale
 70
     0
300
1:5
140
1.0
141
5.0
290
     0
  0
SCALE
  5
336
102
{ACAD_REACTORS
330
331
102
}
330
331
100
AcDbScale
 70
     0
300
1:8
140
1.0
141
8.0
290
     0
  0
SCALE
  5
337
102
{ACAD_REACTORS
330
331
102
}
330
331
100
AcDbScale
 70
     0
300
1:10
140
1.0
141
10.0
290
     0
  0
SCALE
  5
338
102
{ACAD_REACTORS
330
331
102
}
330
331
100
AcDbScale
 70
     0
300
1:16
140
1.0
141
16.0
290
     0
  0
SCALE
  5
339
102
{ACAD_REACTORS
330
331
102
}
330
331
100
AcDbScale
 70
     0
300
1:20
140
1.0
141
20.0
290
     0
  0
SCALE
  5
33A
102
{ACAD_REACTORS
330
331
102
}
330
331
100
AcDbScale
 70
     0
300
1:30
140
1.0
141
30.0
290
     0
  0
SCALE
  5
33B
102
{ACAD_REACTORS
330
331
102
}
330
331
100
AcDbScale
 70
     0
300
1:40
140
1.0
141
40.0
290
     0
  0
SCALE
  5
33C
102
{ACAD_REACTORS
330
331
102
}
330
331
100
AcDbScale
 70
     0
300
1:50
140
1.0
141
50.0
290
     0
  0
SCALE
  5
33D
102
{ACAD_REACTORS
330
331
102
}
330
331
100
AcDbScale
 70
     0
300
1:100
140
1.0
141
100.0
290
     0
  0
SCALE
  5
33E
102
{ACAD_REACTORS
330
331
102
}
330
331
100
AcDbScale
 70
     0
300
2:1
140
2.0
141
1.0
290
     0
  0
SCALE
  5
33F
102
{ACAD_REACTORS
330
331
102
}
330
331
100
AcDbScale
 70
     0
300
4:1
140
4.0
141
1.0
290
     0
  0
SCALE
  5
340
102
{ACAD_REACTORS
330
331
102
}
330
331
100
AcDbScale
 70
     0
300
8:1
140
8.0
141
1.0
290
     0
  0
SCALE
  5
341
102
{ACAD_REACTORS
330
331
102
}
330
331
100
AcDbScale
 70
     0
300
10:1
140
10.0
141
1.0
290
     0
  0
SCALE
  5
342
102
{ACAD_REACTORS
330
331
102
}
330
331
100
AcDbScale
 70
     0
300
100:1
140
100.0
141
1.0
290
     0
  0
SCALE
  5
343
102
{ACAD_REACTORS
330
331
102
}
330
331
100
AcDbScale
 70
     0
300
1/128" = 1'-0"
140
0.0078125
141
12.0
290
     0
  0
SCALE
  5
344
102
{ACAD_REACTORS
330
331
102
}
330
331
100
AcDbScale
 70
     0
300
1/64" = 1'-0"
140
0.015625
141
12.0
290
     0
  0
SCALE
  5
345
102
{ACAD_REACTORS
330
331
102
}
330
331
100
AcDbScale
 70
     0
300
1/32" = 1'-0"
140
0.03125
141
12.0
290
     0
  0
SCALE
  5
346
102
{ACAD_REACTORS
330
331
102
}
330
331
100
AcDbScale
 70
     0
300
1/16" = 1'-0"
140
0.0625
141
12.0
290
     0
  0
SCALE
  5
347
102
{ACAD_REACTORS
330
331
102
}
330
331
100
AcDbScale
 70
     0
300
3/32" = 1'-0"
140
0.09375
141
12.0
290
     0
  0
SCALE
  5
348
102
{ACAD_REACTORS
330
331
102
}
330
331
100
AcDbScale
 70
     0
300
1/8" = 1'-0"
140
0.125
141
12.0
290
     0
  0
SCALE
  5
349
102
{ACAD_REACTORS
330
331
102
}
330
331
100
AcDbScale
 70
     0
300
3/16" = 1'-0"
140
0.1875
141
12.0
290
     0
  0
SCALE
  5
34A
102
{ACAD_REACTORS
330
331
102
}
330
331
100
AcDbScale
 70
     0
300
1/4" = 1'-0"
140
0.25
141
12.0
290
     0
  0
SCALE
  5
34B
102
{ACAD_REACTORS
330
331
102
}
330
331
100
AcDbScale
 70
     0
300
3/8" = 1'-0"
140
0.375
141
12.0
290
     0
  0
SCALE
  5
34C
102
{ACAD_REACTORS
330
331
102
}
330
331
100
AcDbScale
 70
     0
300
1/2" = 1'-0"
140
0.5
141
12.0
290
     0
  0
SCALE
  5
34D
102
{ACAD_REACTORS
330
331
102
}
330
331
100
AcDbScale
 70
     0
300
3/4" = 1'-0"
140
0.75
141
12.0
290
     0
  0
SCALE
  5
34E
102
{ACAD_REACTORS
330
331
102
}
330
331
100
AcDbScale
 70
     0
300
1" = 1'-0"
140
1.0
141
12.0
290
     0
  0
SCALE
  5
34F
102
{ACAD_REACTORS
330
331
102
}
330
331
100
AcDbScale
 70
     0
300
1-1/2" = 1'-0"
140
1.5
141
12.0
290
     0
  0
SCALE
  5
350
102
{ACAD_REACTORS
330
331
102
}
330
331
100
AcDbScale
 70
     0
300
3" = 1'-0"
140
3.0
141
12.0
290
     0
  0
SCALE
  5
351
102
{ACAD_REACTORS
330
331
102
}
330
331
100
AcDbScale
 70
     0
300
6" = 1'-0"
140
6.0
141
12.0
290
     0
  0
SCALE
  5
352
102
{ACAD_REACTORS
330
331
102
}
330
331
100
AcDbScale
 70
     0
300
1'-0" = 1'-0"
140
12.0
141
12.0
290
     0
  0
DICTIONARYVAR
  5
853
102
{ACAD_REACTORS
330
850
102
}
330
850
100
DictionaryVariables
280
     0
  1
1:1
  0
ENDSEC
  0
SECTION
  2
THUMBNAILIMAGE
 90
    16364
310
28000000B40000005500000001000800000000000000000000000000000000000000000000000000FFFFFF000000FF0000FFFF0000FF0000FFFF0000FF000000FF00FF000000000080808000C0C0C0000000FF007F7FFF000000A5005252A50000007F003F3F7F0000004C0026264C000000260013132600003FFF007F9FFF
310
000029A5005267A500001F7F003F4F7F0000134C00262F4C000009260013172600007FFF007FBFFF000052A500527CA500003F7F003F5F7F0000264C0026394C0000132600131C260000BFFF007FDFFF00007CA5005291A500005F7F003F6F7F0000394C0026424C00001C26001321260000FFFF007FFFFF0000A5A50052A5
310
A500007F7F003F7F7F00004C4C00264C4C00002626001326260000FFBF007FFFDF0000A57C0052A59100007F5F003F7F6F00004C3900264C420000261C001326210000FF7F007FFFBF0000A5520052A57C00007F3F003F7F5F00004C2600264C39000026130013261C0000FF3F007FFF9F0000A5290052A56700007F1F003F
310
7F4F00004C1300264C2F00002609001326170000FF00007FFF7F0000A5000052A55200007F00003F7F3F00004C0000264C260000260000132613003FFF00009FFF7F0029A5000067A552001F7F00004F7F3F00134C00002F4C260009260000172613007FFF0000BFFF7F0052A500007CA552003F7F00005F7F3F00264C0000
310
394C2600132600001C261300BFFF0000DFFF7F007CA5000091A552005F7F00006F7F3F00394C0000424C26001C26000021261300FFFF0000FFFF7F00A5A50000A5A552007F7F00007F7F3F004C4C00004C4C26002626000026261300FFBF0000FFDF7F00A57C0000A59152007F5F00007F6F3F004C3900004C422600261C00
310
0026211300FF7F0000FFBF7F00A5520000A57C52007F3F00007F5F3F004C2600004C39260026130000261C1300FF3F0000FF9F7F00A5290000A56752007F1F00007F4F3F004C1300004C2F26002609000026171300FF000000FF7F7F00A5000000A55252007F0000007F3F3F004C0000004C2626002600000026131300FF00
310
3F00FF7F9F00A5002900A55267007F001F007F3F4F004C0013004C262F002600090026131700FF007F00FF7FBF00A5005200A5527C007F003F007F3F5F004C0026004C2639002600130026131C00FF00BF00FF7FDF00A5007C00A55291007F005F007F3F6F004C0039004C26420026001C0026132100FF00FF00FF7FFF00A5
310
00A500A552A5007F007F007F3F7F004C004C004C264C002600260026132600BF00FF00DF7FFF007C00A5009152A5005F007F006F3F7F0039004C0042264C001C002600211326007F00FF00BF7FFF005200A5007C52A5003F007F005F3F7F0026004C0039264C00130026001C1326003F00FF009F7FFF002900A5006752A500
310
1F007F004F3F7F0013004C002F264C000900260017132600000000002D2D2D005B5B5B0089898900B7B7B700B3B3B30000000000000000000000000000000000000000000000000000000000000000000000000000000000000000000000000000000000000000000000000000000000000000000000000000000000000000
310
00000000000000000000000000000000000000000000000000000000000000000000000000000000000000000000000000000000000000000000000000000707070707070707070000000000000000000000000000000000000000000000000000000000000000000000000000000000000000000000000000000000000000
310
00000000000000000000000000000000000000000000000000000000000000000000000000000000000000000000000000000000000000000000000000000000000000000000000000000000000000000000000000000000000000000000000000000000000000000000000000000000070707070707070707070707070707
310
00000000000000000000000000000000000000000000000000000000000000000000000000000000000000000000000000000000000000000000000000000000000000000000000000000000000000000000000000070707070007070000000000000000000000000000000000000000000000000000000000000000000000
310
00000000000000000000000000000000000000000000000000000000000000000000000007070700000000000000000000000000070707000000000000000000000000000000000000000000000000000000000000000000000000000000000000000000000000000000000000000000000000000000000000000000000000
310
00000000000000000000070000000000000007070000000000000000000000000000000000000000000000000000000000000000000000000000000000000000000000000000000000000000000000000000000000000000070707000000000000000000000000000000070707000000000000000000000000000000000000
310
00000000000000000000000000000000000000000000000000000000000000000000000000000000000000000000000000000000000000000000000000000700000000000000000007070000000000000000000000000000000000000000000000000000000000000000000000000000000000000000000000000000000000
310
00000000000000000000000000070700000000000000000000000000000000000000070700000000000000000000000000000000000000000000000000000000000000000000000000000000000000000000000000000000000000000000000000000000000000000000000000000000000007000000000000000000000007
310
00000000000000000000000000000000000000000000000000000000000000000000000000000000000000000000000000000000000000000000000000000000000707000000000000000000000000000000000000000000070700000000000000000000000000000000000000000000000000000000000000000000000000
310
00000000000000000000000000000000000000000000000000000000000000000000000000000000070000000000000000000000000700000000000000000000000000000000000000000000000000000000000000000000000000000000000000000000000000000000000000000000000000000007000000000000000000
310
00000000000000000000000000000000070000000000000000000000000000000000000000000000000000000000000000000000000000000000000000000000000000000000000000000000000000000000000000000000000000000700000000000000000000000000070000000000000000000000000000000000000000
310
00000000000000000000000000000000000000000000000000000000000000000000000000000000000007070000000000000000000000000000000000000000000000000007070000000000000000000000000000000000000000000000000000000000000000000000000000000000000000000000000000000000000000
310
00000000000000000000000000000000000007000000000000000000000000000700000000000000000000000000000000000000000000000000000000000000000000000000000000000000000000000000000000000000000000000000000700000000000000000000000000000000000000000000000000000007000000
310
00000000000000000000000000000000000000000000000000000000000000000000000000000000000000000000000000000000000000000000000000000000000000000000000700000000000000000000000000070000000000000000000000000000000000000000000000000000000000000000000000000000000000
310
00000000000000000000000000000000000000000700000000000000000000000000000000000000000000000000000000070700000000000000000000000000000000000000000000000000000000000000000000000000000000000000000000000000000000000000000000000000000000000000000000000000070000
310
00000000000000000000000700000000000000000000000000000000000000000000000000000000000000000000000000000000000000000000000000000000000000000000000000070000000000000000000000000000000000000000000000000000000000070000000000000000000000000000000000000000000000
310
00000000000000000000000000000000000000000000000000000000000000000000000000000000000000000000000000000700000000000000000000000000070000000000000000000000000000000000000000000000000000000000000000000000000000000000000000000000000000000000000000000000000007
310
00000000000000000000000000000000000000000000000000000000000700000000000000000000000000000000000000000000000000000000000000000000000000000000000000000000000000000000000000000000000000000000000000000000000000070000000000000000000000000007000000000000000000
310
00000000000000000000000000000000000000000000000000000000000000000000000000000000000000000000000000000007070000000000000000000000000000000000000000000000000000000000070700000000000000000000000000000000000000000000000000000000000000000000000000000000000000
310
00000000000000000000000000000000000000000000000000000000000700000000000000000000000000070000000000000000000000000000000000000000000000000000000000000000000000000000000000000000000000000000000000000000000000000700000000000000000000000000000000000000000000
310
00000000000000000007000000000000000000000000000000000000000000000000000000000000000000000000000000000000000000000000000000000000000000000000000000000000000000000000070000000000000000000000000007000000000000000000000000000000000000000000000000000000000000
310
00000000000000000000000000000000000000000000000000000000000007000000000000000000000000000000000000000000000000000000000000000700000000000000000000000000000000000000000000000000000000000000000000000000000000000000000000000000000000000000000000000000000000
310
00000000000000000700000000000000000000000000070000000000000000000000000000000000000000000000000000000000000000000000000000000000000000000000000000000000000000000000000700000000000000000000000000000000000000000000000000000000000000000000000000000000000000
310
00000000000000000000000000000000000000000000000000000000000000000000000000000000000000000000000000000000000000000000000000070000000000000000000000000007000000000000000000000000000000000000000000000000000000000000000000000000000000000000000000000000000000
310
00000000000000000007000000000000000000000000000000000000000000000000000000000000000700000000000000000000000000000000000000000000000000000000000000000000000000000000000000000000000000000000000000000000000000000000000000000000000700000000000000000000000000
310
00000700000000000000000000000000000000000000000000000000000000000000000000000000000000000000000000000000000000000000000000000700000000000000000000000000000000000000000000000000000000000007000000000000000000000000000000000000000000000000000000000000000000
310
00000000000000000000000000000000000000000000000000000000000000000000000000000007000000000000000000000000000000070000000000000000000000000000000000000000000000000000000000000000000000000000000000000000000000000000000000000000000000000700000000000000000000
310
00000000000000000000000000000000000000070000000000000000000000000000000000000000000000000000000000000000000000000000000000000000000000000000000000000000000000000000000000000000000000000700000000000000000000000000000007000000000000000000000000000000000000
310
00000000000000000000000000000000000000000000000000000000000000000000000000000000000007000000000000000000000000000000000000000000000000000000000007000000000000000000000000000000000000000000000000000000000000000000000000000000000000000000000000000000000000
310
00000000000000000000000000000000000007000000000707070007070700000000070000000000000000000000000000000000000000000000000000000000000000000000000000000000000000000000000000000000000000000000000700000000000000000000000000000000000000000000000000000000000700
310
00000000000000000000000000000000000000000000000000000000000000000000000000000000000000000000000000000000000000000000000000000000000000000000000700000007070000000000000700000007000000000000000000000000000000000000000000000000000000000000000000000000000000
310
00000000000000000000000000000000000000000000070000000000000000000000000000000000000000000000000000000700000000000000000000000000000000000000000000000000000000000000000000000000000000000000000000000000000000000000000000000000000000000000000000000000070000
310
07070000000000000000070000070000000000000000000000000000000000000000000000000000000000000000000000000000000000000000000000000000000000000000000000000007070000000000000000000000000000000000000000000000000007070000000000000000000000000000000000000000000000
310
00000000000000000000000000000000000000000000000000000000000000000000000000000000000000000000000000000700000700000000000000000000070007000000000000000000000000000000000000000000000000000000000000000000000000000000000000000000000000000000000000000000000000
310
00000007000000000000000000000000000000000000000000000007000000000000000000000000000000000000000000000000000000000000000000000000000000000000000000000000000000000000000000000000000000000000000000000000000000070007000000000000000000000007000700000000000000
310
00000000000000000000000000000000000000000000000000000000000000000000000000000000000000000000000000000000000000000700000000000000000000000000000000000000000000000700000000000000000000000000000000000000000000000000000000000000000000000000000000000000000000
310
00000000000000000000000000000000000000000000000000000000000700070000000000000000000000070707000000000000000000000000000000000000000000000000000000000000000000000000000000000000000000000000000000000000000000000000000000000707000000000000000000000000000000
310
00000000070700000000000000000000000000000000000000000000000000000000000000000000000000000000000000000000000000000000000000000000000000000000000000000000000000000000070007000000000000000000000000070700000000000000000000000000000000000000000000000000000000
310
00000000000000000000000000000000000000000000000000000000000000000000000000000700000000000000000000000000000000000700000000000000000000000000000000000000000000000000000000000000000000000000000000000000000000000000000000000000000000000000000000000000000000
310
00000000000000000700070000000000000000000000000707000000000000000000000000000000000000000000000000000000000000000000000000000000000000000000000000000000000000000000000000000000000000070700000000000000000000000000000007070000000000000000000000000000000000
310
00000000000000000000000000000000000000000000000000000000000000000000000000000000000000000000000000000000000000000000000000070007000000000000000000000000070700000000000000000000000000000000000000000000000000000000000000000000000000000000000000000000000000
310
00000000000000000000000000000000000007000000000000000000000000000000070000000000000000000000000000000000000000000000000000000000000000000000000000000000000000000000000000000000000000000000000000000000000000000000000000000000000007000700000000000000000000
310
00000707000000000000000000000000000000000000000000000000000000000000000000000000000000000000000000000000000000000000000000000000000000000000000007000000000000000000000000000700000000000000000000000000000000000000000000000000000000000000000000000000000000
310
00000000000000000000000000000000000000000000000000000000000000000000000000000000070700000000000000000000000000070700000000000000000000000000000000000000000000000000000000000000000000000000000000000000000000000000000000000000000000000000000000000000000007
310
00000000000000000000000700000000000000000000000000000000000000000000000000000000000000000000000000000000000000000000000000000000000000000000000000000000000000000000000000000000000000000007070000000000000000000000000007070000000000000000000000000000000000
310
00000000000000000000000000000000000000000000000000000000000000000000000000000000000000000000000000000000070000000000000000000000070000000000000000000000000000000000000000000000000000000000000000000000000000000000000000000000000000000000000000000000000000
310
00000000000000000000000000000000000007000700000000000000000000000000000707000000000000000000000000000000000000000000000000000000000000000000000000000000000000000000000000000000000000000000000000000000000000000007000000000000000000000007000000000000000000
310
00000000000000000000000000000000000000000000000000000000000000000000000000000000000000000000000000000000000000000000000000000000000000000000000700070000000000000000000000000000070700000000000000000000000000000000000000000000000000000000000000000000000000
310
00000000000000000000000000000000000000000000000000000000000000070000000000000000000000070000000000000000000000000000000000000000000000000000000000000000000000000000000000000000000000000000000000000000000000000000000000000000000000000000000000000000070007
310
00000000000000000000000000000707000000000000000000000000000000000000000000000000000000000000000000000000000000000000000000000000000000000000000000000000000000000000000007000000000000000000000007000000000000000000000000000000000000000000000000000000000000
310
00000000000000000000000000000000000000000000000000000000000000000000000000000000000000000000000000000700070000000000000000000000000000070700000000000000000000000000000000000000000000000000000000000000000000000000000000000000000000000000000000000000000000
310
00000000000000000000070000000000000000000007000000000000000000000000000000000000000000000000000000000000000000000000000000000000000000000000000000000000000000000000000000000000000000000000000000000000000000070007000000000000000000000000000007070000000000
310
00000000000000000000000000000000000000000000000000000000000000000000000000000000000000000000000000000000000000000000000000000000000000000000000000000700000000000000000000000000000000000000000000000000000000000000000000000000000000000000000000000000000000
310
00000000000000000000000000000000000000000000000000000000000707000000000000000000000000000000070700000000000000000000000000000000000000000000000000000000000000000000000000000000000000000000000000000000000000000000000000000000000000000007000000000000000000
310
07000000000000000000000000000000000000000000000000000000000000000000000000000000000000000000000000000000000000000000000000000000000000000000000000000000000000000000070700000000000000000000000000000007070000000000000000000000000000000000000000000000000000
310
00000000000000000000000000000000000000000000000000000000000000000000000000000000000007000000000000000000000700000000000000000000000000000000000000000000000000000000000000000000000000000000000000000000000000000000000000000000000000000000000000000000000000
310
00000000000000000707000000000000000000000000000000070700000000000000000000000000000000000000000000000000000000000000000000000000000000000000000000000000000000000000000000000000000000000000000700000000000000000000000700000000000000000000000000000000000000
310
00000000000000000000000000000000000000000000000000000000000000000000000000000000000000000000000000000000000000000000000000070700000000000000000000000000000007070000000000000000000000000000000000000000000000000000000000000000000000000000000000000000000000
310
00000000000000000000000000000000000000000007000000000000000000000007000000000000000000000000000000000000000000000000000000000000000000000000000000000000000000000000000000000000000000000000000000000000000000000000000000000000000007070000000000000000000000
310
00000000070700000000000000000000000000000000000000000000000000000000000000000000000000000000000000000000000000000000000000000000000000000000000000000700000000000000000000000700000000000000000000000000000000000000000000000000000000000000000000000000000000
310
00000000000000000000000000000000000000000000000000000000000000000000000000000000070700000000000000000000000000000000070000000000000000000000000000000000000000000000000000000000000000000000000000000000000000000000000000000000000000000000000000000000000000
310
07000000000000000000000007000000000000000000000000000000000000000000000000000000000000000000000000000000000000000000000000000000000000000000000000000000000000000000000000000000000000000007070000000000000000000000000000000007000000000000000000000000000000
310
00000000000000000000000000000000000000000000000000000000000000000000000000000000000000000000000000000000000700000000000000000000000700000000000000000000000000000000000000000000000000000000000000000000000000000000000000000000000000000000000000000000000000
310
00000000000000000000000000000000000000070000000000000000000000000000000000070000000000000000000000000000000000000000000000000000000000000000000000000000000000000000000000000000000000000000000000000000000000000000070000000000000000000000070000000000000000
310
00000000000000000000000000000000000000000000000000000000000000000000000000000000000000000000000000000000000000000000000000000000000000000000000007000000000000000000000000000000000007070000000000000000000000000000000000000000000000000000000000000000000000
310
00000000000000000000000000000000000000000000000000000000000000000700000000000000000000000700000000000000000000000000000000000000000000000000000000000000000000000000000000000000000000000000000000000000000000000000000000000000000000000000000000000000000700
310
00000000000000000000000000000000070700000000000000000000000000000000000000000000000000000000000000000000000000000000000000000000000000000000000000000000000000000000000000070000000000000000000000070000000000000000000000000000000000000000000000000000000000
310
00000000000000000000000000000000000000000000000000000000000000000000000000000000000000000000000000000707000000000000000000000000000000000000070000000000000000000000000000000000000000000000000000000000000000000000000000000000000000000000000000000000000000
310
00000000000000000000000700000000000000000000000700000000000000000000000000000000000000000000000000000000000000000000000000000000000000000000000000000000000000000000000000000000000000000000000000000000000000070700000000000000000000000000000000000707000000
310
00000000000000000000000000000000000000000000000000000000000000000000000000000000000000000000000000000000000000000000000000000000070000000000000000000000070000000000000000000000000000000000000000000000000000000000000000000000000000000000000000000000000000
310
00000000000000000000000000000000000000000000000000000000070707000000000000000000000000000000000007000707000000000000000000000000000000000000000000000000000000000000000000000000000000000000000000000000000000000000000000000000000000000007000000000000000000
310
00000700000000000000000000000000000000000000000000000000000000000000000000000000000000000000000000000000000000000007070707070707070707070707070707070707070707070700000700000000000000000000000000000000000700000707070707070707070707070707070707070707070707
310
07070000000000000000000000000000000000000000000000000000000000000000000000000000000000070000000000000000000000070000000000000000000000000000000000000000000000000000000000000000000000000000000000000000000000000000000007070000000700000000000000000000000000
310
00000000000000000007000000000000000000000000000000000000070000000000000000000000000000000000000000000707000000070700000000000000000000000000000000000000000000000000000000000000000000000000000007000000000000000000000000000000000000000000000000000000000000
310
00000000000000000000000000000000000000000000000000000000000000000007000000070700000000000000000000000000000000000000000000000700000000000000000000000000000000000007000000000000000000000000000000000000000000000007070000070700000000000000000000000000000000
310
00000000000000000000000000000000000000000000070000000000000000000000070000000000000000000000000000000000000000000000000000000000000000000000000000000000000000000000000007070000000700000000000000000000000000000000000000000000000000070000000000000000000000
310
00000000000000070000000000000000000000000000000000000000000000000007000000070000000000000000000000000000000000000000000000000000000000000000000000000007000000000000000000000007000000000000000000000000000000000000000000000000000000000000000000000000000000
310
00000000000000000000070000000700000000000000000000000000000000000000000000000000000700000000000000000000000000000000000007000000000000000000000000000000000000000000000000000700000000070000000000000000000000000000000000000000000000000000000000000000000000
310
00070000000000000000000000070000000000000000000000000000000000000000000000000000000000000000000000000000000000000000000000000700000000000000000000000000000000000000000000000000000000000000070000000000000000000000000000000000000700000000000000000000000000
310
00000000000000000000000000000000000707000000000000000000000000000000000000000000000000000000000000000000000007000000000000000000000007000000000000000000000000000000000000000000000000000000000000000000000000000000000000000000000000070000000700000000000000
310
00000000000000000000000000000000000000000700000000000000000000000000000000000007000000000000000000000000000000000000000000000000000007000000000700000000000000000000000000000000000000000000000000000000000000000000000700000000000000000000000700000000000000
310
00000000000000000000000000000000000000000000000000000000000000000000000000000000000700000007000000000000000000000000000000000000000000000000000000070000000000000000000000000000000000000700000000000000000000000000000000000000000000000000000007000000070000
310
00000000000000000000000000000000000000000000000000000000000000000007000000000000000000000007000000000000000000000000000000000000000000000000000000000000000000000000000000000000000000000007000000000700000000000000000000000000000000000000000000000000000007
310
00000000000000000000000000000000000007000000000000000000000000000000000000000000000000000000070000000700000000000000000000000000000000000000000000000000000000000000000000000700000000000000000000000700000000000000000000000000000000000000000000000000000000
310
00000000000000000000000000000000000000070000000700000000000000000000000000000000000000000000000000000000070000000000000000000000000000000000070700000000000000000000000000000000000000000000000000000007000000070000000000000000000000000000000000000000000000
310
00000000000000000000000007000000000000000000000007000000000000000000000000000000000000000000000000000000000000000000000000000000000000000000000007000000070000000000000000000000000000000000000000000000000000000007070000000000000000000000000000000007000000
310
00000000000000000000000000000000000000000000000000070000000700000000000000000000000000000000000000000000000000000000000000000000000700000000000000000000000700000000000000000000000000000000000000000000000000000000000000000000000000000000000000000000000007
310
00000007000000000000000000000000000000000000000000000000000000000700000000000000000000000000000000070000000000000000000000000000000000000000000000000000000007000000070000000000000000000000000000000000000000000000000000000000000000000000070000000000000000
310
00000007000000000000000000000000000000000000000000000000000000000000000000000000000000000000000000000000070000000700000000000000000000000000000000000000000000000000000000070700000000000000000000000000000700000000000000000000000000000000000000000000000000
310
00000007000000000700000000000000000000000000000000000000000000000000000000000000000000000700000000000000000000000700000000000000000000000000000000000000000000000000000000000000000000000000000000000000000000000007000000070000000000000000000000000000000000
310
00000000000000000000000007070000000000000000000000000707000000000000000000000000000000000000000000000000000000000700000007000000000000000000000000000000000000000000000000000000000000000000000000070700000000000000000007000000000000000000000000000000000000
310
00000000000000000000000000000000000000000000000000000000000000000700000007000000000000000000000000000000000000000000000000000000000000070700000000000000000707000000000000000000000000000000000000000000000000000000000000070000000700000000000000000000000000
310
00000000000000000000000000000000000000000000000707070000000000000007070700000000000000000000000000000000000000000000000000000000000000000000000000000000000000000000000000000700000007000000000000000000000000000000000000000000000000000000000000070707000000
310
00070707000000000000000000000000000000000000000000000000000000000007070000000700000000000000000000000000000000000000000000000000000000000000000000000000070007070000000000070700070000000000000000000000000000000000000000000000000000000000000000000000000000
310
00000000000000000000000007070000000707000000000000000000000000000000000000000000000000000000000000070707070700000000000000000000000000000000000000000000000000000000000007070000000007000000000000000000000000000000000000000000000000000000000000000000000000
310
00000700000707070707070700000700000000000000000000000000000000000000000000000000000000000000000000000000000000000000000000000000000007070700000007000000000000000000000000000000000000000000000000000000000000000000000000000000000000000000000000000000000000
310
00000000000000000000070000000707000000000000000000000000000000000000000000000000000000000000000000000000000000070000000000000000000000070000000000000000000000000000000000000000000000000000000000000000000000000000000000000000000000000000000000000707070707
310
07070707070707070707070707070707070707070707070707070707070707070707070007070707070707070707070707070707070707070707070707070707070707000000000000000000000000000000000000000000000000000000000000000000000000000000000007000000000000000000000007000000000000
310
00000000000000000000000000000000000000000000000000000000000000000000000000000000000000000000000000000000000000000000000000000000000000000000000000000000000000000000000000000000000000000000000000000000000000000000000000000000000000000000000000000000000000
310
00000000000000000000000000000000000000000000000000000000000000000000070000000000000000000000070000000000000000000000000000000000000000000000000000000000000000000000000000000000000000000000000000000000000000000000000000000000000000000000000000000000000000
310
00000000000000000000000000000000000000000000000000000000000000000000000000000000000000000000000000000000000000000000000000000000000000000000000000000000000000000000000000000007000000000000000000000007000000000000000000000000000000000000000000000000000000
310
00000000000000000000000000000000000000000000000000000000000000000000000000000000000000000000000000000000000000000000000000000000000000000000000000000000000000000000000000000000000000000000000000000000000000000000000000000000000000000000000000000000000000
310
00000000000000000000000000070000000000000000000000070000000000000000000000000000000000000000000000000000000000000000000000000000000000000000000000000000000000000000000000000000000000000000000000000000000000000000000000000000000000000000000000000000000000
310
00000000000000000000000000000000000000000000000000000000000000000000000000000000000000000000000000000000000000000000000000000000000007000000000000000000000007000000000000000000000000000000000000000000000000000000000000000000000000000000000000000000000000
310
00000000000000000000000000000000000000000000000000000000000000000000000000000000000000000000000000000000000000000000000000000000000000000000000000000000000000000000000000000000000000000000000000000000000000000000000000000000000000000000000700000000000000
310
00000000070000000000000000000000000000000000000000000000000000000000000000000000000000000000000000000000000000000000000000000000000000000000000000000000000000000000000000000000000000000000000000000000000000000000000000000000000000000000000000000000000000
310
00000000000000000000000000000000000000000000000000000000000000000000000000000000000000000007000000000000000000000007000000000000000000000000000000000000000000000000000000000000000000000000000000000000000000000000000000000000000000000000000000000000000000
310
00000000000000000000000000000000000000000000000000000000000000000000000000000000000000000000000000000000000000000000000000000000000000000000000000000000000000000000000000000000000000000000000000000700000000000000000000000700000000000000000000000000000000
310
00000000000000000000000000000000000000000000000000000000000000000000000000000000000000000000000000000000000000000000000000000000000000000000000000000000000000000000000000000000000000000000000000000000000000000000000000000000000000000000000000000000000000
310
00000000000000000000000000000000000000000000000007000000000000000000000007000000000000000000000000000000000000000000000000000000000000000000000000000000000000000000000000000000000000000000000000000000000000000000000000000000000000000000000000000000000000
310
00000000000000000000000000000000000000000000000000000000000000000000000000000000000000000000000000000000000000000000000000000000000000000000000000000000000700000000000000000000000700000000000000000000000000000000000000000000000000000000000000000000000000
310
00000000000000000000000000000000000000000000000000000000000000000000000000000000000000000000000000000000000000000000000000000000000000000000000000000000000000000000000000000000000000000000000000000000000000000000000000000000000000000000000000000000000000
310
00000007000000000000000000000007000000000000000000000000000000000000000000000000000000000000000000000000000000000000000000000000000000000000000000000000000000000000000000000000000000000000000000000000000000000000000000000000000000000000000000000000000000
310
00000000000000000000000000000000000000000000000000000000000000000000000000000000000000000000000000000000000000000700000000000000000000000700000000000000000000000000000000000000000000000000000000000000000000000000000000000000000000000000000000000000000000
310
00000000000000000000000000000000000000000000000000000000000000000000000000000000000000000000000000000000000000000000000000000000000000000000000000000000000000000000000000000000000000000000000000000000000000000000000000070000000000000000000000070000000000
310
00000000000000000000000000000000000000000000000000000000000000000000000000000000000000000000000000000000000000000000000000000000000000000000000000000000000000000000000000000000000000000000000000000000000000000000000000000000000000000000000000000000000000
310
00000000000000000000000000000000000000000000000000000000000000000000000700000000000000000000000700000000000000000000000000000000000000000000000000000000000000000000000000000000000000000000000000000000000000000000000000000000000000000000000000000000000000
310
00000000000000000000000000000000000000000000000000000000000000000000000000000000000000000000000000000000000000000000000000000000000000000000000000000000000000000000000000000000070000000000000000000000070000000000000000000000000000000000000000000000000000
310
00000000000000000000000000000000000000000000000000000000000000000000000000000000000000000000000000000000000000000000000000000000000000000000000000000000000000000000000000000000000000000000000000000000000000000000000000000000000000000000000000000000000000
310
00000000000000000000000000000707070707070707070707070700000000000000000000000000000000000000000000000000000000000000000000000000000000000000000000000000000000000000000000000000000000000000000000000000000000000000000000000000000000000000000000000000000000
310
000000000000000000000000000000000000000000000000000000000000000000000000000000000000000000000000000000000000000000000000000000000000000000000000000000000000000000000000000000000000000000000000000000000000000000000000
  0
ENDSEC
  0
EOF
