  0
SECTION
  2
HEADER
  9
$ACADVER
  1
AC1015
  9
$ACADMAINTVER
 70
     6
  9
$DWGCODEPAGE
  3
ANSI_1252
  9
$INSBASE
 10
0.0
 20
0.0
 30
0.0
  9
$EXTMIN
 10
0.1217
 20
53.81485
 30
0.0
  9
$EXTMAX
 10
230.1383
 20
194.63955
 30
0.0
  9
$LIMMIN
 10
0.0
 20
0.0
  9
$LIMMAX
 10
12.0
 20
9.0
  9
$ORTHOMODE
 70
     0
  9
$REGENMODE
 70
     1
  9
$FILLMODE
 70
     1
  9
$QTEXTMODE
 70
     0
  9
$MIRRTEXT
 70
     1
  9
$LTSCALE
 40
1.0
  9
$ATTMODE
 70
     1
  9
$TEXTSIZE
 40
0.2
  9
$TRACEWID
 40
0.05
  9
$TEXTSTYLE
  7
Standard
  9
$CLAYER
  8
0
  9
$CELTYPE
  6
ByBlock
  9
$CECOLOR
 62
   256
  9
$CELTSCALE
 40
1.0
  9
$DISPSILH
 70
     0
  9
$DIMSCALE
 40
1.0
  9
$DIMASZ
 40
0.18
  9
$DIMEXO
 40
0.0625
  9
$DIMDLI
 40
0.38
  9
$DIMRND
 40
0.0
  9
$DIMDLE
 40
0.0
  9
$DIMEXE
 40
0.18
  9
$DIMTP
 40
0.0
  9
$DIMTM
 40
0.0
  9
$DIMTXT
 40
0.18
  9
$DIMCEN
 40
0.09
  9
$DIMTSZ
 40
0.0
  9
$DIMTOL
 70
     0
  9
$DIMLIM
 70
     0
  9
$DIMTIH
 70
     1
  9
$DIMTOH
 70
     1
  9
$DIMSE1
 70
     0
  9
$DIMSE2
 70
     0
  9
$DIMTAD
 70
     0
  9
$DIMZIN
 70
     0
  9
$DIMBLK
  1

  9
$DIMASO
 70
     1
  9
$DIMSHO
 70
     1
  9
$DIMPOST
  1

  9
$DIMAPOST
  1

  9
$DIMALT
 70
     0
  9
$DIMALTD
 70
     2
  9
$DIMALTF
 40
25.4
  9
$DIMLFAC
 40
1.0
  9
$DIMTOFL
 70
     0
  9
$DIMTVP
 40
0.0
  9
$DIMTIX
 70
     0
  9
$DIMSOXD
 70
     0
  9
$DIMSAH
 70
     0
  9
$DIMBLK1
  1

  9
$DIMBLK2
  1

  9
$DIMSTYLE
  2
Standard
  9
$DIMCLRD
 70
     0
  9
$DIMCLRE
 70
     0
  9
$DIMCLRT
 70
     0
  9
$DIMTFAC
 40
1.0
  9
$DIMGAP
 40
0.09
  9
$DIMJUST
 70
     0
  9
$DIMSD1
 70
     0
  9
$DIMSD2
 70
     0
  9
$DIMTOLJ
 70
     1
  9
$DIMTZIN
 70
     0
  9
$DIMALTZ
 70
     0
  9
$DIMALTTZ
 70
     0
  9
$DIMUPT
 70
     0
  9
$DIMDEC
 70
     4
  9
$DIMTDEC
 70
     4
  9
$DIMALTU
 70
     2
  9
$DIMALTTD
 70
     2
  9
$DIMTXSTY
  7
Standard
  9
$DIMAUNIT
 70
     0
  9
$DIMADEC
 70
     0
  9
$DIMALTRND
 40
0.0
  9
$DIMAZIN
 70
     0
  9
$DIMDSEP
 70
    46
  9
$DIMATFIT
 70
     3
  9
$DIMFRAC
 70
     0
  9
$DIMLDRBLK
  1

  9
$DIMLUNIT
 70
     2
  9
$DIMLWD
 70
    -2
  9
$DIMLWE
 70
    -2
  9
$DIMTMOVE
 70
     2
  9
$LUNITS
 70
     2
  9
$LUPREC
 70
     4
  9
$SKETCHINC
 40
0.1
  9
$FILLETRAD
 40
0.5
  9
$AUNITS
 70
     0
  9
$AUPREC
 70
     0
  9
$MENU
  1
.
  9
$ELEVATION
 40
0.0
  9
$PELEVATION
 40
0.0
  9
$THICKNESS
 40
0.0
  9
$LIMCHECK
 70
     0
  9
$CHAMFERA
 40
0.5
  9
$CHAMFERB
 40
0.5
  9
$CHAMFERC
 40
1.0
  9
$CHAMFERD
 40
0.0
  9
$SKPOLY
 70
     0
  9
$TDCREATE
 40
2456647.766090486
  9
$TDUCREATE
 40
2456647.724423819
  9
$TDUPDATE
 40
2456647.776290683
  9
$TDUUPDATE
 40
2456647.734624016
  9
$TDINDWG
 40
0.0101978588
  9
$TDUSRTIMER
 40
0.0101978588
  9
$USRTIMER
 70
     1
  9
$ANGBASE
 50
0.0
  9
$ANGDIR
 70
     0
  9
$PDMODE
 70
     0
  9
$PDSIZE
 40
0.0
  9
$PLINEWID
 40
0.0
  9
$SPLFRAME
 70
     0
  9
$SPLINETYPE
 70
     6
  9
$SPLINESEGS
 70
     8
  9
$HANDSEED
  5
142F
  9
$SURFTAB1
 70
     6
  9
$SURFTAB2
 70
     6
  9
$SURFTYPE
 70
     6
  9
$SURFU
 70
     6
  9
$SURFV
 70
     6
  9
$UCSBASE
  2

  9
$UCSNAME
  2

  9
$UCSORG
 10
0.0
 20
0.0
 30
0.0
  9
$UCSXDIR
 10
1.0
 20
0.0
 30
0.0
  9
$UCSYDIR
 10
0.0
 20
1.0
 30
0.0
  9
$UCSORTHOREF
  2

  9
$UCSORTHOVIEW
 70
     0
  9
$UCSORGTOP
 10
0.0
 20
0.0
 30
0.0
  9
$UCSORGBOTTOM
 10
0.0
 20
0.0
 30
0.0
  9
$UCSORGLEFT
 10
0.0
 20
0.0
 30
0.0
  9
$UCSORGRIGHT
 10
0.0
 20
0.0
 30
0.0
  9
$UCSORGFRONT
 10
0.0
 20
0.0
 30
0.0
  9
$UCSORGBACK
 10
0.0
 20
0.0
 30
0.0
  9
$PUCSBASE
  2

  9
$PUCSNAME
  2

  9
$PUCSORG
 10
0.0
 20
0.0
 30
0.0
  9
$PUCSXDIR
 10
1.0
 20
0.0
 30
0.0
  9
$PUCSYDIR
 10
0.0
 20
1.0
 30
0.0
  9
$PUCSORTHOREF
  2

  9
$PUCSORTHOVIEW
 70
     0
  9
$PUCSORGTOP
 10
0.0
 20
0.0
 30
0.0
  9
$PUCSORGBOTTOM
 10
0.0
 20
0.0
 30
0.0
  9
$PUCSORGLEFT
 10
0.0
 20
0.0
 30
0.0
  9
$PUCSORGRIGHT
 10
0.0
 20
0.0
 30
0.0
  9
$PUCSORGFRONT
 10
0.0
 20
0.0
 30
0.0
  9
$PUCSORGBACK
 10
0.0
 20
0.0
 30
0.0
  9
$USERI1
 70
     0
  9
$USERI2
 70
     0
  9
$USERI3
 70
     0
  9
$USERI4
 70
     0
  9
$USERI5
 70
     0
  9
$USERR1
 40
0.0
  9
$USERR2
 40
0.0
  9
$USERR3
 40
0.0
  9
$USERR4
 40
0.0
  9
$USERR5
 40
0.0
  9
$WORLDVIEW
 70
     1
  9
$SHADEDGE
 70
     3
  9
$SHADEDIF
 70
    70
  9
$TILEMODE
 70
     1
  9
$MAXACTVP
 70
    64
  9
$PINSBASE
 10
0.0
 20
0.0
 30
0.0
  9
$PLIMCHECK
 70
     0
  9
$PEXTMIN
 10
1.000000000000E+20
 20
1.000000000000E+20
 30
1.000000000000E+20
  9
$PEXTMAX
 10
-1.000000000000E+20
 20
-1.000000000000E+20
 30
-1.000000000000E+20
  9
$PLIMMIN
 10
0.0
 20
0.0
  9
$PLIMMAX
 10
12.0
 20
9.0
  9
$UNITMODE
 70
     0
  9
$VISRETAIN
 70
     1
  9
$PLINEGEN
 70
     0
  9
$PSLTSCALE
 70
     1
  9
$TREEDEPTH
 70
  3020
  9
$CMLSTYLE
  2
Standard
  9
$CMLJUST
 70
     0
  9
$CMLSCALE
 40
1.0
  9
$PROXYGRAPHICS
 70
     1
  9
$MEASUREMENT
 70
     0
  9
$CELWEIGHT
370
    -1
  9
$ENDCAPS
280
     0
  9
$JOINSTYLE
280
     0
  9
$LWDISPLAY
290
     0
  9
$INSUNITS
 70
     0
  9
$HYPERLINKBASE
  1

  9
$STYLESHEET
  1

  9
$XEDIT
290
     1
  9
$CEPSNTYPE
380
     0
  9
$PSTYLEMODE
290
     1
  9
$FINGERPRINTGUID
  2
{6337E01E-1C09-4F07-AE6B-8D2F5CFDEE6F}
  9
$VERSIONGUID
  2
{FAEB1C32-E019-11D5-929B-00C0DF256EC4}
  9
$EXTNAMES
290
     1
  9
$PSVPSCALE
 40
0.0
  9
$OLESTARTUP
290
     0
  0
ENDSEC
  0
SECTION
  2
CLASSES
  0
CLASS
  1
ACDBDICTIONARYWDFLT
  2
AcDbDictionaryWithDefault
  3
ObjectDBX Classes
 90
        0
280
     0
281
     0
  0
CLASS
  1
SCALE
  2
AcDbScale
  3
ObjectDBX Classes
 90
     1153
280
     0
281
     0
  0
CLASS
  1
DICTIONARYVAR
  2
AcDbDictionaryVar
  3
ObjectDBX Classes
 90
        0
280
     0
281
     0
  0
CLASS
  1
ACDBPLACEHOLDER
  2
AcDbPlaceHolder
  3
ObjectDBX Classes
 90
        0
280
     0
281
     0
  0
CLASS
  1
LAYOUT
  2
AcDbLayout
  3
ObjectDBX Classes
 90
        0
280
     0
281
     0
  0
ENDSEC
  0
SECTION
  2
TABLES
  0
TABLE
  2
VPORT
  5
8
330
0
100
AcDbSymbolTable
 70
     1
  0
VPORT
  5
AA9
330
8
100
AcDbSymbolTableRecord
100
AcDbViewportTableRecord
  2
*Active
 70
     0
 10
0.0
 20
0.0
 11
1.0
 21
1.0
 12
115.06915
 22
97.319775
 13
0.0
 23
0.0
 14
0.5
 24
0.5
 15
0.5
 25
0.5
 16
0.0
 26
0.0
 36
1.0
 17
0.0
 27
0.0
 37
0.0
 40
198.532341
 41
1.729542302358
 42
50.0
 43
0.0
 44
0.0
 50
0.0
 51
0.0
 71
    16
 72
   100
 73
     1
 74
     3
 75
     0
 76
     0
 77
     0
 78
     0
281
     0
 65
     1
110
0.0
120
0.0
130
0.0
111
1.0
121
0.0
131
0.0
112
0.0
122
1.0
132
0.0
 79
     0
146
0.0
  0
ENDTAB
  0
TABLE
  2
LTYPE
  5
5
330
0
100
AcDbSymbolTable
 70
     1
  0
LTYPE
  5
14
330
5
100
AcDbSymbolTableRecord
100
AcDbLinetypeTableRecord
  2
ByBlock
 70
     0
  3

 72
    65
 73
     0
 40
0.0
  0
LTYPE
  5
15
330
5
100
AcDbSymbolTableRecord
100
AcDbLinetypeTableRecord
  2
ByLayer
 70
     0
  3

 72
    65
 73
     0
 40
0.0
  0
LTYPE
  5
16
330
5
100
AcDbSymbolTableRecord
100
AcDbLinetypeTableRecord
  2
Continuous
 70
     0
  3
Solid line
 72
    65
 73
     0
 40
0.0
  0
ENDTAB
  0
TABLE
  2
LAYER
  5
2
330
0
100
AcDbSymbolTable
 70
     1
  0
LAYER
  5
10
330
2
100
AcDbSymbolTableRecord
100
AcDbLayerTableRecord
  2
0
 70
     0
 62
     7
  6
Continuous
370
    -3
390
F
  0
ENDTAB
  0
TABLE
  2
STYLE
  5
3
330
0
100
AcDbSymbolTable
 70
     1
  0
STYLE
  5
11
330
3
100
AcDbSymbolTableRecord
100
AcDbTextStyleTableRecord
  2
Standard
 70
     0
 40
0.0
 41
1.0
 50
0.0
 71
     0
 42
0.2
  3
txt
  4

  0
ENDTAB
  0
TABLE
  2
VIEW
  5
6
330
0
100
AcDbSymbolTable
 70
     0
  0
ENDTAB
  0
TABLE
  2
UCS
  5
7
330
0
100
AcDbSymbolTable
 70
     0
  0
ENDTAB
  0
TABLE
  2
APPID
  5
9
330
0
100
AcDbSymbolTable
 70
     1
  0
APPID
  5
12
330
9
100
AcDbSymbolTableRecord
100
AcDbRegAppTableRecord
  2
ACAD
 70
     0
  0
ENDTAB
  0
TABLE
  2
DIMSTYLE
  5
A
330
0
100
AcDbSymbolTable
 70
     1
100
AcDbDimStyleTable
  0
DIMSTYLE
105
20
330
A
100
AcDbSymbolTableRecord
100
AcDbDimStyleTableRecord
  2
Standard
 70
     0
340
11
  0
ENDTAB
  0
TABLE
  2
BLOCK_RECORD
  5
1
330
0
100
AcDbSymbolTable
 70
     1
  0
BLOCK_RECORD
  5
1D
330
1
100
AcDbSymbolTableRecord
100
AcDbBlockTableRecord
  2
*Model_Space
340
1E
  0
BLOCK_RECORD
  5
1B
330
1
100
AcDbSymbolTableRecord
100
AcDbBlockTableRecord
  2
*Paper_Space
340
1C
  0
ENDTAB
  0
ENDSEC
  0
SECTION
  2
BLOCKS
  0
BLOCK
  5
AAC
330
1D
100
AcDbEntity
  8
0
100
AcDbBlockBegin
  2
*Model_Space
 70
     0
 10
0.0
 20
0.0
 30
0.0
  3
*Model_Space
  1
*Model_Space
  0
ENDBLK
  5
AAD
330
1D
100
AcDbEntity
  8
0
100
AcDbBlockEnd
  0
BLOCK
  5
AAA
330
1B
100
AcDbEntity
 67
     1
  8
0
100
AcDbBlockBegin
  2
*Paper_Space
 70
     0
 10
0.0
 20
0.0
 30
0.0
  3
*Paper_Space
  1
*Paper_Space
  0
ENDBLK
  5
AAB
330
1B
100
AcDbEntity
 67
     1
  8
0
100
AcDbBlockEnd
  0
ENDSEC
  0
SECTION
  2
ENTITIES
  0
LINE
  5
22
330
1D
100
AcDbEntity
  8
0
100
AcDbLine
 10
0.6519
 20
53.81485
 30
0.0
 11
0.7957
 21
53.81485
 31
0.0
  0
LINE
  5
43
330
1D
100
AcDbEntity
  8
0
100
AcDbLine
 10
48.9595
 20
53.81485
 30
0.0
 11
49.1095
 21
53.81485
 31
0.0
  0
LINE
  5
45
330
1D
100
AcDbEntity
  8
0
100
AcDbLine
 10
0.3821
 20
53.89425
 30
0.0
 11
0.6519
 21
53.81485
 31
0.0
  0
LINE
  5
46
330
1D
100
AcDbEntity
  8
0
100
AcDbLine
 10
0.198
 20
54.10715
 30
0.0
 11
0.3821
 21
53.89425
 31
0.0
  0
LINE
  5
48
330
1D
100
AcDbEntity
  8
0
100
AcDbLine
 10
49.332
 20
53.86705
 30
0.0
 11
49.4019
 21
53.92945
 31
0.0
  0
LINE
  5
49
330
1D
100
AcDbEntity
  8
0
100
AcDbLine
 10
49.4019
 20
53.92945
 30
0.0
 11
49.5077
 21
54.01285
 31
0.0
  0
LINE
  5
4D
330
1D
100
AcDbEntity
  8
0
100
AcDbLine
 10
49.1095
 20
53.81485
 30
0.0
 11
49.332
 21
53.86705
 31
0.0
  0
LINE
  5
4E
330
1D
100
AcDbEntity
  8
0
100
AcDbLine
 10
49.5077
 20
54.01285
 30
0.0
 11
49.601
 21
54.22145
 31
0.0
  0
LINE
  5
4F
330
1D
100
AcDbEntity
  8
0
100
AcDbLine
 10
0.1217
 20
54.38555
 30
0.0
 11
10.9539
 21
129.64825
 31
0.0
  0
LINE
  5
50
330
1D
100
AcDbEntity
  8
0
100
AcDbLine
 10
50.0821
 20
56.36645
 30
0.0
 11
50.7098
 21
58.43405
 31
0.0
  0
LINE
  5
51
330
1D
100
AcDbEntity
  8
0
100
AcDbLine
 10
0.1217
 20
54.38555
 30
0.0
 11
10.9539
 21
129.64825
 31
0.0
  0
LINE
  5
52
330
1D
100
AcDbEntity
  8
0
100
AcDbLine
 10
0.1217
 20
54.38555
 30
0.0
 11
0.198
 21
54.10715
 31
0.0
  0
LINE
  5
53
330
1D
100
AcDbEntity
  8
0
100
AcDbLine
 10
49.601
 20
54.22145
 30
0.0
 11
50.0821
 21
56.36645
 31
0.0
  0
LINE
  5
54
330
1D
100
AcDbEntity
  8
0
100
AcDbLine
 10
53.974424434227
 20
64.566199598177
 30
0.0
 11
55.7683
 21
66.50895
 31
0.0
  0
LINE
  5
55
330
1D
100
AcDbEntity
  8
0
100
AcDbLine
 10
55.7683
 20
66.50895
 30
0.0
 11
57.9772
 21
68.32295
 31
0.0
  0
LINE
  5
56
330
1D
100
AcDbEntity
  8
0
100
AcDbLine
 10
57.9772
 20
68.32295
 30
0.0
 11
60.4951
 21
69.90125
 31
0.0
  0
LINE
  5
57
330
1D
100
AcDbEntity
  8
0
100
AcDbLine
 10
69.4015
 20
73.25605
 30
0.0
 11
73.1795
 21
74.08935
 31
0.0
  0
LINE
  5
58
330
1D
100
AcDbEntity
  8
0
100
AcDbLine
 10
66.2384
 20
72.34195
 30
0.0
 11
69.4015
 21
73.25605
 31
0.0
  0
LINE
  5
59
330
1D
100
AcDbEntity
  8
0
100
AcDbLine
 10
63.3124
 20
71.25485
 30
0.0
 11
66.2384
 21
72.34195
 31
0.0
  0
LINE
  5
5A
330
1D
100
AcDbEntity
  8
0
100
AcDbLine
 10
60.4951
 20
69.90125
 30
0.0
 11
63.3124
 21
71.25485
 31
0.0
  0
LINE
  5
5B
330
1D
100
AcDbEntity
  8
0
100
AcDbLine
 10
75.078450130257
 20
74.417061318729
 30
0.0
 11
77.1796
 21
74.71235
 31
0.0
  0
LINE
  5
5C
330
1D
100
AcDbEntity
  8
0
100
AcDbLine
 10
52.1197
 20
61.68115
 30
0.0
 11
53.9859
 21
64.58405
 31
0.0
  0
LINE
  5
5D
330
1D
100
AcDbEntity
  8
0
100
AcDbLine
 10
50.7098
 20
58.43405
 30
0.0
 11
52.1197
 21
61.68115
 31
0.0
  0
LINE
  5
5E
330
1D
100
AcDbEntity
  8
0
100
AcDbLine
 10
77.1796
 20
74.71235
 30
0.0
 11
82.9732
 21
75.35465
 31
0.0
  0
LINE
  5
5F
330
1D
100
AcDbEntity
  8
0
100
AcDbLine
 10
82.9732
 20
75.35465
 30
0.0
 11
89.0736
 21
75.75745
 31
0.0
  0
LINE
  5
64
330
1D
100
AcDbEntity
  8
0
100
AcDbLine
 10
95.4029
 20
75.98425
 30
0.0
 11
101.8893
 21
76.09095
 31
0.0
  0
LINE
  5
65
330
1D
100
AcDbEntity
  8
0
100
AcDbLine
 10
89.0736
 20
75.75745
 30
0.0
 11
95.4029
 21
75.98425
 31
0.0
  0
LINE
  5
AC
330
1D
100
AcDbEntity
  8
0
100
AcDbLine
 10
181.3793
 20
53.81485
 30
0.0
 11
182.0933
 21
53.81485
 31
0.0
  0
LINE
  5
AD
330
1D
100
AcDbEntity
  8
0
100
AcDbLine
 10
182.0933
 20
53.81485
 30
0.0
 11
183.7683
 21
53.81485
 31
0.0
  0
LINE
  5
AE
330
1D
100
AcDbEntity
  8
0
100
AcDbLine
 10
183.7683
 20
53.81485
 30
0.0
 11
186.2073
 21
53.81485
 31
0.0
  0
LINE
  5
AF
330
1D
100
AcDbEntity
  8
0
100
AcDbLine
 10
183.5773
 20
53.81485
 30
0.0
 11
185.9593
 21
53.81485
 31
0.0
  0
LINE
  5
B0
330
1D
100
AcDbEntity
  8
0
100
AcDbLine
 10
182.3023
 20
53.81485
 30
0.0
 11
183.5773
 21
53.81485
 31
0.0
  0
LINE
  5
B1
330
1D
100
AcDbEntity
  8
0
100
AcDbLine
 10
181.4893
 20
53.81485
 30
0.0
 11
182.3023
 21
53.81485
 31
0.0
  0
LINE
  5
B2
330
1D
100
AcDbEntity
  8
0
100
AcDbLine
 10
181.1413
 20
53.81485
 30
0.0
 11
181.4893
 21
53.81485
 31
0.0
  0
LINE
  5
B3
330
1D
100
AcDbEntity
  8
0
100
AcDbLine
 10
181.1413
 20
53.81485
 30
0.0
 11
181.3793
 21
53.81485
 31
0.0
  0
LINE
  5
B4
330
1D
100
AcDbEntity
  8
0
100
AcDbLine
 10
183.9253
 20
53.81485
 30
0.0
 11
184.2193
 21
53.81485
 31
0.0
  0
LINE
  5
B5
330
1D
100
AcDbEntity
  8
0
100
AcDbLine
 10
183.9253
 20
53.81485
 30
0.0
 11
184.3333
 21
53.81485
 31
0.0
  0
LINE
  5
B6
330
1D
100
AcDbEntity
  8
0
100
AcDbLine
 10
186.2073
 20
53.81485
 30
0.0
 11
189.3283
 21
53.81485
 31
0.0
  0
LINE
  5
B7
330
1D
100
AcDbEntity
  8
0
100
AcDbLine
 10
189.3283
 20
53.81485
 30
0.0
 11
193.0173
 21
53.81485
 31
0.0
  0
LINE
  5
B8
330
1D
100
AcDbEntity
  8
0
100
AcDbLine
 10
189.0313
 20
53.81485
 30
0.0
 11
192.1873
 21
53.81485
 31
0.0
  0
LINE
  5
B9
330
1D
100
AcDbEntity
  8
0
100
AcDbLine
 10
185.9593
 20
53.81485
 30
0.0
 11
189.0313
 21
53.81485
 31
0.0
  0
LINE
  5
BA
330
1D
100
AcDbEntity
  8
0
100
AcDbLine
 10
196.6983
 20
53.81485
 30
0.0
 11
200.6273
 21
53.81485
 31
0.0
  0
LINE
  5
BB
330
1D
100
AcDbEntity
  8
0
100
AcDbLine
 10
200.6273
 20
53.81485
 30
0.0
 11
205.4053
 21
53.81485
 31
0.0
  0
LINE
  5
BC
330
1D
100
AcDbEntity
  8
0
100
AcDbLine
 10
198.8273
 20
53.81485
 30
0.0
 11
202.0813
 21
53.81485
 31
0.0
  0
LINE
  5
BD
330
1D
100
AcDbEntity
  8
0
100
AcDbLine
 10
195.6993
 20
53.81485
 30
0.0
 11
198.8273
 21
53.81485
 31
0.0
  0
LINE
  5
BE
330
1D
100
AcDbEntity
  8
0
100
AcDbLine
 10
197.0123
 20
53.81485
 30
0.0
 11
200.9893
 21
53.81485
 31
0.0
  0
LINE
  5
BF
330
1D
100
AcDbEntity
  8
0
100
AcDbLine
 10
193.0173
 20
53.81485
 30
0.0
 11
196.6983
 21
53.81485
 31
0.0
  0
LINE
  5
C0
330
1D
100
AcDbEntity
  8
0
100
AcDbLine
 10
192.1873
 20
53.81485
 30
0.0
 11
195.6993
 21
53.81485
 31
0.0
  0
LINE
  5
C1
330
1D
100
AcDbEntity
  8
0
100
AcDbLine
 10
202.0813
 20
53.81485
 30
0.0
 11
205.3983
 21
53.81485
 31
0.0
  0
LINE
  5
C2
330
1D
100
AcDbEntity
  8
0
100
AcDbLine
 10
206.2393
 20
53.81485
 30
0.0
 11
210.9343
 21
53.81485
 31
0.0
  0
LINE
  5
C3
330
1D
100
AcDbEntity
  8
0
100
AcDbLine
 10
205.4053
 20
53.81485
 30
0.0
 11
209.2053
 21
53.81485
 31
0.0
  0
LINE
  5
C4
330
1D
100
AcDbEntity
  8
0
100
AcDbLine
 10
205.3983
 20
53.81485
 30
0.0
 11
206.2393
 21
53.81485
 31
0.0
  0
LINE
  5
C5
330
1D
100
AcDbEntity
  8
0
100
AcDbLine
 10
205.1253
 20
53.81485
 30
0.0
 11
209.6313
 21
53.81485
 31
0.0
  0
LINE
  5
C6
330
1D
100
AcDbEntity
  8
0
100
AcDbLine
 10
200.9893
 20
53.81485
 30
0.0
 11
205.1253
 21
53.81485
 31
0.0
  0
LINE
  5
C7
330
1D
100
AcDbEntity
  8
0
100
AcDbLine
 10
193.3473
 20
53.81485
 30
0.0
 11
197.0123
 21
53.81485
 31
0.0
  0
LINE
  5
C8
330
1D
100
AcDbEntity
  8
0
100
AcDbLine
 10
190.1343
 20
53.81485
 30
0.0
 11
193.3473
 21
53.81485
 31
0.0
  0
LINE
  5
C9
330
1D
100
AcDbEntity
  8
0
100
AcDbLine
 10
187.4983
 20
53.81485
 30
0.0
 11
190.1343
 21
53.81485
 31
0.0
  0
LINE
  5
CA
330
1D
100
AcDbEntity
  8
0
100
AcDbLine
 10
185.5393
 20
53.81485
 30
0.0
 11
187.4983
 21
53.81485
 31
0.0
  0
LINE
  5
CB
330
1D
100
AcDbEntity
  8
0
100
AcDbLine
 10
184.3333
 20
53.81485
 30
0.0
 11
185.5393
 21
53.81485
 31
0.0
  0
LINE
  5
CC
330
1D
100
AcDbEntity
  8
0
100
AcDbLine
 10
184.2193
 20
53.81485
 30
0.0
 11
185.0923
 21
53.81485
 31
0.0
  0
LINE
  5
CF
330
1D
100
AcDbEntity
  8
0
100
AcDbLine
 10
180.9193
 20
53.86705
 30
0.0
 11
181.1413
 21
53.81485
 31
0.0
  0
LINE
  5
D0
330
1D
100
AcDbEntity
  8
0
100
AcDbLine
 10
185.0923
 20
53.81485
 30
0.0
 11
186.5203
 21
53.81485
 31
0.0
  0
LINE
  5
D1
330
1D
100
AcDbEntity
  8
0
100
AcDbLine
 10
180.7433
 20
54.01285
 30
0.0
 11
180.9193
 21
53.86705
 31
0.0
  0
LINE
  5
D2
330
1D
100
AcDbEntity
  8
0
100
AcDbLine
 10
180.6503
 20
54.22165
 30
0.0
 11
180.7433
 21
54.01285
 31
0.0
  0
LINE
  5
D4
330
1D
100
AcDbEntity
  8
0
100
AcDbLine
 10
209.2053
 20
53.81485
 30
0.0
 11
212.7613
 21
53.81485
 31
0.0
  0
LINE
  5
D5
330
1D
100
AcDbEntity
  8
0
100
AcDbLine
 10
212.7613
 20
53.81485
 30
0.0
 11
216.1503
 21
53.81485
 31
0.0
  0
LINE
  5
D6
330
1D
100
AcDbEntity
  8
0
100
AcDbLine
 10
210.9343
 20
53.81485
 30
0.0
 11
215.4263
 21
53.81485
 31
0.0
  0
LINE
  5
D7
330
1D
100
AcDbEntity
  8
0
100
AcDbLine
 10
221.1453
 20
53.81485
 30
0.0
 11
223.7303
 21
53.81485
 31
0.0
  0
LINE
  5
D8
330
1D
100
AcDbEntity
  8
0
100
AcDbLine
 10
216.1503
 20
53.81485
 30
0.0
 11
220.0133
 21
53.81485
 31
0.0
  0
LINE
  5
D9
330
1D
100
AcDbEntity
  8
0
100
AcDbLine
 10
220.0133
 20
53.81485
 30
0.0
 11
223.3603
 21
53.81485
 31
0.0
  0
LINE
  5
DA
330
1D
100
AcDbEntity
  8
0
100
AcDbLine
 10
223.3603
 20
53.81485
 30
0.0
 11
226.0903
 21
53.81485
 31
0.0
  0
LINE
  5
DB
330
1D
100
AcDbEntity
  8
0
100
AcDbLine
 10
226.0903
 20
53.81485
 30
0.0
 11
228.0893
 21
53.81485
 31
0.0
  0
LINE
  5
DC
330
1D
100
AcDbEntity
  8
0
100
AcDbLine
 10
228.0893
 20
53.81485
 30
0.0
 11
229.2883
 21
53.81485
 31
0.0
  0
LINE
  5
DD
330
1D
100
AcDbEntity
  8
0
100
AcDbLine
 10
229.2883
 20
53.81485
 30
0.0
 11
229.6433
 21
53.81485
 31
0.0
  0
LINE
  5
DE
330
1D
100
AcDbEntity
  8
0
100
AcDbLine
 10
229.1393
 20
53.81485
 30
0.0
 11
229.6433
 21
53.81485
 31
0.0
  0
LINE
  5
DF
330
1D
100
AcDbEntity
  8
0
100
AcDbLine
 10
229.6433
 20
53.81485
 30
0.0
 11
229.9133
 21
53.89425
 31
0.0
  0
LINE
  5
E0
330
1D
100
AcDbEntity
  8
0
100
AcDbLine
 10
227.7963
 20
53.81485
 30
0.0
 11
229.1393
 21
53.81485
 31
0.0
  0
LINE
  5
E1
330
1D
100
AcDbEntity
  8
0
100
AcDbLine
 10
225.6633
 20
53.81485
 30
0.0
 11
227.7963
 21
53.81485
 31
0.0
  0
LINE
  5
E2
330
1D
100
AcDbEntity
  8
0
100
AcDbLine
 10
222.8123
 20
53.81485
 30
0.0
 11
225.6633
 21
53.81485
 31
0.0
  0
LINE
  5
E3
330
1D
100
AcDbEntity
  8
0
100
AcDbLine
 10
219.3663
 20
53.81485
 30
0.0
 11
222.8123
 21
53.81485
 31
0.0
  0
LINE
  5
E4
330
1D
100
AcDbEntity
  8
0
100
AcDbLine
 10
215.4263
 20
53.81485
 30
0.0
 11
219.3663
 21
53.81485
 31
0.0
  0
LINE
  5
E5
330
1D
100
AcDbEntity
  8
0
100
AcDbLine
 10
217.8283
 20
53.81485
 30
0.0
 11
221.1453
 21
53.81485
 31
0.0
  0
LINE
  5
E6
330
1D
100
AcDbEntity
  8
0
100
AcDbLine
 10
213.9303
 20
53.81485
 30
0.0
 11
217.8283
 21
53.81485
 31
0.0
  0
LINE
  5
E7
330
1D
100
AcDbEntity
  8
0
100
AcDbLine
 10
229.9133
 20
53.89425
 30
0.0
 11
230.0983
 21
54.10725
 31
0.0
  0
LINE
  5
E8
330
1D
100
AcDbEntity
  8
0
100
AcDbLine
 10
209.6313
 20
53.81485
 30
0.0
 11
213.9303
 21
53.81485
 31
0.0
  0
LINE
  5
E9
330
1D
100
AcDbEntity
  8
0
100
AcDbLine
 10
230.0983
 20
54.10725
 30
0.0
 11
230.1383
 21
54.38615
 31
0.0
  0
LINE
  5
ED
330
1D
100
AcDbEntity
  8
0
100
AcDbLine
 10
179.5403
 20
58.43405
 30
0.0
 11
180.1683
 21
56.36645
 31
0.0
  0
LINE
  5
EE
330
1D
100
AcDbEntity
  8
0
100
AcDbLine
 10
180.1683
 20
56.36645
 30
0.0
 11
180.6503
 21
54.22165
 31
0.0
  0
LINE
  5
EF
330
1D
100
AcDbEntity
  8
0
100
AcDbLine
 10
178.1313
 20
61.68115
 30
0.0
 11
179.5403
 21
58.43405
 31
0.0
  0
LINE
  5
F0
330
1D
100
AcDbEntity
  8
0
100
AcDbLine
 10
176.2653
 20
64.58425
 30
0.0
 11
178.1313
 21
61.68115
 31
0.0
  0
LINE
  5
F1
330
1D
100
AcDbEntity
  8
0
100
AcDbLine
 10
174.4823
 20
66.50885
 30
0.0
 11
176.276710696384
 21
64.566497377989
 31
0.0
  0
LINE
  5
F2
330
1D
100
AcDbEntity
  8
0
100
AcDbLine
 10
174.4823
 20
66.50885
 30
0.0
 11
176.276710696384
 21
64.566497377989
 31
0.0
  0
LINE
  5
F3
330
1D
100
AcDbEntity
  8
0
100
AcDbLine
 10
166.9383
 20
71.25465
 30
0.0
 11
169.7553
 21
69.90105
 31
0.0
  0
LINE
  5
F4
330
1D
100
AcDbEntity
  8
0
100
AcDbLine
 10
164.0123
 20
72.34175
 30
0.0
 11
166.9383
 21
71.25465
 31
0.0
  0
LINE
  5
F5
330
1D
100
AcDbEntity
  8
0
100
AcDbLine
 10
147.2773
 20
75.35465
 30
0.0
 11
153.0713
 21
74.71205
 31
0.0
  0
LINE
  5
F8
330
1D
100
AcDbEntity
  8
0
100
AcDbLine
 10
141.1773
 20
75.75745
 30
0.0
 11
147.2773
 21
75.35465
 31
0.0
  0
LINE
  5
F9
330
1D
100
AcDbEntity
  8
0
100
AcDbLine
 10
134.8473
 20
75.98425
 30
0.0
 11
141.1773
 21
75.75745
 31
0.0
  0
LINE
  5
FA
330
1D
100
AcDbEntity
  8
0
100
AcDbLine
 10
128.3613
 20
76.09095
 30
0.0
 11
134.8473
 21
75.98425
 31
0.0
  0
LINE
  5
FE
330
1D
100
AcDbEntity
  8
0
100
AcDbLine
 10
153.0713
 20
74.71205
 30
0.0
 11
155.180919111264
 21
74.415887962829
 31
0.0
  0
LINE
  5
FF
330
1D
100
AcDbEntity
  8
0
100
AcDbLine
 10
153.0713
 20
74.71205
 30
0.0
 11
155.180919111264
 21
74.415887962829
 31
0.0
  0
LINE
  5
100
330
1D
100
AcDbEntity
  8
0
100
AcDbLine
 10
157.0713
 20
74.08975
 30
0.0
 11
160.8493
 21
73.25645
 31
0.0
  0
LINE
  5
101
330
1D
100
AcDbEntity
  8
0
100
AcDbLine
 10
160.8493
 20
73.25645
 30
0.0
 11
164.0123
 21
72.34175
 31
0.0
  0
LINE
  5
102
330
1D
100
AcDbEntity
  8
0
100
AcDbLine
 10
169.7553
 20
69.90105
 30
0.0
 11
172.2733
 21
68.32275
 31
0.0
  0
LINE
  5
103
330
1D
100
AcDbEntity
  8
0
100
AcDbLine
 10
172.2733
 20
68.32275
 30
0.0
 11
174.4823
 21
66.50885
 31
0.0
  0
LINE
  5
10B
330
1D
100
AcDbEntity
  8
0
100
AcDbLine
 10
100.8793
 20
108.09225
 30
0.0
 11
101.1263
 21
107.662693146418
 31
0.0
  0
LINE
  5
10D
330
1D
100
AcDbEntity
  8
0
100
AcDbLine
 10
100.6283
 20
109.03835
 30
0.0
 11
100.9653
 21
110.16075
 31
0.0
  0
LINE
  5
10E
330
1D
100
AcDbEntity
  8
0
100
AcDbLine
 10
100.6283
 20
109.03835
 30
0.0
 11
100.8793
 21
108.09225
 31
0.0
  0
LINE
  5
10F
330
1D
100
AcDbEntity
  8
0
100
AcDbLine
 10
101.1263
 20
109.28235
 30
0.0
 11
101.2053
 21
109.86185
 31
0.0
  0
LINE
  5
110
330
1D
100
AcDbEntity
  8
0
100
AcDbLine
 10
101.1263
 20
109.28235
 30
0.0
 11
101.1263
 21
99.20085
 31
0.0
  0
LINE
  5
111
330
1D
100
AcDbEntity
  8
0
100
AcDbLine
 10
101.3863
 20
97.93225
 30
0.0
 11
101.6873
 21
97.35505
 31
0.0
  0
LINE
  5
112
330
1D
100
AcDbEntity
  8
0
100
AcDbLine
 10
101.1793
 20
98.61985
 30
0.0
 11
101.3863
 21
97.93225
 31
0.0
  0
LINE
  5
113
330
1D
100
AcDbEntity
  8
0
100
AcDbLine
 10
101.1263
 20
99.20085
 30
0.0
 11
101.1793
 21
98.61985
 31
0.0
  0
LINE
  5
114
330
1D
100
AcDbEntity
  8
0
100
AcDbLine
 10
101.1263
 20
99.20085
 30
0.0
 11
101.1263
 21
109.28235
 31
0.0
  0
LINE
  5
115
330
1D
100
AcDbEntity
  8
0
100
AcDbLine
 10
10.9539
 20
129.64825
 30
0.0
 11
11.295522066956
 21
130.107139685966
 31
0.0
  0
LINE
  5
116
330
1D
100
AcDbEntity
  8
0
100
AcDbLine
 10
11.3753
 20
130.25525
 30
0.0
 11
12.0178
 21
130.50465
 31
0.0
  0
LINE
  5
117
330
1D
100
AcDbEntity
  8
0
100
AcDbLine
 10
11.0477
 20
129.64705
 30
0.0
 11
11.3753
 21
130.25525
 31
0.0
  0
LINE
  5
138
330
1D
100
AcDbEntity
  8
0
100
AcDbLine
 10
89.0264
 20
130.816764725962
 30
0.0
 11
89.0264
 21
148.73455
 31
0.0
  0
LINE
  5
139
330
1D
100
AcDbEntity
  8
0
100
AcDbLine
 10
89.0264
 20
148.73455
 30
0.0
 11
89.0937
 21
148.98455
 31
0.0
  0
LINE
  5
13A
330
1D
100
AcDbEntity
  8
0
100
AcDbLine
 10
89.0264
 20
148.73455
 30
0.0
 11
89.0264
 21
130.816764725962
 31
0.0
  0
LINE
  5
13B
330
1D
100
AcDbEntity
  8
0
100
AcDbLine
 10
89.0937
 20
148.98455
 30
0.0
 11
89.2761
 21
149.16755
 31
0.0
  0
LINE
  5
142
330
1D
100
AcDbEntity
  8
0
100
AcDbLine
 10
89.6594
 20
149.43455
 30
0.0
 11
89.7325
 21
149.36135
 31
0.0
  0
LINE
  5
143
330
1D
100
AcDbEntity
  8
0
100
AcDbLine
 10
89.6324
 20
149.53455
 30
0.0
 11
89.6324
 21
150.13455
 31
0.0
  0
LINE
  5
144
330
1D
100
AcDbEntity
  8
0
100
AcDbLine
 10
89.6324
 20
149.53455
 30
0.0
 11
89.6594
 21
149.43455
 31
0.0
  0
LINE
  5
145
330
1D
100
AcDbEntity
  8
0
100
AcDbLine
 10
89.6324
 20
150.13455
 30
0.0
 11
89.6594
 21
150.23455
 31
0.0
  0
LINE
  5
146
330
1D
100
AcDbEntity
  8
0
100
AcDbLine
 10
89.6324
 20
150.13455
 30
0.0
 11
89.6324
 21
149.53455
 31
0.0
  0
LINE
  5
147
330
1D
100
AcDbEntity
  8
0
100
AcDbLine
 10
89.6594
 20
150.23455
 30
0.0
 11
89.7325
 21
150.30775
 31
0.0
  0
LINE
  5
149
330
1D
100
AcDbEntity
  8
0
100
AcDbLine
 10
89.8323
 20
149.33455
 30
0.0
 11
90.0727
 21
149.33455
 31
0.0
  0
LINE
  5
14A
330
1D
100
AcDbEntity
  8
0
100
AcDbLine
 10
89.7325
 20
149.36135
 30
0.0
 11
89.8323
 21
149.33455
 31
0.0
  0
LINE
  5
14B
330
1D
100
AcDbEntity
  8
0
100
AcDbLine
 10
89.7325
 20
150.30775
 30
0.0
 11
89.8323
 21
150.33455
 31
0.0
  0
LINE
  5
14D
330
1D
100
AcDbEntity
  8
0
100
AcDbLine
 10
90.0727
 20
149.33455
 30
0.0
 11
90.6521
 21
149.33455
 31
0.0
  0
LINE
  5
14F
330
1D
100
AcDbEntity
  8
0
100
AcDbLine
 10
90.1118
 20
150.33455
 30
0.0
 11
90.6017
 21
150.44935
 31
0.0
  0
LINE
  5
151
330
1D
100
AcDbEntity
  8
0
100
AcDbLine
 10
90.6521
 20
149.33455
 30
0.0
 11
91.5616
 21
149.33455
 31
0.0
  0
LINE
  5
153
330
1D
100
AcDbEntity
  8
0
100
AcDbLine
 10
90.6017
 20
150.44935
 30
0.0
 11
90.9597
 21
150.76725
 31
0.0
  0
LINE
  5
15B
330
1D
100
AcDbEntity
  8
0
100
AcDbLine
 10
91.3568
 20
149.33455
 30
0.0
 11
91.5784
 21
149.33455
 31
0.0
  0
LINE
  5
15C
330
1D
100
AcDbEntity
  8
0
100
AcDbLine
 10
91.3568
 20
149.33455
 30
0.0
 11
91.4827
 21
149.33455
 31
0.0
  0
LINE
  5
15D
330
1D
100
AcDbEntity
  8
0
100
AcDbLine
 10
91.5784
 20
149.33455
 30
0.0
 11
92.1426
 21
149.33455
 31
0.0
  0
LINE
  5
15E
330
1D
100
AcDbEntity
  8
0
100
AcDbLine
 10
91.4827
 20
149.33455
 30
0.0
 11
91.9527
 21
149.33455
 31
0.0
  0
LINE
  5
15F
330
1D
100
AcDbEntity
  8
0
100
AcDbLine
 10
91.5616
 20
149.33455
 30
0.0
 11
92.791
 21
149.33455
 31
0.0
  0
LINE
  5
160
330
1D
100
AcDbEntity
  8
0
100
AcDbLine
 10
91.9527
 20
149.33455
 30
0.0
 11
92.7609
 21
149.33455
 31
0.0
  0
LINE
  5
162
330
1D
100
AcDbEntity
  8
0
100
AcDbLine
 10
91.1043
 20
151.21555
 30
0.0
 11
91.375233927848
 21
152.78455
 31
0.0
  0
LINE
  5
163
330
1D
100
AcDbEntity
  8
0
100
AcDbLine
 10
92.1426
 20
149.33455
 30
0.0
 11
93.0427
 21
149.33455
 31
0.0
  0
LINE
  5
164
330
1D
100
AcDbEntity
  8
0
100
AcDbLine
 10
93.8956
 20
149.33455
 30
0.0
 11
95.339
 21
149.33455
 31
0.0
  0
LINE
  5
165
330
1D
100
AcDbEntity
  8
0
100
AcDbLine
 10
92.7609
 20
149.33455
 30
0.0
 11
93.8956
 21
149.33455
 31
0.0
  0
LINE
  5
168
330
1D
100
AcDbEntity
  8
0
100
AcDbLine
 10
93.0427
 20
149.33455
 30
0.0
 11
94.2638
 21
149.33455
 31
0.0
  0
LINE
  5
169
330
1D
100
AcDbEntity
  8
0
100
AcDbLine
 10
94.2638
 20
149.33455
 30
0.0
 11
95.7898
 21
149.33455
 31
0.0
  0
LINE
  5
16E
330
1D
100
AcDbEntity
  8
0
100
AcDbLine
 10
90.9597
 20
150.76725
 30
0.0
 11
91.1043
 21
151.21555
 31
0.0
  0
LINE
  5
16F
330
1D
100
AcDbEntity
  8
0
100
AcDbLine
 10
91.7138
 20
152.78455
 30
0.0
 11
93.2522
 21
152.78455
 31
0.0
  0
LINE
  5
170
330
1D
100
AcDbEntity
  8
0
100
AcDbLine
 10
90.5916
 20
152.78455
 30
0.0
 11
91.7138
 21
152.78455
 31
0.0
  0
LINE
  5
171
330
1D
100
AcDbEntity
  8
0
100
AcDbLine
 10
89.9053
 20
152.78455
 30
0.0
 11
90.5916
 21
152.78455
 31
0.0
  0
LINE
  5
172
330
1D
100
AcDbEntity
  8
0
100
AcDbLine
 10
89.6673
 20
152.78455
 30
0.0
 11
89.9053
 21
152.78455
 31
0.0
  0
LINE
  5
173
330
1D
100
AcDbEntity
  8
0
100
AcDbLine
 10
89.0041
 20
152.78455
 30
0.0
 11
89.6673
 21
152.78455
 31
0.0
  0
LINE
  5
17D
330
1D
100
AcDbEntity
  8
0
100
AcDbLine
 10
95.339
 20
149.33455
 30
0.0
 11
97.0719
 21
149.33455
 31
0.0
  0
LINE
  5
17E
330
1D
100
AcDbEntity
  8
0
100
AcDbLine
 10
98.2022
 20
149.33455
 30
0.0
 11
100.5003
 21
149.33455
 31
0.0
  0
LINE
  5
17F
330
1D
100
AcDbEntity
  8
0
100
AcDbLine
 10
99.0673
 20
149.33455
 30
0.0
 11
101.2973
 21
149.33455
 31
0.0
  0
LINE
  5
180
330
1D
100
AcDbEntity
  8
0
100
AcDbLine
 10
97.0719
 20
149.33455
 30
0.0
 11
99.0673
 21
149.33455
 31
0.0
  0
LINE
  5
181
330
1D
100
AcDbEntity
  8
0
100
AcDbLine
 10
95.7898
 20
149.33455
 30
0.0
 11
97.5976
 21
149.33455
 31
0.0
  0
LINE
  5
184
330
1D
100
AcDbEntity
  8
0
100
AcDbLine
 10
97.5976
 20
149.33455
 30
0.0
 11
99.6608
 21
149.33455
 31
0.0
  0
LINE
  5
185
330
1D
100
AcDbEntity
  8
0
100
AcDbLine
 10
99.6608
 20
149.33455
 30
0.0
 11
101.9493
 21
149.33455
 31
0.0
  0
LINE
  5
189
330
1D
100
AcDbEntity
  8
0
100
AcDbLine
 10
101.2973
 20
149.33455
 30
0.0
 11
103.7283
 21
149.33455
 31
0.0
  0
LINE
  5
18A
330
1D
100
AcDbEntity
  8
0
100
AcDbLine
 10
100.5003
 20
149.33455
 30
0.0
 11
102.9963
 21
149.33455
 31
0.0
  0
LINE
  5
18C
330
1D
100
AcDbEntity
  8
0
100
AcDbLine
 10
100.9653
 20
110.16075
 30
0.0
 11
101.6683
 21
110.75895
 31
0.0
  0
LINE
  5
18D
330
1D
100
AcDbEntity
  8
0
100
AcDbLine
 10
100.0566
 20
152.78455
 30
0.0
 11
102.9203
 21
152.78455
 31
0.0
  0
LINE
  5
18E
330
1D
100
AcDbEntity
  8
0
100
AcDbLine
 10
97.4608
 20
152.78455
 30
0.0
 11
100.0566
 21
152.78455
 31
0.0
  0
LINE
  5
18F
330
1D
100
AcDbEntity
  8
0
100
AcDbLine
 10
95.1793
 20
152.78455
 30
0.0
 11
97.4608
 21
152.78455
 31
0.0
  0
LINE
  5
190
330
1D
100
AcDbEntity
  8
0
100
AcDbLine
 10
88.6505
 20
152.93105
 30
0.0
 11
88.7877
 21
152.83475
 31
0.0
  0
LINE
  5
191
330
1D
100
AcDbEntity
  8
0
100
AcDbLine
 10
88.5707
 20
153.04945
 30
0.0
 11
88.6505
 21
152.93105
 31
0.0
  0
LINE
  5
192
330
1D
100
AcDbEntity
  8
0
100
AcDbLine
 10
88.5421
 20
153.09335
 30
0.0
 11
88.5707
 21
153.04945
 31
0.0
  0
LINE
  5
193
330
1D
100
AcDbEntity
  8
0
100
AcDbLine
 10
88.8127
 20
152.82265
 30
0.0
 11
89.0041
 21
152.78455
 31
0.0
  0
LINE
  5
194
330
1D
100
AcDbEntity
  8
0
100
AcDbLine
 10
93.2522
 20
152.78455
 30
0.0
 11
95.1793
 21
152.78455
 31
0.0
  0
LINE
  5
195
330
1D
100
AcDbEntity
  8
0
100
AcDbLine
 10
88.5041
 20
153.28455
 30
0.0
 11
88.5154
 21
157.28755
 31
0.0
  0
LINE
  5
196
330
1D
100
AcDbEntity
  8
0
100
AcDbLine
 10
88.5041
 20
153.28455
 30
0.0
 11
88.5421
 21
153.09335
 31
0.0
  0
LINE
  5
197
330
1D
100
AcDbEntity
  8
0
100
AcDbLine
 10
101.2053
 20
109.86185
 30
0.0
 11
101.4203
 21
110.43535
 31
0.0
  0
LINE
  5
198
330
1D
100
AcDbEntity
  8
0
100
AcDbLine
 10
102.1243
 20
96.79355
 30
0.0
 11
102.6923
 21
96.25335
 31
0.0
  0
LINE
  5
19A
330
1D
100
AcDbEntity
  8
0
100
AcDbLine
 10
101.9493
 20
149.33455
 30
0.0
 11
104.4313
 21
149.33455
 31
0.0
  0
LINE
  5
19C
330
1D
100
AcDbEntity
  8
0
100
AcDbLine
 10
101.6683
 20
110.75895
 30
0.0
 11
103.2683
 21
111.44805
 31
0.0
  0
LINE
  5
19D
330
1D
100
AcDbEntity
  8
0
100
AcDbLine
 10
101.6873
 20
97.35505
 30
0.0
 11
102.1243
 21
96.79355
 31
0.0
  0
LINE
  5
19E
330
1D
100
AcDbEntity
  8
0
100
AcDbLine
 10
101.4203
 20
110.43535
 30
0.0
 11
101.565807504287
 21
110.671736613179
 31
0.0
  0
LINE
  5
1A0
330
1D
100
AcDbEntity
  8
0
100
AcDbLine
 10
102.6923
 20
96.25335
 30
0.0
 11
102.8553
 21
96.12235
 31
0.0
  0
LINE
  5
1A1
330
1D
100
AcDbEntity
  8
0
100
AcDbLine
 10
102.8553
 20
96.12235
 30
0.0
 11
103.5393
 21
95.61575
 31
0.0
  0
LINE
  5
1A2
330
1D
100
AcDbEntity
  8
0
100
AcDbLine
 10
103.5393
 20
95.61575
 30
0.0
 11
104.3403
 21
95.14055
 31
0.0
  0
LINE
  5
1A3
330
1D
100
AcDbEntity
  8
0
100
AcDbLine
 10
103.4733
 20
96.62305
 30
0.0
 11
103.9643
 21
96.11775
 31
0.0
  0
LINE
  5
1A4
330
1D
100
AcDbEntity
  8
0
100
AcDbLine
 10
103.1093
 20
97.14725
 30
0.0
 11
103.4733
 21
96.62305
 31
0.0
  0
LINE
  5
1A5
330
1D
100
AcDbEntity
  8
0
100
AcDbLine
 10
102.8773
 20
97.68455
 30
0.0
 11
103.1093
 21
97.14725
 31
0.0
  0
LINE
  5
1A6
330
1D
100
AcDbEntity
  8
0
100
AcDbLine
 10
102.8163
 20
98.77545
 30
0.0
 11
102.9883
 21
99.31695
 31
0.0
  0
LINE
  5
1A7
330
1D
100
AcDbEntity
  8
0
100
AcDbLine
 10
102.7783
 20
98.22935
 30
0.0
 11
102.8773
 21
97.68455
 31
0.0
  0
LINE
  5
1A8
330
1D
100
AcDbEntity
  8
0
100
AcDbLine
 10
102.7783
 20
98.22935
 30
0.0
 11
102.8163
 21
98.77545
 31
0.0
  0
LINE
  5
1A9
330
1D
100
AcDbEntity
  8
0
100
AcDbLine
 10
105.2493
 20
94.70175
 30
0.0
 11
106.2583
 21
94.30375
 31
0.0
  0
LINE
  5
1AA
330
1D
100
AcDbEntity
  8
0
100
AcDbLine
 10
104.3403
 20
95.14055
 30
0.0
 11
105.2493
 21
94.70175
 31
0.0
  0
LINE
  5
1AB
330
1D
100
AcDbEntity
  8
0
100
AcDbLine
 10
106.2583
 20
94.30375
 30
0.0
 11
107.3563
 21
93.95035
 31
0.0
  0
LINE
  5
1AC
330
1D
100
AcDbEntity
  8
0
100
AcDbLine
 10
106.1453
 20
94.76955
 30
0.0
 11
107.0803
 21
94.39245
 31
0.0
  0
LINE
  5
1AD
330
1D
100
AcDbEntity
  8
0
100
AcDbLine
 10
105.3083
 20
95.18585
 30
0.0
 11
106.1453
 21
94.76955
 31
0.0
  0
LINE
  5
1AE
330
1D
100
AcDbEntity
  8
0
100
AcDbLine
 10
104.5783
 20
95.63695
 30
0.0
 11
105.3083
 21
95.18585
 31
0.0
  0
LINE
  5
1AF
330
1D
100
AcDbEntity
  8
0
100
AcDbLine
 10
103.9643
 20
96.11775
 30
0.0
 11
104.5783
 21
95.63695
 31
0.0
  0
LINE
  5
1B0
330
1D
100
AcDbEntity
  8
0
100
AcDbLine
 10
104.7093
 20
96.70495
 30
0.0
 11
106.6293
 21
95.61365
 31
0.0
  0
LINE
  5
1B1
330
1D
100
AcDbEntity
  8
0
100
AcDbLine
 10
103.5573
 20
97.94035
 30
0.0
 11
104.7093
 21
96.70495
 31
0.0
  0
LINE
  5
1B2
330
1D
100
AcDbEntity
  8
0
100
AcDbLine
 10
102.9963
 20
149.33455
 30
0.0
 11
105.6553
 21
149.33455
 31
0.0
  0
LINE
  5
1B4
330
1D
100
AcDbEntity
  8
0
100
AcDbLine
 10
102.9883
 20
99.31695
 30
0.0
 11
103.2933
 21
99.84785
 31
0.0
  0
LINE
  5
1B5
330
1D
100
AcDbEntity
  8
0
100
AcDbLine
 10
103.2933
 20
99.84785
 30
0.0
 11
103.7283
 21
100.36225
 31
0.0
  0
LINE
  5
1B6
330
1D
100
AcDbEntity
  8
0
100
AcDbLine
 10
103.7283
 20
100.36225
 30
0.0
 11
104.2873
 21
100.85475
 31
0.0
  0
LINE
  5
1B7
330
1D
100
AcDbEntity
  8
0
100
AcDbLine
 10
103.7283
 20
149.33455
 30
0.0
 11
123.8528
 21
149.33455
 31
0.0
  0
LINE
  5
1B9
330
1D
100
AcDbEntity
  8
0
100
AcDbLine
 10
104.4313
 20
149.33455
 30
0.0
 11
123.9958
 21
149.33455
 31
0.0
  0
LINE
  5
1BB
330
1D
100
AcDbEntity
  8
0
100
AcDbLine
 10
105.6553
 20
149.33455
 30
0.0
 11
123.9958
 21
149.33455
 31
0.0
  0
LINE
  5
1BD
330
1D
100
AcDbEntity
  8
0
100
AcDbLine
 10
105.4763
 20
112.02285
 30
0.0
 11
108.1733
 21
112.49235
 31
0.0
  0
LINE
  5
1BE
330
1D
100
AcDbEntity
  8
0
100
AcDbLine
 10
103.2683
 20
111.44805
 30
0.0
 11
105.4763
 21
112.02285
 31
0.0
  0
LINE
  5
1BF
330
1D
100
AcDbEntity
  8
0
100
AcDbLine
 10
104.9653
 20
101.31995
 30
0.0
 11
105.7553
 21
101.75245
 31
0.0
  0
LINE
  5
1C2
330
1D
100
AcDbEntity
  8
0
100
AcDbLine
 10
123.8528
 20
149.33455
 30
0.0
 11
123.9958
 21
149.33455
 31
0.0
  0
LINE
  5
1C4
330
1D
100
AcDbEntity
  8
0
100
AcDbLine
 10
105.7553
 20
101.75245
 30
0.0
 11
106.6473
 21
102.14775
 31
0.0
  0
LINE
  5
1C5
330
1D
100
AcDbEntity
  8
0
100
AcDbLine
 10
104.2873
 20
100.85475
 30
0.0
 11
104.9653
 21
101.31995
 31
0.0
  0
LINE
  5
1C6
330
1D
100
AcDbEntity
  8
0
100
AcDbLine
 10
103.1253
 20
99.555419836066
 30
0.0
 11
103.1253
 21
99.25815
 31
0.0
  0
LINE
  5
1C7
330
1D
100
AcDbEntity
  8
0
100
AcDbLine
 10
103.1253
 20
99.25815
 30
0.0
 11
103.1253
 21
99.555419836066
 31
0.0
  0
LINE
  5
1C8
330
1D
100
AcDbEntity
  8
0
100
AcDbLine
 10
103.1253
 20
99.25815
 30
0.0
 11
103.334640975015
 21
99.896736890915
 31
0.0
  0
LINE
  5
1C9
330
1D
100
AcDbEntity
  8
0
100
AcDbLine
 10
103.1253
 20
99.25815
 30
0.0
 11
103.5573
 21
97.94035
 31
0.0
  0
LINE
  5
1CF
330
1D
100
AcDbEntity
  8
0
100
AcDbLine
 10
106.6473
 20
102.14775
 30
0.0
 11
107.6323
 21
102.50145
 31
0.0
  0
LINE
  5
1D0
330
1D
100
AcDbEntity
  8
0
100
AcDbLine
 10
106.6293
 20
95.61365
 30
0.0
 11
109.1733
 21
94.79005
 31
0.0
  0
LINE
  5
1D3
330
1D
100
AcDbEntity
  8
0
100
AcDbLine
 10
107.0803
 20
94.39245
 30
0.0
 11
108.1043
 21
94.05885
 31
0.0
  0
LINE
  5
1D5
330
1D
100
AcDbEntity
  8
0
100
AcDbLine
 10
107.3563
 20
93.95035
 30
0.0
 11
107.7153
 21
93.83945
 31
0.0
  0
LINE
  5
1D8
330
1D
100
AcDbEntity
  8
0
100
AcDbLine
 10
107.6323
 20
102.50145
 30
0.0
 11
108.6993
 21
102.80985
 31
0.0
  0
LINE
  5
1D9
330
1D
100
AcDbEntity
  8
0
100
AcDbLine
 10
107.7153
 20
93.83945
 30
0.0
 11
108.8373
 21
93.54875
 31
0.0
  0
LINE
  5
1DC
330
1D
100
AcDbEntity
  8
0
100
AcDbLine
 10
108.1733
 20
112.49235
 30
0.0
 11
111.2443
 21
112.81615
 31
0.0
  0
LINE
  5
1DD
330
1D
100
AcDbEntity
  8
0
100
AcDbLine
 10
108.1043
 20
94.05885
 30
0.0
 11
109.2043
 21
93.77215
 31
0.0
  0
LINE
  5
1E7
330
1D
100
AcDbEntity
  8
0
100
AcDbLine
 10
108.6993
 20
102.80985
 30
0.0
 11
109.8373
 21
103.06925
 31
0.0
  0
LINE
  5
1E8
330
1D
100
AcDbEntity
  8
0
100
AcDbLine
 10
108.8373
 20
93.54875
 30
0.0
 11
109.9173
 21
93.32575
 31
0.0
  0
LINE
  5
1EB
330
1D
100
AcDbEntity
  8
0
100
AcDbLine
 10
109.2043
 20
93.77215
 30
0.0
 11
110.3703
 21
93.53575
 31
0.0
  0
LINE
  5
1EC
330
1D
100
AcDbEntity
  8
0
100
AcDbLine
 10
109.9173
 20
93.32575
 30
0.0
 11
111.0423
 21
93.14565
 31
0.0
  0
LINE
  5
1ED
330
1D
100
AcDbEntity
  8
0
100
AcDbLine
 10
109.8373
 20
103.06925
 30
0.0
 11
111.0333
 21
103.27695
 31
0.0
  0
LINE
  5
1F6
330
1D
100
AcDbEntity
  8
0
100
AcDbLine
 10
109.1733
 20
94.79005
 30
0.0
 11
112.0533
 21
94.29585
 31
0.0
  0
LINE
  5
1F9
330
1D
100
AcDbEntity
  8
0
100
AcDbLine
 10
110.3703
 20
93.53575
 30
0.0
 11
111.5873
 21
93.35195
 31
0.0
  0
LINE
  5
1FB
330
1D
100
AcDbEntity
  8
0
100
AcDbLine
 10
111.0423
 20
93.14565
 30
0.0
 11
112.2013
 21
93.00965
 31
0.0
  0
LINE
  5
1FC
330
1D
100
AcDbEntity
  8
0
100
AcDbLine
 10
111.2443
 20
112.81615
 30
0.0
 11
113.1663
 21
112.91925
 31
0.0
  0
LINE
  5
1FD
330
1D
100
AcDbEntity
  8
0
100
AcDbLine
 10
111.0333
 20
103.27695
 30
0.0
 11
112.2733
 21
103.43075
 31
0.0
  0
LINE
  5
1FF
330
1D
100
AcDbEntity
  8
0
100
AcDbLine
 10
111.5873
 20
93.35195
 30
0.0
 11
112.8433
 21
93.22305
 31
0.0
  0
LINE
  5
201
330
1D
100
AcDbEntity
  8
0
100
AcDbLine
 10
113.3843
 20
92.91925
 30
0.0
 11
114.2433
 21
92.88355
 31
0.0
  0
LINE
  5
202
330
1D
100
AcDbEntity
  8
0
100
AcDbLine
 10
114.1243
 20
93.15035
 30
0.0
 11
115.4163
 21
93.13465
 31
0.0
  0
LINE
  5
203
330
1D
100
AcDbEntity
  8
0
100
AcDbLine
 10
112.8433
 20
93.22305
 30
0.0
 11
114.1243
 21
93.15035
 31
0.0
  0
LINE
  5
204
330
1D
100
AcDbEntity
  8
0
100
AcDbLine
 10
112.2013
 20
93.00965
 30
0.0
 11
113.3843
 21
92.91925
 31
0.0
  0
LINE
  5
206
330
1D
100
AcDbEntity
  8
0
100
AcDbLine
 10
114.2433
 20
92.88355
 30
0.0
 11
115.6283
 21
92.87765
 31
0.0
  0
LINE
  5
207
330
1D
100
AcDbEntity
  8
0
100
AcDbLine
 10
112.2733
 20
103.43075
 30
0.0
 11
113.5443
 21
103.52895
 31
0.0
  0
LINE
  5
208
330
1D
100
AcDbEntity
  8
0
100
AcDbLine
 10
113.5443
 20
103.52895
 30
0.0
 11
114.8343
 21
103.57045
 31
0.0
  0
LINE
  5
209
330
1D
100
AcDbEntity
  8
0
100
AcDbLine
 10
113.1663
 20
112.91925
 30
0.0
 11
115.1253
 21
112.95305
 31
0.0
  0
LINE
  5
211
330
1D
100
AcDbEntity
  8
0
100
AcDbLine
 10
112.0533
 20
94.29585
 30
0.0
 11
115.1253
 21
94.11055
 31
0.0
  0
LINE
  5
212
330
1D
100
AcDbEntity
  8
0
100
AcDbLine
 10
115.4163
 20
93.13465
 30
0.0
 11
116.7063
 21
93.17605
 31
0.0
  0
LINE
  5
213
330
1D
100
AcDbEntity
  8
0
100
AcDbLine
 10
115.6283
 20
92.87765
 30
0.0
 11
116.4533
 21
92.89695
 31
0.0
  0
LINE
  5
214
330
1D
100
AcDbEntity
  8
0
100
AcDbLine
 10
114.8343
 20
103.57045
 30
0.0
 11
116.1263
 21
103.55475
 31
0.0
  0
LINE
  5
216
330
1D
100
AcDbEntity
  8
0
100
AcDbLine
 10
115.1253
 20
112.95305
 30
0.0
 11
118.2553
 21
112.86545
 31
0.0
  0
LINE
  5
21B
330
1D
100
AcDbEntity
  8
0
100
AcDbLine
 10
115.1253
 20
94.11055
 30
0.0
 11
118.1973
 21
94.29585
 31
0.0
  0
LINE
  5
21C
330
1D
100
AcDbEntity
  8
0
100
AcDbLine
 10
116.1263
 20
103.55475
 30
0.0
 11
117.4073
 21
103.48205
 31
0.0
  0
LINE
  5
21D
330
1D
100
AcDbEntity
  8
0
100
AcDbLine
 10
116.7063
 20
93.17605
 30
0.0
 11
117.9773
 21
93.27435
 31
0.0
  0
LINE
  5
221
330
1D
100
AcDbEntity
  8
0
100
AcDbLine
 10
117.4073
 20
103.48205
 30
0.0
 11
118.6633
 21
103.35315
 31
0.0
  0
LINE
  5
223
330
1D
100
AcDbEntity
  8
0
100
AcDbLine
 10
117.9773
 20
93.27435
 30
0.0
 11
119.2173
 21
93.42805
 31
0.0
  0
LINE
  5
225
330
1D
100
AcDbEntity
  8
0
100
AcDbLine
 10
118.1593
 20
93.02055
 30
0.0
 11
119.4223
 21
93.17605
 31
0.0
  0
LINE
  5
227
330
1D
100
AcDbEntity
  8
0
100
AcDbLine
 10
116.8663
 20
92.91925
 30
0.0
 11
118.1593
 21
93.02055
 31
0.0
  0
LINE
  5
228
330
1D
100
AcDbEntity
  8
0
100
AcDbLine
 10
116.4533
 20
92.89695
 30
0.0
 11
116.8663
 21
92.91925
 31
0.0
  0
LINE
  5
229
330
1D
100
AcDbEntity
  8
0
100
AcDbLine
 10
118.2553
 20
112.86545
 30
0.0
 11
121.3193
 21
112.59125
 31
0.0
  0
LINE
  5
22B
330
1D
100
AcDbEntity
  8
0
100
AcDbLine
 10
118.1973
 20
94.29585
 30
0.0
 11
121.0773
 21
94.79005
 31
0.0
  0
LINE
  5
22F
330
1D
100
AcDbEntity
  8
0
100
AcDbLine
 10
118.6633
 20
103.35315
 30
0.0
 11
119.8803
 21
103.16935
 31
0.0
  0
LINE
  5
230
330
1D
100
AcDbEntity
  8
0
100
AcDbLine
 10
119.2173
 20
93.42805
 30
0.0
 11
120.4133
 21
93.63575
 31
0.0
  0
LINE
  5
236
330
1D
100
AcDbEntity
  8
0
100
AcDbLine
 10
119.8803
 20
103.16935
 30
0.0
 11
121.0463
 21
102.93295
 31
0.0
  0
LINE
  5
238
330
1D
100
AcDbEntity
  8
0
100
AcDbLine
 10
119.4223
 20
93.17605
 30
0.0
 11
120.6423
 21
93.38435
 31
0.0
  0
LINE
  5
239
330
1D
100
AcDbEntity
  8
0
100
AcDbLine
 10
120.4133
 20
93.63575
 30
0.0
 11
121.5513
 21
93.89525
 31
0.0
  0
LINE
  5
23C
330
1D
100
AcDbEntity
  8
0
100
AcDbLine
 10
121.0463
 20
102.93295
 30
0.0
 11
122.1463
 21
102.64625
 31
0.0
  0
LINE
  5
23D
330
1D
100
AcDbEntity
  8
0
100
AcDbLine
 10
120.6423
 20
93.38435
 30
0.0
 11
121.8063
 21
93.64325
 31
0.0
  0
LINE
  5
23E
330
1D
100
AcDbEntity
  8
0
100
AcDbLine
 10
121.3193
 20
112.59125
 30
0.0
 11
124.1183
 21
112.15575
 31
0.0
  0
LINE
  5
23F
330
1D
100
AcDbEntity
  8
0
100
AcDbLine
 10
121.0773
 20
94.79005
 30
0.0
 11
123.6213
 21
95.61365
 31
0.0
  0
LINE
  5
25F
330
1D
100
AcDbEntity
  8
0
100
AcDbLine
 10
103.5753
 20
152.78455
 30
0.0
 11
106.3053
 21
152.78455
 31
0.0
  0
LINE
  5
260
330
1D
100
AcDbEntity
  8
0
100
AcDbLine
 10
105.8003
 20
152.78455
 30
0.0
 11
108.8263
 21
152.78455
 31
0.0
  0
LINE
  5
261
330
1D
100
AcDbEntity
  8
0
100
AcDbLine
 10
102.9203
 20
152.78455
 30
0.0
 11
105.8003
 21
152.78455
 31
0.0
  0
LINE
  5
26A
330
1D
100
AcDbEntity
  8
0
100
AcDbLine
 10
109.1583
 20
152.78455
 30
0.0
 11
112.1003
 21
152.78455
 31
0.0
  0
LINE
  5
26B
330
1D
100
AcDbEntity
  8
0
100
AcDbLine
 10
112.1003
 20
152.78455
 30
0.0
 11
115.1253
 21
152.78455
 31
0.0
  0
LINE
  5
26C
330
1D
100
AcDbEntity
  8
0
100
AcDbLine
 10
111.9513
 20
152.78455
 30
0.0
 11
115.1253
 21
152.78455
 31
0.0
  0
LINE
  5
26D
330
1D
100
AcDbEntity
  8
0
100
AcDbLine
 10
114.5333
 20
157.22755
 30
0.0
 11
115.1253
 21
157.15055
 31
0.0
  0
LINE
  5
26E
330
1D
100
AcDbEntity
  8
0
100
AcDbLine
 10
113.9793
 20
157.45055
 30
0.0
 11
114.5333
 21
157.22755
 31
0.0
  0
LINE
  5
26F
330
1D
100
AcDbEntity
  8
0
100
AcDbLine
 10
108.8263
 20
152.78455
 30
0.0
 11
111.9513
 21
152.78455
 31
0.0
  0
LINE
  5
270
330
1D
100
AcDbEntity
  8
0
100
AcDbLine
 10
115.1253
 20
157.15055
 30
0.0
 11
115.7173
 21
157.22755
 31
0.0
  0
LINE
  5
271
330
1D
100
AcDbEntity
  8
0
100
AcDbLine
 10
115.1253
 20
152.78455
 30
0.0
 11
118.4403
 21
152.78455
 31
0.0
  0
LINE
  5
272
330
1D
100
AcDbEntity
  8
0
100
AcDbLine
 10
115.7173
 20
157.22755
 30
0.0
 11
116.3723
 21
157.50955
 31
0.0
  0
LINE
  5
273
330
1D
100
AcDbEntity
  8
0
100
AcDbLine
 10
116.3723
 20
157.50955
 30
0.0
 11
117.1323
 21
158.21355
 31
0.0
  0
LINE
  5
274
330
1D
100
AcDbEntity
  8
0
100
AcDbLine
 10
118.4403
 20
152.78455
 30
0.0
 11
121.7003
 21
152.78455
 31
0.0
  0
LINE
  5
280
330
1D
100
AcDbEntity
  8
0
100
AcDbLine
 10
121.5513
 20
93.89525
 30
0.0
 11
122.6183
 21
94.20365
 31
0.0
  0
LINE
  5
285
330
1D
100
AcDbEntity
  8
0
100
AcDbLine
 10
121.8063
 20
93.64325
 30
0.0
 11
122.9033
 21
93.95005
 31
0.0
  0
LINE
  5
286
330
1D
100
AcDbEntity
  8
0
100
AcDbLine
 10
122.1463
 20
102.64625
 30
0.0
 11
123.1703
 21
102.31265
 31
0.0
  0
LINE
  5
289
330
1D
100
AcDbEntity
  8
0
100
AcDbLine
 10
122.6183
 20
94.20365
 30
0.0
 11
123.6033
 21
94.55735
 31
0.0
  0
LINE
  5
28A
330
1D
100
AcDbEntity
  8
0
100
AcDbLine
 10
122.9033
 20
93.95005
 30
0.0
 11
123.2603
 21
94.06015
 31
0.0
  0
LINE
  5
28B
330
1D
100
AcDbEntity
  8
0
100
AcDbLine
 10
123.2603
 20
94.06015
 30
0.0
 11
124.3303
 21
94.42845
 31
0.0
  0
LINE
  5
28C
330
1D
100
AcDbEntity
  8
0
100
AcDbLine
 10
123.6033
 20
94.55735
 30
0.0
 11
124.4953
 21
94.95265
 31
0.0
  0
LINE
  5
28D
330
1D
100
AcDbEntity
  8
0
100
AcDbLine
 10
125.2853
 20
95.38515
 30
0.0
 11
125.9633
 21
95.85025
 31
0.0
  0
LINE
  5
28E
330
1D
100
AcDbEntity
  8
0
100
AcDbLine
 10
124.4953
 20
94.95265
 30
0.0
 11
125.2853
 21
95.38515
 31
0.0
  0
LINE
  5
28F
330
1D
100
AcDbEntity
  8
0
100
AcDbLine
 10
124.3303
 20
94.42845
 30
0.0
 11
125.3083
 21
94.84015
 31
0.0
  0
LINE
  5
290
330
1D
100
AcDbEntity
  8
0
100
AcDbLine
 10
125.3083
 20
94.84015
 30
0.0
 11
126.1833
 21
95.29135
 31
0.0
  0
LINE
  5
291
330
1D
100
AcDbEntity
  8
0
100
AcDbLine
 10
123.6213
 20
95.61365
 30
0.0
 11
125.5413
 21
96.70495
 31
0.0
  0
LINE
  5
292
330
1D
100
AcDbEntity
  8
0
100
AcDbLine
 10
125.9633
 20
95.85025
 30
0.0
 11
126.5223
 21
96.34285
 31
0.0
  0
LINE
  5
293
330
1D
100
AcDbEntity
  8
0
100
AcDbLine
 10
126.1833
 20
95.29135
 30
0.0
 11
126.9473
 21
95.77725
 31
0.0
  0
LINE
  5
294
330
1D
100
AcDbEntity
  8
0
100
AcDbLine
 10
126.9473
 20
95.77725
 30
0.0
 11
127.5913
 21
96.29305
 31
0.0
  0
LINE
  5
295
330
1D
100
AcDbEntity
  8
0
100
AcDbLine
 10
127.5913
 20
96.29305
 30
0.0
 11
127.7573
 21
96.42625
 31
0.0
  0
LINE
  5
296
330
1D
100
AcDbEntity
  8
0
100
AcDbLine
 10
126.5223
 20
96.34285
 30
0.0
 11
126.9573
 21
96.85725
 31
0.0
  0
LINE
  5
297
330
1D
100
AcDbEntity
  8
0
100
AcDbLine
 10
126.9573
 20
96.85725
 30
0.0
 11
127.2623
 21
97.38815
 31
0.0
  0
LINE
  5
298
330
1D
100
AcDbEntity
  8
0
100
AcDbLine
 10
127.4343
 20
97.92965
 30
0.0
 11
127.4723
 21
98.47575
 31
0.0
  0
LINE
  5
299
330
1D
100
AcDbEntity
  8
0
100
AcDbLine
 10
127.2623
 20
97.38815
 30
0.0
 11
127.4343
 21
97.92965
 31
0.0
  0
LINE
  5
29A
330
1D
100
AcDbEntity
  8
0
100
AcDbLine
 10
127.7573
 20
96.42625
 30
0.0
 11
128.2833
 21
96.97405
 31
0.0
  0
LINE
  5
29B
330
1D
100
AcDbEntity
  8
0
100
AcDbLine
 10
125.5413
 20
96.70495
 30
0.0
 11
126.6933
 21
97.94035
 31
0.0
  0
LINE
  5
29C
330
1D
100
AcDbEntity
  8
0
100
AcDbLine
 10
127.1253
 20
99.580891758242
 30
0.0
 11
127.1253
 21
99.25815
 31
0.0
  0
LINE
  5
29E
330
1D
100
AcDbEntity
  8
0
100
AcDbLine
 10
124.1183
 20
112.15575
 30
0.0
 11
126.4663
 21
111.60585
 31
0.0
  0
LINE
  5
29F
330
1D
100
AcDbEntity
  8
0
100
AcDbLine
 10
123.1703
 20
102.31265
 30
0.0
 11
124.1053
 21
101.93555
 31
0.0
  0
LINE
  5
2A0
330
1D
100
AcDbEntity
  8
0
100
AcDbLine
 10
124.1053
 20
101.93555
 30
0.0
 11
124.9423
 21
101.51925
 31
0.0
  0
LINE
  5
2A1
330
1D
100
AcDbEntity
  8
0
100
AcDbLine
 10
124.9423
 20
101.51925
 30
0.0
 11
125.6723
 21
101.06815
 31
0.0
  0
LINE
  5
2A2
330
1D
100
AcDbEntity
  8
0
100
AcDbLine
 10
125.6723
 20
101.06815
 30
0.0
 11
126.2863
 21
100.58735
 31
0.0
  0
LINE
  5
2A7
330
1D
100
AcDbEntity
  8
0
100
AcDbLine
 10
126.4663
 20
111.60585
 30
0.0
 11
128.2313
 21
110.95235
 31
0.0
  0
LINE
  5
2A8
330
1D
100
AcDbEntity
  8
0
100
AcDbLine
 10
126.2863
 20
100.58735
 30
0.0
 11
126.7773
 21
100.08205
 31
0.0
  0
LINE
  5
2A9
330
1D
100
AcDbEntity
  8
0
100
AcDbLine
 10
126.7773
 20
100.08205
 30
0.0
 11
127.1413
 21
99.55785
 31
0.0
  0
LINE
  5
2AA
330
1D
100
AcDbEntity
  8
0
100
AcDbLine
 10
126.924883231974
 20
99.86951392802
 30
0.0
 11
127.1253
 21
99.25815
 31
0.0
  0
LINE
  5
2AB
330
1D
100
AcDbEntity
  8
0
100
AcDbLine
 10
127.3743
 20
99.02055
 30
0.0
 11
127.4723
 21
98.47575
 31
0.0
  0
LINE
  5
2AE
330
1D
100
AcDbEntity
  8
0
100
AcDbLine
 10
127.1413
 20
99.55785
 30
0.0
 11
127.3743
 21
99.02055
 31
0.0
  0
LINE
  5
2AF
330
1D
100
AcDbEntity
  8
0
100
AcDbLine
 10
127.1253
 20
99.25815
 30
0.0
 11
127.1253
 21
99.580891758242
 31
0.0
  0
LINE
  5
2B0
330
1D
100
AcDbEntity
  8
0
100
AcDbLine
 10
126.6933
 20
97.94035
 30
0.0
 11
127.1253
 21
99.25815
 31
0.0
  0
LINE
  5
2B7
330
1D
100
AcDbEntity
  8
0
100
AcDbLine
 10
121.7003
 20
152.78455
 30
0.0
 11
124.8473
 21
152.78455
 31
0.0
  0
LINE
  5
2C0
330
1D
100
AcDbEntity
  8
0
100
AcDbLine
 10
123.7813
 20
149.33455
 30
0.0
 11
123.9243
 21
149.33455
 31
0.0
  0
LINE
  5
2C1
330
1D
100
AcDbEntity
  8
0
100
AcDbLine
 10
123.7813
 20
149.33455
 30
0.0
 11
125.8203
 21
149.33455
 31
0.0
  0
LINE
  5
2C4
330
1D
100
AcDbEntity
  8
0
100
AcDbLine
 10
123.9243
 20
149.33455
 30
0.0
 11
126.5223
 21
149.33455
 31
0.0
  0
LINE
  5
2C6
330
1D
100
AcDbEntity
  8
0
100
AcDbLine
 10
126.5223
 20
149.33455
 30
0.0
 11
128.9533
 21
149.33455
 31
0.0
  0
LINE
  5
2C7
330
1D
100
AcDbEntity
  8
0
100
AcDbLine
 10
125.8203
 20
149.33455
 30
0.0
 11
128.3013
 21
149.33455
 31
0.0
  0
LINE
  5
2C8
330
1D
100
AcDbEntity
  8
0
100
AcDbLine
 10
125.6913
 20
149.33455
 30
0.0
 11
128.2883
 21
149.33455
 31
0.0
  0
LINE
  5
2CA
330
1D
100
AcDbEntity
  8
0
100
AcDbLine
 10
127.8293
 20
152.78455
 30
0.0
 11
130.5943
 21
152.78455
 31
0.0
  0
LINE
  5
2CB
330
1D
100
AcDbEntity
  8
0
100
AcDbLine
 10
124.8473
 20
152.78455
 30
0.0
 11
127.8293
 21
152.78455
 31
0.0
  0
LINE
  5
2D3
330
1D
100
AcDbEntity
  8
0
100
AcDbLine
 10
128.3013
 20
149.33455
 30
0.0
 11
130.5893
 21
149.33455
 31
0.0
  0
LINE
  5
2D4
330
1D
100
AcDbEntity
  8
0
100
AcDbLine
 10
128.2883
 20
149.33455
 30
0.0
 11
130.7083
 21
149.33455
 31
0.0
  0
LINE
  5
2D5
330
1D
100
AcDbEntity
  8
0
100
AcDbLine
 10
128.2313
 20
110.95235
 30
0.0
 11
129.3233
 21
110.10905
 31
0.0
  0
LINE
  5
2D6
330
1D
100
AcDbEntity
  8
0
100
AcDbLine
 10
128.8803
 20
110.32955
 30
0.0
 11
129.0703
 21
109.75445
 31
0.0
  0
LINE
  5
2D7
330
1D
100
AcDbEntity
  8
0
100
AcDbLine
 10
128.9533
 20
149.33455
 30
0.0
 11
131.1833
 21
149.33455
 31
0.0
  0
LINE
  5
2D9
330
1D
100
AcDbEntity
  8
0
100
AcDbLine
 10
128.75700464116
 20
110.546373146621
 30
0.0
 11
128.8803
 21
110.32955
 31
0.0
  0
LINE
  5
2DB
330
1D
100
AcDbEntity
  8
0
100
AcDbLine
 10
129.1243
 20
107.639964986376
 30
0.0
 11
129.2623
 21
107.85755
 31
0.0
  0
LINE
  5
2DC
330
1D
100
AcDbEntity
  8
0
100
AcDbLine
 10
129.1243
 20
99.07405
 30
0.0
 11
129.1243
 21
109.17415
 31
0.0
  0
LINE
  5
2E0
330
1D
100
AcDbEntity
  8
0
100
AcDbLine
 10
129.2623
 20
107.85755
 30
0.0
 11
129.6223
 21
109.03835
 31
0.0
  0
LINE
  5
2E1
330
1D
100
AcDbEntity
  8
0
100
AcDbLine
 10
129.1243
 20
109.17415
 30
0.0
 11
129.1243
 21
99.07405
 31
0.0
  0
LINE
  5
2E7
330
1D
100
AcDbEntity
  8
0
100
AcDbLine
 10
129.3233
 20
110.10905
 30
0.0
 11
129.6223
 21
109.03835
 31
0.0
  0
LINE
  5
2EB
330
1D
100
AcDbEntity
  8
0
100
AcDbLine
 10
130.5893
 20
149.33455
 30
0.0
 11
132.6533
 21
149.33455
 31
0.0
  0
LINE
  5
2EC
330
1D
100
AcDbEntity
  8
0
100
AcDbLine
 10
132.6533
 20
149.33455
 30
0.0
 11
134.4603
 21
149.33455
 31
0.0
  0
LINE
  5
2ED
330
1D
100
AcDbEntity
  8
0
100
AcDbLine
 10
132.9163
 20
149.33455
 30
0.0
 11
134.8843
 21
149.33455
 31
0.0
  0
LINE
  5
2EE
330
1D
100
AcDbEntity
  8
0
100
AcDbLine
 10
130.7083
 20
149.33455
 30
0.0
 11
132.9163
 21
149.33455
 31
0.0
  0
LINE
  5
2EF
330
1D
100
AcDbEntity
  8
0
100
AcDbLine
 10
132.0483
 20
149.33455
 30
0.0
 11
134.1173
 21
149.33455
 31
0.0
  0
LINE
  5
2F0
330
1D
100
AcDbEntity
  8
0
100
AcDbLine
 10
129.7503
 20
149.33455
 30
0.0
 11
132.0483
 21
149.33455
 31
0.0
  0
LINE
  5
2F2
330
1D
100
AcDbEntity
  8
0
100
AcDbLine
 10
131.1833
 20
149.33455
 30
0.0
 11
133.1783
 21
149.33455
 31
0.0
  0
LINE
  5
2F3
330
1D
100
AcDbEntity
  8
0
100
AcDbLine
 10
134.4603
 20
149.33455
 30
0.0
 11
135.9873
 21
149.33455
 31
0.0
  0
LINE
  5
2F4
330
1D
100
AcDbEntity
  8
0
100
AcDbLine
 10
134.8843
 20
149.33455
 30
0.0
 11
136.5853
 21
149.33455
 31
0.0
  0
LINE
  5
2F6
330
1D
100
AcDbEntity
  8
0
100
AcDbLine
 10
134.9113
 20
149.33455
 30
0.0
 11
136.3553
 21
149.33455
 31
0.0
  0
LINE
  5
2F7
330
1D
100
AcDbEntity
  8
0
100
AcDbLine
 10
133.1783
 20
149.33455
 30
0.0
 11
134.9113
 21
149.33455
 31
0.0
  0
LINE
  5
2FB
330
1D
100
AcDbEntity
  8
0
100
AcDbLine
 10
135.9873
 20
149.33455
 30
0.0
 11
137.2083
 21
149.33455
 31
0.0
  0
LINE
  5
2FC
330
1D
100
AcDbEntity
  8
0
100
AcDbLine
 10
136.3553
 20
149.33455
 30
0.0
 11
137.4893
 21
149.33455
 31
0.0
  0
LINE
  5
2FE
330
1D
100
AcDbEntity
  8
0
100
AcDbLine
 10
137.4893
 20
149.33455
 30
0.0
 11
138.2983
 21
149.33455
 31
0.0
  0
LINE
  5
2FF
330
1D
100
AcDbEntity
  8
0
100
AcDbLine
 10
137.2083
 20
149.33455
 30
0.0
 11
138.1083
 21
149.33455
 31
0.0
  0
LINE
  5
302
330
1D
100
AcDbEntity
  8
0
100
AcDbLine
 10
137.4603
 20
149.33455
 30
0.0
 11
138.6883
 21
149.33455
 31
0.0
  0
LINE
  5
306
330
1D
100
AcDbEntity
  8
0
100
AcDbLine
 10
138.6723
 20
149.33455
 30
0.0
 11
138.8933
 21
149.33455
 31
0.0
  0
LINE
  5
307
330
1D
100
AcDbEntity
  8
0
100
AcDbLine
 10
138.1083
 20
149.33455
 30
0.0
 11
138.6723
 21
149.33455
 31
0.0
  0
LINE
  5
308
330
1D
100
AcDbEntity
  8
0
100
AcDbLine
 10
137.9963
 20
149.33455
 30
0.0
 11
139.0963
 21
149.33455
 31
0.0
  0
LINE
  5
309
330
1D
100
AcDbEntity
  8
0
100
AcDbLine
 10
138.2983
 20
149.33455
 30
0.0
 11
138.7683
 21
149.33455
 31
0.0
  0
LINE
  5
30A
330
1D
100
AcDbEntity
  8
0
100
AcDbLine
 10
138.7683
 20
149.33455
 30
0.0
 11
138.8933
 21
149.33455
 31
0.0
  0
LINE
  5
30C
330
1D
100
AcDbEntity
  8
0
100
AcDbLine
 10
138.875366072152
 20
152.78455
 30
0.0
 11
139.1463
 21
151.21555
 31
0.0
  0
LINE
  5
30D
330
1D
100
AcDbEntity
  8
0
100
AcDbLine
 10
139.0963
 20
149.33455
 30
0.0
 11
139.8743
 21
149.33455
 31
0.0
  0
LINE
  5
30F
330
1D
100
AcDbEntity
  8
0
100
AcDbLine
 10
140.1393
 20
150.33455
 30
0.0
 11
140.4183
 21
150.33455
 31
0.0
  0
LINE
  5
310
330
1D
100
AcDbEntity
  8
0
100
AcDbLine
 10
139.8743
 20
149.33455
 30
0.0
 11
140.3163
 21
149.33455
 31
0.0
  0
LINE
  5
311
330
1D
100
AcDbEntity
  8
0
100
AcDbLine
 10
140.3163
 20
149.33455
 30
0.0
 11
140.4183
 21
149.33455
 31
0.0
  0
LINE
  5
312
330
1D
100
AcDbEntity
  8
0
100
AcDbLine
 10
139.2913
 20
150.76725
 30
0.0
 11
139.6493
 21
150.44935
 31
0.0
  0
LINE
  5
313
330
1D
100
AcDbEntity
  8
0
100
AcDbLine
 10
139.6493
 20
150.44935
 30
0.0
 11
140.1393
 21
150.33455
 31
0.0
  0
LINE
  5
314
330
1D
100
AcDbEntity
  8
0
100
AcDbLine
 10
139.1463
 20
151.21555
 30
0.0
 11
139.2913
 21
150.76725
 31
0.0
  0
LINE
  5
316
330
1D
100
AcDbEntity
  8
0
100
AcDbLine
 10
140.9743
 20
149.16755
 30
0.0
 11
141.1573
 21
148.98455
 31
0.0
  0
LINE
  5
319
330
1D
100
AcDbEntity
  8
0
100
AcDbLine
 10
141.1573
 20
148.98455
 30
0.0
 11
141.2243
 21
148.73455
 31
0.0
  0
LINE
  5
31A
330
1D
100
AcDbEntity
  8
0
100
AcDbLine
 10
140.4183
 20
149.33455
 30
0.0
 11
140.5183
 21
149.36135
 31
0.0
  0
LINE
  5
31B
330
1D
100
AcDbEntity
  8
0
100
AcDbLine
 10
140.5913
 20
149.43455
 30
0.0
 11
140.6183
 21
149.53455
 31
0.0
  0
LINE
  5
31C
330
1D
100
AcDbEntity
  8
0
100
AcDbLine
 10
140.5183
 20
149.36135
 30
0.0
 11
140.5913
 21
149.43455
 31
0.0
  0
LINE
  5
31D
330
1D
100
AcDbEntity
  8
0
100
AcDbLine
 10
140.4183
 20
150.33455
 30
0.0
 11
140.5183
 21
150.30775
 31
0.0
  0
LINE
  5
31E
330
1D
100
AcDbEntity
  8
0
100
AcDbLine
 10
140.5913
 20
150.23455
 30
0.0
 11
140.6183
 21
150.13455
 31
0.0
  0
LINE
  5
31F
330
1D
100
AcDbEntity
  8
0
100
AcDbLine
 10
140.5183
 20
150.30775
 30
0.0
 11
140.5913
 21
150.23455
 31
0.0
  0
LINE
  5
320
330
1D
100
AcDbEntity
  8
0
100
AcDbLine
 10
140.6183
 20
149.53455
 30
0.0
 11
140.6183
 21
150.13455
 31
0.0
  0
LINE
  5
321
330
1D
100
AcDbEntity
  8
0
100
AcDbLine
 10
140.6183
 20
150.13455
 30
0.0
 11
140.6183
 21
149.53455
 31
0.0
  0
LINE
  5
323
330
1D
100
AcDbEntity
  8
0
100
AcDbLine
 10
141.2243
 20
130.817495705128
 30
0.0
 11
141.2243
 21
148.73455
 31
0.0
  0
LINE
  5
328
330
1D
100
AcDbEntity
  8
0
100
AcDbLine
 10
141.2243
 20
148.73455
 30
0.0
 11
141.2243
 21
130.817495705128
 31
0.0
  0
LINE
  5
33F
330
1D
100
AcDbEntity
  8
0
100
AcDbLine
 10
218.2383
 20
130.50605
 30
0.0
 11
218.8813
 21
130.25675
 31
0.0
  0
LINE
  5
341
330
1D
100
AcDbEntity
  8
0
100
AcDbLine
 10
219.2963
 20
129.64815
 30
0.0
 11
230.1383
 21
54.38615
 31
0.0
  0
LINE
  5
342
330
1D
100
AcDbEntity
  8
0
100
AcDbLine
 10
218.8813
 20
130.25675
 30
0.0
 11
219.2963
 21
129.64815
 31
0.0
  0
LINE
  5
349
330
1D
100
AcDbEntity
  8
0
100
AcDbLine
 10
141.2463
 20
152.78455
 30
0.0
 11
141.4963
 21
152.85155
 31
0.0
  0
LINE
  5
34A
330
1D
100
AcDbEntity
  8
0
100
AcDbLine
 10
141.1863
 20
152.78455
 30
0.0
 11
141.2463
 21
152.78455
 31
0.0
  0
LINE
  5
34B
330
1D
100
AcDbEntity
  8
0
100
AcDbLine
 10
140.8263
 20
152.78455
 30
0.0
 11
141.1863
 21
152.78455
 31
0.0
  0
LINE
  5
34C
330
1D
100
AcDbEntity
  8
0
100
AcDbLine
 10
140.3553
 20
152.78455
 30
0.0
 11
140.5833
 21
152.78455
 31
0.0
  0
LINE
  5
34D
330
1D
100
AcDbEntity
  8
0
100
AcDbLine
 10
139.6973
 20
152.78455
 30
0.0
 11
140.3553
 21
152.78455
 31
0.0
  0
LINE
  5
34E
330
1D
100
AcDbEntity
  8
0
100
AcDbLine
 10
137.8933
 20
152.78455
 30
0.0
 11
139.1663
 21
152.78455
 31
0.0
  0
LINE
  5
34F
330
1D
100
AcDbEntity
  8
0
100
AcDbLine
 10
136.3453
 20
152.78455
 30
0.0
 11
137.8933
 21
152.78455
 31
0.0
  0
LINE
  5
350
330
1D
100
AcDbEntity
  8
0
100
AcDbLine
 10
135.2913
 20
152.78455
 30
0.0
 11
137.1433
 21
152.78455
 31
0.0
  0
LINE
  5
351
330
1D
100
AcDbEntity
  8
0
100
AcDbLine
 10
141.326026184581
 20
152.822034775622
 30
0.0
 11
141.4633
 21
152.83475
 31
0.0
  0
LINE
  5
352
330
1D
100
AcDbEntity
  8
0
100
AcDbLine
 10
141.36234587388
 20
152.831778370985
 30
0.0
 11
141.4963
 21
152.85155
 31
0.0
  0
LINE
  5
353
330
1D
100
AcDbEntity
  8
0
100
AcDbLine
 10
141.4963
 20
152.85155
 30
0.0
 11
141.6793
 21
153.03465
 31
0.0
  0
LINE
  5
354
330
1D
100
AcDbEntity
  8
0
100
AcDbLine
 10
141.6793
 20
153.03465
 30
0.0
 11
141.7453
 21
153.28455
 31
0.0
  0
LINE
  5
355
330
1D
100
AcDbEntity
  8
0
100
AcDbLine
 10
133.0953
 20
152.78455
 30
0.0
 11
135.2913
 21
152.78455
 31
0.0
  0
LINE
  5
356
330
1D
100
AcDbEntity
  8
0
100
AcDbLine
 10
129.2733
 20
152.78455
 30
0.0
 11
133.0953
 21
152.78455
 31
0.0
  0
LINE
  5
357
330
1D
100
AcDbEntity
  8
0
100
AcDbLine
 10
129.0703
 20
109.75445
 30
0.0
 11
129.1243
 21
109.17415
 31
0.0
  0
LINE
  5
358
330
1D
100
AcDbEntity
  8
0
100
AcDbLine
 10
129.0423
 20
98.49355
 30
0.0
 11
129.1243
 21
99.07405
 31
0.0
  0
LINE
  5
359
330
1D
100
AcDbEntity
  8
0
100
AcDbLine
 10
128.9333
 20
98.12235
 30
0.0
 11
129.0423
 21
98.49355
 31
0.0
  0
LINE
  5
35A
330
1D
100
AcDbEntity
  8
0
100
AcDbLine
 10
128.6763
 20
97.54135
 30
0.0
 11
128.9333
 21
98.12235
 31
0.0
  0
LINE
  5
35B
330
1D
100
AcDbEntity
  8
0
100
AcDbLine
 10
128.2833
 20
96.97405
 30
0.0
 11
128.6763
 21
97.54135
 31
0.0
  0
LINE
  5
36B
330
1D
100
AcDbEntity
  8
0
100
AcDbLine
 10
113.3853
 20
157.90255
 30
0.0
 11
113.9793
 21
157.45055
 31
0.0
  0
LINE
  5
37C
330
1D
100
AcDbEntity
  8
0
100
AcDbLine
 10
112.6113
 20
159.30755
 30
0.0
 11
112.9033
 21
158.55055
 31
0.0
  0
LINE
  5
37D
330
1D
100
AcDbEntity
  8
0
100
AcDbLine
 10
112.5273
 20
160.15155
 30
0.0
 11
112.6803
 21
160.98555
 31
0.0
  0
LINE
  5
37E
330
1D
100
AcDbEntity
  8
0
100
AcDbLine
 10
112.5273
 20
160.15155
 30
0.0
 11
112.6113
 21
159.30755
 31
0.0
  0
LINE
  5
37F
330
1D
100
AcDbEntity
  8
0
100
AcDbLine
 10
112.9033
 20
158.55055
 30
0.0
 11
113.3853
 21
157.90255
 31
0.0
  0
LINE
  5
380
330
1D
100
AcDbEntity
  8
0
100
AcDbLine
 10
112.6803
 20
160.98555
 30
0.0
 11
113.0453
 21
161.70355
 31
0.0
  0
LINE
  5
381
330
1D
100
AcDbEntity
  8
0
100
AcDbLine
 10
117.1323
 20
158.21355
 30
0.0
 11
117.5333
 21
158.95855
 31
0.0
  0
LINE
  5
382
330
1D
100
AcDbEntity
  8
0
100
AcDbLine
 10
117.5333
 20
158.95855
 30
0.0
 11
117.7153
 21
159.78655
 31
0.0
  0
LINE
  5
383
330
1D
100
AcDbEntity
  8
0
100
AcDbLine
 10
113.6023
 20
162.28055
 30
0.0
 11
113.8783
 21
162.46355
 31
0.0
  0
LINE
  5
384
330
1D
100
AcDbEntity
  8
0
100
AcDbLine
 10
113.0453
 20
161.70355
 30
0.0
 11
113.6023
 21
162.28055
 31
0.0
  0
LINE
  5
385
330
1D
100
AcDbEntity
  8
0
100
AcDbLine
 10
113.8783
 20
162.46355
 30
0.0
 11
114.4803
 21
162.71055
 31
0.0
  0
LINE
  5
386
330
1D
100
AcDbEntity
  8
0
100
AcDbLine
 10
116.5633
 20
162.34255
 30
0.0
 11
117.0443
 21
161.90855
 31
0.0
  0
LINE
  5
387
330
1D
100
AcDbEntity
  8
0
100
AcDbLine
 10
117.0443
 20
161.90855
 30
0.0
 11
117.4083
 21
161.36955
 31
0.0
  0
LINE
  5
388
330
1D
100
AcDbEntity
  8
0
100
AcDbLine
 10
117.4083
 20
161.36955
 30
0.0
 11
117.6713
 21
160.60055
 31
0.0
  0
LINE
  5
389
330
1D
100
AcDbEntity
  8
0
100
AcDbLine
 10
117.6713
 20
160.60055
 30
0.0
 11
117.7153
 21
159.78655
 31
0.0
  0
LINE
  5
38A
330
1D
100
AcDbEntity
  8
0
100
AcDbLine
 10
88.5135
 20
167.63155
 30
0.0
 11
88.5172
 21
168.98355
 31
0.0
  0
LINE
  5
38B
330
1D
100
AcDbEntity
  8
0
100
AcDbLine
 10
88.5094
 20
164.92355
 30
0.0
 11
88.5135
 21
167.63155
 31
0.0
  0
LINE
  5
38C
330
1D
100
AcDbEntity
  8
0
100
AcDbLine
 10
88.5094
 20
164.92355
 30
0.0
 11
88.5154
 21
157.28755
 31
0.0
  0
LINE
  5
38D
330
1D
100
AcDbEntity
  8
0
100
AcDbLine
 10
114.4803
 20
162.71055
 30
0.0
 11
115.1253
 21
162.79555
 31
0.0
  0
LINE
  5
38E
330
1D
100
AcDbEntity
  8
0
100
AcDbLine
 10
115.1253
 20
162.79555
 30
0.0
 11
115.8783
 21
162.67955
 31
0.0
  0
LINE
  5
38F
330
1D
100
AcDbEntity
  8
0
100
AcDbLine
 10
88.5172
 20
168.98355
 30
0.0
 11
88.5251
 21
171.00955
 31
0.0
  0
LINE
  5
390
330
1D
100
AcDbEntity
  8
0
100
AcDbLine
 10
88.5241
 20
188.98855
 30
0.0
 11
88.7186
 21
189.72555
 31
0.0
  0
LINE
  5
391
330
1D
100
AcDbEntity
  8
0
100
AcDbLine
 10
88.5222
 20
178.04355
 30
0.0
 11
88.5241
 21
188.98855
 31
0.0
  0
LINE
  5
392
330
1D
100
AcDbEntity
  8
0
100
AcDbLine
 10
88.5175
 20
177.08055
 30
0.0
 11
88.519
 21
176.08355
 31
0.0
  0
LINE
  5
393
330
1D
100
AcDbEntity
  8
0
100
AcDbLine
 10
88.5175
 20
177.08055
 30
0.0
 11
88.5222
 21
178.04355
 31
0.0
  0
LINE
  5
394
330
1D
100
AcDbEntity
  8
0
100
AcDbLine
 10
88.519
 20
176.08355
 30
0.0
 11
88.5318
 21
174.01555
 31
0.0
  0
LINE
  5
395
330
1D
100
AcDbEntity
  8
0
100
AcDbLine
 10
88.7186
 20
189.72555
 30
0.0
 11
89.2506
 21
190.27255
 31
0.0
  0
LINE
  5
396
330
1D
100
AcDbEntity
  8
0
100
AcDbLine
 10
89.2506
 20
190.27255
 30
0.0
 11
89.9827
 21
190.48655
 31
0.0
  0
LINE
  5
399
330
1D
100
AcDbEntity
  8
0
100
AcDbLine
 10
89.9827
 20
190.48655
 30
0.0
 11
90.045
 21
190.49055
 31
0.0
  0
LINE
  5
39A
330
1D
100
AcDbEntity
  8
0
100
AcDbLine
 10
90.045
 20
190.49055
 30
0.0
 11
90.3354
 21
190.50255
 31
0.0
  0
LINE
  5
39B
330
1D
100
AcDbEntity
  8
0
100
AcDbLine
 10
91.8496
 20
190.54855
 30
0.0
 11
93.2565
 21
190.58555
 31
0.0
  0
LINE
  5
39C
330
1D
100
AcDbEntity
  8
0
100
AcDbLine
 10
90.8688
 20
190.51955
 30
0.0
 11
91.8496
 21
190.54855
 31
0.0
  0
LINE
  5
39D
330
1D
100
AcDbEntity
  8
0
100
AcDbLine
 10
94.4358
 20
191.43255
 30
0.0
 11
94.7884
 21
192.40455
 31
0.0
  0
LINE
  5
39E
330
1D
100
AcDbEntity
  8
0
100
AcDbLine
 10
94.0964
 20
190.74455
 30
0.0
 11
94.4358
 21
191.43255
 31
0.0
  0
LINE
  5
39F
330
1D
100
AcDbEntity
  8
0
100
AcDbLine
 10
95.0185
 20
192.80755
 30
0.0
 11
95.5163
 21
193.27555
 31
0.0
  0
LINE
  5
3A0
330
1D
100
AcDbEntity
  8
0
100
AcDbLine
 10
95.5163
 20
193.27555
 30
0.0
 11
95.9333
 21
193.55655
 31
0.0
  0
LINE
  5
3A1
330
1D
100
AcDbEntity
  8
0
100
AcDbLine
 10
95.9333
 20
193.55655
 30
0.0
 11
96.5319
 21
193.79855
 31
0.0
  0
LINE
  5
3A2
330
1D
100
AcDbEntity
  8
0
100
AcDbLine
 10
96.5319
 20
193.79855
 30
0.0
 11
97.0831
 21
193.95055
 31
0.0
  0
LINE
  5
3A3
330
1D
100
AcDbEntity
  8
0
100
AcDbLine
 10
97.0831
 20
193.95055
 30
0.0
 11
97.6944
 21
194.06755
 31
0.0
  0
LINE
  5
3A4
330
1D
100
AcDbEntity
  8
0
100
AcDbLine
 10
94.7951
 20
192.42555
 30
0.0
 11
95.0185
 21
192.80755
 31
0.0
  0
LINE
  5
3A5
330
1D
100
AcDbEntity
  8
0
100
AcDbLine
 10
99.4595
 20
194.22855
 30
0.0
 11
106.5913
 21
194.52355
 31
0.0
  0
LINE
  5
3A6
330
1D
100
AcDbEntity
  8
0
100
AcDbLine
 10
106.5913
 20
194.52355
 30
0.0
 11
113.7583
 21
194.63655
 31
0.0
  0
LINE
  5
3A7
330
1D
100
AcDbEntity
  8
0
100
AcDbLine
 10
113.7583
 20
194.63655
 30
0.0
 11
115.1253
 21
194.63955
 31
0.0
  0
LINE
  5
3A8
330
1D
100
AcDbEntity
  8
0
100
AcDbLine
 10
115.1253
 20
194.63955
 30
0.0
 11
123.1553
 21
194.53755
 31
0.0
  0
LINE
  5
3A9
330
1D
100
AcDbEntity
  8
0
100
AcDbLine
 10
98.6166
 20
194.17355
 30
0.0
 11
99.4595
 21
194.22855
 31
0.0
  0
LINE
  5
3AA
330
1D
100
AcDbEntity
  8
0
100
AcDbLine
 10
97.6944
 20
194.06755
 30
0.0
 11
98.6166
 21
194.17355
 31
0.0
  0
LINE
  5
3AB
330
1D
100
AcDbEntity
  8
0
100
AcDbLine
 10
93.2565
 20
190.58555
 30
0.0
 11
93.992073674601
 21
190.602518779824
 31
0.0
  0
LINE
  5
3AC
330
1D
100
AcDbEntity
  8
0
100
AcDbLine
 10
90.3354
 20
190.50255
 30
0.0
 11
90.8688
 21
190.51955
 31
0.0
  0
LINE
  5
3AF
330
1D
100
AcDbEntity
  8
0
100
AcDbLine
 10
88.5318
 20
174.01555
 30
0.0
 11
88.5365
 21
173.01855
 31
0.0
  0
LINE
  5
3B0
330
1D
100
AcDbEntity
  8
0
100
AcDbLine
 10
88.5251
 20
171.00955
 30
0.0
 11
88.5365
 21
173.01855
 31
0.0
  0
LINE
  5
3B1
330
1D
100
AcDbEntity
  8
0
100
AcDbLine
 10
115.8783
 20
162.67955
 30
0.0
 11
116.5633
 21
162.34255
 31
0.0
  0
LINE
  5
3B2
330
1D
100
AcDbEntity
  8
0
100
AcDbLine
 10
141.712699289223
 20
173.183844449672
 30
0.0
 11
141.7183
 21
174.01555
 31
0.0
  0
LINE
  5
3B3
330
1D
100
AcDbEntity
  8
0
100
AcDbLine
 10
141.7143
 20
173.01855
 30
0.0
 11
141.7253
 21
171.00955
 31
0.0
  0
LINE
  5
3B4
330
1D
100
AcDbEntity
  8
0
100
AcDbLine
 10
141.7253
 20
171.00955
 30
0.0
 11
141.7333
 21
168.98355
 31
0.0
  0
LINE
  5
3B5
330
1D
100
AcDbEntity
  8
0
100
AcDbLine
 10
141.7333
 20
168.98355
 30
0.0
 11
141.7373
 21
167.63155
 31
0.0
  0
LINE
  5
3B6
330
1D
100
AcDbEntity
  8
0
100
AcDbLine
 10
141.7413
 20
164.92355
 30
0.0
 11
141.7463
 21
153.28455
 31
0.0
  0
LINE
  5
3B7
330
1D
100
AcDbEntity
  8
0
100
AcDbLine
 10
141.7373
 20
167.63155
 30
0.0
 11
141.7413
 21
164.92355
 31
0.0
  0
LINE
  5
3BB
330
1D
100
AcDbEntity
  8
0
100
AcDbLine
 10
134.0933
 20
193.66055
 30
0.0
 11
134.5753
 21
193.40355
 31
0.0
  0
LINE
  5
3BC
330
1D
100
AcDbEntity
  8
0
100
AcDbLine
 10
133.3673
 20
193.90055
 30
0.0
 11
134.0933
 21
193.66055
 31
0.0
  0
LINE
  5
3BD
330
1D
100
AcDbEntity
  8
0
100
AcDbLine
 10
132.1033
 20
194.12855
 30
0.0
 11
132.7593
 21
194.03355
 31
0.0
  0
LINE
  5
3BE
330
1D
100
AcDbEntity
  8
0
100
AcDbLine
 10
132.7593
 20
194.03355
 30
0.0
 11
133.3673
 21
193.90055
 31
0.0
  0
LINE
  5
3BF
330
1D
100
AcDbEntity
  8
0
100
AcDbLine
 10
131.7033
 20
194.16755
 30
0.0
 11
132.1033
 21
194.12855
 31
0.0
  0
LINE
  5
3C0
330
1D
100
AcDbEntity
  8
0
100
AcDbLine
 10
123.1553
 20
194.53755
 30
0.0
 11
130.7913
 21
194.22855
 31
0.0
  0
LINE
  5
3C1
330
1D
100
AcDbEntity
  8
0
100
AcDbLine
 10
130.7913
 20
194.22855
 30
0.0
 11
131.7033
 21
194.16755
 31
0.0
  0
LINE
  5
3C2
330
1D
100
AcDbEntity
  8
0
100
AcDbLine
 10
135.4623
 20
192.40455
 30
0.0
 11
135.8643
 21
191.31655
 31
0.0
  0
LINE
  5
3C4
330
1D
100
AcDbEntity
  8
0
100
AcDbLine
 10
135.2973
 20
192.73055
 30
0.0
 11
135.4623
 21
192.40455
 31
0.0
  0
LINE
  5
3C5
330
1D
100
AcDbEntity
  8
0
100
AcDbLine
 10
134.7943
 20
193.21355
 30
0.0
 11
134.967688666879
 21
193.047055514707
 31
0.0
  0
LINE
  5
3C6
330
1D
100
AcDbEntity
  8
0
100
AcDbLine
 10
134.5753
 20
193.40355
 30
0.0
 11
134.7943
 21
193.21355
 31
0.0
  0
LINE
  5
3C7
330
1D
100
AcDbEntity
  8
0
100
AcDbLine
 10
136.250623672558
 20
190.602771024036
 30
0.0
 11
136.9943
 21
190.58555
 31
0.0
  0
LINE
  5
3C9
330
1D
100
AcDbEntity
  8
0
100
AcDbLine
 10
141.0013
 20
190.27155
 30
0.0
 11
141.5333
 21
189.72555
 31
0.0
  0
LINE
  5
3CA
330
1D
100
AcDbEntity
  8
0
100
AcDbLine
 10
140.2683
 20
190.48655
 30
0.0
 11
141.0013
 21
190.27155
 31
0.0
  0
LINE
  5
3CB
330
1D
100
AcDbEntity
  8
0
100
AcDbLine
 10
141.5333
 20
189.72555
 30
0.0
 11
141.7273
 21
188.98755
 31
0.0
  0
LINE
  5
3CC
330
1D
100
AcDbEntity
  8
0
100
AcDbLine
 10
139.5293
 20
190.51555
 30
0.0
 11
140.0763
 21
190.49655
 31
0.0
  0
LINE
  5
3CD
330
1D
100
AcDbEntity
  8
0
100
AcDbLine
 10
140.0763
 20
190.49655
 30
0.0
 11
140.2683
 21
190.48655
 31
0.0
  0
LINE
  5
3CE
330
1D
100
AcDbEntity
  8
0
100
AcDbLine
 10
137.9323
 20
190.56155
 30
0.0
 11
138.6423
 21
190.54155
 31
0.0
  0
LINE
  5
3CF
330
1D
100
AcDbEntity
  8
0
100
AcDbLine
 10
136.9943
 20
190.58555
 30
0.0
 11
137.9323
 21
190.56155
 31
0.0
  0
LINE
  5
3D0
330
1D
100
AcDbEntity
  8
0
100
AcDbLine
 10
138.6423
 20
190.54155
 30
0.0
 11
139.5293
 21
190.51555
 31
0.0
  0
LINE
  5
3D3
330
1D
100
AcDbEntity
  8
0
100
AcDbLine
 10
141.7273
 20
188.98755
 30
0.0
 11
141.7333
 21
177.08055
 31
0.0
  0
LINE
  5
3D4
330
1D
100
AcDbEntity
  8
0
100
AcDbLine
 10
141.7313
 20
176.08355
 30
0.0
 11
141.7333
 21
177.08055
 31
0.0
  0
LINE
  5
3D5
330
1D
100
AcDbEntity
  8
0
100
AcDbLine
 10
141.7183
 20
174.01555
 30
0.0
 11
141.7313
 21
176.08355
 31
0.0
  0
LINE
  5
1415
330
1D
100
AcDbEntity
  8
0
100
AcDbLine
 10
93.992073674601
 20
190.602518779824
 30
0.0
 11
94.0964
 21
190.74455
 31
0.0
  0
LINE
  5
1416
330
1D
100
AcDbEntity
  8
0
100
AcDbLine
 10
135.2973
 20
192.73055
 30
0.0
 11
134.967688666879
 21
193.047055514707
 31
0.0
  0
LINE
  5
1417
330
1D
100
AcDbEntity
  8
0
100
AcDbLine
 10
136.250623672558
 20
190.602771024036
 30
0.0
 11
136.125173325262
 21
190.755875969129
 31
0.0
  0
LINE
  5
1418
330
1D
100
AcDbEntity
  8
0
100
AcDbLine
 10
136.125173325262
 20
190.755875969129
 30
0.0
 11
135.8643
 21
191.31655
 31
0.0
  0
LINE
  5
141A
330
1D
100
AcDbEntity
  8
0
100
AcDbLine
 10
89.8323
 20
150.33455
 30
0.0
 11
90.1118
 21
150.33455
 31
0.0
  0
LINE
  5
141B
330
1D
100
AcDbEntity
  8
0
100
AcDbLine
 10
89.2761
 20
149.16755
 30
0.0
 11
89.7325
 21
149.36135
 31
0.0
  0
LINE
  5
141C
330
1D
100
AcDbEntity
  8
0
100
AcDbLine
 10
140.9743
 20
149.16755
 30
0.0
 11
140.737224827006
 21
149.298355181712
 31
0.0
  0
LINE
  5
141D
330
1D
100
AcDbEntity
  8
0
100
AcDbLine
 10
140.737224827006
 20
149.298355181712
 30
0.0
 11
140.4183
 21
149.33455
 31
0.0
  0
LINE
  5
141E
330
1D
100
AcDbEntity
  8
0
100
AcDbLine
 10
12.0178
 20
130.50465
 30
0.0
 11
89.0264
 21
130.816764725962
 31
0.0
  0
LINE
  5
141F
330
1D
100
AcDbEntity
  8
0
100
AcDbLine
 10
89.0264
 20
130.816764725962
 30
0.0
 11
141.2243
 21
130.816764725962
 31
0.0
  0
LINE
  5
1420
330
1D
100
AcDbEntity
  8
0
100
AcDbLine
 10
141.2243
 20
130.816764725962
 30
0.0
 11
218.2383
 21
130.50605
 31
0.0
  0
LINE
  5
1421
330
1D
100
AcDbEntity
  8
0
100
AcDbLine
 10
157.0713
 20
74.08975
 30
0.0
 11
155.180919111264
 21
74.415887962829
 31
0.0
  0
LINE
  5
1422
330
1D
100
AcDbEntity
  8
0
100
AcDbLine
 10
128.3613
 20
76.09095
 30
0.0
 11
125.28205
 21
76.09095
 31
0.0
  0
LINE
  5
1423
330
1D
100
AcDbEntity
  8
0
100
AcDbLine
 10
101.8893
 20
76.09095
 30
0.0
 11
104.96855
 21
76.09095
 31
0.0
  0
LINE
  5
1424
330
1D
100
AcDbEntity
  8
0
100
AcDbLine
 10
73.1795
 20
74.08935
 30
0.0
 11
75.078450130257
 21
74.417061318729
 31
0.0
  0
LINE
  5
1425
330
1D
100
AcDbEntity
  8
0
100
AcDbLine
 10
0.7957
 20
53.81485
 30
0.0
 11
48.9595
 21
53.81485
 31
0.0
  0
LINE
  5
142C
330
1D
100
AcDbEntity
  8
0
100
AcDbLine
 10
104.96855
 20
76.09095
 30
0.0
 11
125.28205
 21
76.09095
 31
0.0
  0
ENDSEC
  0
SECTION
  2
OBJECTS
  0
DICTIONARY
  5
C
330
0
100
AcDbDictionary
281
     1
  3
ACAD_GROUP
350
D
  3
ACAD_LAYOUT
350
1A
  3
ACAD_MLEADERSTYLE
350
1428
  3
ACAD_MLINESTYLE
350
17
  3
ACAD_PLOTSETTINGS
350
19
  3
ACAD_PLOTSTYLENAME
350
E
  3
ACAD_SCALELIST
350
AAE
  3
AcDbVariableDictionary
350
1426
  3
DWGPROPS
350
142E
  0
DICTIONARY
  5
D
102
{ACAD_REACTORS
330
C
102
}
330
C
100
AcDbDictionary
281
     1
  0
DICTIONARY
  5
1A
102
{ACAD_REACTORS
330
C
102
}
330
C
100
AcDbDictionary
281
     1
  3
Layout1
350
1C
  3
Model
350
1E
  0
DICTIONARY
  5
1428
102
{ACAD_REACTORS
330
C
102
}
330
C
100
AcDbDictionary
281
     1
  0
DICTIONARY
  5
17
102
{ACAD_REACTORS
330
C
102
}
330
C
100
AcDbDictionary
281
     1
  3
Standard
350
18
  0
DICTIONARY
  5
19
102
{ACAD_REACTORS
330
C
102
}
330
C
100
AcDbDictionary
281
     1
  0
ACDBDICTIONARYWDFLT
  5
E
102
{ACAD_REACTORS
330
C
102
}
330
C
100
AcDbDictionary
281
     1
  3
Normal
350
F
100
AcDbDictionaryWithDefault
340
F
  0
DICTIONARY
  5
AAE
102
{ACAD_REACTORS
330
C
102
}
330
C
100
AcDbDictionary
281
     1
  3
A0
350
AAF
  3
A1
350
AB0
  3
A2
350
AB1
  3
A3
350
AB2
  3
A4
350
AB3
  3
A5
350
AB4
  3
A6
350
AB5
  3
A7
350
AB6
  3
A8
350
AB7
  3
A9
350
AB8
  3
B0
350
AB9
  3
B1
350
ABA
  3
B2
350
ABB
  3
B3
350
ABC
  3
B4
350
ABD
  3
B5
350
ABE
  3
B6
350
ABF
  3
B7
350
AC0
  3
B8
350
AC1
  3
B9
350
AC2
  3
C0
350
AC3
  3
C1
350
AC4
  3
C2
350
AC5
  3
C3
350
AC6
  3
C4
350
AC7
  3
C5
350
AC8
  3
C6
350
AC9
  3
C7
350
ACA
  3
C8
350
ACB
  3
C9
350
ACC
  3
D0
350
ACD
  3
D1
350
ACE
  3
D2
350
ACF
  0
DICTIONARY
  5
1426
102
{ACAD_REACTORS
330
C
102
}
330
C
100
AcDbDictionary
281
     1
  3
CANNOSCALE
350
1429
  0
XRECORD
  5
142E
102
{ACAD_REACTORS
330
C
102
}
330
C
100
AcDbXrecord
280
     1
  1
DWGPROPS COOKIE
  2

  3

  4

  6

  7

  8
MARTIN
  9

300
=
301
=
302
=
303
=
304
=
305
=
306
=
307
=
308
=
309
=
 40
0.0
 41
2456647.724423819
 42
2456647.734624016
  1

 90
        0
  0
LAYOUT
  5
1C
102
{ACAD_REACTORS
330
1A
102
}
330
1A
100
AcDbPlotSettings
  1

  2
none_device
  4

  6

 40
0.0
 41
0.0
 42
0.0
 43
0.0
 44
0.0
 45
0.0
 46
0.0
 47
0.0
 48
0.0
 49
0.0
140
0.0
141
0.0
142
1.0
143
1.0
 70
   688
 72
     0
 73
     0
 74
     5
  7

 75
    16
147
1.0
148
0.0
149
0.0
100
AcDbLayout
  1
Layout1
 70
     1
 71
     1
 10
0.0
 20
0.0
 11
12.0
 21
9.0
 12
0.0
 22
0.0
 32
0.0
 14
1.000000000000E+20
 24
1.000000000000E+20
 34
1.000000000000E+20
 15
-1.000000000000E+20
 25
-1.000000000000E+20
 35
-1.000000000000E+20
146
0.0
 13
0.0
 23
0.0
 33
0.0
 16
1.0
 26
0.0
 36
0.0
 17
0.0
 27
1.0
 37
0.0
 76
     0
330
1B
  0
LAYOUT
  5
1E
102
{ACAD_REACTORS
330
1A
102
}
330
1A
100
AcDbPlotSettings
  1

  2
none_device
  4

  6

 40
0.0
 41
0.0
 42
0.0
 43
0.0
 44
0.0
 45
0.0
 46
0.0
 47
0.0
 48
0.0
 49
0.0
140
0.0
141
0.0
142
1.0
143
1.0
 70
  1712
 72
     0
 73
     0
 74
     0
  7

 75
     0
147
1.0
148
0.0
149
0.0
100
AcDbLayout
  1
Model
 70
     1
 71
     0
 10
0.0
 20
0.0
 11
12.0
 21
9.0
 12
0.0
 22
0.0
 32
0.0
 14
0.1217
 24
53.81485
 34
0.0
 15
230.1383
 25
194.63955
 35
0.0
146
0.0
 13
0.0
 23
0.0
 33
0.0
 16
1.0
 26
0.0
 36
0.0
 17
0.0
 27
1.0
 37
0.0
 76
     0
330
1D
331
AA9
  0
MLINESTYLE
  5
18
102
{ACAD_REACTORS
330
17
102
}
330
17
100
AcDbMlineStyle
  2
Standard
 70
     0
  3

 62
   256
 51
90.0
 52
90.0
 71
     2
 49
0.5
 62
   256
  6
BYLAYER
 49
-0.5
 62
   256
  6
BYLAYER
  0
ACDBPLACEHOLDER
  5
F
102
{ACAD_REACTORS
330
E
102
}
330
E
  0
SCALE
  5
AAF
102
{ACAD_REACTORS
330
AAE
102
}
330
AAE
100
AcDbScale
 70
     0
300
1:1
140
1.0
141
1.0
290
     1
  0
SCALE
  5
AB0
102
{ACAD_REACTORS
330
AAE
102
}
330
AAE
100
AcDbScale
 70
     0
300
1:2
140
1.0
141
2.0
290
     0
  0
SCALE
  5
AB1
102
{ACAD_REACTORS
330
AAE
102
}
330
AAE
100
AcDbScale
 70
     0
300
1:4
140
1.0
141
4.0
290
     0
  0
SCALE
  5
AB2
102
{ACAD_REACTORS
330
AAE
102
}
330
AAE
100
AcDbScale
 70
     0
300
1:5
140
1.0
141
5.0
290
     0
  0
SCALE
  5
AB3
102
{ACAD_REACTORS
330
AAE
102
}
330
AAE
100
AcDbScale
 70
     0
300
1:8
140
1.0
141
8.0
290
     0
  0
SCALE
  5
AB4
102
{ACAD_REACTORS
330
AAE
102
}
330
AAE
100
AcDbScale
 70
     0
300
1:10
140
1.0
141
10.0
290
     0
  0
SCALE
  5
AB5
102
{ACAD_REACTORS
330
AAE
102
}
330
AAE
100
AcDbScale
 70
     0
300
1:16
140
1.0
141
16.0
290
     0
  0
SCALE
  5
AB6
102
{ACAD_REACTORS
330
AAE
102
}
330
AAE
100
AcDbScale
 70
     0
300
1:20
140
1.0
141
20.0
290
     0
  0
SCALE
  5
AB7
102
{ACAD_REACTORS
330
AAE
102
}
330
AAE
100
AcDbScale
 70
     0
300
1:30
140
1.0
141
30.0
290
     0
  0
SCALE
  5
AB8
102
{ACAD_REACTORS
330
AAE
102
}
330
AAE
100
AcDbScale
 70
     0
300
1:40
140
1.0
141
40.0
290
     0
  0
SCALE
  5
AB9
102
{ACAD_REACTORS
330
AAE
102
}
330
AAE
100
AcDbScale
 70
     0
300
1:50
140
1.0
141
50.0
290
     0
  0
SCALE
  5
ABA
102
{ACAD_REACTORS
330
AAE
102
}
330
AAE
100
AcDbScale
 70
     0
300
1:100
140
1.0
141
100.0
290
     0
  0
SCALE
  5
ABB
102
{ACAD_REACTORS
330
AAE
102
}
330
AAE
100
AcDbScale
 70
     0
300
2:1
140
2.0
141
1.0
290
     0
  0
SCALE
  5
ABC
102
{ACAD_REACTORS
330
AAE
102
}
330
AAE
100
AcDbScale
 70
     0
300
4:1
140
4.0
141
1.0
290
     0
  0
SCALE
  5
ABD
102
{ACAD_REACTORS
330
AAE
102
}
330
AAE
100
AcDbScale
 70
     0
300
8:1
140
8.0
141
1.0
290
     0
  0
SCALE
  5
ABE
102
{ACAD_REACTORS
330
AAE
102
}
330
AAE
100
AcDbScale
 70
     0
300
10:1
140
10.0
141
1.0
290
     0
  0
SCALE
  5
ABF
102
{ACAD_REACTORS
330
AAE
102
}
330
AAE
100
AcDbScale
 70
     0
300
100:1
140
100.0
141
1.0
290
     0
  0
SCALE
  5
AC0
102
{ACAD_REACTORS
330
AAE
102
}
330
AAE
100
AcDbScale
 70
     0
300
1/128" = 1'-0"
140
0.0078125
141
12.0
290
     0
  0
SCALE
  5
AC1
102
{ACAD_REACTORS
330
AAE
102
}
330
AAE
100
AcDbScale
 70
     0
300
1/64" = 1'-0"
140
0.015625
141
12.0
290
     0
  0
SCALE
  5
AC2
102
{ACAD_REACTORS
330
AAE
102
}
330
AAE
100
AcDbScale
 70
     0
300
1/32" = 1'-0"
140
0.03125
141
12.0
290
     0
  0
SCALE
  5
AC3
102
{ACAD_REACTORS
330
AAE
102
}
330
AAE
100
AcDbScale
 70
     0
300
1/16" = 1'-0"
140
0.0625
141
12.0
290
     0
  0
SCALE
  5
AC4
102
{ACAD_REACTORS
330
AAE
102
}
330
AAE
100
AcDbScale
 70
     0
300
3/32" = 1'-0"
140
0.09375
141
12.0
290
     0
  0
SCALE
  5
AC5
102
{ACAD_REACTORS
330
AAE
102
}
330
AAE
100
AcDbScale
 70
     0
300
1/8" = 1'-0"
140
0.125
141
12.0
290
     0
  0
SCALE
  5
AC6
102
{ACAD_REACTORS
330
AAE
102
}
330
AAE
100
AcDbScale
 70
     0
300
3/16" = 1'-0"
140
0.1875
141
12.0
290
     0
  0
SCALE
  5
AC7
102
{ACAD_REACTORS
330
AAE
102
}
330
AAE
100
AcDbScale
 70
     0
300
1/4" = 1'-0"
140
0.25
141
12.0
290
     0
  0
SCALE
  5
AC8
102
{ACAD_REACTORS
330
AAE
102
}
330
AAE
100
AcDbScale
 70
     0
300
3/8" = 1'-0"
140
0.375
141
12.0
290
     0
  0
SCALE
  5
AC9
102
{ACAD_REACTORS
330
AAE
102
}
330
AAE
100
AcDbScale
 70
     0
300
1/2" = 1'-0"
140
0.5
141
12.0
290
     0
  0
SCALE
  5
ACA
102
{ACAD_REACTORS
330
AAE
102
}
330
AAE
100
AcDbScale
 70
     0
300
3/4" = 1'-0"
140
0.75
141
12.0
290
     0
  0
SCALE
  5
ACB
102
{ACAD_REACTORS
330
AAE
102
}
330
AAE
100
AcDbScale
 70
     0
300
1" = 1'-0"
140
1.0
141
12.0
290
     0
  0
SCALE
  5
ACC
102
{ACAD_REACTORS
330
AAE
102
}
330
AAE
100
AcDbScale
 70
     0
300
1-1/2" = 1'-0"
140
1.5
141
12.0
290
     0
  0
SCALE
  5
ACD
102
{ACAD_REACTORS
330
AAE
102
}
330
AAE
100
AcDbScale
 70
     0
300
3" = 1'-0"
140
3.0
141
12.0
290
     0
  0
SCALE
  5
ACE
102
{ACAD_REACTORS
330
AAE
102
}
330
AAE
100
AcDbScale
 70
     0
300
6" = 1'-0"
140
6.0
141
12.0
290
     0
  0
SCALE
  5
ACF
102
{ACAD_REACTORS
330
AAE
102
}
330
AAE
100
AcDbScale
 70
     0
300
1'-0" = 1'-0"
140
12.0
141
12.0
290
     0
  0
DICTIONARYVAR
  5
1429
102
{ACAD_REACTORS
330
1426
102
}
330
1426
100
DictionaryVariables
280
     0
  1
1:1
  0
ENDSEC
  0
SECTION
  2
THUMBNAILIMAGE
 90
    16364
310
28000000B40000005500000001000800000000000000000000000000000000000000000000000000FFFFFF000000FF0000FFFF0000FF0000FFFF0000FF000000FF00FF000000000080808000C0C0C0000000FF007F7FFF000000A5005252A50000007F003F3F7F0000004C0026264C000000260013132600003FFF007F9FFF
310
000029A5005267A500001F7F003F4F7F0000134C00262F4C000009260013172600007FFF007FBFFF000052A500527CA500003F7F003F5F7F0000264C0026394C0000132600131C260000BFFF007FDFFF00007CA5005291A500005F7F003F6F7F0000394C0026424C00001C26001321260000FFFF007FFFFF0000A5A50052A5
310
A500007F7F003F7F7F00004C4C00264C4C00002626001326260000FFBF007FFFDF0000A57C0052A59100007F5F003F7F6F00004C3900264C420000261C001326210000FF7F007FFFBF0000A5520052A57C00007F3F003F7F5F00004C2600264C39000026130013261C0000FF3F007FFF9F0000A5290052A56700007F1F003F
310
7F4F00004C1300264C2F00002609001326170000FF00007FFF7F0000A5000052A55200007F00003F7F3F00004C0000264C260000260000132613003FFF00009FFF7F0029A5000067A552001F7F00004F7F3F00134C00002F4C260009260000172613007FFF0000BFFF7F0052A500007CA552003F7F00005F7F3F00264C0000
310
394C2600132600001C261300BFFF0000DFFF7F007CA5000091A552005F7F00006F7F3F00394C0000424C26001C26000021261300FFFF0000FFFF7F00A5A50000A5A552007F7F00007F7F3F004C4C00004C4C26002626000026261300FFBF0000FFDF7F00A57C0000A59152007F5F00007F6F3F004C3900004C422600261C00
310
0026211300FF7F0000FFBF7F00A5520000A57C52007F3F00007F5F3F004C2600004C39260026130000261C1300FF3F0000FF9F7F00A5290000A56752007F1F00007F4F3F004C1300004C2F26002609000026171300FF000000FF7F7F00A5000000A55252007F0000007F3F3F004C0000004C2626002600000026131300FF00
310
3F00FF7F9F00A5002900A55267007F001F007F3F4F004C0013004C262F002600090026131700FF007F00FF7FBF00A5005200A5527C007F003F007F3F5F004C0026004C2639002600130026131C00FF00BF00FF7FDF00A5007C00A55291007F005F007F3F6F004C0039004C26420026001C0026132100FF00FF00FF7FFF00A5
310
00A500A552A5007F007F007F3F7F004C004C004C264C002600260026132600BF00FF00DF7FFF007C00A5009152A5005F007F006F3F7F0039004C0042264C001C002600211326007F00FF00BF7FFF005200A5007C52A5003F007F005F3F7F0026004C0039264C00130026001C1326003F00FF009F7FFF002900A5006752A500
310
1F007F004F3F7F0013004C002F264C000900260017132600000000002D2D2D005B5B5B0089898900B7B7B700B3B3B30000000000000000000000000000000000000000000000000000000000000000000000000000000000000000000000000000000000000000000000000000000000000000000000000007070000000000
310
00000000000000000000000000000000000000000000000000000000000000000000000000000000000000000000000000000000000000000000000000000000000000000000000000000000000000000000000000000000000000000000000000000000000000000000000000000000000000000000000000000000000000
310
00000000000000000000000000000000000000000000000000000000000000000000000000000000000000000000070007070000000000000000000000000000000000000000000000000000000000000000000000000000000000000000000000000000000000000000000000000000000000000000000000000000000000
310
00000000000000000000000000000000000000000000000000000000000000000000000000000000000000000000000000000000000000000000000000000000000000000000000000000000000000000000000000000000000000000000000000000007000007000000000000000000000000000000000000000000000000
310
00000000000000000000000000000000000000000000000000000000000000000000000000000000000000000000000000000000000000000000000000000000000000000000000000000000000000000000000000000000000000000000000000000000000000000000000000000000000000000000000000000000000000
310
00000000000000000000000000000000000000000000000000070000070000000000000000000000000000000000000000000000000000000000000000000000000000000000000000000000000000000000000000000000000000000000000000000000000000000000000000000000000000000000000000000000000000
310
00000000000000000000000000000000000000000000000000000000000000000000000000000000000000000000000000000000000000000000000000000000000000000000000000000000000007000007000000000000000000000000000000000000000000000000000000000000000000000000000000000000000000
310
00000000000000000000000000000000000000000000000000000000000000000000000000000000000000000000000000000000000000000000000000000000000000000000000000000000000000000000000000000000000000000000000000000000000000000000000000000000000000000000000000000000000000
310
00000000070000070000000000000000000000000000000000000000000000000000000000000000000000000000000000000000000000000000000000000000000000000000000000000000000000000000000000000000000000000000000000000000000000000000000000000000000000000000000000000000000000
310
00000000000000000000000000000000000000000000000000000000000000000000000000000000000000000000000000000000000000000007000007000000000000000000000000000000000000000000000000000000000000000000000000000000000000000000000000000000000000000000000000000000000000
310
00000000000000000000000000000000000000000000000000000000000000000000000000000000000000000000000000000000000000000000000000000000000000000000000000000000000000000000000000000000000000000000000000000000000000000000000000000700000700000000000000000000000000
310
00000000000000000000000000000000000000000000000000000000000000000000000000000000000000000000000000000000000000000000000000000000000000000000000000000000000000000000000000000000000000000000000000000000000000000000000000000000000000000000000000000000000000
310
00000000000000000000000000000000000000000000000000000000000000000000000007000007000000000000000000000000000000000000000000000000000000000000000000000000000000000000000000000000000000000000000000000000000000000000000000000000000000000000000000000000000000
310
00000000000000000000000000000000000000000000000000000000000000000000000000000000000000000000000000000000000000000000000000000000000000000000000000000000000000000000000000000000000700000700000000000000000000000000000000000000000000000000000000000000000000
310
00000000000000000000000000000000000000000000000000000000000000000000000000000000000000000000000000000000000000000000000000000000000000000000000000000000000000000000000000000000000000000000000000000000000000000000000000000000000000000000000000000000000000
310
00000000000000000000000000000007000007000000000000000000000000000000000000000000000000000000000000000000000000000000000000000000000000000000000000000000000000000000000000000000000000000000000000000000000000000000000000000000000000000000000000000000000000
310
00000000000000000000000000000000000000000000000000000000000000000000000000000000000000000000000707070707070707070707000000000000000000000700000700000000000000000000000707070707070707070707000000000000000000000000000000000000000000000000000000000000000000
310
00000000000000000000000000000000000000000000000000000000000000000000000000000000000000000000000000000000000000000000000000000000000000000000000000000000000000000000000000000000000000000000000000000000070000000000000000000700000000000000000000070707070000
310
00000000000000000707000000000000000000070000000000000000000000000000000000000000000000000000000000000000000000000000000000000000000000000000000000000000000000000000000000000000000000000000000000000000000000000000000000000000000000000000000000000000000000
310
00000000000000000000000000000000000000000000000000000700000000000000000007070000000000000000000700000700000000000000000000070000000000000000000007000000000000000000000000000000000000000000000000000000000000000000000000000000000000000000000000000000000000
310
00000000000000000000000000000000000000000000000000000000000000000000000000000000000000000000000000000000000000000000000000000000000000000000000000000000000000070000000000000000000007070700000000000000070000070000000000000007070700000000000000000000000700
310
00000000000000000000000000000000000000000000000000000000000000000000000000000000000000000000000000000000000000000000000000000000000000000000000000000000000000000000000000000000000000000000000000000000000000000000000000000000000000000000000000000000000000
310
00000000000007000000000000000000000007070707070707070000000707070707070707070000000000000000000000000700000000000000000000000000000000000000000000000000000000000000000000000000000000000000000000000000000000000000000000000000000000000000000000000000000000
310
00000000000000000000000000000000000000000000000000000000000000000000000000000000000000000000000000000000000000000000000700000000000000000000000000000000000007000000000700000000000000000000000000000000000000070000000000000000000000000000000000000000000000
310
00000000000000000000000000000000000000000000000000000000000000000000000000000000000000000000000000000000000000000000000000000000000000000000000000000000000000000000000000000000000000000000000000000000000000000000000000000000070000000000000000000000000000
310
00000000070000000007000000000000000000000000000000000000000700000000000000000000000000000000000000000007070707000000000000000000000000000000000000000000000000000000000000000000000000000000000000000000000000000000000000000000000000000000000000000000000000
310
00000000000000000000000000000000000000000000000000000000000000000000000000000700000000000000000000000000000000000007070707070700000000000000000000000000000000000000070000000000000000000000000000000000000000000700000700000000000000000000000000000000000000
310
00000000000000000000000000000000000000000000000000000000000000000000000000000000000000000000000000000000000000000000000000000000000000000000000000000000000000000000000000000000000000070000000000000000000000000000000000000707070707070000000000000000000000
310
00000000000000000700000000000000000000000000000000000000000007000007000000000000000000000000000000000000000000000000000000000000000000000000000000000000000000000000000000000000000000000000000000000000000000000000000000000000000000000000000000000000000000
310
00000000000000000000000000000000000700000000000000000000000000000000000007070000070700000000000000000000000000000000000000070000000000000000000000000000000000000000000700000700000000000000000000000000000000000000000000000000000000000000000000000000000000
310
00000000000000000000000000000000000000000000000000000000000000000000000000000000000000000000000000000000000000000000000000000000000000000000070000000000000000000000000000000000000707070707070000000000000000000000000000000000000007000000000000000000000000
310
00000000000000000007000007000000000000000000000000000000000000000000000000000000000000000000000000000000000000000000000000000000000000000000000000000000000000000000000000000000000000000000000000000000000000000000000000000000000000000000000000000007000000
310
00000000000000000000000000000007070000070700000000000000000000000000000000000000070000000000000000000000000000000000000000000700000700000000000000000000000000000000000000000000000000000000000000000000000000000000000000000000000000000000000000000000000000
310
00000000000000000000000000000000000000000000000000000000000000000000000000000000000000000000000000000700000000000000000000000000000000000000070707000000000000000000000000000000000000000700000000000000000000000000000000000000000000070000070000000000000000
310
00000000000000000000000000000000000000000000000000000000000000000000000000000000000000000000000000000000000000000000000000000000000000000000000000000000000000000000000000000000000000000000000000000000000000070000000000000000000000000000000000000000000000
310
00000000000000000000000000000000000007000000000000000000000000000000000000000000000700000700000000000000000000000000000000000000000000000000000000000000000000000000000000000000000000000000000000000000000000000000000000000000000000000000000000000000000000
310
00000000000000000000000000000000000000000000000000000000000700000000000000000000000000000000000000000000000000000000000000000000000000000000000700000000000000000000000000000000000000000000070000070000000000000000000000000000000000000000000000000000000000
310
00000000000000000000000000000000000000000000000000000000000000000000000000000000000000000000000000000000000000000000000000000000000000000000000000000000000000000000070707070707070707070707070707070707070707070707070707070707070707070707070707070707070000
310
00000000000000000000000000000000000000000700000700000000000000000000000000000000000000000000000000000000000000000000000000000000000000000000000000000000000000000000000000000000000000000000000000000000000000000000000000000000000000000000000000000000000000
310
00000000000000000000000000000000000000000000000700000007070707000000070000000000000000000000000000000000000000000000000000000000000000000000000000070000070000000000000000000000000000000000000000000000000000000000000000000000000000000000000000000000000000
310
00000000000000000000000000000000000000000000000000000000000000000000000000000000000000000000000000000000000000000000000000000000000000000000000000000000070000000700000700000007000000000000000000000000000000000000000000000000000000000000000000000000000007
310
00000700000000000000000000000000000000000000000000000000000000000000000000000000000000000000000000000000000000000000000000000000000000000000000000000000000000000000000000000000000000000000000000000000000000000000000000000000000000000000000000000000000000
310
00000700000007000007000000070000000000000000000000000000000000000000000000000000000000000000000000000000070000070000000000000000000000000000000000000000000000000000000000000000000000000000000000000000000000000000000000000000000000000000000000000000000000
310
00000000000000000000000000000000000000000000000000000000000000000000000000000000000000000000000000000000000000070707070707070707070707000000000000000000000000000000000000000000000000000000000000000000000000000007000007000000000000000000000000000000000000
310
00000000000000000000000000000000000000000000000000000000000000000000000000000000000000000000000000000000000000000000000000000000000000000000000000000000000000000000000000000000000000000000000000000000000000000000000007070707070707070707070700000000000000
310
00000000000000000000000000000000000000000000000000000000000707070000070700000000000000000000000000000000000000000000000000000000000000000000000000000000000000000000000000000000000000000000000000000000000000000000000000000000000000000000000000000000000000
310
00000000000000000000000000000000000000000000000000000000000000000000070000000007070000000007000000000000000000000000000000000000000000000000000000000000000000000000070007000007070000000000000000000000000000000000000000000000000000000000000000000000000000
310
00000000000000000000000000000000000000000000000000000000000000000000000000000000000000000000000000000000000000000000000000000000000000000000000000000000000000000000000000000007000000000707000000000700000000000000000000000000000000000000000000000000000000
310
00000000000000000700070000070700000000000000000000000000000000000000000000000000000000000000000000000000000000000000000000000000000000000000000000000000000000000000000000000000000000000000000000000000000000000000000000000000000000000000000000000000000000
310
00000000000000000000000000070000000000000000000007000000000000000000000000000000000000000000000000000000000000000000000000070007070707070000000000000000000000000000000000000000000000000000000000000000000000000000000000000000000000000000000000000000000000
310
00000000000000000000000000000000000000000000000000000000000000000000000000000000000000000000000000000000000000000000000000000000000007000000000000000000000700000000000000000000000000000000000000000000000000000000000000000000000007000700000707000000000000
310
00000000000000000000000000000000000000000000000000000000000000000000000000000000000000000000000000000000000000000000000000000000000000000000000000000000000000000000000000000000000000000000000000000000000000000000000000000000000000000000000700000000000000
310
00000007000000000000000000000000000000000000000000000000000000000000000000000000070007000007070000000000000000000000000000000000000000000000000000000000000000000000000000000000000000000000000000000000000000000000000000000000000000000000000000000000000000
310
00000000000000000000000000000000000000000000000000000000000000000000000000000000000000000007000000000000000000000700000000000000000000000000000000000000000000000000000000000000000000000007000700000707000000000000000000000000000000000000000000000000000000
310
00000000000000000000000000000000000000000000000000000000000000000000000000000000000000000000000000000000000000000000000000000000000000000000000000000000000000000000000000000000000000000000000000000707000000000000000007070000000000000000000000000000000000
310
00000000000000000000000000000000000000070007070707070000000000000000000000000000000000000000000000000000000000000000000000000000000000000000000000000000000000000000000000000000000000000000000000000000000000000000000000000000000000000000000000000000000000
310
00000000000000000000000000000000000000000000000000000707070707070707070000000000000000000000000000000000000000000000000000000000000000000000000007000700000707000000000000000000000000000000000000000000000000000000000000000000000000000000000000000000000000
310
00000000000000000000000000000000000000000000000000000000000000000000000000000000000000000000000000000000000000000000000000000000000000000000000000000000000000000000000000000000000000000000000000000000000000000000000000000000000000000000000000000000000707
310
07070707070000000000000000000000000000000000000000000000000000000000000000000000000000000000000000000000000000000000000000000000000000000000000000000000000000000000000000000000000000000000000000000000000000000000000000000000000000000000000000000000000000
310
00000000000000000000000000000000000000000000000000000000000000000000000000000000000000000000000000000007070000000007000000000000000000000000000000000000000000000000000000000000000000000000000000000000000000000000000000000000000000000000000000000000000000
310
00000000000000000000000000000000000000000000000000000000000000000000000000000000000000000000000000000000000000000000000000000000000000000000000000000000000000000000000000000000000000000000000000000000000000000707000000000700000000000000000000000000000000
310
00000000000000000000000000000000000000000000000000000000000000000000000000000000000000000000000000000000000000000000000000000000000000000000000000000000000000000000000000000000000000000000000000000000000000000000000000000000000000000000000000000000000000
310
00000000000000000000000000000000000000000000000000000000000007070000000007000000000000000000000000000000000000000000000000000000000000000000000000000000000000000000000000000000000000000000000000000000000000000000000000000000000000000000000000000000000000
310
00000000000000000000000000000000000000000000000000000000000000000000000000000000000000000000000000000000000000000000000000000000000000000000000000000000000000000000000007000000000700000000000000000000000000000000000000000000000000000000000000000000000000
310
00000000000000000000000000000000000000000000000000000000000000000000000000000000000000000000000000000000000000000000000000000000000000000000000000000000000000000000000000000000000000000000000000000000000000000000000000000000000000000000000000000000000000
310
00000000000000000000070000000007000000000000000000000000000000000000000000000000000000000000000000000000000000000000000000000000000000000000000000000000000000000000000000000000000000000000000000000000000000000000000000000000000000000000000000000000000000
310
00000000000000000000000000000000000000000000000000000000000000000000000000000000000000000000000000000000000000000000000000000007000000000700000000000000000000000000000000000000000000000000000000000000000000000000000000000000000000000000000000000000000000
310
00000000000000000000000000000000000000000000000000000000000000000000000000000000000000000000000000000000000000000000000000000000000000000000000000000000000000000000000000000000000000000000000000000000000000000000000000000000000000000700000000070000000000
310
00000000000000000000000000000000000000000000000000000000000000000000000000000000000000000000000000000000000000000000000000000000000000000000000000000000000000000000000000000000000000000000000000000000000000000000000000000000000000000000000000000000000000
310
00000000000000000000000000000000000000000000000000000000000000000000000000000000000007000000000700000000000000000000000000000000000000000000000000000000000000000000000000000000000000000000000000000000000000000000000000000000000000000000000000000000000000
310
00000000000000000000000000000000000000000000000000000000000000000000000000000000000000000000000000000000000000000000000000000000000000000000000000000000000000000000000000000000000000000000000700000000070000000000000000000000000000000000000000000000000000
310
00000000000000000000000000000000000000000000000000000000000000000000000000000000000000000000000000000000000000000000000000000000000000000000000000000000000000000000000000000000000000000000000000000000000000000000000000000000000000000000000000000000000000
310
00000000000000000000000000000000000000000007000000000700000000000000000000000000000000000000000000000000000000000000000000000000000000000000000000000000000000000000000000000000000000000000000000000000000000000000000000000000000000000000000000000000000000
310
00000000000000000000000000000000000000000000000000000000000000000000000000000000000000000000000000000000000000000000000000000000000000000000000000000700000000070000000000000000000000000000000000000000000000000000000000000000000000000000000000000000000000
310
00000000000000000000000000000000000000000000000000000000000000000000000000000000000000000000000000000000000000000000000000000000000000000000000000000000000000000000000000000000000000000000000000000000000000000000000000000000000000000000000000000000000000
310
07000000000700000000000000000000000000000000000000000000000000000000000000000000000000000000000000000000000000000000000000000000000000000000000000000000000000000000000000000000000000000000000000000000000000000000000000000000000000000000000000000000000000
310
00000000000000000000000000000000000000000000000000000000000000000000000000000000000000000000000000000000000700000000070000000000000000000000000000000000000000000000000000000000000000000000000000000000000000000000000000000000000000000000000000000000000000
310
00000000000000000000000000000000000000000000000000000000000000000000000000000000000000000000000000000000000000000000000000000000000000000000000000000000000000000000000000000000000000000000000000000000000000000000070000000007000000000000000000000000000000
310
00000000000000000000000000000000000000000000000000000000000000000000000000000000000000000000000000000000000000000000000000000000000000000000000000000000000000000000000000000000000000000000000000000000000000000000000000000000000000000000000000000000000000
310
00000000000000000000000000000000000000000000000000000000000000000700000000070000000000000000000000000000000000000000000000000000000000000000000000000000000000000000000000000000000000000000000000000000000000000000000000000000000000000000000000000000000000
310
00000000000000000000000000000000000000000000000000000000000000000000000000000000000000000000000000000000000000000000000000000000000000000000000000000000000000000000000000070000000007000000000000000000000000000000000000000000000000000000000000000000000000
310
00000000000000000000000000000000000000000000000000000000000000000000000000000000000000000000000000000000000000000000000000000000000000000000000000000000000000000000000000000000000000000000000000000000000000000000000000000000000000000000000000000000000000
310
00000000000000000000000700000000070000000000000000000000000000000000000000000000000000000000000000000000000000000000000000000000000000000000000000000000000000000000000000000000000000000000000000000000000000000000000000000000000000000000000000000000000000
310
00000000000000000000000000000000000000000000000000000000000000000000000000000000000000000000000000000000000000000000000000000000070000000007000000000000000000000000000000000000000000000000000000000000000000000000000000000000000000000000000000000000000000
310
00000000000000000000000000000000000000000000000000000000000000000000000000000000000000000000000000000000000000000000000000000000000000000000000000000000000000000000000000000000000000000000000000000000000000000000000000000000000000000007000000000700000000
310
00000000000000000000000000000000000000000000000000000000000000000000000000000000000000000000000000000000000000000000000000000000000000000000000000000000000000000000000000000000000000000000000000000000000000000000000000000000000000000000000000000000000000
310
00000000000000000000000000000000000000000000000000000000000000000000000000000000000000070000000007000000000000000000000000000000000000000000000000000000000000000000000000000000000000000000000000000000000000000000000000000000000000000000000000000000000000
310
00000000000000000000000000000000000000000000000000000000000000000000000000000000000000000000000000000000000000000000000000000000000000000000000000000000000000000000000000000000000000000000000007000000000700000000000000000000000000000000000000000000000000
310
00000000000000000000000000000000000000000000000000000000000000000000000000000000000000000000000000000000000000000000000000000000000000000000000000000000000000000000000000000000000000000000000000000000000000000000000000000000000000000000000000000000000000
310
00000000000000000000000000000000000000000000070000000007000000000000000000000000000000000000000000000000000000000000000000000000000000000000000000000000000000000000000000000000000000000000000000000000000000000000000000000000000000000000000000000000000000
310
00000000000000000000000000000000000000000000000000000000000000000000000000000000000000000000000000000000000000000000000000000000000000000000000000000007000000000700000000000000000000000000000000000000000000000000000000000000000000000000000000000000000000
310
00000000000000000000000000000000000000000000000000000000000000000000000000000000000000000000000000000000000000000000000000000000000000000000000000000000000000000000000000000000000000000000000000000000000000000000000000000000000000000000000000000000000000
310
00070007070007000000000000000000000000000000000000000000000000000000000000000000000000000000000000000000000000000000000000000000000000000000000000000000000000000000000000000000000000000000000000000000000000000000000000000000000000000000000000000000000000
310
00000000000000000000000000000000000000000000000000000000000000000000000000000000000000000000000000000000000007000707000700000000000000000000000000000000000000000000000000000000000000000000000000000000000000000000000000000000000000000000000000000000000000
310
00000000000000000000000000000000000000000000000000000000000000000000000000000000000000000000000000000000000000000000000000000000000000000000000000000000000000000000000000000000000000000000000000000000000000000000000707070707070000000000000000000000000000
310
00000000000000000000000000000000000000000000000000000000000000000000000000000000000000000000000000000000000000000000000000000000000000000000000000000000000000000000000000000000000000000000000000000000000000000000000000000000000000000000000000000000000000
310
00000000000000000000000000000000000000000000000000000000000000070707070707070707070000000000000000000000000000000000000000000000000000000000000000000000000000000000000000000000000000000000000000000000000000000000000000000000000000000000000000000000000000
310
00000000000000000000000000000000000000000000000000000000000000000000000000000000000000000000000000000000000000000000000000000000000000000000000000000000000000000007070707070707070707070707070707000000000000000000000000000000000000000000000000000000000000
310
00000000000000000000000000000000000000000000000000000000000000000000000000000000000000000000000000000000000000000000000000000000000000000000000000000000000000000000000000000000000000000000000000000000000000000000000000000000000000000000000000000000000000
310
00000000000007070707070707070707000707070707000700000000000000000000000000000000000000000000000000000000000000000000000000000000000000000000000000000000000000000000000000000000000000000000000000000000000000000000000000000000000000000000000000000000000000
310
00000000000000000000000000000000000000000000000000000000000000000000000000000000000000000000000000000000000000000000070007070707070700070707000707070707070000000000000000000000000000000000000000000000000000000000000000000000000000000000000000000000000000
310
00000000000000000000000000000000000000000000000000000000000000000000000000000000000000000000000000000000000000000000000000000000000000000000000000000000000000000000000000000000000000000000000000000000000000000000000000000007000707070700070707070707000707
310
07070007000000000000000000000000000000000000000000000000000000000000000000000000000000000000000000000000000000000000000000000000000000000000000000000000000000000000000000000000000000000000000000000000000000000000000000000000000000000000000000000000000000
310
00000000000000000000000000000000000000000000000000000000000000000000000000070707070007070707070707070707070707000700000000000000000000000000000000000000000000000000000000000000000000000000000000000000000000000000000000000000000000000000000000000000000000
310
00000000000000000000000000000000000000000000000000000000000000000000000000000000000000000000000000000000000000000000000000000000000000000000000000000000000000000000000000000000000700070707000707070707070707000707070700070000000000000000000000000000000000
310
00000000000000000000000000000000000000000000000000000000000000000000000000000000000000000000000000000000000000000000000000000000000000000000000000000000000000000000000000000000000000000000000000000000000000000000000000000000000000000000000000000000000000
310
00000000000000000000000000000007000007070707000707070707070007070707000007000000000000000000000000000000000000000000000000000000000000000000000000000000000000000000000000000000000000000000000000000000000000000000000000000000000000000000000000000000000000
310
00000000000000000000000000000000000000000000000000000000000000000000000000000000000000000000000000000000000000000000000000000000000000000700000707070707070007070007070707070700070700000000000000000000000000000000000000000000000000000000000000000000000000
310
00000000000000000000000000000000000000000000000000000000000000000000000000000000000000000000000000000000000000000000000000000000000000000000000000000000000000000000000000000000000000000000000000000000000000000000000000000000000000000000000000070700070707
310
07070707070700070707070700000700000000000000000000000000000000000000000000000000000000000000000000000000000000000000000000000000000000000000000000000000000000000000000000000000000000000000000000000000000000000000000000000000000000000000000000000000000000
310
00000000000000000000000000000000000000000000000000000000000000000000000000000000000000000000000007000000070700070707070707000707000007070000000000000000000000000000000000000000000000000000000000000000000000000000000000000000000000000000000000000000000000
310
00000000000000000000000000000000000000000000000000000000000000000000000000000000000000000000000000000000000000000000000000000000000000000000000000000000000000000000000000000000000000000000000000000000000707000000070707070707070707070000000700000000000000
310
00000000000000000000000000000000000000000000000000000000000000000000000000000000000000000000000000000000000000000000000000000000000000000000000000000000000000000000000000000000000000000000000000000000000000000000000000000000000000000000000000000000000000
310
00000000000000000000000000000000000000000000000000000000070700000000000707070700000000000707000000000000000000000000000000000000000000000000000000000000000000000000000000000000000000000000000000000000000000000000000000000000000000000000000000000000000000
310
00000000000000000000000000000000000000000000000000000000000000000000000000000000000000000000000000000000000000000000000000000000000000000000000000000000000000000007000700000000000000000000000707070000000000000000000000000000000000000000000000000000000000
310
00000000000000000000000000000000000000000000000000000000000000000000000000000000000000000000000000000000000000000000000000000000000000000000000000000000000000000000000000000000000000000000000000000000000000000000000000000000000000000000000000000000000000
310
00000000000000000707070707070000000707070700070700000000000000000000000000000000000000000000000000000000000000000000000000000000000000000000000000000000000000000000000000000000000000000000000000000000000000000000000000000000000000000000000000000000000000
310
00000000000000000000000000000000000000000000000000000000000000000000000000000000000000000000000000000000000000000000000000000007070000070707000000070700000000000000000000000000000000000000000000000000000000000000000000000000000000000000000000000000000000
310
00000000000000000000000000000000000000000000000000000000000000000000000000000000000000000000000000000000000000000000000000000000000000000000000000000000000000000000000000000000000000000000000000000000000000000000000000000000000000000000070707070707070700
310
00000000000000000000000000000000000000000000000000000000000000000000000000000000000000000000000000000000000000000000000000000000000000000000000000000000000000000000000000000000000000000000000000000000000000000000000000000000000000000000000000000000000000
310
000000000000000000000000000000000000000000000000000000000000000000000000000000000000000000000000000000000000000000000000000000000000000000000000000000000000000000000000000000000000000000000000000000000000000000000000
  0
ENDSEC
  0
EOF
