  0
SECTION
  2
HEADER
  9
$ACADVER
  1
AC1015
  9
$ACADMAINTVER
 70
     6
  9
$DWGCODEPAGE
  3
ANSI_1252
  9
$INSBASE
 10
0.0
 20
0.0
 30
0.0
  9
$EXTMIN
 10
-0.106
 20
-0.10355
 30
0.0
  9
$EXTMAX
 10
223.106
 20
414.10365
 30
0.0
  9
$LIMMIN
 10
0.0
 20
0.0
  9
$LIMMAX
 10
12.0
 20
9.0
  9
$ORTHOMODE
 70
     0
  9
$REGENMODE
 70
     1
  9
$FILLMODE
 70
     1
  9
$QTEXTMODE
 70
     0
  9
$MIRRTEXT
 70
     1
  9
$LTSCALE
 40
1.0
  9
$ATTMODE
 70
     1
  9
$TEXTSIZE
 40
0.2
  9
$TRACEWID
 40
0.05
  9
$TEXTSTYLE
  7
Standard
  9
$CLAYER
  8
0
  9
$CELTYPE
  6
ByBlock
  9
$CECOLOR
 62
   256
  9
$CELTSCALE
 40
1.0
  9
$DISPSILH
 70
     0
  9
$DIMSCALE
 40
1.0
  9
$DIMASZ
 40
0.18
  9
$DIMEXO
 40
0.0625
  9
$DIMDLI
 40
0.38
  9
$DIMRND
 40
0.0
  9
$DIMDLE
 40
0.0
  9
$DIMEXE
 40
0.18
  9
$DIMTP
 40
0.0
  9
$DIMTM
 40
0.0
  9
$DIMTXT
 40
0.18
  9
$DIMCEN
 40
0.09
  9
$DIMTSZ
 40
0.0
  9
$DIMTOL
 70
     0
  9
$DIMLIM
 70
     0
  9
$DIMTIH
 70
     1
  9
$DIMTOH
 70
     1
  9
$DIMSE1
 70
     0
  9
$DIMSE2
 70
     0
  9
$DIMTAD
 70
     0
  9
$DIMZIN
 70
     0
  9
$DIMBLK
  1

  9
$DIMASO
 70
     1
  9
$DIMSHO
 70
     1
  9
$DIMPOST
  1

  9
$DIMAPOST
  1

  9
$DIMALT
 70
     0
  9
$DIMALTD
 70
     2
  9
$DIMALTF
 40
25.4
  9
$DIMLFAC
 40
1.0
  9
$DIMTOFL
 70
     0
  9
$DIMTVP
 40
0.0
  9
$DIMTIX
 70
     0
  9
$DIMSOXD
 70
     0
  9
$DIMSAH
 70
     0
  9
$DIMBLK1
  1

  9
$DIMBLK2
  1

  9
$DIMSTYLE
  2
Standard
  9
$DIMCLRD
 70
     0
  9
$DIMCLRE
 70
     0
  9
$DIMCLRT
 70
     0
  9
$DIMTFAC
 40
1.0
  9
$DIMGAP
 40
0.09
  9
$DIMJUST
 70
     0
  9
$DIMSD1
 70
     0
  9
$DIMSD2
 70
     0
  9
$DIMTOLJ
 70
     1
  9
$DIMTZIN
 70
     0
  9
$DIMALTZ
 70
     0
  9
$DIMALTTZ
 70
     0
  9
$DIMUPT
 70
     0
  9
$DIMDEC
 70
     4
  9
$DIMTDEC
 70
     4
  9
$DIMALTU
 70
     2
  9
$DIMALTTD
 70
     2
  9
$DIMTXSTY
  7
Standard
  9
$DIMAUNIT
 70
     0
  9
$DIMADEC
 70
     0
  9
$DIMALTRND
 40
0.0
  9
$DIMAZIN
 70
     0
  9
$DIMDSEP
 70
    46
  9
$DIMATFIT
 70
     3
  9
$DIMFRAC
 70
     0
  9
$DIMLDRBLK
  1

  9
$DIMLUNIT
 70
     2
  9
$DIMLWD
 70
    -2
  9
$DIMLWE
 70
    -2
  9
$DIMTMOVE
 70
     2
  9
$LUNITS
 70
     2
  9
$LUPREC
 70
     4
  9
$SKETCHINC
 40
0.1
  9
$FILLETRAD
 40
0.5
  9
$AUNITS
 70
     0
  9
$AUPREC
 70
     0
  9
$MENU
  1
.
  9
$ELEVATION
 40
0.0
  9
$PELEVATION
 40
0.0
  9
$THICKNESS
 40
0.0
  9
$LIMCHECK
 70
     0
  9
$CHAMFERA
 40
0.5
  9
$CHAMFERB
 40
0.5
  9
$CHAMFERC
 40
1.0
  9
$CHAMFERD
 40
0.0
  9
$SKPOLY
 70
     0
  9
$TDCREATE
 40
2456647.63902397
  9
$TDUCREATE
 40
2456647.597357303
  9
$TDUPDATE
 40
2456647.641143472
  9
$TDUUPDATE
 40
2456647.599476805
  9
$TDINDWG
 40
0.0021191435
  9
$TDUSRTIMER
 40
0.0021191435
  9
$USRTIMER
 70
     1
  9
$ANGBASE
 50
0.0
  9
$ANGDIR
 70
     0
  9
$PDMODE
 70
     0
  9
$PDSIZE
 40
0.0
  9
$PLINEWID
 40
0.0
  9
$SPLFRAME
 70
     0
  9
$SPLINETYPE
 70
     6
  9
$SPLINESEGS
 70
     8
  9
$HANDSEED
  5
CA1
  9
$SURFTAB1
 70
     6
  9
$SURFTAB2
 70
     6
  9
$SURFTYPE
 70
     6
  9
$SURFU
 70
     6
  9
$SURFV
 70
     6
  9
$UCSBASE
  2

  9
$UCSNAME
  2

  9
$UCSORG
 10
0.0
 20
0.0
 30
0.0
  9
$UCSXDIR
 10
1.0
 20
0.0
 30
0.0
  9
$UCSYDIR
 10
0.0
 20
1.0
 30
0.0
  9
$UCSORTHOREF
  2

  9
$UCSORTHOVIEW
 70
     0
  9
$UCSORGTOP
 10
0.0
 20
0.0
 30
0.0
  9
$UCSORGBOTTOM
 10
0.0
 20
0.0
 30
0.0
  9
$UCSORGLEFT
 10
0.0
 20
0.0
 30
0.0
  9
$UCSORGRIGHT
 10
0.0
 20
0.0
 30
0.0
  9
$UCSORGFRONT
 10
0.0
 20
0.0
 30
0.0
  9
$UCSORGBACK
 10
0.0
 20
0.0
 30
0.0
  9
$PUCSBASE
  2

  9
$PUCSNAME
  2

  9
$PUCSORG
 10
0.0
 20
0.0
 30
0.0
  9
$PUCSXDIR
 10
1.0
 20
0.0
 30
0.0
  9
$PUCSYDIR
 10
0.0
 20
1.0
 30
0.0
  9
$PUCSORTHOREF
  2

  9
$PUCSORTHOVIEW
 70
     0
  9
$PUCSORGTOP
 10
0.0
 20
0.0
 30
0.0
  9
$PUCSORGBOTTOM
 10
0.0
 20
0.0
 30
0.0
  9
$PUCSORGLEFT
 10
0.0
 20
0.0
 30
0.0
  9
$PUCSORGRIGHT
 10
0.0
 20
0.0
 30
0.0
  9
$PUCSORGFRONT
 10
0.0
 20
0.0
 30
0.0
  9
$PUCSORGBACK
 10
0.0
 20
0.0
 30
0.0
  9
$USERI1
 70
     0
  9
$USERI2
 70
     0
  9
$USERI3
 70
     0
  9
$USERI4
 70
     0
  9
$USERI5
 70
     0
  9
$USERR1
 40
0.0
  9
$USERR2
 40
0.0
  9
$USERR3
 40
0.0
  9
$USERR4
 40
0.0
  9
$USERR5
 40
0.0
  9
$WORLDVIEW
 70
     1
  9
$SHADEDGE
 70
     3
  9
$SHADEDIF
 70
    70
  9
$TILEMODE
 70
     1
  9
$MAXACTVP
 70
    64
  9
$PINSBASE
 10
0.0
 20
0.0
 30
0.0
  9
$PLIMCHECK
 70
     0
  9
$PEXTMIN
 10
1.000000000000E+20
 20
1.000000000000E+20
 30
1.000000000000E+20
  9
$PEXTMAX
 10
-1.000000000000E+20
 20
-1.000000000000E+20
 30
-1.000000000000E+20
  9
$PLIMMIN
 10
0.0
 20
0.0
  9
$PLIMMAX
 10
12.0
 20
9.0
  9
$UNITMODE
 70
     0
  9
$VISRETAIN
 70
     1
  9
$PLINEGEN
 70
     0
  9
$PSLTSCALE
 70
     1
  9
$TREEDEPTH
 70
  3020
  9
$CMLSTYLE
  2
Standard
  9
$CMLJUST
 70
     0
  9
$CMLSCALE
 40
1.0
  9
$PROXYGRAPHICS
 70
     1
  9
$MEASUREMENT
 70
     0
  9
$CELWEIGHT
370
    -1
  9
$ENDCAPS
280
     0
  9
$JOINSTYLE
280
     0
  9
$LWDISPLAY
290
     0
  9
$INSUNITS
 70
     0
  9
$HYPERLINKBASE
  1

  9
$STYLESHEET
  1

  9
$XEDIT
290
     1
  9
$CEPSNTYPE
380
     0
  9
$PSTYLEMODE
290
     1
  9
$FINGERPRINTGUID
  2
{DE3022E0-B8AD-4C9A-8FAD-E56D3AA591AF}
  9
$VERSIONGUID
  2
{FAEB1C32-E019-11D5-929B-00C0DF256EC4}
  9
$EXTNAMES
290
     1
  9
$PSVPSCALE
 40
0.0
  9
$OLESTARTUP
290
     0
  0
ENDSEC
  0
SECTION
  2
CLASSES
  0
CLASS
  1
ACDBDICTIONARYWDFLT
  2
AcDbDictionaryWithDefault
  3
ObjectDBX Classes
 90
        0
280
     0
281
     0
  0
CLASS
  1
SCALE
  2
AcDbScale
  3
ObjectDBX Classes
 90
     1153
280
     0
281
     0
  0
CLASS
  1
DICTIONARYVAR
  2
AcDbDictionaryVar
  3
ObjectDBX Classes
 90
        0
280
     0
281
     0
  0
CLASS
  1
ACDBPLACEHOLDER
  2
AcDbPlaceHolder
  3
ObjectDBX Classes
 90
        0
280
     0
281
     0
  0
CLASS
  1
LAYOUT
  2
AcDbLayout
  3
ObjectDBX Classes
 90
        0
280
     0
281
     0
  0
ENDSEC
  0
SECTION
  2
TABLES
  0
TABLE
  2
VPORT
  5
8
330
0
100
AcDbSymbolTable
 70
     1
  0
VPORT
  5
80B
330
8
100
AcDbSymbolTableRecord
100
AcDbViewportTableRecord
  2
*Active
 70
     0
 10
0.0
 20
0.0
 11
1.0
 21
1.0
 12
111.5
 22
207.00005
 13
0.0
 23
0.0
 14
0.5
 24
0.5
 15
0.5
 25
0.5
 16
0.0
 26
0.0
 36
1.0
 17
0.0
 27
0.0
 37
0.0
 40
422.491344
 41
1.319001386963
 42
50.0
 43
0.0
 44
0.0
 50
0.0
 51
0.0
 71
    16
 72
   100
 73
     1
 74
     3
 75
     0
 76
     0
 77
     0
 78
     0
281
     0
 65
     1
110
0.0
120
0.0
130
0.0
111
1.0
121
0.0
131
0.0
112
0.0
122
1.0
132
0.0
 79
     0
146
0.0
  0
ENDTAB
  0
TABLE
  2
LTYPE
  5
5
330
0
100
AcDbSymbolTable
 70
     1
  0
LTYPE
  5
14
330
5
100
AcDbSymbolTableRecord
100
AcDbLinetypeTableRecord
  2
ByBlock
 70
     0
  3

 72
    65
 73
     0
 40
0.0
  0
LTYPE
  5
15
330
5
100
AcDbSymbolTableRecord
100
AcDbLinetypeTableRecord
  2
ByLayer
 70
     0
  3

 72
    65
 73
     0
 40
0.0
  0
LTYPE
  5
16
330
5
100
AcDbSymbolTableRecord
100
AcDbLinetypeTableRecord
  2
Continuous
 70
     0
  3
Solid line
 72
    65
 73
     0
 40
0.0
  0
ENDTAB
  0
TABLE
  2
LAYER
  5
2
330
0
100
AcDbSymbolTable
 70
     1
  0
LAYER
  5
10
330
2
100
AcDbSymbolTableRecord
100
AcDbLayerTableRecord
  2
0
 70
     0
 62
     7
  6
Continuous
370
    -3
390
F
  0
ENDTAB
  0
TABLE
  2
STYLE
  5
3
330
0
100
AcDbSymbolTable
 70
     1
  0
STYLE
  5
11
330
3
100
AcDbSymbolTableRecord
100
AcDbTextStyleTableRecord
  2
Standard
 70
     0
 40
0.0
 41
1.0
 50
0.0
 71
     0
 42
0.2
  3
txt
  4

  0
ENDTAB
  0
TABLE
  2
VIEW
  5
6
330
0
100
AcDbSymbolTable
 70
     0
  0
ENDTAB
  0
TABLE
  2
UCS
  5
7
330
0
100
AcDbSymbolTable
 70
     0
  0
ENDTAB
  0
TABLE
  2
APPID
  5
9
330
0
100
AcDbSymbolTable
 70
     1
  0
APPID
  5
12
330
9
100
AcDbSymbolTableRecord
100
AcDbRegAppTableRecord
  2
ACAD
 70
     0
  0
ENDTAB
  0
TABLE
  2
DIMSTYLE
  5
A
330
0
100
AcDbSymbolTable
 70
     1
100
AcDbDimStyleTable
  0
DIMSTYLE
105
20
330
A
100
AcDbSymbolTableRecord
100
AcDbDimStyleTableRecord
  2
Standard
 70
     0
340
11
  0
ENDTAB
  0
TABLE
  2
BLOCK_RECORD
  5
1
330
0
100
AcDbSymbolTable
 70
     2
  0
BLOCK_RECORD
  5
1D
330
1
100
AcDbSymbolTableRecord
100
AcDbBlockTableRecord
  2
*Model_Space
340
1E
  0
BLOCK_RECORD
  5
1B
330
1
100
AcDbSymbolTableRecord
100
AcDbBlockTableRecord
  2
*Paper_Space
340
1C
  0
ENDTAB
  0
ENDSEC
  0
SECTION
  2
BLOCKS
  0
BLOCK
  5
80E
330
1D
100
AcDbEntity
  8
0
100
AcDbBlockBegin
  2
*Model_Space
 70
     0
 10
0.0
 20
0.0
 30
0.0
  3
*Model_Space
  1
*Model_Space
  0
ENDBLK
  5
80F
330
1D
100
AcDbEntity
  8
0
100
AcDbBlockEnd
  0
BLOCK
  5
80C
330
1B
100
AcDbEntity
 67
     1
  8
0
100
AcDbBlockBegin
  2
*Paper_Space
 70
     0
 10
0.0
 20
0.0
 30
0.0
  3
*Paper_Space
  1
*Paper_Space
  0
ENDBLK
  5
80D
330
1B
100
AcDbEntity
 67
     1
  8
0
100
AcDbBlockEnd
  0
ENDSEC
  0
SECTION
  2
ENTITIES
  0
LINE
  5
21
330
1D
100
AcDbEntity
  8
0
100
AcDbLine
 10
47.796
 20
59.89645
 30
0.0
 11
48.096
 21
59.89645
 31
0.0
  0
LINE
  5
22
330
1D
100
AcDbEntity
  8
0
100
AcDbLine
 10
48.096
 20
59.89645
 30
0.0
 11
48.996
 21
59.89645
 31
0.0
  0
LINE
  5
23
330
1D
100
AcDbEntity
  8
0
100
AcDbLine
 10
48.996
 20
59.89645
 30
0.0
 11
50.396
 21
59.89645
 31
0.0
  0
LINE
  5
24
330
1D
100
AcDbEntity
  8
0
100
AcDbLine
 10
48.996
 20
59.89645
 30
0.0
 11
49.296
 21
59.89645
 31
0.0
  0
LINE
  5
25
330
1D
100
AcDbEntity
  8
0
100
AcDbLine
 10
45.796
 20
87.89645
 30
0.0
 11
46.296
 21
88.89645
 31
0.0
  0
LINE
  5
26
330
1D
100
AcDbEntity
  8
0
100
AcDbLine
 10
45.796
 20
87.89645
 30
0.0
 11
47.796
 21
59.89645
 31
0.0
  0
LINE
  5
27
330
1D
100
AcDbEntity
  8
0
100
AcDbLine
 10
45.796
 20
88.89645
 30
0.0
 11
46.184
 21
88.89645
 31
0.0
  0
LINE
  5
28
330
1D
100
AcDbEntity
  8
0
100
AcDbLine
 10
45.796
 20
88.89645
 30
0.0
 11
45.796
 21
92.13455
 31
0.0
  0
LINE
  5
29
330
1D
100
AcDbEntity
  8
0
100
AcDbLine
 10
46.184
 20
88.89645
 30
0.0
 11
47.284
 21
88.89645
 31
0.0
  0
LINE
  5
2A
330
1D
100
AcDbEntity
  8
0
100
AcDbLine
 10
46.184
 20
88.89645
 30
0.0
 11
46.296
 21
88.89645
 31
0.0
  0
LINE
  5
2B
330
1D
100
AcDbEntity
  8
0
100
AcDbLine
 10
47.284
 20
88.89645
 30
0.0
 11
49.031
 21
88.89645
 31
0.0
  0
LINE
  5
2C
330
1D
100
AcDbEntity
  8
0
100
AcDbLine
 10
49.596
 20
2.17165
 30
0.0
 11
50.296
 21
1.04725
 31
0.0
  0
LINE
  5
2D
330
1D
100
AcDbEntity
  8
0
100
AcDbLine
 10
49.596
 20
59.89645
 30
0.0
 11
50.296
 21
59.89645
 31
0.0
  0
LINE
  5
2E
330
1D
100
AcDbEntity
  8
0
100
AcDbLine
 10
49.596
 20
5.50765
 30
0.0
 11
50.296
 21
6.70705
 31
0.0
  0
LINE
  5
2F
330
1D
100
AcDbEntity
  8
0
100
AcDbLine
 10
49.296
 20
59.89645
 30
0.0
 11
49.296
 21
4.15825
 31
0.0
  0
LINE
  5
30
330
1D
100
AcDbEntity
  8
0
100
AcDbLine
 10
49.296
 20
59.89645
 30
0.0
 11
49.596
 21
59.89645
 31
0.0
  0
LINE
  5
31
330
1D
100
AcDbEntity
  8
0
100
AcDbLine
 10
49.296
 20
4.15825
 30
0.0
 11
49.596
 21
5.50765
 31
0.0
  0
LINE
  5
32
330
1D
100
AcDbEntity
  8
0
100
AcDbLine
 10
49.296
 20
4.15825
 30
0.0
 11
49.596
 21
2.17165
 31
0.0
  0
LINE
  5
33
330
1D
100
AcDbEntity
  8
0
100
AcDbLine
 10
49.296
 20
4.15825
 30
0.0
 11
49.296
 21
59.89645
 31
0.0
  0
LINE
  5
34
330
1D
100
AcDbEntity
  8
0
100
AcDbLine
 10
49.031
 20
88.89645
 30
0.0
 11
51.328
 21
88.89645
 31
0.0
  0
LINE
  5
35
330
1D
100
AcDbEntity
  8
0
100
AcDbLine
 10
47.633
 20
92.13455
 30
0.0
 11
50.285
 21
92.13455
 31
0.0
  0
LINE
  5
36
330
1D
100
AcDbEntity
  8
0
100
AcDbLine
 10
53.096
 20
-0.00225
 30
0.0
 11
54.896
 21
-0.07725
 31
0.0
  0
LINE
  5
37
330
1D
100
AcDbEntity
  8
0
100
AcDbLine
 10
51.496
 20
0.37255
 30
0.0
 11
53.096
 21
-0.00225
 31
0.0
  0
LINE
  5
38
330
1D
100
AcDbEntity
  8
0
100
AcDbLine
 10
50.296
 20
1.04725
 30
0.0
 11
51.496
 21
0.37255
 31
0.0
  0
LINE
  5
39
330
1D
100
AcDbEntity
  8
0
100
AcDbLine
 10
50.396
 20
59.89645
 30
0.0
 11
52.296
 21
59.89645
 31
0.0
  0
LINE
  5
3A
330
1D
100
AcDbEntity
  8
0
100
AcDbLine
 10
52.296
 20
59.89645
 30
0.0
 11
54.496
 21
59.89645
 31
0.0
  0
LINE
  5
3B
330
1D
100
AcDbEntity
  8
0
100
AcDbLine
 10
53.096
 20
59.89645
 30
0.0
 11
54.896
 21
59.89645
 31
0.0
  0
LINE
  5
3C
330
1D
100
AcDbEntity
  8
0
100
AcDbLine
 10
53.096
 20
8.95605
 30
0.0
 11
54.896
 21
9.66815
 31
0.0
  0
LINE
  5
3D
330
1D
100
AcDbEntity
  8
0
100
AcDbLine
 10
51.496
 20
59.89645
 30
0.0
 11
53.096
 21
59.89645
 31
0.0
  0
LINE
  5
3E
330
1D
100
AcDbEntity
  8
0
100
AcDbLine
 10
51.496
 20
7.90655
 30
0.0
 11
53.096
 21
8.95605
 31
0.0
  0
LINE
  5
3F
330
1D
100
AcDbEntity
  8
0
100
AcDbLine
 10
50.296
 20
59.89645
 30
0.0
 11
51.496
 21
59.89645
 31
0.0
  0
LINE
  5
40
330
1D
100
AcDbEntity
  8
0
100
AcDbLine
 10
50.296
 20
6.70705
 30
0.0
 11
51.496
 21
7.90655
 31
0.0
  0
LINE
  5
41
330
1D
100
AcDbEntity
  8
0
100
AcDbLine
 10
54.496
 20
59.89645
 30
0.0
 11
56.796
 21
59.89645
 31
0.0
  0
LINE
  5
42
330
1D
100
AcDbEntity
  8
0
100
AcDbLine
 10
54.896
 20
-0.07725
 30
0.0
 11
56.796
 21
-0.10355
 31
0.0
  0
LINE
  5
43
330
1D
100
AcDbEntity
  8
0
100
AcDbLine
 10
54.896
 20
59.89645
 30
0.0
 11
56.796
 21
59.89645
 31
0.0
  0
LINE
  5
44
330
1D
100
AcDbEntity
  8
0
100
AcDbLine
 10
54.896
 20
9.66815
 30
0.0
 11
56.796
 21
9.89645
 31
0.0
  0
LINE
  5
45
330
1D
100
AcDbEntity
  8
0
100
AcDbLine
 10
56.796
 20
59.89645
 30
0.0
 11
58.696
 21
59.89645
 31
0.0
  0
LINE
  5
46
330
1D
100
AcDbEntity
  8
0
100
AcDbLine
 10
56.796
 20
59.89645
 30
0.0
 11
59.096
 21
59.89645
 31
0.0
  0
LINE
  5
47
330
1D
100
AcDbEntity
  8
0
100
AcDbLine
 10
56.796
 20
9.89645
 30
0.0
 11
58.696
 21
9.66815
 31
0.0
  0
LINE
  5
48
330
1D
100
AcDbEntity
  8
0
100
AcDbLine
 10
56.796
 20
-0.10355
 30
0.0
 11
58.696
 21
-0.07725
 31
0.0
  0
LINE
  5
49
330
1D
100
AcDbEntity
  8
0
100
AcDbLine
 10
53.981
 20
88.89645
 30
0.0
 11
56.796
 21
88.89645
 31
0.0
  0
LINE
  5
4A
330
1D
100
AcDbEntity
  8
0
100
AcDbLine
 10
51.328
 20
88.89645
 30
0.0
 11
53.981
 21
88.89645
 31
0.0
  0
LINE
  5
4B
330
1D
100
AcDbEntity
  8
0
100
AcDbLine
 10
58.696
 20
59.89645
 30
0.0
 11
60.496
 21
59.89645
 31
0.0
  0
LINE
  5
4C
330
1D
100
AcDbEntity
  8
0
100
AcDbLine
 10
59.096
 20
59.89645
 30
0.0
 11
61.296
 21
59.89645
 31
0.0
  0
LINE
  5
4D
330
1D
100
AcDbEntity
  8
0
100
AcDbLine
 10
58.696
 20
9.66815
 30
0.0
 11
60.496
 21
8.95605
 31
0.0
  0
LINE
  5
4E
330
1D
100
AcDbEntity
  8
0
100
AcDbLine
 10
58.696
 20
-0.07725
 30
0.0
 11
60.496
 21
-0.00225
 31
0.0
  0
LINE
  5
4F
330
1D
100
AcDbEntity
  8
0
100
AcDbLine
 10
56.796
 20
88.89645
 30
0.0
 11
59.61
 21
88.89645
 31
0.0
  0
LINE
  5
50
330
1D
100
AcDbEntity
  8
0
100
AcDbLine
 10
59.61
 20
88.89645
 30
0.0
 11
62.263
 21
88.89645
 31
0.0
  0
LINE
  5
51
330
1D
100
AcDbEntity
  8
0
100
AcDbLine
 10
60.496
 20
-0.00225
 30
0.0
 11
62.096
 21
0.37255
 31
0.0
  0
LINE
  5
52
330
1D
100
AcDbEntity
  8
0
100
AcDbLine
 10
62.096
 20
0.37255
 30
0.0
 11
63.296
 21
1.04725
 31
0.0
  0
LINE
  5
53
330
1D
100
AcDbEntity
  8
0
100
AcDbLine
 10
63.296
 20
1.04725
 30
0.0
 11
63.996
 21
2.17165
 31
0.0
  0
LINE
  5
54
330
1D
100
AcDbEntity
  8
0
100
AcDbLine
 10
60.496
 20
59.89645
 30
0.0
 11
62.096
 21
59.89645
 31
0.0
  0
LINE
  5
55
330
1D
100
AcDbEntity
  8
0
100
AcDbLine
 10
61.296
 20
59.89645
 30
0.0
 11
63.196
 21
59.89645
 31
0.0
  0
LINE
  5
56
330
1D
100
AcDbEntity
  8
0
100
AcDbLine
 10
60.496
 20
8.95605
 30
0.0
 11
62.096
 21
7.90655
 31
0.0
  0
LINE
  5
57
330
1D
100
AcDbEntity
  8
0
100
AcDbLine
 10
62.096
 20
59.89645
 30
0.0
 11
63.296
 21
59.89645
 31
0.0
  0
LINE
  5
58
330
1D
100
AcDbEntity
  8
0
100
AcDbLine
 10
63.196
 20
59.89645
 30
0.0
 11
64.596
 21
59.89645
 31
0.0
  0
LINE
  5
59
330
1D
100
AcDbEntity
  8
0
100
AcDbLine
 10
62.096
 20
7.90655
 30
0.0
 11
63.296
 21
6.70705
 31
0.0
  0
LINE
  5
5A
330
1D
100
AcDbEntity
  8
0
100
AcDbLine
 10
63.296
 20
59.89645
 30
0.0
 11
63.996
 21
59.89645
 31
0.0
  0
LINE
  5
5B
330
1D
100
AcDbEntity
  8
0
100
AcDbLine
 10
63.296
 20
6.70705
 30
0.0
 11
63.996
 21
5.50765
 31
0.0
  0
LINE
  5
5C
330
1D
100
AcDbEntity
  8
0
100
AcDbLine
 10
63.996
 20
59.89645
 30
0.0
 11
64.296
 21
59.89645
 31
0.0
  0
LINE
  5
5D
330
1D
100
AcDbEntity
  8
0
100
AcDbLine
 10
63.996
 20
5.50765
 30
0.0
 11
64.296
 21
4.15825
 31
0.0
  0
LINE
  5
5E
330
1D
100
AcDbEntity
  8
0
100
AcDbLine
 10
64.296
 20
4.15825
 30
0.0
 11
64.296
 21
59.89645
 31
0.0
  0
LINE
  5
5F
330
1D
100
AcDbEntity
  8
0
100
AcDbLine
 10
64.296
 20
59.89645
 30
0.0
 11
64.296
 21
4.15825
 31
0.0
  0
LINE
  5
60
330
1D
100
AcDbEntity
  8
0
100
AcDbLine
 10
64.296
 20
59.89645
 30
0.0
 11
64.596
 21
59.89645
 31
0.0
  0
LINE
  5
61
330
1D
100
AcDbEntity
  8
0
100
AcDbLine
 10
63.996
 20
2.17165
 30
0.0
 11
64.296
 21
4.15825
 31
0.0
  0
LINE
  5
62
330
1D
100
AcDbEntity
  8
0
100
AcDbLine
 10
65.496
 20
59.89645
 30
0.0
 11
65.796
 21
59.89645
 31
0.0
  0
LINE
  5
63
330
1D
100
AcDbEntity
  8
0
100
AcDbLine
 10
64.596
 20
59.89645
 30
0.0
 11
65.496
 21
59.89645
 31
0.0
  0
LINE
  5
64
330
1D
100
AcDbEntity
  8
0
100
AcDbLine
 10
64.56
 20
88.89645
 30
0.0
 11
66.307
 21
88.89645
 31
0.0
  0
LINE
  5
65
330
1D
100
AcDbEntity
  8
0
100
AcDbLine
 10
62.263
 20
88.89645
 30
0.0
 11
64.56
 21
88.89645
 31
0.0
  0
LINE
  5
66
330
1D
100
AcDbEntity
  8
0
100
AcDbLine
 10
65.796
 20
59.89645
 30
0.0
 11
67.796
 21
87.89645
 31
0.0
  0
LINE
  5
67
330
1D
100
AcDbEntity
  8
0
100
AcDbLine
 10
66.307
 20
88.89645
 30
0.0
 11
67.407
 21
88.89645
 31
0.0
  0
LINE
  5
68
330
1D
100
AcDbEntity
  8
0
100
AcDbLine
 10
67.796
 20
88.89645
 30
0.0
 11
67.796
 21
92.13455
 31
0.0
  0
LINE
  5
69
330
1D
100
AcDbEntity
  8
0
100
AcDbLine
 10
67.407
 20
88.89645
 30
0.0
 11
67.796
 21
88.89645
 31
0.0
  0
LINE
  5
6A
330
1D
100
AcDbEntity
  8
0
100
AcDbLine
 10
67.296
 20
88.89645
 30
0.0
 11
67.407
 21
88.89645
 31
0.0
  0
LINE
  5
6B
330
1D
100
AcDbEntity
  8
0
100
AcDbLine
 10
67.296
 20
88.89645
 30
0.0
 11
67.796
 21
87.89645
 31
0.0
  0
LINE
  5
6C
330
1D
100
AcDbEntity
  8
0
100
AcDbLine
 10
67.796
 20
92.13455
 30
0.0
 11
68.797
 21
92.13455
 31
0.0
  0
LINE
  5
6D
330
1D
100
AcDbEntity
  8
0
100
AcDbLine
 10
67.796
 20
92.13455
 30
0.0
 11
67.796
 21
88.89645
 31
0.0
  0
LINE
  5
73
330
1D
100
AcDbEntity
  8
0
100
AcDbLine
 10
132.313
 20
53.81485
 30
0.0
 11
133.3
 21
53.81485
 31
0.0
  0
LINE
  5
74
330
1D
100
AcDbEntity
  8
0
100
AcDbLine
 10
132.398
 20
53.81485
 30
0.0
 11
133.355
 21
53.81485
 31
0.0
  0
LINE
  5
75
330
1D
100
AcDbEntity
  8
0
100
AcDbLine
 10
132.286
 20
53.81485
 30
0.0
 11
132.959
 21
53.81485
 31
0.0
  0
LINE
  5
76
330
1D
100
AcDbEntity
  8
0
100
AcDbLine
 10
133.3
 20
53.81485
 30
0.0
 11
135.093
 21
53.81485
 31
0.0
  0
LINE
  5
77
330
1D
100
AcDbEntity
  8
0
100
AcDbLine
 10
132.959
 20
53.81485
 30
0.0
 11
134.082
 21
53.81485
 31
0.0
  0
LINE
  5
78
330
1D
100
AcDbEntity
  8
0
100
AcDbLine
 10
132.75
 20
53.81485
 30
0.0
 11
134.25
 21
53.81485
 31
0.0
  0
LINE
  5
79
330
1D
100
AcDbEntity
  8
0
100
AcDbLine
 10
132.117
 20
53.81485
 30
0.0
 11
132.75
 21
53.81485
 31
0.0
  0
LINE
  5
7A
330
1D
100
AcDbEntity
  8
0
100
AcDbLine
 10
132.091
 20
53.81485
 30
0.0
 11
132.286
 21
53.81485
 31
0.0
  0
LINE
  5
7B
330
1D
100
AcDbEntity
  8
0
100
AcDbLine
 10
132.091
 20
53.81485
 30
0.0
 11
132.398
 21
53.81485
 31
0.0
  0
LINE
  5
7C
330
1D
100
AcDbEntity
  8
0
100
AcDbLine
 10
132.091
 20
53.81485
 30
0.0
 11
132.313
 21
53.81485
 31
0.0
  0
LINE
  5
7D
330
1D
100
AcDbEntity
  8
0
100
AcDbLine
 10
135.093
 20
53.81485
 30
0.0
 11
137.634
 21
53.81485
 31
0.0
  0
LINE
  5
7E
330
1D
100
AcDbEntity
  8
0
100
AcDbLine
 10
135.238
 20
53.81485
 30
0.0
 11
137.862
 21
53.81485
 31
0.0
  0
LINE
  5
7F
330
1D
100
AcDbEntity
  8
0
100
AcDbLine
 10
134.25
 20
53.81485
 30
0.0
 11
136.481
 21
53.81485
 31
0.0
  0
LINE
  5
80
330
1D
100
AcDbEntity
  8
0
100
AcDbLine
 10
135.497
 20
53.81485
 30
0.0
 11
136.704
 21
53.81485
 31
0.0
  0
LINE
  5
81
330
1D
100
AcDbEntity
  8
0
100
AcDbLine
 10
133.355
 20
53.81485
 30
0.0
 11
135.238
 21
53.81485
 31
0.0
  0
LINE
  5
82
330
1D
100
AcDbEntity
  8
0
100
AcDbLine
 10
134.082
 20
53.81485
 30
0.0
 11
135.986
 21
53.81485
 31
0.0
  0
LINE
  5
83
330
1D
100
AcDbEntity
  8
0
100
AcDbLine
 10
135.986
 20
53.81485
 30
0.0
 11
138.438
 21
53.81485
 31
0.0
  0
LINE
  5
84
330
1D
100
AcDbEntity
  8
0
100
AcDbLine
 10
136.481
 20
53.81485
 30
0.0
 11
139.417
 21
53.81485
 31
0.0
  0
LINE
  5
85
330
1D
100
AcDbEntity
  8
0
100
AcDbLine
 10
135.574
 20
53.81485
 30
0.0
 11
137.005
 21
53.81485
 31
0.0
  0
LINE
  5
86
330
1D
100
AcDbEntity
  8
0
100
AcDbLine
 10
135.09
 20
53.81485
 30
0.0
 11
135.497
 21
53.81485
 31
0.0
  0
LINE
  5
87
330
1D
100
AcDbEntity
  8
0
100
AcDbLine
 10
135.09
 20
53.81485
 30
0.0
 11
135.574
 21
53.81485
 31
0.0
  0
LINE
  5
88
330
1D
100
AcDbEntity
  8
0
100
AcDbLine
 10
137.634
 20
53.81485
 30
0.0
 11
140.84
 21
53.81485
 31
0.0
  0
LINE
  5
89
330
1D
100
AcDbEntity
  8
0
100
AcDbLine
 10
137.862
 20
53.81485
 30
0.0
 11
141.15
 21
53.81485
 31
0.0
  0
LINE
  5
8A
330
1D
100
AcDbEntity
  8
0
100
AcDbLine
 10
138.438
 20
53.81485
 30
0.0
 11
141.836
 21
53.81485
 31
0.0
  0
LINE
  5
8B
330
1D
100
AcDbEntity
  8
0
100
AcDbLine
 10
140.84
 20
53.81485
 30
0.0
 11
144.618
 21
53.81485
 31
0.0
  0
LINE
  5
8C
330
1D
100
AcDbEntity
  8
0
100
AcDbLine
 10
141.15
 20
53.81485
 30
0.0
 11
144.977
 21
53.81485
 31
0.0
  0
LINE
  5
8D
330
1D
100
AcDbEntity
  8
0
100
AcDbLine
 10
139.417
 20
53.81485
 30
0.0
 11
142.977
 21
53.81485
 31
0.0
  0
LINE
  5
8E
330
1D
100
AcDbEntity
  8
0
100
AcDbLine
 10
139.317
 20
53.81485
 30
0.0
 11
142.404
 21
53.81485
 31
0.0
  0
LINE
  5
8F
330
1D
100
AcDbEntity
  8
0
100
AcDbLine
 10
137.005
 20
53.81485
 30
0.0
 11
139.317
 21
53.81485
 31
0.0
  0
LINE
  5
90
330
1D
100
AcDbEntity
  8
0
100
AcDbLine
 10
136.704
 20
53.81485
 30
0.0
 11
138.663
 21
53.81485
 31
0.0
  0
LINE
  5
91
330
1D
100
AcDbEntity
  8
0
100
AcDbLine
 10
138.663
 20
53.81485
 30
0.0
 11
141.299
 21
53.81485
 31
0.0
  0
LINE
  5
92
330
1D
100
AcDbEntity
  8
0
100
AcDbLine
 10
142.404
 20
53.81485
 30
0.0
 11
146.126
 21
53.81485
 31
0.0
  0
LINE
  5
93
330
1D
100
AcDbEntity
  8
0
100
AcDbLine
 10
144.618
 20
53.81485
 30
0.0
 11
148.809
 21
53.81485
 31
0.0
  0
LINE
  5
94
330
1D
100
AcDbEntity
  8
0
100
AcDbLine
 10
144.977
 20
53.81485
 30
0.0
 11
149.185
 21
53.81485
 31
0.0
  0
LINE
  5
95
330
1D
100
AcDbEntity
  8
0
100
AcDbLine
 10
141.836
 20
53.81485
 30
0.0
 11
145.748
 21
53.81485
 31
0.0
  0
LINE
  5
96
330
1D
100
AcDbEntity
  8
0
100
AcDbLine
 10
145.748
 20
53.81485
 30
0.0
 11
148.922
 21
53.81485
 31
0.0
  0
LINE
  5
97
330
1D
100
AcDbEntity
  8
0
100
AcDbLine
 10
147.009
 20
53.81485
 30
0.0
 11
151.377
 21
53.81485
 31
0.0
  0
LINE
  5
98
330
1D
100
AcDbEntity
  8
0
100
AcDbLine
 10
142.977
 20
53.81485
 30
0.0
 11
147.009
 21
53.81485
 31
0.0
  0
LINE
  5
99
330
1D
100
AcDbEntity
  8
0
100
AcDbLine
 10
141.299
 20
53.81485
 30
0.0
 11
144.512
 21
53.81485
 31
0.0
  0
LINE
  5
9A
330
1D
100
AcDbEntity
  8
0
100
AcDbLine
 10
144.512
 20
53.81485
 30
0.0
 11
148.177
 21
53.81485
 31
0.0
  0
LINE
  5
9B
330
1D
100
AcDbEntity
  8
0
100
AcDbLine
 10
148.809
 20
53.81485
 30
0.0
 11
153.27
 21
53.81485
 31
0.0
  0
LINE
  5
9C
330
1D
100
AcDbEntity
  8
0
100
AcDbLine
 10
153.27
 20
53.81485
 30
0.0
 11
157.836
 21
53.81485
 31
0.0
  0
LINE
  5
9D
330
1D
100
AcDbEntity
  8
0
100
AcDbLine
 10
149.185
 20
53.81485
 30
0.0
 11
153.648
 21
53.81485
 31
0.0
  0
LINE
  5
9E
330
1D
100
AcDbEntity
  8
0
100
AcDbLine
 10
148.922
 20
53.81485
 30
0.0
 11
152.244
 21
53.81485
 31
0.0
  0
LINE
  5
9F
330
1D
100
AcDbEntity
  8
0
100
AcDbLine
 10
151.377
 20
53.81485
 30
0.0
 11
155.919
 21
53.81485
 31
0.0
  0
LINE
  5
A0
330
1D
100
AcDbEntity
  8
0
100
AcDbLine
 10
155.919
 20
53.81485
 30
0.0
 11
160.474
 21
53.81485
 31
0.0
  0
LINE
  5
A1
330
1D
100
AcDbEntity
  8
0
100
AcDbLine
 10
153.648
 20
53.81485
 30
0.0
 11
156.322
 21
53.81485
 31
0.0
  0
LINE
  5
A2
330
1D
100
AcDbEntity
  8
0
100
AcDbLine
 10
152.244
 20
53.81485
 30
0.0
 11
156.322
 21
53.81485
 31
0.0
  0
LINE
  5
A3
330
1D
100
AcDbEntity
  8
0
100
AcDbLine
 10
148.177
 20
53.81485
 30
0.0
 11
152.154
 21
53.81485
 31
0.0
  0
LINE
  5
A4
330
1D
100
AcDbEntity
  8
0
100
AcDbLine
 10
152.154
 20
53.81485
 30
0.0
 11
156.29
 21
53.81485
 31
0.0
  0
LINE
  5
A5
330
1D
100
AcDbEntity
  8
0
100
AcDbLine
 10
157.836
 20
53.81485
 30
0.0
 11
162.35
 21
53.81485
 31
0.0
  0
LINE
  5
A6
330
1D
100
AcDbEntity
  8
0
100
AcDbLine
 10
157.454
 20
53.81485
 30
0.0
 11
161.394
 21
53.81485
 31
0.0
  0
LINE
  5
A7
330
1D
100
AcDbEntity
  8
0
100
AcDbLine
 10
159.716
 20
53.81485
 30
0.0
 11
163.042
 21
53.81485
 31
0.0
  0
LINE
  5
A8
330
1D
100
AcDbEntity
  8
0
100
AcDbLine
 10
162.35
 20
53.81485
 30
0.0
 11
166.649
 21
53.81485
 31
0.0
  0
LINE
  5
A9
330
1D
100
AcDbEntity
  8
0
100
AcDbLine
 10
161.394
 20
53.81485
 30
0.0
 11
165.197
 21
53.81485
 31
0.0
  0
LINE
  5
AA
330
1D
100
AcDbEntity
  8
0
100
AcDbLine
 10
163.042
 20
53.81485
 30
0.0
 11
167.28
 21
53.81485
 31
0.0
  0
LINE
  5
AB
330
1D
100
AcDbEntity
  8
0
100
AcDbLine
 10
160.474
 20
53.81485
 30
0.0
 11
164.882
 21
53.81485
 31
0.0
  0
LINE
  5
AC
330
1D
100
AcDbEntity
  8
0
100
AcDbLine
 10
156.322
 20
53.81485
 30
0.0
 11
159.716
 21
53.81485
 31
0.0
  0
LINE
  5
AD
330
1D
100
AcDbEntity
  8
0
100
AcDbLine
 10
156.322
 20
53.81485
 30
0.0
 11
157.454
 21
53.81485
 31
0.0
  0
LINE
  5
AE
330
1D
100
AcDbEntity
  8
0
100
AcDbLine
 10
156.29
 20
53.81485
 30
0.0
 11
159.807
 21
53.81485
 31
0.0
  0
LINE
  5
B0
330
1D
100
AcDbEntity
  8
0
100
AcDbLine
 10
159.807
 20
53.81485
 30
0.0
 11
163.227
 21
53.81485
 31
0.0
  0
LINE
  5
B1
330
1D
100
AcDbEntity
  8
0
100
AcDbLine
 10
166.649
 20
53.81485
 30
0.0
 11
170.576
 21
53.81485
 31
0.0
  0
LINE
  5
B2
330
1D
100
AcDbEntity
  8
0
100
AcDbLine
 10
165.197
 20
53.81485
 30
0.0
 11
169.262
 21
53.81485
 31
0.0
  0
LINE
  5
B3
330
1D
100
AcDbEntity
  8
0
100
AcDbLine
 10
167.28
 20
53.81485
 30
0.0
 11
171.129
 21
53.81485
 31
0.0
  0
LINE
  5
B4
330
1D
100
AcDbEntity
  8
0
100
AcDbLine
 10
170.576
 20
53.81485
 30
0.0
 11
174.0
 21
53.81485
 31
0.0
  0
LINE
  5
B5
330
1D
100
AcDbEntity
  8
0
100
AcDbLine
 10
169.262
 20
53.81485
 30
0.0
 11
172.869
 21
53.81485
 31
0.0
  0
LINE
  5
B6
330
1D
100
AcDbEntity
  8
0
100
AcDbLine
 10
174.0
 20
53.81485
 30
0.0
 11
176.787
 21
53.81485
 31
0.0
  0
LINE
  5
B7
330
1D
100
AcDbEntity
  8
0
100
AcDbLine
 10
172.869
 20
53.81485
 30
0.0
 11
175.892
 21
53.81485
 31
0.0
  0
LINE
  5
B8
330
1D
100
AcDbEntity
  8
0
100
AcDbLine
 10
171.129
 20
53.81485
 30
0.0
 11
174.461
 21
53.81485
 31
0.0
  0
LINE
  5
B9
330
1D
100
AcDbEntity
  8
0
100
AcDbLine
 10
174.461
 20
53.81485
 30
0.0
 11
177.15
 21
53.81485
 31
0.0
  0
LINE
  5
BA
330
1D
100
AcDbEntity
  8
0
100
AcDbLine
 10
176.787
 20
53.81485
 30
0.0
 11
178.85
 21
53.81485
 31
0.0
  0
LINE
  5
BB
330
1D
100
AcDbEntity
  8
0
100
AcDbLine
 10
175.892
 20
53.81485
 30
0.0
 11
178.222
 21
53.81485
 31
0.0
  0
LINE
  5
BC
330
1D
100
AcDbEntity
  8
0
100
AcDbLine
 10
178.078
 20
53.81485
 30
0.0
 11
179.435
 21
53.81485
 31
0.0
  0
LINE
  5
BD
330
1D
100
AcDbEntity
  8
0
100
AcDbLine
 10
175.698
 20
53.81485
 30
0.0
 11
178.078
 21
53.81485
 31
0.0
  0
LINE
  5
BE
330
1D
100
AcDbEntity
  8
0
100
AcDbLine
 10
172.637
 20
53.81485
 30
0.0
 11
175.698
 21
53.81485
 31
0.0
  0
LINE
  5
BF
330
1D
100
AcDbEntity
  8
0
100
AcDbLine
 10
168.983
 20
53.81485
 30
0.0
 11
172.637
 21
53.81485
 31
0.0
  0
LINE
  5
C0
330
1D
100
AcDbEntity
  8
0
100
AcDbLine
 10
164.882
 20
53.81485
 30
0.0
 11
168.983
 21
53.81485
 31
0.0
  0
LINE
  5
C1
330
1D
100
AcDbEntity
  8
0
100
AcDbLine
 10
178.85
 20
53.81485
 30
0.0
 11
180.014
 21
53.81485
 31
0.0
  0
LINE
  5
C2
330
1D
100
AcDbEntity
  8
0
100
AcDbLine
 10
180.014
 20
53.81485
 30
0.0
 11
180.525
 21
53.81485
 31
0.0
  0
LINE
  5
C3
330
1D
100
AcDbEntity
  8
0
100
AcDbLine
 10
179.436
 20
53.81485
 30
0.0
 11
180.213
 21
53.81485
 31
0.0
  0
LINE
  5
C4
330
1D
100
AcDbEntity
  8
0
100
AcDbLine
 10
178.934
 20
53.81485
 30
0.0
 11
180.075
 21
53.81485
 31
0.0
  0
LINE
  5
C5
330
1D
100
AcDbEntity
  8
0
100
AcDbLine
 10
180.213
 20
53.81485
 30
0.0
 11
180.551
 21
53.81485
 31
0.0
  0
LINE
  5
C6
330
1D
100
AcDbEntity
  8
0
100
AcDbLine
 10
180.075
 20
53.81485
 30
0.0
 11
180.552
 21
53.81485
 31
0.0
  0
LINE
  5
C7
330
1D
100
AcDbEntity
  8
0
100
AcDbLine
 10
179.435
 20
53.81485
 30
0.0
 11
180.263
 21
53.81485
 31
0.0
  0
LINE
  5
C8
330
1D
100
AcDbEntity
  8
0
100
AcDbLine
 10
180.263
 20
53.81485
 30
0.0
 11
180.552
 21
53.81485
 31
0.0
  0
LINE
  5
CA
330
1D
100
AcDbEntity
  8
0
100
AcDbLine
 10
178.222
 20
53.81485
 30
0.0
 11
179.436
 21
53.81485
 31
0.0
  0
LINE
  5
CC
330
1D
100
AcDbEntity
  8
0
100
AcDbLine
 10
177.15
 20
53.81485
 30
0.0
 11
178.934
 21
53.81485
 31
0.0
  0
LINE
  5
CD
330
1D
100
AcDbEntity
  8
0
100
AcDbLine
 10
163.227
 20
53.81485
 30
0.0
 11
166.454
 21
53.81485
 31
0.0
  0
LINE
  5
FD
330
1D
100
AcDbEntity
  8
0
100
AcDbLine
 10
69.265
 20
92.13455
 30
0.0
 11
69.577
 21
92.73455
 31
0.0
  0
LINE
  5
FE
330
1D
100
AcDbEntity
  8
0
100
AcDbLine
 10
68.797
 20
92.13455
 30
0.0
 11
69.265
 21
92.13455
 31
0.0
  0
LINE
  5
FF
330
1D
100
AcDbEntity
  8
0
100
AcDbLine
 10
67.549
 20
92.13455
 30
0.0
 11
68.797
 21
92.13455
 31
0.0
  0
LINE
  5
100
330
1D
100
AcDbEntity
  8
0
100
AcDbLine
 10
65.521
 20
92.13455
 30
0.0
 11
67.549
 21
92.13455
 31
0.0
  0
LINE
  5
101
330
1D
100
AcDbEntity
  8
0
100
AcDbLine
 10
62.869
 20
92.13455
 30
0.0
 11
65.521
 21
92.13455
 31
0.0
  0
LINE
  5
102
330
1D
100
AcDbEntity
  8
0
100
AcDbLine
 10
59.853
 20
92.13455
 30
0.0
 11
62.869
 21
92.13455
 31
0.0
  0
LINE
  5
103
330
1D
100
AcDbEntity
  8
0
100
AcDbLine
 10
56.577
 20
92.13455
 30
0.0
 11
59.853
 21
92.13455
 31
0.0
  0
LINE
  5
104
330
1D
100
AcDbEntity
  8
0
100
AcDbLine
 10
50.285
 20
92.13455
 30
0.0
 11
53.301
 21
92.13455
 31
0.0
  0
LINE
  5
105
330
1D
100
AcDbEntity
  8
0
100
AcDbLine
 10
43.889
 20
92.13455
 30
0.0
 11
44.357
 21
92.13455
 31
0.0
  0
LINE
  5
1BA
330
1D
100
AcDbEntity
  8
0
100
AcDbLine
 10
43.577
 20
98.134325211824
 30
0.0
 11
43.577
 21
92.73455
 31
0.0
  0
LINE
  5
1BB
330
1D
100
AcDbEntity
  8
0
100
AcDbLine
 10
43.577
 20
92.73455
 30
0.0
 11
43.889
 21
92.13455
 31
0.0
  0
LINE
  5
1BC
330
1D
100
AcDbEntity
  8
0
100
AcDbLine
 10
43.577
 20
92.73455
 30
0.0
 11
43.577
 21
98.134325211824
 31
0.0
  0
LINE
  5
1BD
330
1D
100
AcDbEntity
  8
0
100
AcDbLine
 10
44.357
 20
92.13455
 30
0.0
 11
45.605
 21
92.13455
 31
0.0
  0
LINE
  5
1C0
330
1D
100
AcDbEntity
  8
0
100
AcDbLine
 10
45.796
 20
92.13455
 30
0.0
 11
45.796
 21
88.89645
 31
0.0
  0
LINE
  5
1C1
330
1D
100
AcDbEntity
  8
0
100
AcDbLine
 10
49.06
 20
145.65705
 30
0.0
 11
49.06
 21
151.09815
 31
0.0
  0
LINE
  5
1C2
330
1D
100
AcDbEntity
  8
0
100
AcDbLine
 10
49.06
 20
145.65705
 30
0.0
 11
49.107
 21
145.44585
 31
0.0
  0
LINE
  5
1C3
330
1D
100
AcDbEntity
  8
0
100
AcDbLine
 10
49.06
 20
151.09815
 30
0.0
 11
49.116
 21
151.32735
 31
0.0
  0
LINE
  5
1C4
330
1D
100
AcDbEntity
  8
0
100
AcDbLine
 10
49.06
 20
151.09815
 30
0.0
 11
49.06
 21
145.65705
 31
0.0
  0
LINE
  5
1C5
330
1D
100
AcDbEntity
  8
0
100
AcDbLine
 10
49.053
 20
145.65705
 30
0.0
 11
49.1
 21
145.44585
 31
0.0
  0
LINE
  5
1C6
330
1D
100
AcDbEntity
  8
0
100
AcDbLine
 10
49.053
 20
145.65705
 30
0.0
 11
49.053
 21
151.09815
 31
0.0
  0
LINE
  5
1C7
330
1D
100
AcDbEntity
  8
0
100
AcDbLine
 10
49.107
 20
145.44585
 30
0.0
 11
49.24
 21
145.27345
 31
0.0
  0
LINE
  5
1C8
330
1D
100
AcDbEntity
  8
0
100
AcDbLine
 10
49.1
 20
145.44585
 30
0.0
 11
49.233
 21
145.27345
 31
0.0
  0
LINE
  5
1C9
330
1D
100
AcDbEntity
  8
0
100
AcDbLine
 10
49.053
 20
151.09815
 30
0.0
 11
49.109
 21
151.32735
 31
0.0
  0
LINE
  5
1CA
330
1D
100
AcDbEntity
  8
0
100
AcDbLine
 10
49.053
 20
151.09815
 30
0.0
 11
49.053
 21
145.65705
 31
0.0
  0
LINE
  5
1CB
330
1D
100
AcDbEntity
  8
0
100
AcDbLine
 10
49.24
 20
145.27345
 30
0.0
 11
49.433
 21
145.17475
 31
0.0
  0
LINE
  5
1CC
330
1D
100
AcDbEntity
  8
0
100
AcDbLine
 10
49.433
 20
145.17475
 30
0.0
 11
49.632
 21
145.07615
 31
0.0
  0
LINE
  5
1CD
330
1D
100
AcDbEntity
  8
0
100
AcDbLine
 10
49.427
 20
145.17475
 30
0.0
 11
49.625
 21
145.07615
 31
0.0
  0
LINE
  5
1CE
330
1D
100
AcDbEntity
  8
0
100
AcDbLine
 10
49.116
 20
151.32735
 30
0.0
 11
49.272
 21
151.50575
 31
0.0
  0
LINE
  5
1CF
330
1D
100
AcDbEntity
  8
0
100
AcDbLine
 10
49.272
 20
151.50575
 30
0.0
 11
49.491
 21
151.59245
 31
0.0
  0
LINE
  5
1D0
330
1D
100
AcDbEntity
  8
0
100
AcDbLine
 10
49.233
 20
145.27345
 30
0.0
 11
49.427
 21
145.17475
 31
0.0
  0
LINE
  5
1D1
330
1D
100
AcDbEntity
  8
0
100
AcDbLine
 10
49.109
 20
151.32735
 30
0.0
 11
49.265
 21
151.50575
 31
0.0
  0
LINE
  5
1D2
330
1D
100
AcDbEntity
  8
0
100
AcDbLine
 10
49.265
 20
151.50575
 30
0.0
 11
49.485
 21
151.59245
 31
0.0
  0
LINE
  5
1D3
330
1D
100
AcDbEntity
  8
0
100
AcDbLine
 10
49.491
 20
151.59245
 30
0.0
 11
52.163
 21
151.89335
 31
0.0
  0
LINE
  5
1D4
330
1D
100
AcDbEntity
  8
0
100
AcDbLine
 10
50.672
 20
130.78815
 30
0.0
 11
51.358
 21
130.789373117437
 31
0.0
  0
LINE
  5
1D5
330
1D
100
AcDbEntity
  8
0
100
AcDbLine
 10
50.616
 20
135.19345
 30
0.0
 11
51.012
 21
135.19345
 31
0.0
  0
LINE
  5
1D6
330
1D
100
AcDbEntity
  8
0
100
AcDbLine
 10
50.33
 20
135.19345
 30
0.0
 11
50.616
 21
135.19345
 31
0.0
  0
LINE
  5
1D7
330
1D
100
AcDbEntity
  8
0
100
AcDbLine
 10
50.157
 20
135.19345
 30
0.0
 11
50.33
 21
135.19345
 31
0.0
  0
LINE
  5
1D8
330
1D
100
AcDbEntity
  8
0
100
AcDbLine
 10
50.1
 20
135.19345
 30
0.0
 11
50.157
 21
135.19345
 31
0.0
  0
LINE
  5
1D9
330
1D
100
AcDbEntity
  8
0
100
AcDbLine
 10
51.012
 20
135.19345
 30
0.0
 11
51.512
 21
135.19345
 31
0.0
  0
LINE
  5
1DA
330
1D
100
AcDbEntity
  8
0
100
AcDbLine
 10
50.973
 20
135.19345
 30
0.0
 11
51.241
 21
135.19345
 31
0.0
  0
LINE
  5
1DB
330
1D
100
AcDbEntity
  8
0
100
AcDbLine
 10
51.512
 20
135.19345
 30
0.0
 11
52.105
 21
135.19345
 31
0.0
  0
LINE
  5
1DC
330
1D
100
AcDbEntity
  8
0
100
AcDbLine
 10
52.105
 20
135.19345
 30
0.0
 11
52.785
 21
135.19345
 31
0.0
  0
LINE
  5
1DD
330
1D
100
AcDbEntity
  8
0
100
AcDbLine
 10
53.405
 20
135.19345
 30
0.0
 11
54.169
 21
135.19345
 31
0.0
  0
LINE
  5
1DE
330
1D
100
AcDbEntity
  8
0
100
AcDbLine
 10
54.169
 20
135.19345
 30
0.0
 11
54.996
 21
135.19345
 31
0.0
  0
LINE
  5
1DF
330
1D
100
AcDbEntity
  8
0
100
AcDbLine
 10
52.785
 20
135.19345
 30
0.0
 11
53.541
 21
135.19345
 31
0.0
  0
LINE
  5
1E0
330
1D
100
AcDbEntity
  8
0
100
AcDbLine
 10
53.541
 20
135.19345
 30
0.0
 11
54.358
 21
135.19345
 31
0.0
  0
LINE
  5
1E1
330
1D
100
AcDbEntity
  8
0
100
AcDbLine
 10
54.996
 20
135.19345
 30
0.0
 11
55.869
 21
135.19345
 31
0.0
  0
LINE
  5
1E2
330
1D
100
AcDbEntity
  8
0
100
AcDbLine
 10
56.132
 20
135.19345
 30
0.0
 11
57.06
 21
135.19345
 31
0.0
  0
LINE
  5
1E3
330
1D
100
AcDbEntity
  8
0
100
AcDbLine
 10
57.06
 20
135.19345
 30
0.0
 11
57.994
 21
135.19345
 31
0.0
  0
LINE
  5
1E4
330
1D
100
AcDbEntity
  8
0
100
AcDbLine
 10
57.994
 20
135.19345
 30
0.0
 11
58.923
 21
135.19345
 31
0.0
  0
LINE
  5
1E5
330
1D
100
AcDbEntity
  8
0
100
AcDbLine
 10
56.775
 20
135.19345
 30
0.0
 11
57.694
 21
135.19345
 31
0.0
  0
LINE
  5
1E6
330
1D
100
AcDbEntity
  8
0
100
AcDbLine
 10
55.227
 20
135.19345
 30
0.0
 11
56.132
 21
135.19345
 31
0.0
  0
LINE
  5
1E7
330
1D
100
AcDbEntity
  8
0
100
AcDbLine
 10
55.869
 20
135.19345
 30
0.0
 11
56.775
 21
135.19345
 31
0.0
  0
LINE
  5
1E8
330
1D
100
AcDbEntity
  8
0
100
AcDbLine
 10
54.358
 20
135.19345
 30
0.0
 11
55.227
 21
135.19345
 31
0.0
  0
LINE
  5
1E9
330
1D
100
AcDbEntity
  8
0
100
AcDbLine
 10
52.718
 20
135.19345
 30
0.0
 11
53.405
 21
135.19345
 31
0.0
  0
LINE
  5
1EA
330
1D
100
AcDbEntity
  8
0
100
AcDbLine
 10
52.121
 20
135.19345
 30
0.0
 11
52.718
 21
135.19345
 31
0.0
  0
LINE
  5
1EB
330
1D
100
AcDbEntity
  8
0
100
AcDbLine
 10
51.627
 20
135.19345
 30
0.0
 11
52.121
 21
135.19345
 31
0.0
  0
LINE
  5
1EC
330
1D
100
AcDbEntity
  8
0
100
AcDbLine
 10
59.829
 20
135.19345
 30
0.0
 11
60.7
 21
135.19345
 31
0.0
  0
LINE
  5
1ED
330
1D
100
AcDbEntity
  8
0
100
AcDbLine
 10
58.923
 20
135.19345
 30
0.0
 11
59.829
 21
135.19345
 31
0.0
  0
LINE
  5
1EE
330
1D
100
AcDbEntity
  8
0
100
AcDbLine
 10
59.509
 20
135.19345
 30
0.0
 11
60.37
 21
135.19345
 31
0.0
  0
LINE
  5
1EF
330
1D
100
AcDbEntity
  8
0
100
AcDbLine
 10
58.612
 20
135.19345
 30
0.0
 11
59.509
 21
135.19345
 31
0.0
  0
LINE
  5
1F0
330
1D
100
AcDbEntity
  8
0
100
AcDbLine
 10
57.694
 20
135.19345
 30
0.0
 11
58.612
 21
135.19345
 31
0.0
  0
LINE
  5
1F1
330
1D
100
AcDbEntity
  8
0
100
AcDbLine
 10
51.358
 20
135.19345
 30
0.0
 11
51.358
 21
130.770212010298
 31
0.0
  0
LINE
  5
1F2
330
1D
100
AcDbEntity
  8
0
100
AcDbLine
 10
51.358
 20
130.770212010298
 30
0.0
 11
51.358
 21
135.19345
 31
0.0
  0
LINE
  5
1F3
330
1D
100
AcDbEntity
  8
0
100
AcDbLine
 10
51.241
 20
135.19345
 30
0.0
 11
51.358
 21
135.19345
 31
0.0
  0
LINE
  5
1F4
330
1D
100
AcDbEntity
  8
0
100
AcDbLine
 10
51.241
 20
135.19345
 30
0.0
 11
51.627
 21
135.19345
 31
0.0
  0
LINE
  5
1F5
330
1D
100
AcDbEntity
  8
0
100
AcDbLine
 10
49.801
 20
144.69245
 30
0.0
 11
49.801
 21
135.49245
 31
0.0
  0
LINE
  5
1F6
330
1D
100
AcDbEntity
  8
0
100
AcDbLine
 10
49.632
 20
145.07615
 30
0.0
 11
49.765
 21
144.90475
 31
0.0
  0
LINE
  5
1F7
330
1D
100
AcDbEntity
  8
0
100
AcDbLine
 10
49.768704533314
 20
144.882469878209
 30
0.0
 11
49.8
 21
144.69425
 31
0.0
  0
LINE
  5
1F8
330
1D
100
AcDbEntity
  8
0
100
AcDbLine
 10
49.758
 20
144.90475
 30
0.0
 11
49.8
 21
144.69425
 31
0.0
  0
LINE
  5
1F9
330
1D
100
AcDbEntity
  8
0
100
AcDbLine
 10
52.163
 20
151.89335
 30
0.0
 11
52.485
 21
151.91515
 31
0.0
  0
LINE
  5
1FA
330
1D
100
AcDbEntity
  8
0
100
AcDbLine
 10
49.842
 20
135.34295
 30
0.0
 11
49.951
 21
135.23435
 31
0.0
  0
LINE
  5
1FB
330
1D
100
AcDbEntity
  8
0
100
AcDbLine
 10
49.951
 20
135.23435
 30
0.0
 11
50.1
 21
135.19345
 31
0.0
  0
LINE
  5
1FC
330
1D
100
AcDbEntity
  8
0
100
AcDbLine
 10
49.801
 20
135.49245
 30
0.0
 11
49.801
 21
144.69245
 31
0.0
  0
LINE
  5
1FD
330
1D
100
AcDbEntity
  8
0
100
AcDbLine
 10
49.801
 20
135.49245
 30
0.0
 11
49.842
 21
135.34295
 31
0.0
  0
LINE
  5
1FE
330
1D
100
AcDbEntity
  8
0
100
AcDbLine
 10
50.828
 20
135.19345
 30
0.0
 11
50.973
 21
135.19345
 31
0.0
  0
LINE
  5
1FF
330
1D
100
AcDbEntity
  8
0
100
AcDbLine
 10
49.625
 20
145.07615
 30
0.0
 11
49.758
 21
144.90475
 31
0.0
  0
LINE
  5
200
330
1D
100
AcDbEntity
  8
0
100
AcDbLine
 10
52.168
 20
151.89335
 30
0.0
 11
54.852
 21
152.07475
 31
0.0
  0
LINE
  5
201
330
1D
100
AcDbEntity
  8
0
100
AcDbLine
 10
49.485
 20
151.59245
 30
0.0
 11
52.162
 21
151.89335
 31
0.0
  0
LINE
  5
202
330
1D
100
AcDbEntity
  8
0
100
AcDbLine
 10
52.485
 20
151.91515
 30
0.0
 11
54.852
 21
152.07475
 31
0.0
  0
LINE
  5
203
330
1D
100
AcDbEntity
  8
0
100
AcDbLine
 10
52.162
 20
151.89335
 30
0.0
 11
54.852
 21
152.07475
 31
0.0
  0
LINE
  5
204
330
1D
100
AcDbEntity
  8
0
100
AcDbLine
 10
52.162
 20
151.89335
 30
0.0
 11
52.485
 21
151.91515
 31
0.0
  0
LINE
  5
205
330
1D
100
AcDbEntity
  8
0
100
AcDbLine
 10
61.177
 20
135.19345
 30
0.0
 11
61.918
 21
135.19345
 31
0.0
  0
LINE
  5
206
330
1D
100
AcDbEntity
  8
0
100
AcDbLine
 10
60.37
 20
135.19345
 30
0.0
 11
61.177
 21
135.19345
 31
0.0
  0
LINE
  5
207
330
1D
100
AcDbEntity
  8
0
100
AcDbLine
 10
63.732
 20
130.811435588529
 30
0.0
 11
64.0766
 21
130.81205
 31
0.0
  0
LINE
  5
208
330
1D
100
AcDbEntity
  8
0
100
AcDbLine
 10
63.603
 20
135.19345
 30
0.0
 11
63.952
 21
135.19345
 31
0.0
  0
LINE
  5
209
330
1D
100
AcDbEntity
  8
0
100
AcDbLine
 10
63.142
 20
135.19345
 30
0.0
 11
63.603
 21
135.19345
 31
0.0
  0
LINE
  5
20A
330
1D
100
AcDbEntity
  8
0
100
AcDbLine
 10
63.559
 20
135.19345
 30
0.0
 11
64.062
 21
135.19345
 31
0.0
  0
LINE
  5
20B
330
1D
100
AcDbEntity
  8
0
100
AcDbLine
 10
62.577
 20
135.19345
 30
0.0
 11
63.142
 21
135.19345
 31
0.0
  0
LINE
  5
20C
330
1D
100
AcDbEntity
  8
0
100
AcDbLine
 10
62.961
 20
135.19345
 30
0.0
 11
63.559
 21
135.19345
 31
0.0
  0
LINE
  5
20D
330
1D
100
AcDbEntity
  8
0
100
AcDbLine
 10
61.918
 20
135.19345
 30
0.0
 11
62.577
 21
135.19345
 31
0.0
  0
LINE
  5
20E
330
1D
100
AcDbEntity
  8
0
100
AcDbLine
 10
62.278
 20
135.19345
 30
0.0
 11
62.961
 21
135.19345
 31
0.0
  0
LINE
  5
20F
330
1D
100
AcDbEntity
  8
0
100
AcDbLine
 10
61.52
 20
135.19345
 30
0.0
 11
62.278
 21
135.19345
 31
0.0
  0
LINE
  5
210
330
1D
100
AcDbEntity
  8
0
100
AcDbLine
 10
60.7
 20
135.19345
 30
0.0
 11
61.52
 21
135.19345
 31
0.0
  0
LINE
  5
211
330
1D
100
AcDbEntity
  8
0
100
AcDbLine
 10
63.734
 20
130.791339577433
 30
0.0
 11
63.734
 21
135.19345
 31
0.0
  0
LINE
  5
212
330
1D
100
AcDbEntity
  8
0
100
AcDbLine
 10
64.0766
 20
130.81205
 30
0.0
 11
64.4629
 21
130.81655
 31
0.0
  0
LINE
  5
214
330
1D
100
AcDbEntity
  8
0
100
AcDbLine
 10
64.062
 20
135.19345
 30
0.0
 11
64.463
 21
135.19345
 31
0.0
  0
LINE
  5
215
330
1D
100
AcDbEntity
  8
0
100
AcDbLine
 10
63.734
 20
135.19345
 30
0.0
 11
63.734
 21
130.791339577433
 31
0.0
  0
LINE
  5
216
330
1D
100
AcDbEntity
  8
0
100
AcDbLine
 10
63.732
 20
135.19345
 30
0.0
 11
63.952
 21
135.19345
 31
0.0
  0
LINE
  5
217
330
1D
100
AcDbEntity
  8
0
100
AcDbLine
 10
63.368
 20
151.84435
 30
0.0
 11
65.603
 21
151.59245
 31
0.0
  0
LINE
  5
218
330
1D
100
AcDbEntity
  8
0
100
AcDbLine
 10
62.931
 20
151.89335
 30
0.0
 11
65.603
 21
151.59245
 31
0.0
  0
LINE
  5
219
330
1D
100
AcDbEntity
  8
0
100
AcDbLine
 10
62.931
 20
151.89335
 30
0.0
 11
63.368
 21
151.84435
 31
0.0
  0
LINE
  5
21A
330
1D
100
AcDbEntity
  8
0
100
AcDbLine
 10
63.952
 20
135.19345
 30
0.0
 11
64.181
 21
135.19345
 31
0.0
  0
LINE
  5
21B
330
1D
100
AcDbEntity
  8
0
100
AcDbLine
 10
64.931
 20
135.19345
 30
0.0
 11
64.992
 21
135.19345
 31
0.0
  0
LINE
  5
21C
330
1D
100
AcDbEntity
  8
0
100
AcDbLine
 10
64.753
 20
135.19345
 30
0.0
 11
64.931
 21
135.19345
 31
0.0
  0
LINE
  5
21D
330
1D
100
AcDbEntity
  8
0
100
AcDbLine
 10
64.463
 20
135.19345
 30
0.0
 11
64.753
 21
135.19345
 31
0.0
  0
LINE
  5
21E
330
1D
100
AcDbEntity
  8
0
100
AcDbLine
 10
64.99
 20
135.19345
 30
0.0
 11
65.14
 21
135.23435
 31
0.0
  0
LINE
  5
220
330
1D
100
AcDbEntity
  8
0
100
AcDbLine
 10
65.14
 20
135.23435
 30
0.0
 11
65.25
 21
135.34295
 31
0.0
  0
LINE
  5
221
330
1D
100
AcDbEntity
  8
0
100
AcDbLine
 10
65.25
 20
135.34295
 30
0.0
 11
65.29
 21
135.49245
 31
0.0
  0
LINE
  5
222
330
1D
100
AcDbEntity
  8
0
100
AcDbLine
 10
65.142
 20
135.23435
 30
0.0
 11
65.252
 21
135.34295
 31
0.0
  0
LINE
  5
223
330
1D
100
AcDbEntity
  8
0
100
AcDbLine
 10
64.992
 20
135.19345
 30
0.0
 11
65.142
 21
135.23435
 31
0.0
  0
LINE
  5
224
330
1D
100
AcDbEntity
  8
0
100
AcDbLine
 10
65.29
 20
135.49245
 30
0.0
 11
65.29
 21
144.69245
 31
0.0
  0
LINE
  5
225
330
1D
100
AcDbEntity
  8
0
100
AcDbLine
 10
65.29
 20
144.69245
 30
0.0
 11
65.29
 21
135.49245
 31
0.0
  0
LINE
  5
226
330
1D
100
AcDbEntity
  8
0
100
AcDbLine
 10
65.292
 20
135.49245
 30
0.0
 11
65.292
 21
144.69245
 31
0.0
  0
LINE
  5
227
330
1D
100
AcDbEntity
  8
0
100
AcDbLine
 10
65.298
 20
144.72135
 30
0.0
 11
65.329
 21
144.90475
 31
0.0
  0
LINE
  5
228
330
1D
100
AcDbEntity
  8
0
100
AcDbLine
 10
65.463
 20
145.07615
 30
0.0
 11
65.661
 21
145.17475
 31
0.0
  0
LINE
  5
229
330
1D
100
AcDbEntity
  8
0
100
AcDbLine
 10
65.329
 20
144.90475
 30
0.0
 11
65.463
 21
145.07615
 31
0.0
  0
LINE
  5
22A
330
1D
100
AcDbEntity
  8
0
100
AcDbLine
 10
65.661
 20
145.17475
 30
0.0
 11
65.854
 21
145.27345
 31
0.0
  0
LINE
  5
22B
330
1D
100
AcDbEntity
  8
0
100
AcDbLine
 10
66.035
 20
145.65705
 30
0.0
 11
66.035
 21
151.09815
 31
0.0
  0
LINE
  5
22C
330
1D
100
AcDbEntity
  8
0
100
AcDbLine
 10
65.988
 20
145.44585
 30
0.0
 11
66.035
 21
145.65705
 31
0.0
  0
LINE
  5
22D
330
1D
100
AcDbEntity
  8
0
100
AcDbLine
 10
65.854
 20
145.27345
 30
0.0
 11
65.988
 21
145.44585
 31
0.0
  0
LINE
  5
22E
330
1D
100
AcDbEntity
  8
0
100
AcDbLine
 10
65.603
 20
151.59245
 30
0.0
 11
65.824
 21
151.50575
 31
0.0
  0
LINE
  5
22F
330
1D
100
AcDbEntity
  8
0
100
AcDbLine
 10
65.824
 20
151.50575
 30
0.0
 11
65.979
 21
151.32735
 31
0.0
  0
LINE
  5
230
330
1D
100
AcDbEntity
  8
0
100
AcDbLine
 10
65.979
 20
151.32735
 30
0.0
 11
66.035
 21
151.09815
 31
0.0
  0
LINE
  5
231
330
1D
100
AcDbEntity
  8
0
100
AcDbLine
 10
66.035
 20
151.09815
 30
0.0
 11
66.035
 21
145.65705
 31
0.0
  0
LINE
  5
232
330
1D
100
AcDbEntity
  8
0
100
AcDbLine
 10
65.292
 20
144.69245
 30
0.0
 11
65.292
 21
135.49245
 31
0.0
  0
LINE
  5
233
330
1D
100
AcDbEntity
  8
0
100
AcDbLine
 10
65.252
 20
135.34295
 30
0.0
 11
65.292
 21
135.49245
 31
0.0
  0
LINE
  5
234
330
1D
100
AcDbEntity
  8
0
100
AcDbLine
 10
64.181
 20
135.19345
 30
0.0
 11
64.286
 21
135.19345
 31
0.0
  0
LINE
  5
235
330
1D
100
AcDbEntity
  8
0
100
AcDbLine
 10
60.468
 20
152.05945
 30
0.0
 11
62.931
 21
151.89335
 31
0.0
  0
LINE
  5
236
330
1D
100
AcDbEntity
  8
0
100
AcDbLine
 10
60.242
 20
152.07475
 30
0.0
 11
62.931
 21
151.89335
 31
0.0
  0
LINE
  5
237
330
1D
100
AcDbEntity
  8
0
100
AcDbLine
 10
60.242
 20
152.07475
 30
0.0
 11
60.468
 21
152.05945
 31
0.0
  0
LINE
  5
238
330
1D
100
AcDbEntity
  8
0
100
AcDbLine
 10
60.241
 20
152.07475
 30
0.0
 11
60.468
 21
152.05945
 31
0.0
  0
LINE
  5
239
330
1D
100
AcDbEntity
  8
0
100
AcDbLine
 10
60.239
 20
152.07475
 30
0.0
 11
62.931
 21
151.89335
 31
0.0
  0
LINE
  5
23A
330
1D
100
AcDbEntity
  8
0
100
AcDbLine
 10
57.412
 20
152.13155
 30
0.0
 11
57.467
 21
152.13275
 31
0.0
  0
LINE
  5
23B
330
1D
100
AcDbEntity
  8
0
100
AcDbLine
 10
57.147
 20
152.12565
 30
0.0
 11
57.412
 21
152.13155
 31
0.0
  0
LINE
  5
23C
330
1D
100
AcDbEntity
  8
0
100
AcDbLine
 10
57.648
 20
152.13225
 30
0.0
 11
57.751
 21
152.12995
 31
0.0
  0
LINE
  5
23D
330
1D
100
AcDbEntity
  8
0
100
AcDbLine
 10
57.751
 20
152.12995
 30
0.0
 11
60.241
 21
152.07475
 31
0.0
  0
LINE
  5
23E
330
1D
100
AcDbEntity
  8
0
100
AcDbLine
 10
57.546
 20
152.13455
 30
0.0
 11
60.242
 21
152.07475
 31
0.0
  0
LINE
  5
23F
330
1D
100
AcDbEntity
  8
0
100
AcDbLine
 10
57.546
 20
152.13455
 30
0.0
 11
57.648
 21
152.13225
 31
0.0
  0
LINE
  5
240
330
1D
100
AcDbEntity
  8
0
100
AcDbLine
 10
57.546
 20
152.13455
 30
0.0
 11
57.613
 21
152.13305
 31
0.0
  0
LINE
  5
241
330
1D
100
AcDbEntity
  8
0
100
AcDbLine
 10
54.852
 20
152.07475
 30
0.0
 11
57.546
 21
152.13455
 31
0.0
  0
LINE
  5
242
330
1D
100
AcDbEntity
  8
0
100
AcDbLine
 10
54.852
 20
152.07475
 30
0.0
 11
57.147
 21
152.12565
 31
0.0
  0
LINE
  5
390
330
1D
100
AcDbEntity
  8
0
100
AcDbLine
 10
69.577
 20
93.218238788427
 30
0.0
 11
69.577
 21
92.73455
 31
0.0
  0
LINE
  5
391
330
1D
100
AcDbEntity
  8
0
100
AcDbLine
 10
69.577
 20
92.73455
 30
0.0
 11
69.577
 21
93.218238788427
 31
0.0
  0
LINE
  5
392
330
1D
100
AcDbEntity
  8
0
100
AcDbLine
 10
45.605
 20
92.13455
 30
0.0
 11
47.633
 21
92.13455
 31
0.0
  0
LINE
  5
393
330
1D
100
AcDbEntity
  8
0
100
AcDbLine
 10
53.301
 20
92.13455
 30
0.0
 11
56.577
 21
92.13455
 31
0.0
  0
LINE
  5
9D4
330
1D
100
AcDbEntity
  8
0
100
AcDbLine
 10
180.263
 20
53.81485
 30
0.0
 11
180.552
 21
53.81485
 31
0.0
  0
LINE
  5
9D5
330
1D
100
AcDbEntity
  8
0
100
AcDbLine
 10
179.435
 20
53.81485
 30
0.0
 11
180.263
 21
53.81485
 31
0.0
  0
LINE
  5
9D6
330
1D
100
AcDbEntity
  8
0
100
AcDbLine
 10
180.075
 20
53.81485
 30
0.0
 11
180.552
 21
53.81485
 31
0.0
  0
LINE
  5
9D7
330
1D
100
AcDbEntity
  8
0
100
AcDbLine
 10
178.934
 20
53.81485
 30
0.0
 11
180.075
 21
53.81485
 31
0.0
  0
LINE
  5
9D8
330
1D
100
AcDbEntity
  8
0
100
AcDbLine
 10
179.436
 20
53.81485
 30
0.0
 11
180.075
 21
53.81485
 31
0.0
  0
LINE
  5
9D9
330
1D
100
AcDbEntity
  8
0
100
AcDbLine
 10
178.85
 20
53.81485
 30
0.0
 11
180.014
 21
53.81485
 31
0.0
  0
LINE
  5
9DA
330
1D
100
AcDbEntity
  8
0
100
AcDbLine
 10
175.698
 20
53.81485
 30
0.0
 11
178.078
 21
53.81485
 31
0.0
  0
LINE
  5
9DB
330
1D
100
AcDbEntity
  8
0
100
AcDbLine
 10
174.461
 20
53.81485
 30
0.0
 11
177.15
 21
53.81485
 31
0.0
  0
LINE
  5
9DC
330
1D
100
AcDbEntity
  8
0
100
AcDbLine
 10
155.919
 20
53.81485
 30
0.0
 11
160.474
 21
53.81485
 31
0.0
  0
LINE
  5
9DD
330
1D
100
AcDbEntity
  8
0
100
AcDbLine
 10
160.474
 20
53.81485
 30
0.0
 11
164.882
 21
53.81485
 31
0.0
  0
LINE
  5
9DE
330
1D
100
AcDbEntity
  8
0
100
AcDbLine
 10
164.882
 20
53.81485
 30
0.0
 11
168.983
 21
53.81485
 31
0.0
  0
LINE
  5
9DF
330
1D
100
AcDbEntity
  8
0
100
AcDbLine
 10
164.882
 20
53.81485
 30
0.0
 11
166.454
 21
53.81485
 31
0.0
  0
LINE
  5
9E0
330
1D
100
AcDbEntity
  8
0
100
AcDbLine
 10
147.009
 20
53.81485
 30
0.0
 11
151.377
 21
53.81485
 31
0.0
  0
LINE
  5
9E1
330
1D
100
AcDbEntity
  8
0
100
AcDbLine
 10
144.977
 20
53.81485
 30
0.0
 11
148.922
 21
53.81485
 31
0.0
  0
LINE
  5
9E2
330
1D
100
AcDbEntity
  8
0
100
AcDbLine
 10
136.704
 20
53.81485
 30
0.0
 11
138.663
 21
53.81485
 31
0.0
  0
LINE
  5
9E3
330
1D
100
AcDbEntity
  8
0
100
AcDbLine
 10
136.481
 20
53.81485
 30
0.0
 11
139.417
 21
53.81485
 31
0.0
  0
LINE
  5
9E4
330
1D
100
AcDbEntity
  8
0
100
AcDbLine
 10
138.663
 20
53.81485
 30
0.0
 11
139.317
 21
53.81485
 31
0.0
  0
LINE
  5
9E5
330
1D
100
AcDbEntity
  8
0
100
AcDbLine
 10
139.317
 20
53.81485
 30
0.0
 11
142.404
 21
53.81485
 31
0.0
  0
LINE
  5
9E6
330
1D
100
AcDbEntity
  8
0
100
AcDbLine
 10
139.417
 20
53.81485
 30
0.0
 11
142.977
 21
53.81485
 31
0.0
  0
LINE
  5
9E7
330
1D
100
AcDbEntity
  8
0
100
AcDbLine
 10
138.438
 20
53.81485
 30
0.0
 11
139.317
 21
53.81485
 31
0.0
  0
LINE
  5
9E8
330
1D
100
AcDbEntity
  8
0
100
AcDbLine
 10
132.75
 20
53.81485
 30
0.0
 11
134.25
 21
53.81485
 31
0.0
  0
LINE
  5
9E9
330
1D
100
AcDbEntity
  8
0
100
AcDbLine
 10
132.959
 20
53.81485
 30
0.0
 11
134.082
 21
53.81485
 31
0.0
  0
LINE
  5
9EA
330
1D
100
AcDbEntity
  8
0
100
AcDbLine
 10
132.117
 20
53.81485
 30
0.0
 11
132.75
 21
53.81485
 31
0.0
  0
LINE
  5
9EB
330
1D
100
AcDbEntity
  8
0
100
AcDbLine
 10
132.398
 20
53.81485
 30
0.0
 11
133.355
 21
53.81485
 31
0.0
  0
LINE
  5
9EC
330
1D
100
AcDbEntity
  8
0
100
AcDbLine
 10
132.091
 20
53.81485
 30
0.0
 11
132.398
 21
53.81485
 31
0.0
  0
LINE
  5
9ED
330
1D
100
AcDbEntity
  8
0
100
AcDbLine
 10
27.106
 20
92.91925
 30
0.0
 11
27.166
 21
93.04665
 31
0.0
  0
LINE
  5
9EE
330
1D
100
AcDbEntity
  8
0
100
AcDbLine
 10
27.261
 20
93.25095
 30
0.0
 11
27.307
 21
93.34885
 31
0.0
  0
LINE
  5
9EF
330
1D
100
AcDbEntity
  8
0
100
AcDbLine
 10
27.307
 20
93.34885
 30
0.0
 11
27.36
 21
93.46305
 31
0.0
  0
LINE
  5
9F0
330
1D
100
AcDbEntity
  8
0
100
AcDbLine
 10
27.307
 20
93.34885
 30
0.0
 11
29.191
 21
97.39005
 31
0.0
  0
LINE
  5
9F1
330
1D
100
AcDbEntity
  8
0
100
AcDbLine
 10
27.166
 20
93.04665
 30
0.0
 11
27.261
 21
93.25095
 31
0.0
  0
LINE
  5
9F2
330
1D
100
AcDbEntity
  8
0
100
AcDbLine
 10
29.191
 20
97.39005
 30
0.0
 11
29.258
 21
97.39585
 31
0.0
  0
LINE
  5
9F3
330
1D
100
AcDbEntity
  8
0
100
AcDbLine
 10
29.191
 20
97.39005
 30
0.0
 11
29.258031760032
 21
97.395909526849
 31
0.0
  0
LINE
  5
9F4
330
1D
100
AcDbEntity
  8
0
100
AcDbLine
 10
30.341
 20
97.49065
 30
0.0
 11
31.970647458475
 21
100.985985600785
 31
0.0
  0
LINE
  5
9F5
330
1D
100
AcDbEntity
  8
0
100
AcDbLine
 10
30.272
 20
97.48455
 30
0.0
 11
30.341
 21
97.49065
 31
0.0
  0
LINE
  5
9F6
330
1D
100
AcDbEntity
  8
0
100
AcDbLine
 10
29.258031760032
 20
97.395909526849
 30
0.0
 11
30.272
 21
97.48455
 31
0.0
  0
LINE
  5
9F7
330
1D
100
AcDbEntity
  8
0
100
AcDbLine
 10
33.207
 20
100.08645
 30
0.0
 11
34.472
 21
99.84505
 31
0.0
  0
LINE
  5
9F8
330
1D
100
AcDbEntity
  8
0
100
AcDbLine
 10
34.472
 20
99.84505
 30
0.0
 11
34.758
 21
99.79055
 31
0.0
  0
LINE
  5
9F9
330
1D
100
AcDbEntity
  8
0
100
AcDbLine
 10
3.602
 20
104.03475
 30
0.0
 11
3.697
 21
104.23905
 31
0.0
  0
LINE
  5
9FA
330
1D
100
AcDbEntity
  8
0
100
AcDbLine
 10
3.542
 20
103.90735
 30
0.0
 11
3.602
 21
104.03475
 31
0.0
  0
LINE
  5
9FB
330
1D
100
AcDbEntity
  8
0
100
AcDbLine
 10
3.743
 20
104.33695
 30
0.0
 11
3.796
 21
104.45115
 31
0.0
  0
LINE
  5
9FC
330
1D
100
AcDbEntity
  8
0
100
AcDbLine
 10
3.836
 20
104.53785
 30
0.0
 11
3.88
 21
104.63145
 31
0.0
  0
LINE
  5
9FD
330
1D
100
AcDbEntity
  8
0
100
AcDbLine
 10
3.796
 20
104.45115
 30
0.0
 11
3.836
 21
104.53785
 31
0.0
  0
LINE
  5
9FE
330
1D
100
AcDbEntity
  8
0
100
AcDbLine
 10
3.796
 20
104.45115
 30
0.0
 11
3.836
 21
104.53775
 31
0.0
  0
LINE
  5
9FF
330
1D
100
AcDbEntity
  8
0
100
AcDbLine
 10
3.88
 20
104.63145
 30
0.0
 11
5.627
 21
108.37815
 31
0.0
  0
LINE
  5
A00
330
1D
100
AcDbEntity
  8
0
100
AcDbLine
 10
3.697
 20
104.23905
 30
0.0
 11
3.743
 21
104.33695
 31
0.0
  0
LINE
  5
A01
330
1D
100
AcDbEntity
  8
0
100
AcDbLine
 10
28.667
 20
104.15735
 30
0.0
 11
29.984
 21
102.97245
 31
0.0
  0
LINE
  5
A02
330
1D
100
AcDbEntity
  8
0
100
AcDbLine
 10
31.758
 20
101.21405
 30
0.0
 11
32.198
 21
100.74215
 31
0.0
  0
LINE
  5
A03
330
1D
100
AcDbEntity
  8
0
100
AcDbLine
 10
31.022
 20
101.96675
 30
0.0
 11
31.758
 21
101.21405
 31
0.0
  0
LINE
  5
A04
330
1D
100
AcDbEntity
  8
0
100
AcDbLine
 10
29.984
 20
102.97245
 30
0.0
 11
31.022
 21
101.96675
 31
0.0
  0
LINE
  5
A05
330
1D
100
AcDbEntity
  8
0
100
AcDbLine
 10
27.075
 20
105.44965
 30
0.0
 11
28.667
 21
104.15735
 31
0.0
  0
LINE
  5
A06
330
1D
100
AcDbEntity
  8
0
100
AcDbLine
 10
32.337
 20
100.58635
 30
0.0
 11
33.02
 21
100.12275
 31
0.0
  0
LINE
  5
A07
330
1D
100
AcDbEntity
  8
0
100
AcDbLine
 10
32.198
 20
100.74215
 30
0.0
 11
32.337
 21
100.58635
 31
0.0
  0
LINE
  5
A08
330
1D
100
AcDbEntity
  8
0
100
AcDbLine
 10
31.970470659295
 20
100.985606394555
 30
0.0
 11
32.198
 21
100.74215
 31
0.0
  0
LINE
  5
A09
330
1D
100
AcDbEntity
  8
0
100
AcDbLine
 10
33.02
 20
100.12275
 30
0.0
 11
33.207
 21
100.08645
 31
0.0
  0
LINE
  5
A0A
330
1D
100
AcDbEntity
  8
0
100
AcDbLine
 10
126.794
 20
82.23415
 30
0.0
 11
132.130155352733
 21
81.216163770024
 31
0.0
  0
LINE
  5
A0B
330
1D
100
AcDbEntity
  8
0
100
AcDbLine
 10
65.7152
 20
93.88515
 30
0.0
 11
81.1942
 21
90.93235
 31
0.0
  0
LINE
  5
A0C
330
1D
100
AcDbEntity
  8
0
100
AcDbLine
 10
50.237
 20
96.83805
 30
0.0
 11
65.7152
 21
93.88515
 31
0.0
  0
LINE
  5
A0D
330
1D
100
AcDbEntity
  8
0
100
AcDbLine
 10
81.1942
 20
90.93235
 30
0.0
 11
81.7358
 21
90.82875
 31
0.0
  0
LINE
  5
A0E
330
1D
100
AcDbEntity
  8
0
100
AcDbLine
 10
34.758
 20
99.79055
 30
0.0
 11
50.237
 21
96.83805
 31
0.0
  0
LINE
  5
A0F
330
1D
100
AcDbEntity
  8
0
100
AcDbLine
 10
81.7358
 20
90.82875
 30
0.0
 11
126.794
 21
82.23415
 31
0.0
  0
LINE
  5
A10
330
1D
100
AcDbEntity
  8
0
100
AcDbLine
 10
-0.106
 20
129.41525
 30
0.0
 11
-0.011
 21
129.93155
 31
0.0
  0
LINE
  5
A11
330
1D
100
AcDbEntity
  8
0
100
AcDbLine
 10
-0.106
 20
129.41525
 30
0.0
 11
0.602
 21
124.52405
 31
0.0
  0
LINE
  5
A12
330
1D
100
AcDbEntity
  8
0
100
AcDbLine
 10
-0.106
 20
129.41525
 30
0.0
 11
0.602
 21
124.52405
 31
0.0
  0
LINE
  5
A13
330
1D
100
AcDbEntity
  8
0
100
AcDbLine
 10
5.134
 20
109.08265
 30
0.0
 11
5.228
 21
108.94835
 31
0.0
  0
LINE
  5
A14
330
1D
100
AcDbEntity
  8
0
100
AcDbLine
 10
5.04
 20
109.21635
 30
0.0
 11
5.134
 21
109.08265
 31
0.0
  0
LINE
  5
A15
330
1D
100
AcDbEntity
  8
0
100
AcDbLine
 10
4.984
 20
109.29705
 30
0.0
 11
5.04
 21
109.21635
 31
0.0
  0
LINE
  5
A16
330
1D
100
AcDbEntity
  8
0
100
AcDbLine
 10
4.965
 20
109.32395
 30
0.0
 11
4.994888888889
 21
109.281358333333
 31
0.0
  0
LINE
  5
A17
330
1D
100
AcDbEntity
  8
0
100
AcDbLine
 10
4.965
 20
109.32395
 30
0.0
 11
6.597541310348
 21
112.823962230255
 31
0.0
  0
LINE
  5
A18
330
1D
100
AcDbEntity
  8
0
100
AcDbLine
 10
4.965
 20
109.32395
 30
0.0
 11
4.994888888889
 21
109.281358333333
 31
0.0
  0
LINE
  5
A19
330
1D
100
AcDbEntity
  8
0
100
AcDbLine
 10
5.475
 20
108.59525
 30
0.0
 11
5.627
 21
108.37815
 31
0.0
  0
LINE
  5
A1A
330
1D
100
AcDbEntity
  8
0
100
AcDbLine
 10
5.342
 20
108.78565
 30
0.0
 11
5.475
 21
108.59525
 31
0.0
  0
LINE
  5
A1B
330
1D
100
AcDbEntity
  8
0
100
AcDbLine
 10
5.228
 20
108.94835
 30
0.0
 11
5.342
 21
108.78565
 31
0.0
  0
LINE
  5
A1C
330
1D
100
AcDbEntity
  8
0
100
AcDbLine
 10
2.605
 20
118.44745
 30
0.0
 11
3.753
 21
116.26625
 31
0.0
  0
LINE
  5
A1D
330
1D
100
AcDbEntity
  8
0
100
AcDbLine
 10
3.753
 20
116.26625
 30
0.0
 11
6.105
 21
112.95305
 31
0.0
  0
LINE
  5
A1E
330
1D
100
AcDbEntity
  8
0
100
AcDbLine
 10
1.675
 20
120.72095
 30
0.0
 11
2.605
 21
118.44745
 31
0.0
  0
LINE
  5
A1F
330
1D
100
AcDbEntity
  8
0
100
AcDbLine
 10
0.602
 20
124.52405
 30
0.0
 11
1.675
 21
120.72095
 31
0.0
  0
LINE
  5
A20
330
1D
100
AcDbEntity
  8
0
100
AcDbLine
 10
7.47
 20
112.59125
 30
0.0
 11
9.182
 21
112.15575
 31
0.0
  0
LINE
  5
A21
330
1D
100
AcDbEntity
  8
0
100
AcDbLine
 10
6.285476283106
 20
112.906136877151
 30
0.0
 11
6.597319379516
 21
112.823486431804
 31
0.0
  0
LINE
  5
A22
330
1D
100
AcDbEntity
  8
0
100
AcDbLine
 10
6.285476283106
 20
112.906136877151
 30
0.0
 11
6.597319379516
 21
112.823486431804
 31
0.0
  0
LINE
  5
A23
330
1D
100
AcDbEntity
  8
0
100
AcDbLine
 10
6.442
 20
112.86545
 30
0.0
 11
7.47
 21
112.59125
 31
0.0
  0
LINE
  5
A24
330
1D
100
AcDbEntity
  8
0
100
AcDbLine
 10
6.105
 20
112.95305
 30
0.0
 11
6.442
 21
112.86545
 31
0.0
  0
LINE
  5
A25
330
1D
100
AcDbEntity
  8
0
100
AcDbLine
 10
20.603
 20
109.03835
 30
0.0
 11
23.288
 21
107.85755
 31
0.0
  0
LINE
  5
A26
330
1D
100
AcDbEntity
  8
0
100
AcDbLine
 10
25.292
 20
106.70025
 30
0.0
 11
27.075
 21
105.44965
 31
0.0
  0
LINE
  5
A27
330
1D
100
AcDbEntity
  8
0
100
AcDbLine
 10
23.288
 20
107.85755
 30
0.0
 11
25.292
 21
106.70025
 31
0.0
  0
LINE
  5
A28
330
1D
100
AcDbEntity
  8
0
100
AcDbLine
 10
14.327
 20
110.95235
 30
0.0
 11
17.532
 21
110.10905
 31
0.0
  0
LINE
  5
A29
330
1D
100
AcDbEntity
  8
0
100
AcDbLine
 10
11.507
 20
111.60585
 30
0.0
 11
14.327
 21
110.95235
 31
0.0
  0
LINE
  5
A2A
330
1D
100
AcDbEntity
  8
0
100
AcDbLine
 10
9.182
 20
112.15575
 30
0.0
 11
11.507
 21
111.60585
 31
0.0
  0
LINE
  5
A2B
330
1D
100
AcDbEntity
  8
0
100
AcDbLine
 10
17.532
 20
110.10905
 30
0.0
 11
20.603
 21
109.03835
 31
0.0
  0
LINE
  5
A2C
330
1D
100
AcDbEntity
  8
0
100
AcDbLine
 10
-0.011
 20
129.93155
 30
0.0
 11
0.333
 21
130.32855
 31
0.0
  0
LINE
  5
A2D
330
1D
100
AcDbEntity
  8
0
100
AcDbLine
 10
19.528
 20
130.66085
 30
0.0
 11
19.529
 21
130.72365
 31
0.0
  0
LINE
  5
A2E
330
1D
100
AcDbEntity
  8
0
100
AcDbLine
 10
6.427
 20
130.71535
 30
0.0
 11
15.658
 21
130.72315
 31
0.0
  0
LINE
  5
A2F
330
1D
100
AcDbEntity
  8
0
100
AcDbLine
 10
19.529
 20
130.72365
 30
0.0
 11
50.672
 21
130.78815
 31
0.0
  0
LINE
  5
A30
330
1D
100
AcDbEntity
  8
0
100
AcDbLine
 10
15.658
 20
130.72315
 30
0.0
 11
19.528
 21
130.66085
 31
0.0
  0
LINE
  5
A31
330
1D
100
AcDbEntity
  8
0
100
AcDbLine
 10
1.144
 20
130.49645
 30
0.0
 11
2.144
 21
130.49365
 31
0.0
  0
LINE
  5
A32
330
1D
100
AcDbEntity
  8
0
100
AcDbLine
 10
50.672
 20
130.78815
 30
0.0
 11
64.0766
 21
130.81205
 31
0.0
  0
LINE
  5
A33
330
1D
100
AcDbEntity
  8
0
100
AcDbLine
 10
19.529
 20
130.72365
 30
0.0
 11
50.672
 21
130.78815
 31
0.0
  0
LINE
  5
A34
330
1D
100
AcDbEntity
  8
0
100
AcDbLine
 10
114.107
 20
130.91955
 30
0.0
 11
119.843
 21
130.93005
 31
0.0
  0
LINE
  5
A35
330
1D
100
AcDbEntity
  8
0
100
AcDbLine
 10
114.107
 20
130.91955
 30
0.0
 11
119.844
 21
130.93035
 31
0.0
  0
LINE
  5
A36
330
1D
100
AcDbEntity
  8
0
100
AcDbLine
 10
114.107
 20
130.91955
 30
0.0
 11
119.843
 21
130.93025
 31
0.0
  0
LINE
  5
A37
330
1D
100
AcDbEntity
  8
0
100
AcDbLine
 10
64.0766
 20
130.81205
 30
0.0
 11
64.4629
 21
130.81655
 31
0.0
  0
LINE
  5
A38
330
1D
100
AcDbEntity
  8
0
100
AcDbLine
 10
64.0766
 20
130.81205
 30
0.0
 11
114.107
 21
130.91955
 31
0.0
  0
LINE
  5
A39
330
1D
100
AcDbEntity
  8
0
100
AcDbLine
 10
0.83
 20
130.49665
 30
0.0
 11
1.144
 21
130.49645
 31
0.0
  0
LINE
  5
A3A
330
1D
100
AcDbEntity
  8
0
100
AcDbLine
 10
0.83
 20
130.49665
 30
0.0
 11
6.427
 21
130.71535
 31
0.0
  0
LINE
  5
A3B
330
1D
100
AcDbEntity
  8
0
100
AcDbLine
 10
0.333
 20
130.32855
 30
0.0
 11
0.83
 21
130.49665
 31
0.0
  0
LINE
  5
A3C
330
1D
100
AcDbEntity
  8
0
100
AcDbLine
 10
122.691
 20
130.918794023324
 30
0.0
 11
122.691
 21
148.73455
 31
0.0
  0
LINE
  5
A3D
330
1D
100
AcDbEntity
  8
0
100
AcDbLine
 10
122.941
 20
149.16755
 30
0.0
 11
123.215
 21
149.23455
 31
0.0
  0
LINE
  5
A3E
330
1D
100
AcDbEntity
  8
0
100
AcDbLine
 10
123.232
 20
149.23455
 30
0.0
 11
123.512
 21
149.23455
 31
0.0
  0
LINE
  5
A3F
330
1D
100
AcDbEntity
  8
0
100
AcDbLine
 10
123.512
 20
149.23455
 30
0.0
 11
124.051
 21
149.23455
 31
0.0
  0
LINE
  5
A40
330
1D
100
AcDbEntity
  8
0
100
AcDbLine
 10
124.051
 20
149.23455
 30
0.0
 11
124.844
 21
149.23455
 31
0.0
  0
LINE
  5
A41
330
1D
100
AcDbEntity
  8
0
100
AcDbLine
 10
124.844
 20
149.23455
 30
0.0
 11
125.882
 21
149.23455
 31
0.0
  0
LINE
  5
A42
330
1D
100
AcDbEntity
  8
0
100
AcDbLine
 10
122.758
 20
148.98455
 30
0.0
 11
122.941
 21
149.16755
 31
0.0
  0
LINE
  5
A43
330
1D
100
AcDbEntity
  8
0
100
AcDbLine
 10
122.691
 20
148.73455
 30
0.0
 11
122.691
 21
130.918794023324
 31
0.0
  0
LINE
  5
A44
330
1D
100
AcDbEntity
  8
0
100
AcDbLine
 10
122.691
 20
148.73455
 30
0.0
 11
122.758
 21
148.98455
 31
0.0
  0
LINE
  5
A45
330
1D
100
AcDbEntity
  8
0
100
AcDbLine
 10
125.882
 20
149.23455
 30
0.0
 11
127.156
 21
149.23455
 31
0.0
  0
LINE
  5
A46
330
1D
100
AcDbEntity
  8
0
100
AcDbLine
 10
128.652
 20
149.23455
 30
0.0
 11
130.354
 21
149.23455
 31
0.0
  0
LINE
  5
A47
330
1D
100
AcDbEntity
  8
0
100
AcDbLine
 10
123.332
 20
149.43455
 30
0.0
 11
123.405
 21
149.36135
 31
0.0
  0
LINE
  5
A48
330
1D
100
AcDbEntity
  8
0
100
AcDbLine
 10
123.505
 20
149.33455
 30
0.0
 11
123.778
 21
149.33455
 31
0.0
  0
LINE
  5
A49
330
1D
100
AcDbEntity
  8
0
100
AcDbLine
 10
123.405
 20
149.36135
 30
0.0
 11
123.505
 21
149.33455
 31
0.0
  0
LINE
  5
A4A
330
1D
100
AcDbEntity
  8
0
100
AcDbLine
 10
123.332
 20
150.23455
 30
0.0
 11
123.405
 21
150.30775
 31
0.0
  0
LINE
  5
A4B
330
1D
100
AcDbEntity
  8
0
100
AcDbLine
 10
123.405
 20
150.30775
 30
0.0
 11
123.505
 21
150.33455
 31
0.0
  0
LINE
  5
A4C
330
1D
100
AcDbEntity
  8
0
100
AcDbLine
 10
123.305
 20
150.13455
 30
0.0
 11
123.305
 21
149.53455
 31
0.0
  0
LINE
  5
A4D
330
1D
100
AcDbEntity
  8
0
100
AcDbLine
 10
123.305
 20
150.13455
 30
0.0
 11
123.332
 21
150.23455
 31
0.0
  0
LINE
  5
A4E
330
1D
100
AcDbEntity
  8
0
100
AcDbLine
 10
123.305
 20
149.53455
 30
0.0
 11
123.332
 21
149.43455
 31
0.0
  0
LINE
  5
A4F
330
1D
100
AcDbEntity
  8
0
100
AcDbLine
 10
123.305
 20
149.53455
 30
0.0
 11
123.305
 21
150.13455
 31
0.0
  0
LINE
  5
A50
330
1D
100
AcDbEntity
  8
0
100
AcDbLine
 10
124.389
 20
149.33455
 30
0.0
 11
125.329
 21
149.33455
 31
0.0
  0
LINE
  5
A51
330
1D
100
AcDbEntity
  8
0
100
AcDbLine
 10
123.778
 20
149.33455
 30
0.0
 11
124.389
 21
149.33455
 31
0.0
  0
LINE
  5
A52
330
1D
100
AcDbEntity
  8
0
100
AcDbLine
 10
123.505
 20
150.33455
 30
0.0
 11
123.778
 21
150.33455
 31
0.0
  0
LINE
  5
A53
330
1D
100
AcDbEntity
  8
0
100
AcDbLine
 10
123.778
 20
150.33455
 30
0.0
 11
124.389
 21
150.33455
 31
0.0
  0
LINE
  5
A54
330
1D
100
AcDbEntity
  8
0
100
AcDbLine
 10
125.243
 20
149.33455
 30
0.0
 11
125.808
 21
149.33455
 31
0.0
  0
LINE
  5
A55
330
1D
100
AcDbEntity
  8
0
100
AcDbLine
 10
125.022
 20
149.33455
 30
0.0
 11
125.147
 21
149.33455
 31
0.0
  0
LINE
  5
A56
330
1D
100
AcDbEntity
  8
0
100
AcDbLine
 10
125.022
 20
149.33455
 30
0.0
 11
125.243
 21
149.33455
 31
0.0
  0
LINE
  5
A57
330
1D
100
AcDbEntity
  8
0
100
AcDbLine
 10
125.147
 20
149.33455
 30
0.0
 11
125.618
 21
149.33455
 31
0.0
  0
LINE
  5
A58
330
1D
100
AcDbEntity
  8
0
100
AcDbLine
 10
124.389
 20
150.33455
 30
0.0
 11
125.329
 21
150.33455
 31
0.0
  0
LINE
  5
A59
330
1D
100
AcDbEntity
  8
0
100
AcDbLine
 10
123.332
 20
152.78455
 30
0.0
 11
123.53
 21
152.78455
 31
0.0
  0
LINE
  5
A5A
330
1D
100
AcDbEntity
  8
0
100
AcDbLine
 10
123.995
 20
152.78455
 30
0.0
 11
125.225
 21
152.78455
 31
0.0
  0
LINE
  5
A5B
330
1D
100
AcDbEntity
  8
0
100
AcDbLine
 10
123.153
 20
152.78455
 30
0.0
 11
123.995
 21
152.78455
 31
0.0
  0
LINE
  5
A5C
330
1D
100
AcDbEntity
  8
0
100
AcDbLine
 10
122.719
 20
152.78455
 30
0.0
 11
123.153
 21
152.78455
 31
0.0
  0
LINE
  5
A5D
330
1D
100
AcDbEntity
  8
0
100
AcDbLine
 10
122.659
 20
152.78455
 30
0.0
 11
122.719
 21
152.78455
 31
0.0
  0
LINE
  5
A5E
330
1D
100
AcDbEntity
  8
0
100
AcDbLine
 10
122.414
 20
152.84865
 30
0.0
 11
122.659
 21
152.78455
 31
0.0
  0
LINE
  5
A5F
330
1D
100
AcDbEntity
  8
0
100
AcDbLine
 10
122.232
 20
153.02445
 30
0.0
 11
122.414
 21
152.84865
 31
0.0
  0
LINE
  5
A60
330
1D
100
AcDbEntity
  8
0
100
AcDbLine
 10
122.159
 20
153.26655
 30
0.0
 11
122.232
 21
153.02445
 31
0.0
  0
LINE
  5
A61
330
1D
100
AcDbEntity
  8
0
100
AcDbLine
 10
123.53
 20
152.78455
 30
0.0
 11
124.123
 21
152.78455
 31
0.0
  0
LINE
  5
A62
330
1D
100
AcDbEntity
  8
0
100
AcDbLine
 10
124.123
 20
152.78455
 30
0.0
 11
125.047940213206
 21
152.78455
 31
0.0
  0
LINE
  5
A63
330
1D
100
AcDbEntity
  8
0
100
AcDbLine
 10
48.055
 20
190.78155
 30
0.0
 11
51.447
 21
188.84055
 31
0.0
  0
LINE
  5
A64
330
1D
100
AcDbEntity
  8
0
100
AcDbLine
 10
47.429
 20
191.21955
 30
0.0
 11
48.055
 21
190.78155
 31
0.0
  0
LINE
  5
A65
330
1D
100
AcDbEntity
  8
0
100
AcDbLine
 10
47.101
 20
192.61655
 30
0.0
 11
47.468
 21
193.30155
 31
0.0
  0
LINE
  5
A66
330
1D
100
AcDbEntity
  8
0
100
AcDbLine
 10
47.468
 20
193.30155
 30
0.0
 11
47.85
 21
193.93955
 31
0.0
  0
LINE
  5
A67
330
1D
100
AcDbEntity
  8
0
100
AcDbLine
 10
47.199
 20
191.45955
 30
0.0
 11
47.429
 21
191.21955
 31
0.0
  0
LINE
  5
A68
330
1D
100
AcDbEntity
  8
0
100
AcDbLine
 10
47.002
 20
192.29855
 30
0.0
 11
47.101
 21
192.61655
 31
0.0
  0
LINE
  5
A69
330
1D
100
AcDbEntity
  8
0
100
AcDbLine
 10
48.272
 20
194.39455
 30
0.0
 11
48.842
 21
194.63955
 31
0.0
  0
LINE
  5
A6A
330
1D
100
AcDbEntity
  8
0
100
AcDbLine
 10
47.85
 20
193.93955
 30
0.0
 11
48.272
 21
194.39455
 31
0.0
  0
LINE
  5
A6B
330
1D
100
AcDbEntity
  8
0
100
AcDbLine
 10
121.144
 20
172.02855
 30
0.0
 11
121.356
 21
170.79555
 31
0.0
  0
LINE
  5
A6C
330
1D
100
AcDbEntity
  8
0
100
AcDbLine
 10
120.028
 20
175.13555
 30
0.0
 11
120.49
 21
174.19755
 31
0.0
  0
LINE
  5
A6D
330
1D
100
AcDbEntity
  8
0
100
AcDbLine
 10
118.008
 20
177.38455
 30
0.0
 11
119.143
 21
176.36055
 31
0.0
  0
LINE
  5
A6E
330
1D
100
AcDbEntity
  8
0
100
AcDbLine
 10
119.143
 20
176.36055
 30
0.0
 11
120.028
 21
175.13555
 31
0.0
  0
LINE
  5
A6F
330
1D
100
AcDbEntity
  8
0
100
AcDbLine
 10
120.49
 20
174.19755
 30
0.0
 11
120.859
 21
173.16255
 31
0.0
  0
LINE
  5
A70
330
1D
100
AcDbEntity
  8
0
100
AcDbLine
 10
120.859
 20
173.16255
 30
0.0
 11
121.144
 21
172.02855
 31
0.0
  0
LINE
  5
A71
330
1D
100
AcDbEntity
  8
0
100
AcDbLine
 10
121.548
 20
168.99755
 30
0.0
 11
121.749
 21
164.89655
 31
0.0
  0
LINE
  5
A72
330
1D
100
AcDbEntity
  8
0
100
AcDbLine
 10
121.356
 20
170.79555
 30
0.0
 11
121.548
 21
168.99755
 31
0.0
  0
LINE
  5
A73
330
1D
100
AcDbEntity
  8
0
100
AcDbLine
 10
54.846
 20
187.21255
 30
0.0
 11
58.237
 21
185.87355
 31
0.0
  0
LINE
  5
A74
330
1D
100
AcDbEntity
  8
0
100
AcDbLine
 10
58.237
 20
185.87355
 30
0.0
 11
60.766
 21
185.04255
 31
0.0
  0
LINE
  5
A75
330
1D
100
AcDbEntity
  8
0
100
AcDbLine
 10
60.766
 20
185.04255
 30
0.0
 11
63.2782
 21
184.34555
 31
0.0
  0
LINE
  5
A76
330
1D
100
AcDbEntity
  8
0
100
AcDbLine
 10
49.462
 20
194.63355
 30
0.0
 11
53.143
 21
193.86855
 31
0.0
  0
LINE
  5
A77
330
1D
100
AcDbEntity
  8
0
100
AcDbLine
 10
53.143
 20
193.86855
 30
0.0
 11
56.724
 21
193.22555
 31
0.0
  0
LINE
  5
A78
330
1D
100
AcDbEntity
  8
0
100
AcDbLine
 10
56.724
 20
193.22555
 30
0.0
 11
60.205
 21
192.69155
 31
0.0
  0
LINE
  5
A79
330
1D
100
AcDbEntity
  8
0
100
AcDbLine
 10
60.205
 20
192.69155
 30
0.0
 11
63.5914
 21
192.25155
 31
0.0
  0
LINE
  5
A7A
330
1D
100
AcDbEntity
  8
0
100
AcDbLine
 10
51.447
 20
188.84055
 30
0.0
 11
54.846
 21
187.21255
 31
0.0
  0
LINE
  5
A7B
330
1D
100
AcDbEntity
  8
0
100
AcDbLine
 10
113.98
 20
179.16955
 30
0.0
 11
115.371
 21
178.73755
 31
0.0
  0
LINE
  5
A7C
330
1D
100
AcDbEntity
  8
0
100
AcDbLine
 10
115.371
 20
178.73755
 30
0.0
 11
116.605
 21
178.22155
 31
0.0
  0
LINE
  5
A7D
330
1D
100
AcDbEntity
  8
0
100
AcDbLine
 10
112.431
 20
179.52555
 30
0.0
 11
113.98
 21
179.16955
 31
0.0
  0
LINE
  5
A7E
330
1D
100
AcDbEntity
  8
0
100
AcDbLine
 10
74.7099
 20
182.44055
 30
0.0
 11
78.9414
 21
182.09255
 31
0.0
  0
LINE
  5
A7F
330
1D
100
AcDbEntity
  8
0
100
AcDbLine
 10
71.496
 20
182.80455
 30
0.0
 11
74.7099
 21
182.44055
 31
0.0
  0
LINE
  5
A80
330
1D
100
AcDbEntity
  8
0
100
AcDbLine
 10
78.9414
 20
182.09255
 30
0.0
 11
87.3436
 21
181.59955
 31
0.0
  0
LINE
  5
A81
330
1D
100
AcDbEntity
  8
0
100
AcDbLine
 10
87.3436
 20
181.59955
 30
0.0
 11
102.503
 21
180.60755
 31
0.0
  0
LINE
  5
A82
330
1D
100
AcDbEntity
  8
0
100
AcDbLine
 10
102.503
 20
180.60755
 30
0.0
 11
108.227
 21
180.13055
 31
0.0
  0
LINE
  5
A83
330
1D
100
AcDbEntity
  8
0
100
AcDbLine
 10
108.227
 20
180.13055
 30
0.0
 11
110.729
 21
179.81855
 31
0.0
  0
LINE
  5
A84
330
1D
100
AcDbEntity
  8
0
100
AcDbLine
 10
110.729
 20
179.81855
 30
0.0
 11
112.431
 21
179.52555
 31
0.0
  0
LINE
  5
A85
330
1D
100
AcDbEntity
  8
0
100
AcDbLine
 10
68.2402
 20
183.29555
 30
0.0
 11
71.496
 21
182.80455
 31
0.0
  0
LINE
  5
A86
330
1D
100
AcDbEntity
  8
0
100
AcDbLine
 10
63.5914
 20
192.25155
 30
0.0
 11
70.0891
 21
191.60955
 31
0.0
  0
LINE
  5
A87
330
1D
100
AcDbEntity
  8
0
100
AcDbLine
 10
70.0891
 20
191.60955
 30
0.0
 11
76.2428
 21
191.21555
 31
0.0
  0
LINE
  5
A88
330
1D
100
AcDbEntity
  8
0
100
AcDbLine
 10
76.2428
 20
191.21555
 30
0.0
 11
82.0829
 21
190.99455
 31
0.0
  0
LINE
  5
A89
330
1D
100
AcDbEntity
  8
0
100
AcDbLine
 10
89.4375
 20
190.86755
 30
0.0
 11
102.998
 21
190.83355
 31
0.0
  0
LINE
  5
A8A
330
1D
100
AcDbEntity
  8
0
100
AcDbLine
 10
102.998
 20
190.83355
 30
0.0
 11
172.625
 21
190.83355
 31
0.0
  0
LINE
  5
A8B
330
1D
100
AcDbEntity
  8
0
100
AcDbLine
 10
82.0829
 20
190.99455
 30
0.0
 11
89.4375
 21
190.86755
 31
0.0
  0
LINE
  5
A8C
330
1D
100
AcDbEntity
  8
0
100
AcDbLine
 10
65.7707
 20
183.76755
 30
0.0
 11
68.2402
 21
183.29555
 31
0.0
  0
LINE
  5
A8D
330
1D
100
AcDbEntity
  8
0
100
AcDbLine
 10
63.2782
 20
184.34555
 30
0.0
 11
65.7707
 21
183.76755
 31
0.0
  0
LINE
  5
A8E
330
1D
100
AcDbEntity
  8
0
100
AcDbLine
 10
116.605
 20
178.22155
 30
0.0
 11
118.008
 21
177.38455
 31
0.0
  0
LINE
  5
A8F
330
1D
100
AcDbEntity
  8
0
100
AcDbLine
 10
48.842
 20
194.63955
 30
0.0
 11
49.462
 21
194.63355
 31
0.0
  0
LINE
  5
A90
330
1D
100
AcDbEntity
  8
0
100
AcDbLine
 10
124.625
 20
150.76725
 30
0.0
 11
124.777
 21
151.21545
 31
0.0
  0
LINE
  5
A91
330
1D
100
AcDbEntity
  8
0
100
AcDbLine
 10
124.266
 20
150.44935
 30
0.0
 11
124.625
 21
150.76725
 31
0.0
  0
LINE
  5
A92
330
1D
100
AcDbEntity
  8
0
100
AcDbLine
 10
125.225
 20
152.78455
 30
0.0
 11
126.823
 21
152.78455
 31
0.0
  0
LINE
  5
A93
330
1D
100
AcDbEntity
  8
0
100
AcDbLine
 10
124.777
 20
151.21545
 30
0.0
 11
125.047940213206
 21
152.78455
 31
0.0
  0
LINE
  5
A94
330
1D
100
AcDbEntity
  8
0
100
AcDbLine
 10
125.329
 20
150.33455
 30
0.0
 11
126.587
 21
150.33455
 31
0.0
  0
LINE
  5
A95
330
1D
100
AcDbEntity
  8
0
100
AcDbLine
 10
125.808
 20
149.33455
 30
0.0
 11
126.587
 21
149.33455
 31
0.0
  0
LINE
  5
A96
330
1D
100
AcDbEntity
  8
0
100
AcDbLine
 10
125.618
 20
149.33455
 30
0.0
 11
126.426
 21
149.33455
 31
0.0
  0
LINE
  5
A97
330
1D
100
AcDbEntity
  8
0
100
AcDbLine
 10
127.56
 20
149.33455
 30
0.0
 11
129.004
 21
149.33455
 31
0.0
  0
LINE
  5
A98
330
1D
100
AcDbEntity
  8
0
100
AcDbLine
 10
129.455
 20
149.33455
 30
0.0
 11
131.263
 21
149.33455
 31
0.0
  0
LINE
  5
A99
330
1D
100
AcDbEntity
  8
0
100
AcDbLine
 10
129.004
 20
149.33455
 30
0.0
 11
130.736
 21
149.33455
 31
0.0
  0
LINE
  5
A9A
330
1D
100
AcDbEntity
  8
0
100
AcDbLine
 10
129.983
 20
149.33455
 30
0.0
 11
132.075
 21
149.33455
 31
0.0
  0
LINE
  5
A9B
330
1D
100
AcDbEntity
  8
0
100
AcDbLine
 10
128.146
 20
149.33455
 30
0.0
 11
129.983
 21
149.33455
 31
0.0
  0
LINE
  5
A9C
330
1D
100
AcDbEntity
  8
0
100
AcDbLine
 10
127.929
 20
149.33455
 30
0.0
 11
129.455
 21
149.33455
 31
0.0
  0
LINE
  5
A9D
330
1D
100
AcDbEntity
  8
0
100
AcDbLine
 10
128.763
 20
152.78455
 30
0.0
 11
131.016
 21
152.78455
 31
0.0
  0
LINE
  5
A9E
330
1D
100
AcDbEntity
  8
0
100
AcDbLine
 10
126.823
 20
152.78455
 30
0.0
 11
128.763
 21
152.78455
 31
0.0
  0
LINE
  5
A9F
330
1D
100
AcDbEntity
  8
0
100
AcDbLine
 10
126.587
 20
150.33455
 30
0.0
 11
128.145
 21
150.33455
 31
0.0
  0
LINE
  5
AA0
330
1D
100
AcDbEntity
  8
0
100
AcDbLine
 10
126.587
 20
150.33455
 30
0.0
 11
126.833
 21
150.33455
 31
0.0
  0
LINE
  5
AA1
330
1D
100
AcDbEntity
  8
0
100
AcDbLine
 10
128.145
 20
150.33455
 30
0.0
 11
129.983
 21
150.33455
 31
0.0
  0
LINE
  5
AA2
330
1D
100
AcDbEntity
  8
0
100
AcDbLine
 10
129.983
 20
150.33455
 30
0.0
 11
132.075
 21
150.33455
 31
0.0
  0
LINE
  5
AA3
330
1D
100
AcDbEntity
  8
0
100
AcDbLine
 10
126.587
 20
149.33455
 30
0.0
 11
128.146
 21
149.33455
 31
0.0
  0
LINE
  5
AA4
330
1D
100
AcDbEntity
  8
0
100
AcDbLine
 10
125.329
 20
149.33455
 30
0.0
 11
126.587
 21
149.33455
 31
0.0
  0
LINE
  5
AA5
330
1D
100
AcDbEntity
  8
0
100
AcDbLine
 10
127.156
 20
149.23455
 30
0.0
 11
127.247
 21
149.23455
 31
0.0
  0
LINE
  5
AA6
330
1D
100
AcDbEntity
  8
0
100
AcDbLine
 10
127.156
 20
149.23455
 30
0.0
 11
127.365
 21
149.23455
 31
0.0
  0
LINE
  5
AA7
330
1D
100
AcDbEntity
  8
0
100
AcDbLine
 10
127.156
 20
149.23455
 30
0.0
 11
128.652
 21
149.23455
 31
0.0
  0
LINE
  5
AA8
330
1D
100
AcDbEntity
  8
0
100
AcDbLine
 10
131.016
 20
152.78455
 30
0.0
 11
133.548
 21
152.78455
 31
0.0
  0
LINE
  5
AA9
330
1D
100
AcDbEntity
  8
0
100
AcDbLine
 10
131.263
 20
149.33455
 30
0.0
 11
133.326
 21
149.33455
 31
0.0
  0
LINE
  5
AAA
330
1D
100
AcDbEntity
  8
0
100
AcDbLine
 10
130.736
 20
149.33455
 30
0.0
 11
132.733
 21
149.33455
 31
0.0
  0
LINE
  5
AAB
330
1D
100
AcDbEntity
  8
0
100
AcDbLine
 10
130.354
 20
149.23455
 30
0.0
 11
132.245
 21
149.23455
 31
0.0
  0
LINE
  5
AAE
330
1D
100
AcDbEntity
  8
0
100
AcDbLine
 10
131.654
 20
54.07185
 30
0.0
 11
131.837
 21
53.88385
 31
0.0
  0
LINE
  5
AAF
330
1D
100
AcDbEntity
  8
0
100
AcDbLine
 10
131.611
 20
55.20165
 30
0.0
 11
131.729
 21
60.57265
 31
0.0
  0
LINE
  5
AB1
330
1D
100
AcDbEntity
  8
0
100
AcDbLine
 10
131.611
 20
55.20165
 30
0.0
 11
131.729
 21
60.57265
 31
0.0
  0
LINE
  5
AB2
330
1D
100
AcDbEntity
  8
0
100
AcDbLine
 10
131.729
 20
60.57265
 30
0.0
 11
131.843
 21
65.98025
 31
0.0
  0
LINE
  5
AB3
330
1D
100
AcDbEntity
  8
0
100
AcDbLine
 10
131.843
 20
65.98025
 30
0.0
 11
131.959
 21
71.74215
 31
0.0
  0
LINE
  5
AB4
330
1D
100
AcDbEntity
  8
0
100
AcDbLine
 10
131.959
 20
71.74215
 30
0.0
 11
132.064
 21
77.34965
 31
0.0
  0
LINE
  5
AB5
330
1D
100
AcDbEntity
  8
0
100
AcDbLine
 10
131.591
 20
54.32695
 30
0.0
 11
131.654
 21
54.07185
 31
0.0
  0
LINE
  5
AB6
330
1D
100
AcDbEntity
  8
0
100
AcDbLine
 10
132.177
 20
84.11735
 30
0.0
 11
132.229
 21
87.74895
 31
0.0
  0
LINE
  5
AB7
330
1D
100
AcDbEntity
  8
0
100
AcDbLine
 10
132.27
 20
91.03245
 30
0.0
 11
132.296
 21
93.47695
 31
0.0
  0
LINE
  5
AB8
330
1D
100
AcDbEntity
  8
0
100
AcDbLine
 10
132.296
 20
93.47695
 30
0.0
 11
132.316
 21
95.61575
 31
0.0
  0
LINE
  5
AB9
330
1D
100
AcDbEntity
  8
0
100
AcDbLine
 10
132.229
 20
87.74895
 30
0.0
 11
132.27
 21
91.03245
 31
0.0
  0
LINE
  5
ABA
330
1D
100
AcDbEntity
  8
0
100
AcDbLine
 10
132.124
 20
80.83495
 30
0.0
 11
132.130145553196
 21
81.215556864355
 31
0.0
  0
LINE
  5
ABB
330
1D
100
AcDbEntity
  8
0
100
AcDbLine
 10
132.124
 20
80.83495
 30
0.0
 11
132.177
 21
84.11735
 31
0.0
  0
LINE
  5
ABC
330
1D
100
AcDbEntity
  8
0
100
AcDbLine
 10
133.121
 20
130.20855
 30
0.0
 11
133.366
 21
130.36435
 31
0.0
  0
LINE
  5
ABD
330
1D
100
AcDbEntity
  8
0
100
AcDbLine
 10
133.014
 20
130.00805
 30
0.0
 11
133.121
 21
130.20855
 31
0.0
  0
LINE
  5
ABE
330
1D
100
AcDbEntity
  8
0
100
AcDbLine
 10
132.879
 20
129.52595
 30
0.0
 11
133.014
 21
130.00805
 31
0.0
  0
LINE
  5
ABF
330
1D
100
AcDbEntity
  8
0
100
AcDbLine
 10
132.316
 20
95.61575
 30
0.0
 11
132.329
 21
97.40545
 31
0.0
  0
LINE
  5
AC0
330
1D
100
AcDbEntity
  8
0
100
AcDbLine
 10
132.064
 20
77.34965
 30
0.0
 11
132.124
 21
80.83495
 31
0.0
  0
LINE
  5
AC1
330
1D
100
AcDbEntity
  8
0
100
AcDbLine
 10
131.589
 20
54.32625
 30
0.0
 11
131.653269532644
 21
54.074807813057
 31
0.0
  0
LINE
  5
AC2
330
1D
100
AcDbEntity
  8
0
100
AcDbLine
 10
131.589
 20
54.32625
 30
0.0
 11
131.653269532644
 21
54.074807813057
 31
0.0
  0
LINE
  5
AC3
330
1D
100
AcDbEntity
  8
0
100
AcDbLine
 10
131.589
 20
54.32625
 30
0.0
 11
131.608925271276
 21
55.118551241452
 31
0.0
  0
LINE
  5
AC4
330
1D
100
AcDbEntity
  8
0
100
AcDbLine
 10
131.589
 20
54.32625
 30
0.0
 11
131.608925271276
 21
55.118551241452
 31
0.0
  0
LINE
  5
AC5
330
1D
100
AcDbEntity
  8
0
100
AcDbLine
 10
132.075
 20
149.33455
 30
0.0
 11
134.392
 21
149.33455
 31
0.0
  0
LINE
  5
AC6
330
1D
100
AcDbEntity
  8
0
100
AcDbLine
 10
132.733
 20
149.33455
 30
0.0
 11
134.962
 21
149.33455
 31
0.0
  0
LINE
  5
AC7
330
1D
100
AcDbEntity
  8
0
100
AcDbLine
 10
132.075
 20
150.33455
 30
0.0
 11
134.392
 21
150.33455
 31
0.0
  0
LINE
  5
AC8
330
1D
100
AcDbEntity
  8
0
100
AcDbLine
 10
132.245
 20
149.23455
 30
0.0
 11
134.307
 21
149.23455
 31
0.0
  0
LINE
  5
AC9
330
1D
100
AcDbEntity
  8
0
100
AcDbLine
 10
131.837
 20
53.88385
 30
0.0
 11
132.091
 21
53.81485
 31
0.0
  0
LINE
  5
ACA
330
1D
100
AcDbEntity
  8
0
100
AcDbLine
 10
135.09
 20
53.81485
 30
0.0
 11
135.574
 21
53.81485
 31
0.0
  0
LINE
  5
ACB
330
1D
100
AcDbEntity
  8
0
100
AcDbLine
 10
135.09
 20
53.81485
 30
0.0
 11
135.497
 21
53.81485
 31
0.0
  0
LINE
  5
ACC
330
1D
100
AcDbEntity
  8
0
100
AcDbLine
 10
133.355
 20
53.81485
 30
0.0
 11
135.238
 21
53.81485
 31
0.0
  0
LINE
  5
ACD
330
1D
100
AcDbEntity
  8
0
100
AcDbLine
 10
133.366
 20
130.36435
 30
0.0
 11
133.847
 21
130.50525
 31
0.0
  0
LINE
  5
ACE
330
1D
100
AcDbEntity
  8
0
100
AcDbLine
 10
134.307
 20
149.23455
 30
0.0
 11
136.517
 21
149.23455
 31
0.0
  0
LINE
  5
ACF
330
1D
100
AcDbEntity
  8
0
100
AcDbLine
 10
133.326
 20
149.33455
 30
0.0
 11
135.615
 21
149.33455
 31
0.0
  0
LINE
  5
AD0
330
1D
100
AcDbEntity
  8
0
100
AcDbLine
 10
134.962
 20
149.33455
 30
0.0
 11
137.393
 21
149.33455
 31
0.0
  0
LINE
  5
AD1
330
1D
100
AcDbEntity
  8
0
100
AcDbLine
 10
135.615
 20
149.33455
 30
0.0
 11
138.095
 21
149.33455
 31
0.0
  0
LINE
  5
AD2
330
1D
100
AcDbEntity
  8
0
100
AcDbLine
 10
136.905
 20
149.33455
 30
0.0
 11
139.578
 21
149.33455
 31
0.0
  0
LINE
  5
AD3
330
1D
100
AcDbEntity
  8
0
100
AcDbLine
 10
134.392
 20
149.33455
 30
0.0
 11
136.905
 21
149.33455
 31
0.0
  0
LINE
  5
AD4
330
1D
100
AcDbEntity
  8
0
100
AcDbLine
 10
135.978
 20
152.78455
 30
0.0
 11
138.569
 21
152.78455
 31
0.0
  0
LINE
  5
AD5
330
1D
100
AcDbEntity
  8
0
100
AcDbLine
 10
133.548
 20
152.78455
 30
0.0
 11
135.978
 21
152.78455
 31
0.0
  0
LINE
  5
AD6
330
1D
100
AcDbEntity
  8
0
100
AcDbLine
 10
134.392
 20
150.33455
 30
0.0
 11
136.905
 21
150.33455
 31
0.0
  0
LINE
  5
AD7
330
1D
100
AcDbEntity
  8
0
100
AcDbLine
 10
137.393
 20
149.33455
 30
0.0
 11
139.991
 21
149.33455
 31
0.0
  0
LINE
  5
AD8
330
1D
100
AcDbEntity
  8
0
100
AcDbLine
 10
138.569
 20
152.78455
 30
0.0
 11
141.292
 21
152.78455
 31
0.0
  0
LINE
  5
AD9
330
1D
100
AcDbEntity
  8
0
100
AcDbLine
 10
138.095
 20
149.33455
 30
0.0
 11
140.732
 21
149.33455
 31
0.0
  0
LINE
  5
ADA
330
1D
100
AcDbEntity
  8
0
100
AcDbLine
 10
136.905
 20
150.33455
 30
0.0
 11
139.578
 21
150.33455
 31
0.0
  0
LINE
  5
ADB
330
1D
100
AcDbEntity
  8
0
100
AcDbLine
 10
136.517
 20
149.23455
 30
0.0
 11
138.852
 21
149.23455
 31
0.0
  0
LINE
  5
ADC
330
1D
100
AcDbEntity
  8
0
100
AcDbLine
 10
139.991
 20
149.33455
 30
0.0
 11
142.717
 21
149.33455
 31
0.0
  0
LINE
  5
ADD
330
1D
100
AcDbEntity
  8
0
100
AcDbLine
 10
140.732
 20
149.33455
 30
0.0
 11
143.487
 21
149.33455
 31
0.0
  0
LINE
  5
ADE
330
1D
100
AcDbEntity
  8
0
100
AcDbLine
 10
141.291
 20
149.23455
 30
0.0
 11
143.805
 21
149.23455
 31
0.0
  0
LINE
  5
ADF
330
1D
100
AcDbEntity
  8
0
100
AcDbLine
 10
142.376
 20
149.33455
 30
0.0
 11
145.26
 21
149.33455
 31
0.0
  0
LINE
  5
AE0
330
1D
100
AcDbEntity
  8
0
100
AcDbLine
 10
139.578
 20
149.33455
 30
0.0
 11
142.376
 21
149.33455
 31
0.0
  0
LINE
  5
AE1
330
1D
100
AcDbEntity
  8
0
100
AcDbLine
 10
141.292
 20
152.78455
 30
0.0
 11
144.118
 21
152.78455
 31
0.0
  0
LINE
  5
AE2
330
1D
100
AcDbEntity
  8
0
100
AcDbLine
 10
139.578
 20
150.33455
 30
0.0
 11
142.376
 21
150.33455
 31
0.0
  0
LINE
  5
AE3
330
1D
100
AcDbEntity
  8
0
100
AcDbLine
 10
142.376
 20
150.33455
 30
0.0
 11
145.261
 21
150.33455
 31
0.0
  0
LINE
  5
AE4
330
1D
100
AcDbEntity
  8
0
100
AcDbLine
 10
138.852
 20
149.23455
 30
0.0
 11
141.291
 21
149.23455
 31
0.0
  0
LINE
  5
AE5
330
1D
100
AcDbEntity
  8
0
100
AcDbLine
 10
134.25
 20
53.81485
 30
0.0
 11
136.481
 21
53.81485
 31
0.0
  0
LINE
  5
AE6
330
1D
100
AcDbEntity
  8
0
100
AcDbLine
 10
133.3
 20
53.81485
 30
0.0
 11
135.093
 21
53.81485
 31
0.0
  0
LINE
  5
AE7
330
1D
100
AcDbEntity
  8
0
100
AcDbLine
 10
143.487
 20
149.33455
 30
0.0
 11
146.319
 21
149.33455
 31
0.0
  0
LINE
  5
AE8
330
1D
100
AcDbEntity
  8
0
100
AcDbLine
 10
142.717
 20
149.33455
 30
0.0
 11
145.532
 21
149.33455
 31
0.0
  0
LINE
  5
AE9
330
1D
100
AcDbEntity
  8
0
100
AcDbLine
 10
143.805
 20
149.23455
 30
0.0
 11
146.371
 21
149.23455
 31
0.0
  0
LINE
  5
AEA
330
1D
100
AcDbEntity
  8
0
100
AcDbLine
 10
146.371
 20
149.23455
 30
0.0
 11
148.961
 21
149.23455
 31
0.0
  0
LINE
  5
AEB
330
1D
100
AcDbEntity
  8
0
100
AcDbLine
 10
146.319
 20
149.33455
 30
0.0
 11
149.186
 21
149.33455
 31
0.0
  0
LINE
  5
AEC
330
1D
100
AcDbEntity
  8
0
100
AcDbLine
 10
145.532
 20
149.33455
 30
0.0
 11
148.394
 21
149.33455
 31
0.0
  0
LINE
  5
AED
330
1D
100
AcDbEntity
  8
0
100
AcDbLine
 10
148.193
 20
149.33455
 30
0.0
 11
151.133
 21
149.33455
 31
0.0
  0
LINE
  5
AEE
330
1D
100
AcDbEntity
  8
0
100
AcDbLine
 10
145.26
 20
149.33455
 30
0.0
 11
148.193
 21
149.33455
 31
0.0
  0
LINE
  5
AEF
330
1D
100
AcDbEntity
  8
0
100
AcDbLine
 10
144.118
 20
152.78455
 30
0.0
 11
147.014
 21
152.78455
 31
0.0
  0
LINE
  5
AF0
330
1D
100
AcDbEntity
  8
0
100
AcDbLine
 10
147.014
 20
152.78455
 30
0.0
 11
148.702
 21
152.78455
 31
0.0
  0
LINE
  5
AF1
330
1D
100
AcDbEntity
  8
0
100
AcDbLine
 10
145.261
 20
150.33455
 30
0.0
 11
148.193
 21
150.33455
 31
0.0
  0
LINE
  5
AF2
330
1D
100
AcDbEntity
  8
0
100
AcDbLine
 10
148.394
 20
149.33455
 30
0.0
 11
151.261
 21
149.33455
 31
0.0
  0
LINE
  5
AF3
330
1D
100
AcDbEntity
  8
0
100
AcDbLine
 10
148.193
 20
150.33455
 30
0.0
 11
151.133
 21
150.33455
 31
0.0
  0
LINE
  5
AF4
330
1D
100
AcDbEntity
  8
0
100
AcDbLine
 10
142.977
 20
53.81485
 30
0.0
 11
147.009
 21
53.81485
 31
0.0
  0
LINE
  5
AF5
330
1D
100
AcDbEntity
  8
0
100
AcDbLine
 10
142.977
 20
53.81485
 30
0.0
 11
144.512
 21
53.81485
 31
0.0
  0
LINE
  5
AF6
330
1D
100
AcDbEntity
  8
0
100
AcDbLine
 10
142.404
 20
53.81485
 30
0.0
 11
144.512
 21
53.81485
 31
0.0
  0
LINE
  5
AF7
330
1D
100
AcDbEntity
  8
0
100
AcDbLine
 10
144.618
 20
53.81485
 30
0.0
 11
148.809
 21
53.81485
 31
0.0
  0
LINE
  5
AF8
330
1D
100
AcDbEntity
  8
0
100
AcDbLine
 10
151.377
 20
53.81485
 30
0.0
 11
155.919
 21
53.81485
 31
0.0
  0
LINE
  5
AF9
330
1D
100
AcDbEntity
  8
0
100
AcDbLine
 10
149.186
 20
149.33455
 30
0.0
 11
152.048
 21
149.33455
 31
0.0
  0
LINE
  5
AFA
330
1D
100
AcDbEntity
  8
0
100
AcDbLine
 10
151.261
 20
149.33455
 30
0.0
 11
154.093
 21
149.33455
 31
0.0
  0
LINE
  5
AFB
330
1D
100
AcDbEntity
  8
0
100
AcDbLine
 10
151.133
 20
149.33455
 30
0.0
 11
154.042
 21
149.33455
 31
0.0
  0
LINE
  5
AFC
330
1D
100
AcDbEntity
  8
0
100
AcDbLine
 10
151.551
 20
149.23455
 30
0.0
 11
154.111
 21
149.23455
 31
0.0
  0
LINE
  5
AFD
330
1D
100
AcDbEntity
  8
0
100
AcDbLine
 10
148.961
 20
149.23455
 30
0.0
 11
151.551
 21
149.23455
 31
0.0
  0
LINE
  5
AFE
330
1D
100
AcDbEntity
  8
0
100
AcDbLine
 10
151.133
 20
150.33455
 30
0.0
 11
154.042
 21
150.33455
 31
0.0
  0
LINE
  5
AFF
330
1D
100
AcDbEntity
  8
0
100
AcDbLine
 10
152.048
 20
149.33455
 30
0.0
 11
154.863
 21
149.33455
 31
0.0
  0
LINE
  5
B00
330
1D
100
AcDbEntity
  8
0
100
AcDbLine
 10
154.042
 20
149.33455
 30
0.0
 11
156.88
 21
149.33455
 31
0.0
  0
LINE
  5
B01
330
1D
100
AcDbEntity
  8
0
100
AcDbLine
 10
156.617
 20
149.23455
 30
0.0
 11
159.043
 21
149.23455
 31
0.0
  0
LINE
  5
B02
330
1D
100
AcDbEntity
  8
0
100
AcDbLine
 10
154.111
 20
149.23455
 30
0.0
 11
156.617
 21
149.23455
 31
0.0
  0
LINE
  5
B03
330
1D
100
AcDbEntity
  8
0
100
AcDbLine
 10
154.863
 20
149.33455
 30
0.0
 11
157.589
 21
149.33455
 31
0.0
  0
LINE
  5
B04
330
1D
100
AcDbEntity
  8
0
100
AcDbLine
 10
156.848
 20
149.33455
 30
0.0
 11
159.485
 21
149.33455
 31
0.0
  0
LINE
  5
B05
330
1D
100
AcDbEntity
  8
0
100
AcDbLine
 10
154.093
 20
149.33455
 30
0.0
 11
156.848
 21
149.33455
 31
0.0
  0
LINE
  5
B06
330
1D
100
AcDbEntity
  8
0
100
AcDbLine
 10
159.043
 20
149.23455
 30
0.0
 11
161.364
 21
149.23455
 31
0.0
  0
LINE
  5
B07
330
1D
100
AcDbEntity
  8
0
100
AcDbLine
 10
159.485
 20
149.33455
 30
0.0
 11
161.965
 21
149.33455
 31
0.0
  0
LINE
  5
B08
330
1D
100
AcDbEntity
  8
0
100
AcDbLine
 10
157.589
 20
149.33455
 30
0.0
 11
160.187
 21
149.33455
 31
0.0
  0
LINE
  5
B09
330
1D
100
AcDbEntity
  8
0
100
AcDbLine
 10
159.608
 20
149.33455
 30
0.0
 11
162.19
 21
149.33455
 31
0.0
  0
LINE
  5
B0A
330
1D
100
AcDbEntity
  8
0
100
AcDbLine
 10
156.88
 20
149.33455
 30
0.0
 11
159.608
 21
149.33455
 31
0.0
  0
LINE
  5
B0B
330
1D
100
AcDbEntity
  8
0
100
AcDbLine
 10
161.364
 20
149.23455
 30
0.0
 11
163.555
 21
149.23455
 31
0.0
  0
LINE
  5
B0C
330
1D
100
AcDbEntity
  8
0
100
AcDbLine
 10
161.965
 20
149.33455
 30
0.0
 11
164.254
 21
149.33455
 31
0.0
  0
LINE
  5
B0D
330
1D
100
AcDbEntity
  8
0
100
AcDbLine
 10
160.187
 20
149.33455
 30
0.0
 11
162.618
 21
149.33455
 31
0.0
  0
LINE
  5
B0E
330
1D
100
AcDbEntity
  8
0
100
AcDbLine
 10
162.19
 20
149.33455
 30
0.0
 11
164.59
 21
149.33455
 31
0.0
  0
LINE
  5
B0F
330
1D
100
AcDbEntity
  8
0
100
AcDbLine
 10
162.19
 20
150.33455
 30
0.0
 11
164.591
 21
150.33455
 31
0.0
  0
LINE
  5
B10
330
1D
100
AcDbEntity
  8
0
100
AcDbLine
 10
159.608
 20
150.33455
 30
0.0
 11
162.19
 21
150.33455
 31
0.0
  0
LINE
  5
B11
330
1D
100
AcDbEntity
  8
0
100
AcDbLine
 10
156.88
 20
150.33455
 30
0.0
 11
159.608
 21
150.33455
 31
0.0
  0
LINE
  5
B12
330
1D
100
AcDbEntity
  8
0
100
AcDbLine
 10
154.042
 20
150.33455
 30
0.0
 11
156.88
 21
150.33455
 31
0.0
  0
LINE
  5
B13
330
1D
100
AcDbEntity
  8
0
100
AcDbLine
 10
164.254
 20
149.33455
 30
0.0
 11
166.318
 21
149.33455
 31
0.0
  0
LINE
  5
B14
330
1D
100
AcDbEntity
  8
0
100
AcDbLine
 10
162.618
 20
149.33455
 30
0.0
 11
164.848
 21
149.33455
 31
0.0
  0
LINE
  5
B15
330
1D
100
AcDbEntity
  8
0
100
AcDbLine
 10
164.59
 20
149.33455
 30
0.0
 11
166.777
 21
149.33455
 31
0.0
  0
LINE
  5
B16
330
1D
100
AcDbEntity
  8
0
100
AcDbLine
 10
163.555
 20
149.23455
 30
0.0
 11
165.595
 21
149.23455
 31
0.0
  0
LINE
  5
B17
330
1D
100
AcDbEntity
  8
0
100
AcDbLine
 10
164.848
 20
149.33455
 30
0.0
 11
166.844
 21
149.33455
 31
0.0
  0
LINE
  5
B18
330
1D
100
AcDbEntity
  8
0
100
AcDbLine
 10
165.595
 20
149.23455
 30
0.0
 11
167.463
 21
149.23455
 31
0.0
  0
LINE
  5
B19
330
1D
100
AcDbEntity
  8
0
100
AcDbLine
 10
164.591
 20
150.33455
 30
0.0
 11
166.777
 21
150.33455
 31
0.0
  0
LINE
  5
B1A
330
1D
100
AcDbEntity
  8
0
100
AcDbLine
 10
166.318
 20
149.33455
 30
0.0
 11
168.126
 21
149.33455
 31
0.0
  0
LINE
  5
B1B
330
1D
100
AcDbEntity
  8
0
100
AcDbLine
 10
149.185
 20
53.81485
 30
0.0
 11
153.648
 21
53.81485
 31
0.0
  0
LINE
  5
B1C
330
1D
100
AcDbEntity
  8
0
100
AcDbLine
 10
148.809
 20
53.81485
 30
0.0
 11
153.27
 21
53.81485
 31
0.0
  0
LINE
  5
B1D
330
1D
100
AcDbEntity
  8
0
100
AcDbLine
 10
153.27
 20
53.81485
 30
0.0
 11
157.454
 21
53.81485
 31
0.0
  0
LINE
  5
B1E
330
1D
100
AcDbEntity
  8
0
100
AcDbLine
 10
172.637
 20
53.81485
 30
0.0
 11
175.698
 21
53.81485
 31
0.0
  0
LINE
  5
B1F
330
1D
100
AcDbEntity
  8
0
100
AcDbLine
 10
166.844
 20
149.33455
 30
0.0
 11
168.576
 21
149.33455
 31
0.0
  0
LINE
  5
B20
330
1D
100
AcDbEntity
  8
0
100
AcDbLine
 10
166.777
 20
149.33455
 30
0.0
 11
168.721
 21
149.33455
 31
0.0
  0
LINE
  5
B21
330
1D
100
AcDbEntity
  8
0
100
AcDbLine
 10
167.463
 20
149.23455
 30
0.0
 11
169.138
 21
149.23455
 31
0.0
  0
LINE
  5
B22
330
1D
100
AcDbEntity
  8
0
100
AcDbLine
 10
166.777
 20
150.33455
 30
0.0
 11
168.721
 21
150.33455
 31
0.0
  0
LINE
  5
B23
330
1D
100
AcDbEntity
  8
0
100
AcDbLine
 10
168.576
 20
149.33455
 30
0.0
 11
170.02
 21
149.33455
 31
0.0
  0
LINE
  5
B24
330
1D
100
AcDbEntity
  8
0
100
AcDbLine
 10
168.721
 20
149.33455
 30
0.0
 11
170.396
 21
149.33455
 31
0.0
  0
LINE
  5
B25
330
1D
100
AcDbEntity
  8
0
100
AcDbLine
 10
168.721
 20
150.33455
 30
0.0
 11
170.396
 21
150.33455
 31
0.0
  0
LINE
  5
B26
330
1D
100
AcDbEntity
  8
0
100
AcDbLine
 10
168.126
 20
149.33455
 30
0.0
 11
169.651
 21
149.33455
 31
0.0
  0
LINE
  5
B27
330
1D
100
AcDbEntity
  8
0
100
AcDbLine
 10
169.138
 20
149.23455
 30
0.0
 11
170.606
 21
149.23455
 31
0.0
  0
LINE
  5
B28
330
1D
100
AcDbEntity
  8
0
100
AcDbLine
 10
170.606
 20
149.23455
 30
0.0
 11
171.849
 21
149.23455
 31
0.0
  0
LINE
  5
B29
330
1D
100
AcDbEntity
  8
0
100
AcDbLine
 10
171.849
 20
149.23455
 30
0.0
 11
172.856
 21
149.23455
 31
0.0
  0
LINE
  5
B2A
330
1D
100
AcDbEntity
  8
0
100
AcDbLine
 10
172.856
 20
149.23455
 30
0.0
 11
173.615
 21
149.23455
 31
0.0
  0
LINE
  5
B2B
330
1D
100
AcDbEntity
  8
0
100
AcDbLine
 10
170.02
 20
149.33455
 30
0.0
 11
171.154
 21
149.33455
 31
0.0
  0
LINE
  5
B2C
330
1D
100
AcDbEntity
  8
0
100
AcDbLine
 10
170.873
 20
149.33455
 30
0.0
 11
171.772
 21
149.33455
 31
0.0
  0
LINE
  5
B2D
330
1D
100
AcDbEntity
  8
0
100
AcDbLine
 10
171.772
 20
149.33455
 30
0.0
 11
172.337
 21
149.33455
 31
0.0
  0
LINE
  5
B2E
330
1D
100
AcDbEntity
  8
0
100
AcDbLine
 10
172.337
 20
149.33455
 30
0.0
 11
172.558
 21
149.33455
 31
0.0
  0
LINE
  5
B2F
330
1D
100
AcDbEntity
  8
0
100
AcDbLine
 10
172.433
 20
149.33455
 30
0.0
 11
172.558
 21
149.33455
 31
0.0
  0
LINE
  5
B30
330
1D
100
AcDbEntity
  8
0
100
AcDbLine
 10
171.962
 20
149.33455
 30
0.0
 11
172.433
 21
149.33455
 31
0.0
  0
LINE
  5
B31
330
1D
100
AcDbEntity
  8
0
100
AcDbLine
 10
171.154
 20
149.33455
 30
0.0
 11
171.962
 21
149.33455
 31
0.0
  0
LINE
  5
B32
330
1D
100
AcDbEntity
  8
0
100
AcDbLine
 10
174.005
 20
149.33455
 30
0.0
 11
174.075
 21
149.33455
 31
0.0
  0
LINE
  5
B33
330
1D
100
AcDbEntity
  8
0
100
AcDbLine
 10
174.075
 20
149.33455
 30
0.0
 11
174.175
 21
149.36135
 31
0.0
  0
LINE
  5
B34
330
1D
100
AcDbEntity
  8
0
100
AcDbLine
 10
173.595
 20
149.33455
 30
0.0
 11
174.005
 21
149.33455
 31
0.0
  0
LINE
  5
B35
330
1D
100
AcDbEntity
  8
0
100
AcDbLine
 10
172.85
 20
149.33455
 30
0.0
 11
173.595
 21
149.33455
 31
0.0
  0
LINE
  5
B36
330
1D
100
AcDbEntity
  8
0
100
AcDbLine
 10
171.778
 20
149.33455
 30
0.0
 11
172.85
 21
149.33455
 31
0.0
  0
LINE
  5
B37
330
1D
100
AcDbEntity
  8
0
100
AcDbLine
 10
170.396
 20
149.33455
 30
0.0
 11
171.778
 21
149.33455
 31
0.0
  0
LINE
  5
B38
330
1D
100
AcDbEntity
  8
0
100
AcDbLine
 10
173.615
 20
149.23455
 30
0.0
 11
174.12
 21
149.23455
 31
0.0
  0
LINE
  5
B39
330
1D
100
AcDbEntity
  8
0
100
AcDbLine
 10
174.365
 20
149.23455
 30
0.0
 11
174.639
 21
149.16755
 31
0.0
  0
LINE
  5
B3A
330
1D
100
AcDbEntity
  8
0
100
AcDbLine
 10
174.12
 20
149.23455
 30
0.0
 11
174.365
 21
149.23455
 31
0.0
  0
LINE
  5
B3B
330
1D
100
AcDbEntity
  8
0
100
AcDbLine
 10
169.736668466142
 20
160.408416268476
 30
0.0
 11
170.775
 21
158.41955
 31
0.0
  0
LINE
  5
B3C
330
1D
100
AcDbEntity
  8
0
100
AcDbLine
 10
174.175
 20
149.36135
 30
0.0
 11
174.248
 21
149.43455
 31
0.0
  0
LINE
  5
B3D
330
1D
100
AcDbEntity
  8
0
100
AcDbLine
 10
174.248
 20
149.43455
 30
0.0
 11
174.275
 21
149.53455
 31
0.0
  0
LINE
  5
B3E
330
1D
100
AcDbEntity
  8
0
100
AcDbLine
 10
174.175
 20
150.30775
 30
0.0
 11
174.248
 21
150.23455
 31
0.0
  0
LINE
  5
B3F
330
1D
100
AcDbEntity
  8
0
100
AcDbLine
 10
174.275
 20
150.13455
 30
0.0
 11
174.275
 21
149.53455
 31
0.0
  0
LINE
  5
B40
330
1D
100
AcDbEntity
  8
0
100
AcDbLine
 10
174.275
 20
149.53455
 30
0.0
 11
174.275
 21
150.13455
 31
0.0
  0
LINE
  5
B41
330
1D
100
AcDbEntity
  8
0
100
AcDbLine
 10
174.248
 20
150.23455
 30
0.0
 11
174.275
 21
150.13455
 31
0.0
  0
LINE
  5
B42
330
1D
100
AcDbEntity
  8
0
100
AcDbLine
 10
174.075
 20
150.33455
 30
0.0
 11
174.175
 21
150.30775
 31
0.0
  0
LINE
  5
B43
330
1D
100
AcDbEntity
  8
0
100
AcDbLine
 10
174.005
 20
150.33455
 30
0.0
 11
174.075
 21
150.33455
 31
0.0
  0
LINE
  5
B44
330
1D
100
AcDbEntity
  8
0
100
AcDbLine
 10
173.595
 20
150.33455
 30
0.0
 11
174.005
 21
150.33455
 31
0.0
  0
LINE
  5
B45
330
1D
100
AcDbEntity
  8
0
100
AcDbLine
 10
172.849
 20
150.33455
 30
0.0
 11
173.595
 21
150.33455
 31
0.0
  0
LINE
  5
B46
330
1D
100
AcDbEntity
  8
0
100
AcDbLine
 10
172.804
 20
151.21555
 30
0.0
 11
172.955
 21
150.76725
 31
0.0
  0
LINE
  5
B47
330
1D
100
AcDbEntity
  8
0
100
AcDbLine
 10
170.775
 20
158.41955
 30
0.0
 11
171.699
 21
156.09355
 31
0.0
  0
LINE
  5
B48
330
1D
100
AcDbEntity
  8
0
100
AcDbLine
 10
172.625
 20
190.83355
 30
0.0
 11
173.36
 21
190.64155
 31
0.0
  0
LINE
  5
B49
330
1D
100
AcDbEntity
  8
0
100
AcDbLine
 10
171.699
 20
156.09355
 30
0.0
 11
172.378
 21
153.68255
 31
0.0
  0
LINE
  5
B4A
330
1D
100
AcDbEntity
  8
0
100
AcDbLine
 10
172.378
 20
153.68255
 30
0.0
 11
172.804
 21
151.21555
 31
0.0
  0
LINE
  5
B4B
330
1D
100
AcDbEntity
  8
0
100
AcDbLine
 10
173.36
 20
190.64155
 30
0.0
 11
173.907
 21
190.11355
 31
0.0
  0
LINE
  5
B4C
330
1D
100
AcDbEntity
  8
0
100
AcDbLine
 10
173.907
 20
190.11355
 30
0.0
 11
174.125
 21
189.38655
 31
0.0
  0
LINE
  5
B4D
330
1D
100
AcDbEntity
  8
0
100
AcDbLine
 10
174.125
 20
189.38655
 30
0.0
 11
175.066
 21
162.71555
 31
0.0
  0
LINE
  5
B4E
330
1D
100
AcDbEntity
  8
0
100
AcDbLine
 10
173.3
 20
150.44935
 30
0.0
 11
173.796
 21
150.33455
 31
0.0
  0
LINE
  5
B4F
330
1D
100
AcDbEntity
  8
0
100
AcDbLine
 10
172.955
 20
150.76725
 30
0.0
 11
173.314
 21
150.44935
 31
0.0
  0
LINE
  5
B50
330
1D
100
AcDbEntity
  8
0
100
AcDbLine
 10
171.778
 20
150.33455
 30
0.0
 11
172.849
 21
150.33455
 31
0.0
  0
LINE
  5
B51
330
1D
100
AcDbEntity
  8
0
100
AcDbLine
 10
170.396
 20
150.33455
 30
0.0
 11
171.778
 21
150.33455
 31
0.0
  0
LINE
  5
B52
330
1D
100
AcDbEntity
  8
0
100
AcDbLine
 10
169.651
 20
149.33455
 30
0.0
 11
170.873
 21
149.33455
 31
0.0
  0
LINE
  5
B53
330
1D
100
AcDbEntity
  8
0
100
AcDbLine
 10
174.889
 20
130.626038297872
 30
0.0
 11
174.889
 21
148.73455
 31
0.0
  0
LINE
  5
B54
330
1D
100
AcDbEntity
  8
0
100
AcDbLine
 10
174.737
 20
162.22855
 30
0.0
 11
174.98
 21
162.41855
 31
0.0
  0
LINE
  5
B55
330
1D
100
AcDbEntity
  8
0
100
AcDbLine
 10
174.639
 20
149.16755
 30
0.0
 11
174.822
 21
148.98455
 31
0.0
  0
LINE
  5
B56
330
1D
100
AcDbEntity
  8
0
100
AcDbLine
 10
174.98
 20
162.41855
 30
0.0
 11
175.066
 21
162.71555
 31
0.0
  0
LINE
  5
B57
330
1D
100
AcDbEntity
  8
0
100
AcDbLine
 10
174.822
 20
148.98455
 30
0.0
 11
174.889
 21
148.73455
 31
0.0
  0
LINE
  5
B58
330
1D
100
AcDbEntity
  8
0
100
AcDbLine
 10
174.889
 20
148.73455
 30
0.0
 11
174.889
 21
130.626038297872
 31
0.0
  0
LINE
  5
B59
330
1D
100
AcDbEntity
  8
0
100
AcDbLine
 10
168.983
 20
53.81485
 30
0.0
 11
172.637
 21
53.81485
 31
0.0
  0
LINE
  5
B5A
330
1D
100
AcDbEntity
  8
0
100
AcDbLine
 10
172.637
 20
53.81485
 30
0.0
 11
174.461
 21
53.81485
 31
0.0
  0
LINE
  5
B5B
330
1D
100
AcDbEntity
  8
0
100
AcDbLine
 10
166.649
 20
53.81485
 30
0.0
 11
170.576
 21
53.81485
 31
0.0
  0
LINE
  5
B5C
330
1D
100
AcDbEntity
  8
0
100
AcDbLine
 10
177.15
 20
53.81485
 30
0.0
 11
178.934
 21
53.81485
 31
0.0
  0
LINE
  5
B5D
330
1D
100
AcDbEntity
  8
0
100
AcDbLine
 10
179.463
 20
130.01895
 30
0.0
 11
179.598
 21
129.53635
 31
0.0
  0
LINE
  5
B5E
330
1D
100
AcDbEntity
  8
0
100
AcDbLine
 10
179.111
 20
130.37555
 30
0.0
 11
179.463
 21
130.01895
 31
0.0
  0
LINE
  5
B5F
330
1D
100
AcDbEntity
  8
0
100
AcDbLine
 10
178.078
 20
53.81485
 30
0.0
 11
179.435
 21
53.81485
 31
0.0
  0
LINE
  5
B60
330
1D
100
AcDbEntity
  8
0
100
AcDbLine
 10
176.787
 20
53.81485
 30
0.0
 11
178.85
 21
53.81485
 31
0.0
  0
LINE
  5
B61
330
1D
100
AcDbEntity
  8
0
100
AcDbLine
 10
180.014
 20
53.81485
 30
0.0
 11
180.525
 21
53.81485
 31
0.0
  0
LINE
  5
B62
330
1D
100
AcDbEntity
  8
0
100
AcDbLine
 10
180.989
 20
54.07195
 30
0.0
 11
181.051
 21
54.32705
 31
0.0
  0
LINE
  5
B63
330
1D
100
AcDbEntity
  8
0
100
AcDbLine
 10
180.805
 20
53.88385
 30
0.0
 11
180.989
 21
54.07195
 31
0.0
  0
LINE
  5
B64
330
1D
100
AcDbEntity
  8
0
100
AcDbLine
 10
180.989
 20
54.07195
 30
0.0
 11
181.051
 21
54.32705
 31
0.0
  0
LINE
  5
B65
330
1D
100
AcDbEntity
  8
0
100
AcDbLine
 10
180.989
 20
54.07195
 30
0.0
 11
181.05
 21
54.32695
 31
0.0
  0
LINE
  5
B66
330
1D
100
AcDbEntity
  8
0
100
AcDbLine
 10
180.552
 20
53.81485
 30
0.0
 11
180.805
 21
53.88385
 31
0.0
  0
LINE
  5
B67
330
1D
100
AcDbEntity
  8
0
100
AcDbLine
 10
47.199
 20
191.45955
 30
0.0
 11
47.04546946989
 21
191.767040082774
 31
0.0
  0
LINE
  5
B68
330
1D
100
AcDbEntity
  8
0
100
AcDbLine
 10
47.04546946989
 20
191.767040082774
 30
0.0
 11
47.004173273886
 21
192.073811824521
 31
0.0
  0
LINE
  5
B69
330
1D
100
AcDbEntity
  8
0
100
AcDbLine
 10
47.004173273886
 20
192.073811824521
 30
0.0
 11
47.002
 21
192.29855
 31
0.0
  0
LINE
  5
B6A
330
1D
100
AcDbEntity
  8
0
100
AcDbLine
 10
121.749
 20
164.89655
 30
0.0
 11
122.159
 21
153.26655
 31
0.0
  0
LINE
  5
B6B
330
1D
100
AcDbEntity
  8
0
100
AcDbLine
 10
148.702
 20
152.78455
 30
0.0
 11
174.737
 21
162.22855
 31
0.0
  0
LINE
  5
B6C
330
1D
100
AcDbEntity
  8
0
100
AcDbLine
 10
181.05
 20
54.32695
 30
0.0
 11
179.598
 21
129.53635
 31
0.0
  0
LINE
  5
B6D
330
1D
100
AcDbEntity
  8
0
100
AcDbLine
 10
179.111
 20
130.37555
 30
0.0
 11
133.847
 21
130.50525
 31
0.0
  0
LINE
  5
B6E
330
1D
100
AcDbEntity
  8
0
100
AcDbLine
 10
132.879
 20
129.52595
 30
0.0
 11
132.329
 21
97.40545
 31
0.0
  0
LINE
  5
B6F
330
1D
100
AcDbEntity
  8
0
100
AcDbLine
 10
119.843
 20
130.93025
 30
0.0
 11
122.691
 21
130.918794023324
 31
0.0
  0
LINE
  5
B70
330
1D
100
AcDbEntity
  8
0
100
AcDbLine
 10
122.691
 20
130.918794023324
 30
0.0
 11
133.847
 21
130.50525
 31
0.0
  0
LINE
  5
B71
330
1D
100
AcDbEntity
  8
0
100
AcDbLine
 10
3.542
 20
103.90735
 30
0.0
 11
27.106
 21
92.91925
 31
0.0
  0
LINE
  5
B72
330
1D
100
AcDbEntity
  8
0
100
AcDbLine
 10
30.340966918361
 20
97.490579045126
 30
0.0
 11
4.965
 21
109.32395
 31
0.0
  0
LINE
  5
C08
330
1D
100
AcDbEntity
  8
0
100
AcDbLine
 10
113.126
 20
318.62255
 30
0.0
 11
115.947
 21
317.90695
 31
0.0
  0
LINE
  5
C09
330
1D
100
AcDbEntity
  8
0
100
AcDbLine
 10
110.319
 20
320.33215
 30
0.0
 11
113.126
 21
318.62255
 31
0.0
  0
LINE
  5
C0A
330
1D
100
AcDbEntity
  8
0
100
AcDbLine
 10
107.95
 20
322.33245
 30
0.0
 11
110.319
 21
320.33215
 31
0.0
  0
LINE
  5
C0B
330
1D
100
AcDbEntity
  8
0
100
AcDbLine
 10
105.785
 20
324.27315
 30
0.0
 11
107.95
 21
322.33245
 31
0.0
  0
LINE
  5
C0C
330
1D
100
AcDbEntity
  8
0
100
AcDbLine
 10
103.18
 20
326.92035
 30
0.0
 11
105.785
 21
324.27315
 31
0.0
  0
LINE
  5
C0D
330
1D
100
AcDbEntity
  8
0
100
AcDbLine
 10
113.203233810422
 20
329.682151747415
 30
0.0
 11
113.399
 21
329.84635
 31
0.0
  0
LINE
  5
C0E
330
1D
100
AcDbEntity
  8
0
100
AcDbLine
 10
113.203233810422
 20
329.682151747415
 30
0.0
 11
114.554
 21
328.18055
 31
0.0
  0
LINE
  5
C0F
330
1D
100
AcDbEntity
  8
0
100
AcDbLine
 10
103.95
 20
341.10765
 30
0.0
 11
109.092
 21
334.97885
 31
0.0
  0
LINE
  5
C10
330
1D
100
AcDbEntity
  8
0
100
AcDbLine
 10
73.032
 20
377.95465
 30
0.0
 11
81.2596
 21
368.14865
 31
0.0
  0
LINE
  5
C11
330
1D
100
AcDbEntity
  8
0
100
AcDbLine
 10
73.5436
 20
378.12265
 30
0.0
 11
81.6427
 21
368.47065
 31
0.0
  0
LINE
  5
C12
330
1D
100
AcDbEntity
  8
0
100
AcDbLine
 10
89.4875
 20
358.34365
 30
0.0
 11
97.265
 21
349.07465
 31
0.0
  0
LINE
  5
C13
330
1D
100
AcDbEntity
  8
0
100
AcDbLine
 10
81.2596
 20
368.14865
 30
0.0
 11
89.4875
 21
358.34365
 31
0.0
  0
LINE
  5
C14
330
1D
100
AcDbEntity
  8
0
100
AcDbLine
 10
89.7418
 20
358.81865
 30
0.0
 11
97.3268
 21
349.77965
 31
0.0
  0
LINE
  5
C15
330
1D
100
AcDbEntity
  8
0
100
AcDbLine
 10
81.6427
 20
368.47065
 30
0.0
 11
89.7418
 21
358.81865
 31
0.0
  0
LINE
  5
C16
330
1D
100
AcDbEntity
  8
0
100
AcDbLine
 10
97.265
 20
349.07465
 30
0.0
 11
103.95
 21
341.10765
 31
0.0
  0
LINE
  5
C17
330
1D
100
AcDbEntity
  8
0
100
AcDbLine
 10
97.3268
 20
349.77965
 30
0.0
 11
103.883
 21
341.96465
 31
0.0
  0
LINE
  5
C18
330
1D
100
AcDbEntity
  8
0
100
AcDbLine
 10
98.031
 20
349.71665
 30
0.0
 11
104.716
 21
341.75065
 31
0.0
  0
LINE
  5
C19
330
1D
100
AcDbEntity
  8
0
100
AcDbLine
 10
90.2535
 20
358.98665
 30
0.0
 11
98.031
 21
349.71665
 31
0.0
  0
LINE
  5
C1A
330
1D
100
AcDbEntity
  8
0
100
AcDbLine
 10
82.0256
 20
368.79165
 30
0.0
 11
90.2535
 21
358.98665
 31
0.0
  0
LINE
  5
C1B
330
1D
100
AcDbEntity
  8
0
100
AcDbLine
 10
73.798
 20
378.59665
 30
0.0
 11
82.0256
 21
368.79165
 31
0.0
  0
LINE
  5
C1C
330
1D
100
AcDbEntity
  8
0
100
AcDbLine
 10
103.883
 20
341.96465
 30
0.0
 11
108.897
 21
335.98965
 31
0.0
  0
LINE
  5
C1D
330
1D
100
AcDbEntity
  8
0
100
AcDbLine
 10
104.716
 20
341.75065
 30
0.0
 11
109.859
 21
335.62265
 31
0.0
  0
LINE
  5
C1E
330
1D
100
AcDbEntity
  8
0
100
AcDbLine
 10
44.6605
 20
400.09765
 30
0.0
 11
45.6116
 21
402.85465
 31
0.0
  0
LINE
  5
C1F
330
1D
100
AcDbEntity
  8
0
100
AcDbLine
 10
44.6605
 20
400.09765
 30
0.0
 11
45.6116
 21
402.85465
 31
0.0
  0
LINE
  5
C20
330
1D
100
AcDbEntity
  8
0
100
AcDbLine
 10
44.6605
 20
400.09765
 30
0.0
 11
45.1185
 21
397.21965
 31
0.0
  0
LINE
  5
C21
330
1D
100
AcDbEntity
  8
0
100
AcDbLine
 10
44.6605
 20
400.09765
 30
0.0
 11
45.1185
 21
397.21965
 31
0.0
  0
LINE
  5
C22
330
1D
100
AcDbEntity
  8
0
100
AcDbLine
 10
45.6116
 20
402.85465
 30
0.0
 11
47.2051
 21
404.84365
 31
0.0
  0
LINE
  5
C23
330
1D
100
AcDbEntity
  8
0
100
AcDbLine
 10
45.1185
 20
397.21965
 30
0.0
 11
46.3424
 21
394.98265
 31
0.0
  0
LINE
  5
C24
330
1D
100
AcDbEntity
  8
0
100
AcDbLine
 10
45.6116
 20
402.85465
 30
0.0
 11
47.2051
 21
404.84365
 31
0.0
  0
LINE
  5
C25
330
1D
100
AcDbEntity
  8
0
100
AcDbLine
 10
45.1185
 20
397.21965
 30
0.0
 11
46.3424
 21
394.98265
 31
0.0
  0
LINE
  5
C26
330
1D
100
AcDbEntity
  8
0
100
AcDbLine
 10
46.3424
 20
394.98265
 30
0.0
 11
46.9235
 21
393.51165
 31
0.0
  0
LINE
  5
C27
330
1D
100
AcDbEntity
  8
0
100
AcDbLine
 10
50.2774
 20
405.07265
 30
0.0
 11
53.4269
 21
401.31865
 31
0.0
  0
LINE
  5
C28
330
1D
100
AcDbEntity
  8
0
100
AcDbLine
 10
47.2051
 20
404.84365
 30
0.0
 11
49.1203
 21
406.45065
 31
0.0
  0
LINE
  5
C29
330
1D
100
AcDbEntity
  8
0
100
AcDbLine
 10
46.9235
 20
393.51165
 30
0.0
 11
47.818018530679
 21
392.304231796294
 31
0.0
  0
LINE
  5
C2A
330
1D
100
AcDbEntity
  8
0
100
AcDbLine
 10
46.9235
 20
393.51165
 30
0.0
 11
47.818018530679
 21
392.304231796294
 31
0.0
  0
LINE
  5
C2B
330
1D
100
AcDbEntity
  8
0
100
AcDbLine
 10
49.1203
 20
406.45065
 30
0.0
 11
50.1461
 21
406.00665
 31
0.0
  0
LINE
  5
C2C
330
1D
100
AcDbEntity
  8
0
100
AcDbLine
 10
49.1203
 20
406.45065
 30
0.0
 11
50.2774
 21
405.07265
 31
0.0
  0
LINE
  5
C2D
330
1D
100
AcDbEntity
  8
0
100
AcDbLine
 10
50.1461
 20
406.00665
 30
0.0
 11
51.3032
 21
404.62765
 31
0.0
  0
LINE
  5
C2E
330
1D
100
AcDbEntity
  8
0
100
AcDbLine
 10
53.4269
 20
401.31865
 30
0.0
 11
58.5694
 21
395.19065
 31
0.0
  0
LINE
  5
C2F
330
1D
100
AcDbEntity
  8
0
100
AcDbLine
 10
58.5694
 20
395.19065
 30
0.0
 11
65.2542
 21
387.22365
 31
0.0
  0
LINE
  5
C30
330
1D
100
AcDbEntity
  8
0
100
AcDbLine
 10
59.4024
 20
394.97565
 30
0.0
 11
65.9586
 21
387.16165
 31
0.0
  0
LINE
  5
C31
330
1D
100
AcDbEntity
  8
0
100
AcDbLine
 10
59.3354
 20
395.83365
 30
0.0
 11
66.0204
 21
387.86665
 31
0.0
  0
LINE
  5
C32
330
1D
100
AcDbEntity
  8
0
100
AcDbLine
 10
54.3887
 20
400.95065
 30
0.0
 11
59.4024
 21
394.97565
 31
0.0
  0
LINE
  5
C33
330
1D
100
AcDbEntity
  8
0
100
AcDbLine
 10
51.3032
 20
404.62765
 30
0.0
 11
54.3887
 21
400.95065
 31
0.0
  0
LINE
  5
C34
330
1D
100
AcDbEntity
  8
0
100
AcDbLine
 10
54.1929
 20
401.96165
 30
0.0
 11
59.3354
 21
395.83365
 31
0.0
  0
LINE
  5
C35
330
1D
100
AcDbEntity
  8
0
100
AcDbLine
 10
51.0434
 20
405.71565
 30
0.0
 11
54.1929
 21
401.96165
 31
0.0
  0
LINE
  5
C36
330
1D
100
AcDbEntity
  8
0
100
AcDbLine
 10
49.8863
 20
407.09365
 30
0.0
 11
57.9298
 21
413.84265
 31
0.0
  0
LINE
  5
C37
330
1D
100
AcDbEntity
  8
0
100
AcDbLine
 10
49.8863
 20
407.09365
 30
0.0
 11
50.1461
 21
406.00665
 31
0.0
  0
LINE
  5
C38
330
1D
100
AcDbEntity
  8
0
100
AcDbLine
 10
49.8863
 20
407.09365
 30
0.0
 11
51.0434
 21
405.71565
 31
0.0
  0
LINE
  5
C39
330
1D
100
AcDbEntity
  8
0
100
AcDbLine
 10
65.2542
 20
387.22365
 30
0.0
 11
73.032
 21
377.95465
 31
0.0
  0
LINE
  5
C3A
330
1D
100
AcDbEntity
  8
0
100
AcDbLine
 10
65.9586
 20
387.16165
 30
0.0
 11
73.5436
 21
378.12265
 31
0.0
  0
LINE
  5
C3B
330
1D
100
AcDbEntity
  8
0
100
AcDbLine
 10
66.0204
 20
387.86665
 30
0.0
 11
73.798
 21
378.59665
 31
0.0
  0
LINE
  5
C3C
330
1D
100
AcDbEntity
  8
0
100
AcDbLine
 10
97.5033
 20
388.30665
 30
0.0
 11
100.794
 21
384.54065
 31
0.0
  0
LINE
  5
C3D
330
1D
100
AcDbEntity
  8
0
100
AcDbLine
 10
94.1362
 20
392.00765
 30
0.0
 11
97.5033
 21
388.30665
 31
0.0
  0
LINE
  5
C3E
330
1D
100
AcDbEntity
  8
0
100
AcDbLine
 10
89.1003
 20
396.91965
 30
0.0
 11
94.1362
 21
392.00765
 31
0.0
  0
LINE
  5
C3F
330
1D
100
AcDbEntity
  8
0
100
AcDbLine
 10
84.4777
 20
400.87365
 30
0.0
 11
89.1003
 21
396.91965
 31
0.0
  0
LINE
  5
C40
330
1D
100
AcDbEntity
  8
0
100
AcDbLine
 10
80.4975
 20
404.06065
 30
0.0
 11
84.4777
 21
400.87365
 31
0.0
  0
LINE
  5
C41
330
1D
100
AcDbEntity
  8
0
100
AcDbLine
 10
74.466
 20
408.13765
 30
0.0
 11
80.4975
 21
404.06065
 31
0.0
  0
LINE
  5
C42
330
1D
100
AcDbEntity
  8
0
100
AcDbLine
 10
68.3727
 20
411.50965
 30
0.0
 11
74.466
 21
408.13765
 31
0.0
  0
LINE
  5
C43
330
1D
100
AcDbEntity
  8
0
100
AcDbLine
 10
63.5652
 20
413.35065
 30
0.0
 11
68.3727
 21
411.50965
 31
0.0
  0
LINE
  5
C44
330
1D
100
AcDbEntity
  8
0
100
AcDbLine
 10
59.0173
 20
414.10365
 30
0.0
 11
63.5652
 21
413.35065
 31
0.0
  0
LINE
  5
C45
330
1D
100
AcDbEntity
  8
0
100
AcDbLine
 10
57.9298
 20
413.84265
 30
0.0
 11
59.0173
 21
414.10365
 31
0.0
  0
LINE
  5
C46
330
1D
100
AcDbEntity
  8
0
100
AcDbLine
 10
100.794
 20
384.54065
 30
0.0
 11
103.931
 21
380.64565
 31
0.0
  0
LINE
  5
C47
330
1D
100
AcDbEntity
  8
0
100
AcDbLine
 10
103.931
 20
380.64565
 30
0.0
 11
106.992
 21
376.68665
 31
0.0
  0
LINE
  5
C48
330
1D
100
AcDbEntity
  8
0
100
AcDbLine
 10
109.092
 20
334.97885
 30
0.0
 11
112.242
 21
331.22575
 31
0.0
  0
LINE
  5
C49
330
1D
100
AcDbEntity
  8
0
100
AcDbLine
 10
112.242
 20
331.22575
 30
0.0
 11
113.399
 21
329.84635
 31
0.0
  0
LINE
  5
C4A
330
1D
100
AcDbEntity
  8
0
100
AcDbLine
 10
111.982
 20
332.31305
 30
0.0
 11
113.139
 21
330.93455
 31
0.0
  0
LINE
  5
C4B
330
1D
100
AcDbEntity
  8
0
100
AcDbLine
 10
108.897
 20
335.98965
 30
0.0
 11
111.982
 21
332.31305
 31
0.0
  0
LINE
  5
C4C
330
1D
100
AcDbEntity
  8
0
100
AcDbLine
 10
109.859
 20
335.62265
 30
0.0
 11
113.008
 21
331.86835
 31
0.0
  0
LINE
  5
C4D
330
1D
100
AcDbEntity
  8
0
100
AcDbLine
 10
113.008
 20
331.86835
 30
0.0
 11
114.165
 21
330.48995
 31
0.0
  0
LINE
  5
C4E
330
1D
100
AcDbEntity
  8
0
100
AcDbLine
 10
108.654087377732
 20
374.210973302289
 30
0.0
 11
109.819
 21
372.77465
 31
0.0
  0
LINE
  5
C4F
330
1D
100
AcDbEntity
  8
0
100
AcDbLine
 10
109.819
 20
372.77465
 30
0.0
 11
110.152355412849
 21
372.313513499911
 31
0.0
  0
LINE
  5
C50
330
1D
100
AcDbEntity
  8
0
100
AcDbLine
 10
109.819
 20
372.77465
 30
0.0
 11
115.761
 21
365.34465
 31
0.0
  0
LINE
  5
C51
330
1D
100
AcDbEntity
  8
0
100
AcDbLine
 10
106.992
 20
376.68665
 30
0.0
 11
108.984135777578
 21
373.76505193306
 31
0.0
  0
LINE
  5
C52
330
1D
100
AcDbEntity
  8
0
100
AcDbLine
 10
113.139
 20
330.93455
 30
0.0
 11
114.165
 21
330.48995
 31
0.0
  0
LINE
  5
C53
330
1D
100
AcDbEntity
  8
0
100
AcDbLine
 10
113.139
 20
330.93455
 30
0.0
 11
113.399
 21
329.84635
 31
0.0
  0
LINE
  5
C54
330
1D
100
AcDbEntity
  8
0
100
AcDbLine
 10
171.48
 20
199.58325
 30
0.0
 11
171.898
 21
199.69485
 31
0.0
  0
LINE
  5
C55
330
1D
100
AcDbEntity
  8
0
100
AcDbLine
 10
171.047
 20
200.08815
 30
0.0
 11
171.48
 21
199.58325
 31
0.0
  0
LINE
  5
C56
330
1D
100
AcDbEntity
  8
0
100
AcDbLine
 10
172.103
 20
197.96685
 30
0.0
 11
181.281
 21
171.43855
 31
0.0
  0
LINE
  5
C57
330
1D
100
AcDbEntity
  8
0
100
AcDbLine
 10
172.103
 20
197.96685
 30
0.0
 11
172.426960492186
 21
199.551002344267
 31
0.0
  0
LINE
  5
C58
330
1D
100
AcDbEntity
  8
0
100
AcDbLine
 10
172.426960492186
 20
199.551002344267
 30
0.0
 11
172.488787128326
 21
199.853331834874
 31
0.0
  0
LINE
  5
C59
330
1D
100
AcDbEntity
  8
0
100
AcDbLine
 10
181.663016028897
 20
171.540882796701
 30
0.0
 11
185.05189739284
 21
159.884662744408
 31
0.0
  0
LINE
  5
C5A
330
1D
100
AcDbEntity
  8
0
100
AcDbLine
 10
181.571
 20
171.51625
 30
0.0
 11
181.663016028897
 21
171.540882796701
 31
0.0
  0
LINE
  5
C5B
330
1D
100
AcDbEntity
  8
0
100
AcDbLine
 10
181.281
 20
171.43855
 30
0.0
 11
181.571
 21
171.51625
 31
0.0
  0
LINE
  5
C5C
330
1D
100
AcDbEntity
  8
0
100
AcDbLine
 10
186.601
 20
154.55645
 30
0.0
 11
223.106
 21
162.55095
 31
0.0
  0
LINE
  5
C5D
330
1D
100
AcDbEntity
  8
0
100
AcDbLine
 10
186.601
 20
154.55645
 30
0.0
 11
187.692
 21
154.78235
 31
0.0
  0
LINE
  5
C5E
330
1D
100
AcDbEntity
  8
0
100
AcDbLine
 10
191.739
 20
118.24865
 30
0.0
 11
193.54
 21
86.64765
 31
0.0
  0
LINE
  5
C5F
330
1D
100
AcDbEntity
  8
0
100
AcDbLine
 10
191.739
 20
118.24865
 30
0.0
 11
193.54
 21
86.64765
 31
0.0
  0
LINE
  5
C69
330
1D
100
AcDbEntity
  8
0
100
AcDbLine
 10
207.54
 20
121.05265
 30
0.0
 11
209.54
 21
86.65165
 31
0.0
  0
LINE
  5
C6A
330
1D
100
AcDbEntity
  8
0
100
AcDbLine
 10
207.54
 20
121.05265
 30
0.0
 11
209.54
 21
86.65165
 31
0.0
  0
LINE
  5
C70
330
1D
100
AcDbEntity
  8
0
100
AcDbLine
 10
203.84
 20
145.45085
 30
0.0
 11
207.54
 21
121.05265
 31
0.0
  0
LINE
  5
C71
330
1D
100
AcDbEntity
  8
0
100
AcDbLine
 10
188.84
 20
139.94585
 30
0.0
 11
191.739
 21
118.24865
 31
0.0
  0
LINE
  5
C72
330
1D
100
AcDbEntity
  8
0
100
AcDbLine
 10
223.106
 20
162.55095
 30
0.0
 11
223.106
 21
212.55645
 31
0.0
  0
LINE
  5
C73
330
1D
100
AcDbEntity
  8
0
100
AcDbLine
 10
201.368183581718
 20
157.76001109316
 30
0.0
 11
203.84
 21
145.45085
 31
0.0
  0
LINE
  5
C74
330
1D
100
AcDbEntity
  8
0
100
AcDbLine
 10
185.05189739284
 20
159.884662744408
 30
0.0
 11
188.84
 21
139.94585
 31
0.0
  0
LINE
  5
C75
330
1D
100
AcDbEntity
  8
0
100
AcDbLine
 10
173.106
 20
200.97315
 30
0.0
 11
223.106
 21
212.55645
 31
0.0
  0
LINE
  5
C76
330
1D
100
AcDbEntity
  8
0
100
AcDbLine
 10
173.106
 20
200.97315
 30
0.0
 11
186.601
 21
154.55645
 31
0.0
  0
LINE
  5
C77
330
1D
100
AcDbEntity
  8
0
100
AcDbLine
 10
173.01
 20
199.99315
 30
0.0
 11
173.363388604308
 21
200.087849545789
 31
0.0
  0
LINE
  5
C78
330
1D
100
AcDbEntity
  8
0
100
AcDbLine
 10
171.898
 20
199.69485
 30
0.0
 11
172.488787128326
 21
199.853331834874
 31
0.0
  0
LINE
  5
C79
330
1D
100
AcDbEntity
  8
0
100
AcDbLine
 10
171.898
 20
199.69485
 30
0.0
 11
173.01
 21
199.99315
 31
0.0
  0
LINE
  5
C7A
330
1D
100
AcDbEntity
  8
0
100
AcDbLine
 10
120.553
 20
319.18235
 30
0.0
 11
121.156
 21
320.22175
 31
0.0
  0
LINE
  5
C7B
330
1D
100
AcDbEntity
  8
0
100
AcDbLine
 10
118.572
 20
318.01415
 30
0.0
 11
120.553
 21
319.18235
 31
0.0
  0
LINE
  5
C7C
330
1D
100
AcDbEntity
  8
0
100
AcDbLine
 10
115.947
 20
317.90695
 30
0.0
 11
118.572
 21
318.01415
 31
0.0
  0
LINE
  5
C7D
330
1D
100
AcDbEntity
  8
0
100
AcDbLine
 10
114.554
 20
328.18055
 30
0.0
 11
116.962
 21
325.67595
 31
0.0
  0
LINE
  5
C7E
330
1D
100
AcDbEntity
  8
0
100
AcDbLine
 10
114.541246583199
 20
330.814986600154
 30
0.0
 11
114.906
 21
330.35675
 31
0.0
  0
LINE
  5
C7F
330
1D
100
AcDbEntity
  8
0
100
AcDbLine
 10
118.775
 20
323.51615
 30
0.0
 11
120.172
 21
321.85075
 31
0.0
  0
LINE
  5
C80
330
1D
100
AcDbEntity
  8
0
100
AcDbLine
 10
116.962
 20
325.67595
 30
0.0
 11
118.775
 21
323.51615
 31
0.0
  0
LINE
  5
C81
330
1D
100
AcDbEntity
  8
0
100
AcDbLine
 10
120.172
 20
321.85075
 30
0.0
 11
121.156
 21
320.22175
 31
0.0
  0
LINE
  5
C82
330
1D
100
AcDbEntity
  8
0
100
AcDbLine
 10
114.906
 20
330.35675
 30
0.0
 11
121.426
 21
320.45375
 31
0.0
  0
LINE
  5
C83
330
1D
100
AcDbEntity
  8
0
100
AcDbLine
 10
121.426
 20
320.45375
 30
0.0
 11
127.533
 21
310.52595
 31
0.0
  0
LINE
  5
C84
330
1D
100
AcDbEntity
  8
0
100
AcDbLine
 10
137.808
 20
332.63265
 30
0.0
 11
144.388
 21
322.04075
 31
0.0
  0
LINE
  5
C85
330
1D
100
AcDbEntity
  8
0
100
AcDbLine
 10
127.533
 20
310.52595
 30
0.0
 11
133.363
 21
300.05565
 31
0.0
  0
LINE
  5
C86
330
1D
100
AcDbEntity
  8
0
100
AcDbLine
 10
133.363
 20
300.05565
 30
0.0
 11
140.367
 21
286.12485
 31
0.0
  0
LINE
  5
C87
330
1D
100
AcDbEntity
  8
0
100
AcDbLine
 10
144.388
 20
322.04075
 30
0.0
 11
151.289
 21
310.66595
 31
0.0
  0
LINE
  5
C88
330
1D
100
AcDbEntity
  8
0
100
AcDbLine
 10
151.289
 20
310.66595
 30
0.0
 11
159.958
 21
295.68445
 31
0.0
  0
LINE
  5
C89
330
1D
100
AcDbEntity
  8
0
100
AcDbLine
 10
140.367
 20
286.12485
 30
0.0
 11
147.066
 21
270.94535
 31
0.0
  0
LINE
  5
C8A
330
1D
100
AcDbEntity
  8
0
100
AcDbLine
 10
147.066
 20
270.94535
 30
0.0
 11
153.319
 21
254.65365
 31
0.0
  0
LINE
  5
C8B
330
1D
100
AcDbEntity
  8
0
100
AcDbLine
 10
159.958
 20
295.68445
 30
0.0
 11
168.177
 21
280.16995
 31
0.0
  0
LINE
  5
C8C
330
1D
100
AcDbEntity
  8
0
100
AcDbLine
 10
153.319
 20
254.65365
 30
0.0
 11
159.809
 21
235.082744
 31
0.0
  0
LINE
  5
C8D
330
1D
100
AcDbEntity
  8
0
100
AcDbLine
 10
159.809
 20
235.082744
 30
0.0
 11
164.826
 21
219.73355
 31
0.0
  0
LINE
  5
C8E
330
1D
100
AcDbEntity
  8
0
100
AcDbLine
 10
196.161
 20
206.81735
 30
0.0
 11
196.173975491567
 21
206.317144800103
 31
0.0
  0
LINE
  5
C8F
330
1D
100
AcDbEntity
  8
0
100
AcDbLine
 10
168.177
 20
280.16995
 30
0.0
 11
176.419
 21
262.79765
 31
0.0
  0
LINE
  5
C90
330
1D
100
AcDbEntity
  8
0
100
AcDbLine
 10
176.419
 20
262.79765
 30
0.0
 11
184.211
 21
244.05698
 31
0.0
  0
LINE
  5
C91
330
1D
100
AcDbEntity
  8
0
100
AcDbLine
 10
184.211
 20
244.05698
 30
0.0
 11
189.412
 21
228.18994
 31
0.0
  0
LINE
  5
C92
330
1D
100
AcDbEntity
  8
0
100
AcDbLine
 10
223.106
 20
212.55645
 30
0.0
 11
223.106
 21
162.55095
 31
0.0
  0
LINE
  5
C93
330
1D
100
AcDbEntity
  8
0
100
AcDbLine
 10
189.412
 20
228.18994
 30
0.0
 11
195.023
 21
211.06735
 31
0.0
  0
LINE
  5
C94
330
1D
100
AcDbEntity
  8
0
100
AcDbLine
 10
195.023
 20
211.06735
 30
0.0
 11
196.161
 21
206.81735
 31
0.0
  0
LINE
  5
C95
330
1D
100
AcDbEntity
  8
0
100
AcDbLine
 10
164.826
 20
219.73355
 30
0.0
 11
169.908
 21
204.33815
 31
0.0
  0
LINE
  5
C96
330
1D
100
AcDbEntity
  8
0
100
AcDbLine
 10
169.908
 20
204.33815
 30
0.0
 11
171.047
 21
200.08815
 31
0.0
  0
LINE
  5
C97
330
1D
100
AcDbEntity
  8
0
100
AcDbLine
 10
114.165
 20
330.48995
 30
0.0
 11
114.541246583199
 21
330.814986600154
 31
0.0
  0
LINE
  5
C98
330
1D
100
AcDbEntity
  8
0
100
AcDbLine
 10
115.761
 20
365.34465
 30
0.0
 11
137.808
 21
332.63265
 31
0.0
  0
LINE
  5
C99
330
1D
100
AcDbEntity
  8
0
100
AcDbLine
 10
47.818018530679
 20
392.304231796294
 30
0.0
 11
103.18
 21
326.92035
 31
0.0
  0
LINE
  5
C9A
330
1D
100
AcDbEntity
  8
0
  6
ByBlock
100
AcDbLine
 10
193.54
 20
86.64765
 30
0.0
 11
209.540232551379
 21
86.64765
 31
0.0
  0
ENDSEC
  0
SECTION
  2
OBJECTS
  0
DICTIONARY
  5
C
330
0
100
AcDbDictionary
281
     1
  3
ACAD_GROUP
350
D
  3
ACAD_LAYOUT
350
1A
  3
ACAD_MLEADERSTYLE
350
C9D
  3
ACAD_MLINESTYLE
350
17
  3
ACAD_PLOTSETTINGS
350
19
  3
ACAD_PLOTSTYLENAME
350
E
  3
ACAD_SCALELIST
350
810
  3
AcDbVariableDictionary
350
C9B
  3
DWGPROPS
350
CA0
  0
DICTIONARY
  5
D
102
{ACAD_REACTORS
330
C
102
}
330
C
100
AcDbDictionary
281
     1
  0
DICTIONARY
  5
1A
102
{ACAD_REACTORS
330
C
102
}
330
C
100
AcDbDictionary
281
     1
  3
Layout1
350
1C
  3
Model
350
1E
  0
DICTIONARY
  5
C9D
102
{ACAD_REACTORS
330
C
102
}
330
C
100
AcDbDictionary
281
     1
  0
DICTIONARY
  5
17
102
{ACAD_REACTORS
330
C
102
}
330
C
100
AcDbDictionary
281
     1
  3
Standard
350
18
  0
DICTIONARY
  5
19
102
{ACAD_REACTORS
330
C
102
}
330
C
100
AcDbDictionary
281
     1
  0
ACDBDICTIONARYWDFLT
  5
E
102
{ACAD_REACTORS
330
C
102
}
330
C
100
AcDbDictionary
281
     1
  3
Normal
350
F
100
AcDbDictionaryWithDefault
340
F
  0
DICTIONARY
  5
810
102
{ACAD_REACTORS
330
C
102
}
330
C
100
AcDbDictionary
281
     1
  3
A0
350
811
  3
A1
350
812
  3
A2
350
813
  3
A3
350
814
  3
A4
350
815
  3
A5
350
816
  3
A6
350
817
  3
A7
350
818
  3
A8
350
819
  3
A9
350
81A
  3
B0
350
81B
  3
B1
350
81C
  3
B2
350
81D
  3
B3
350
81E
  3
B4
350
81F
  3
B5
350
820
  3
B6
350
821
  3
B7
350
822
  3
B8
350
823
  3
B9
350
824
  3
C0
350
825
  3
C1
350
826
  3
C2
350
827
  3
C3
350
828
  3
C4
350
829
  3
C5
350
82A
  3
C6
350
82B
  3
C7
350
82C
  3
C8
350
82D
  3
C9
350
82E
  3
D0
350
82F
  3
D1
350
830
  3
D2
350
831
  0
DICTIONARY
  5
C9B
102
{ACAD_REACTORS
330
C
102
}
330
C
100
AcDbDictionary
281
     1
  3
CANNOSCALE
350
C9E
  0
XRECORD
  5
CA0
102
{ACAD_REACTORS
330
C
102
}
330
C
100
AcDbXrecord
280
     1
  1
DWGPROPS COOKIE
  2

  3

  4

  6

  7

  8
MARTIN
  9

300
=
301
=
302
=
303
=
304
=
305
=
306
=
307
=
308
=
309
=
 40
0.0
 41
2456647.597357303
 42
2456647.599476805
  1

 90
        0
  0
LAYOUT
  5
1C
102
{ACAD_REACTORS
330
1A
102
}
330
1A
100
AcDbPlotSettings
  1

  2
none_device
  4

  6

 40
0.0
 41
0.0
 42
0.0
 43
0.0
 44
0.0
 45
0.0
 46
0.0
 47
0.0
 48
0.0
 49
0.0
140
0.0
141
0.0
142
1.0
143
1.0
 70
   688
 72
     0
 73
     0
 74
     5
  7

 75
    16
147
1.0
148
0.0
149
0.0
100
AcDbLayout
  1
Layout1
 70
     1
 71
     1
 10
0.0
 20
0.0
 11
12.0
 21
9.0
 12
0.0
 22
0.0
 32
0.0
 14
1.000000000000E+20
 24
1.000000000000E+20
 34
1.000000000000E+20
 15
-1.000000000000E+20
 25
-1.000000000000E+20
 35
-1.000000000000E+20
146
0.0
 13
0.0
 23
0.0
 33
0.0
 16
1.0
 26
0.0
 36
0.0
 17
0.0
 27
1.0
 37
0.0
 76
     0
330
1B
  0
LAYOUT
  5
1E
102
{ACAD_REACTORS
330
1A
102
}
330
1A
100
AcDbPlotSettings
  1

  2
none_device
  4

  6

 40
0.0
 41
0.0
 42
0.0
 43
0.0
 44
0.0
 45
0.0
 46
0.0
 47
0.0
 48
0.0
 49
0.0
140
0.0
141
0.0
142
1.0
143
1.0
 70
  1712
 72
     0
 73
     0
 74
     0
  7

 75
     0
147
1.0
148
0.0
149
0.0
100
AcDbLayout
  1
Model
 70
     1
 71
     0
 10
0.0
 20
0.0
 11
12.0
 21
9.0
 12
0.0
 22
0.0
 32
0.0
 14
-0.106
 24
-0.10355
 34
0.0
 15
223.106
 25
414.10365
 35
0.0
146
0.0
 13
0.0
 23
0.0
 33
0.0
 16
1.0
 26
0.0
 36
0.0
 17
0.0
 27
1.0
 37
0.0
 76
     0
330
1D
331
80B
  0
MLINESTYLE
  5
18
102
{ACAD_REACTORS
330
17
102
}
330
17
100
AcDbMlineStyle
  2
Standard
 70
     0
  3

 62
   256
 51
90.0
 52
90.0
 71
     2
 49
0.5
 62
   256
  6
BYLAYER
 49
-0.5
 62
   256
  6
BYLAYER
  0
ACDBPLACEHOLDER
  5
F
102
{ACAD_REACTORS
330
E
102
}
330
E
  0
SCALE
  5
811
102
{ACAD_REACTORS
330
810
102
}
330
810
100
AcDbScale
 70
     0
300
1:1
140
1.0
141
1.0
290
     1
  0
SCALE
  5
812
102
{ACAD_REACTORS
330
810
102
}
330
810
100
AcDbScale
 70
     0
300
1:2
140
1.0
141
2.0
290
     0
  0
SCALE
  5
813
102
{ACAD_REACTORS
330
810
102
}
330
810
100
AcDbScale
 70
     0
300
1:4
140
1.0
141
4.0
290
     0
  0
SCALE
  5
814
102
{ACAD_REACTORS
330
810
102
}
330
810
100
AcDbScale
 70
     0
300
1:5
140
1.0
141
5.0
290
     0
  0
SCALE
  5
815
102
{ACAD_REACTORS
330
810
102
}
330
810
100
AcDbScale
 70
     0
300
1:8
140
1.0
141
8.0
290
     0
  0
SCALE
  5
816
102
{ACAD_REACTORS
330
810
102
}
330
810
100
AcDbScale
 70
     0
300
1:10
140
1.0
141
10.0
290
     0
  0
SCALE
  5
817
102
{ACAD_REACTORS
330
810
102
}
330
810
100
AcDbScale
 70
     0
300
1:16
140
1.0
141
16.0
290
     0
  0
SCALE
  5
818
102
{ACAD_REACTORS
330
810
102
}
330
810
100
AcDbScale
 70
     0
300
1:20
140
1.0
141
20.0
290
     0
  0
SCALE
  5
819
102
{ACAD_REACTORS
330
810
102
}
330
810
100
AcDbScale
 70
     0
300
1:30
140
1.0
141
30.0
290
     0
  0
SCALE
  5
81A
102
{ACAD_REACTORS
330
810
102
}
330
810
100
AcDbScale
 70
     0
300
1:40
140
1.0
141
40.0
290
     0
  0
SCALE
  5
81B
102
{ACAD_REACTORS
330
810
102
}
330
810
100
AcDbScale
 70
     0
300
1:50
140
1.0
141
50.0
290
     0
  0
SCALE
  5
81C
102
{ACAD_REACTORS
330
810
102
}
330
810
100
AcDbScale
 70
     0
300
1:100
140
1.0
141
100.0
290
     0
  0
SCALE
  5
81D
102
{ACAD_REACTORS
330
810
102
}
330
810
100
AcDbScale
 70
     0
300
2:1
140
2.0
141
1.0
290
     0
  0
SCALE
  5
81E
102
{ACAD_REACTORS
330
810
102
}
330
810
100
AcDbScale
 70
     0
300
4:1
140
4.0
141
1.0
290
     0
  0
SCALE
  5
81F
102
{ACAD_REACTORS
330
810
102
}
330
810
100
AcDbScale
 70
     0
300
8:1
140
8.0
141
1.0
290
     0
  0
SCALE
  5
820
102
{ACAD_REACTORS
330
810
102
}
330
810
100
AcDbScale
 70
     0
300
10:1
140
10.0
141
1.0
290
     0
  0
SCALE
  5
821
102
{ACAD_REACTORS
330
810
102
}
330
810
100
AcDbScale
 70
     0
300
100:1
140
100.0
141
1.0
290
     0
  0
SCALE
  5
822
102
{ACAD_REACTORS
330
810
102
}
330
810
100
AcDbScale
 70
     0
300
1/128" = 1'-0"
140
0.0078125
141
12.0
290
     0
  0
SCALE
  5
823
102
{ACAD_REACTORS
330
810
102
}
330
810
100
AcDbScale
 70
     0
300
1/64" = 1'-0"
140
0.015625
141
12.0
290
     0
  0
SCALE
  5
824
102
{ACAD_REACTORS
330
810
102
}
330
810
100
AcDbScale
 70
     0
300
1/32" = 1'-0"
140
0.03125
141
12.0
290
     0
  0
SCALE
  5
825
102
{ACAD_REACTORS
330
810
102
}
330
810
100
AcDbScale
 70
     0
300
1/16" = 1'-0"
140
0.0625
141
12.0
290
     0
  0
SCALE
  5
826
102
{ACAD_REACTORS
330
810
102
}
330
810
100
AcDbScale
 70
     0
300
3/32" = 1'-0"
140
0.09375
141
12.0
290
     0
  0
SCALE
  5
827
102
{ACAD_REACTORS
330
810
102
}
330
810
100
AcDbScale
 70
     0
300
1/8" = 1'-0"
140
0.125
141
12.0
290
     0
  0
SCALE
  5
828
102
{ACAD_REACTORS
330
810
102
}
330
810
100
AcDbScale
 70
     0
300
3/16" = 1'-0"
140
0.1875
141
12.0
290
     0
  0
SCALE
  5
829
102
{ACAD_REACTORS
330
810
102
}
330
810
100
AcDbScale
 70
     0
300
1/4" = 1'-0"
140
0.25
141
12.0
290
     0
  0
SCALE
  5
82A
102
{ACAD_REACTORS
330
810
102
}
330
810
100
AcDbScale
 70
     0
300
3/8" = 1'-0"
140
0.375
141
12.0
290
     0
  0
SCALE
  5
82B
102
{ACAD_REACTORS
330
810
102
}
330
810
100
AcDbScale
 70
     0
300
1/2" = 1'-0"
140
0.5
141
12.0
290
     0
  0
SCALE
  5
82C
102
{ACAD_REACTORS
330
810
102
}
330
810
100
AcDbScale
 70
     0
300
3/4" = 1'-0"
140
0.75
141
12.0
290
     0
  0
SCALE
  5
82D
102
{ACAD_REACTORS
330
810
102
}
330
810
100
AcDbScale
 70
     0
300
1" = 1'-0"
140
1.0
141
12.0
290
     0
  0
SCALE
  5
82E
102
{ACAD_REACTORS
330
810
102
}
330
810
100
AcDbScale
 70
     0
300
1-1/2" = 1'-0"
140
1.5
141
12.0
290
     0
  0
SCALE
  5
82F
102
{ACAD_REACTORS
330
810
102
}
330
810
100
AcDbScale
 70
     0
300
3" = 1'-0"
140
3.0
141
12.0
290
     0
  0
SCALE
  5
830
102
{ACAD_REACTORS
330
810
102
}
330
810
100
AcDbScale
 70
     0
300
6" = 1'-0"
140
6.0
141
12.0
290
     0
  0
SCALE
  5
831
102
{ACAD_REACTORS
330
810
102
}
330
810
100
AcDbScale
 70
     0
300
1'-0" = 1'-0"
140
12.0
141
12.0
290
     0
  0
DICTIONARYVAR
  5
C9E
102
{ACAD_REACTORS
330
C9B
102
}
330
C9B
100
DictionaryVariables
280
     0
  1
1:1
  0
ENDSEC
  0
SECTION
  2
THUMBNAILIMAGE
 90
    16364
310
28000000B40000005500000001000800000000000000000000000000000000000000000000000000FFFFFF000000FF0000FFFF0000FF0000FFFF0000FF000000FF00FF000000000080808000C0C0C0000000FF007F7FFF000000A5005252A50000007F003F3F7F0000004C0026264C000000260013132600003FFF007F9FFF
310
000029A5005267A500001F7F003F4F7F0000134C00262F4C000009260013172600007FFF007FBFFF000052A500527CA500003F7F003F5F7F0000264C0026394C0000132600131C260000BFFF007FDFFF00007CA5005291A500005F7F003F6F7F0000394C0026424C00001C26001321260000FFFF007FFFFF0000A5A50052A5
310
A500007F7F003F7F7F00004C4C00264C4C00002626001326260000FFBF007FFFDF0000A57C0052A59100007F5F003F7F6F00004C3900264C420000261C001326210000FF7F007FFFBF0000A5520052A57C00007F3F003F7F5F00004C2600264C39000026130013261C0000FF3F007FFF9F0000A5290052A56700007F1F003F
310
7F4F00004C1300264C2F00002609001326170000FF00007FFF7F0000A5000052A55200007F00003F7F3F00004C0000264C260000260000132613003FFF00009FFF7F0029A5000067A552001F7F00004F7F3F00134C00002F4C260009260000172613007FFF0000BFFF7F0052A500007CA552003F7F00005F7F3F00264C0000
310
394C2600132600001C261300BFFF0000DFFF7F007CA5000091A552005F7F00006F7F3F00394C0000424C26001C26000021261300FFFF0000FFFF7F00A5A50000A5A552007F7F00007F7F3F004C4C00004C4C26002626000026261300FFBF0000FFDF7F00A57C0000A59152007F5F00007F6F3F004C3900004C422600261C00
310
0026211300FF7F0000FFBF7F00A5520000A57C52007F3F00007F5F3F004C2600004C39260026130000261C1300FF3F0000FF9F7F00A5290000A56752007F1F00007F4F3F004C1300004C2F26002609000026171300FF000000FF7F7F00A5000000A55252007F0000007F3F3F004C0000004C2626002600000026131300FF00
310
3F00FF7F9F00A5002900A55267007F001F007F3F4F004C0013004C262F002600090026131700FF007F00FF7FBF00A5005200A5527C007F003F007F3F5F004C0026004C2639002600130026131C00FF00BF00FF7FDF00A5007C00A55291007F005F007F3F6F004C0039004C26420026001C0026132100FF00FF00FF7FFF00A5
310
00A500A552A5007F007F007F3F7F004C004C004C264C002600260026132600BF00FF00DF7FFF007C00A5009152A5005F007F006F3F7F0039004C0042264C001C002600211326007F00FF00BF7FFF005200A5007C52A5003F007F005F3F7F0026004C0039264C00130026001C1326003F00FF009F7FFF002900A5006752A500
310
1F007F004F3F7F0013004C002F264C000900260017132600000000002D2D2D005B5B5B0089898900B7B7B700B3B3B30000000000000000000000000000000000000000000000000000000000000000000000000000000000000000000000000000000000000000000000000000000000000000000000000000000000000007
310
07070000000000000000000000000000000000000000000000000000000000000000000000000000000000000000000000000000000000000000000000000000000000000000000000000000000000000000000000000000000000000000000000000000000000000000000000000000000000000000000000000000000000
310
00000000000000000000000000000000000000000000000000000000000000000000000000000000000000000000000000000007070007070000000000000000000000000000000000000000000000000000000000000000000000000000000000000000000000000000000000000000000000000000000000000000000000
310
00000000000000000000000000000000000000000000000000000000000000000000000000000000000000000000000000000000000000000000000000000000000000000000000000000000000000000000000000000000000000000000000000000000000000000707070707000000000000000000000000000000000000
310
00000000000000000000000000000000000000000000000000000000000000000000000000000000000000000000000000000000000000000000000000000000000000000000000000000000000000000000000000000000000000000000000000000000000000000000000000000000000000000000000000000000000000
310
00000000000000000000000000000000000000000000000000000000000007000000070000000000000000000000000000000000000000000000000000000000000000000000000000000000000000000000000000000000000000000000000000000000000000000000000000000000000000000000000000000000000000
310
00000000000000000000000000000000000000000000000000000000000000000000000000000000000000000000000000000000000000000000000000000000000000000000000000000000000000000000000700000007000000000000000000000000000000000000000000000000000000000000000000000000000000
310
00000000000000000000000000000000000000000000000000000000000000000000000000000000000000000000000000000000000000000000000000000000000000000000000000000000000000000000000000000000000000000000000000000000000000000000000000000000000000000000000000000000000000
310
00000000000000000007000000070000000000000000000000000000000000000000000000000000000000000000000000000000000000000000000000000000000000000000000000000000000000000000000000000000000000000000000000000000000000000000000000000000000000000000000000000000000000
310
00000000000000000000000000000000000000000000000000000000000000000000000000000000000000000000000000000000000000000000000000000700000007000000000000000000000000000000000000000000000000000000000000000000000000000000000000000000000000000000000000000000000000
310
00000000000000000000000000000000000000000000000000000000000000000000000000000000000000000000000000000000000000000000000000000000000000000000000000000000000000000000000000000000000000000000000000000000000000000000000000000000000000070000000700000000000000
310
00000000000000000000000000000000000000000000000000000000000000000000000000000000000000000000000000000000000000000000000000000000000000000000000000000000000000000000000000000000000000000000000000000000000000000000000000000000000000000000000000000000000000
310
00000000000000000000000000000000000000000000000000000000000000000000000000000000000700000007000000000000000000000000000000000000000000000000000000000000000000000000000000000000000000000000000000000000000000000000000000000000000000000000000000000000000000
310
00000000000000000000000000000000000000000000000000000000000000000000000000000000000000000000000000000000000000000000000000000000000000000000000000000000000000000000000000000000000000000000070000000700000000000000000000000000000000000000000000000000000000
310
00000000000000000000000000000000000000000000000000000000000000000000000000000000000000000000000000000000000000000000000000000000000000000000000000000000000000000000000000000000000000000000000000000000000000000000000000000000000000000000000000000000000000
310
00000000000000000000000000000000000000000700000007000000000000000000000000000000000000000000000000000000000000000000000000000000000000000000000000000000000000000000000000000000000000000000000000000000000000000000000000000000000000000000000000000000000000
310
00000000000000000000000000000000000000000000000000000000000000000000000000000000000000000000000000000000000000000000000000000000000000000000000000070000000700000000000000000000000007070707070707070707070000000000000000000000000000000000000000000000000000
310
00000000000000000000000000000000000000000000000000000000000000000000000000000000000000000000000000000000000000000000000000000000000000000000000000000000000000000000000000000000000000000000000000000000000000000000000000000000000000000000000000000000000007
310
07070707000000000000000000000000070000000000000000000700000000000000000000000000000000000000000000000000000000000000000000000000000000000000000000000000000000000000000000000000000000000000000000000000000000000000000000000000000000000000000000000000000000
310
00000000000000000000000000000000000000000000000000000000000000000000000000000000000000000000000000000000070000000700000000000000000000000007000000000000000000070000000000000000000000000000000000000000000000000000000000000000000000000000000000000000000000
310
00000000000000000000000000000000000000000000000000000000000000000000000000000000000000000000000000000000000000000000000000000000000000000000000000000000000000000000000000000000000000000000000000000000000000000007000000070000000000000000000000000700000000
310
00000000000700000000000000000000000000000000000000000000000000000000000000000000000000000000000000000000000000000000000000000000000000000000000000000000000000000000000000000000000000000000000000000000000000000000000000000000000000000000000000000000000000
310
00000000000000000000000000000000000000000000000000000000000000070000000700000000000000000000000007000000000000000000070000000000000000000000000000000000000000000000000000000000000000000000000000000000000000000000000000000000000000000000000000000000000000
310
00000000000000000000000000000000000000000000000000000000000000000000000000000000000000000000000000000000000000000000000000000000000000000000000000000000000000000000000007000000070000000000000000000707070700000000000000000007000000000000000000000000000000
310
00000000000000000000000000000000000000000000000000000000000000000000000000000000000000000000000000000000000000000000000000000000000000000000000000000000000000000000000000000000000000000000000000000000000000000000000000000000000000000000000000000000000000
310
00000000000000000000070000000700000000000707070700000007000000000000000000070000070707000000000000000000000000000000000000000000000000000000000000000000000000000000000000000000000000000000000000000000000000000000000000000000000000000000000000000000000000
310
00000000000000000000000000000000000000000000000000000000000000000000000000000000000000000000000000000000000000000000000000000707070707070707070707000000000000000700000000000000000007000007000007000000000000000000000000000000000000000000000000000000000000
310
00000000000000000000000000000000000000000000000000000000000000000000000000000000000000000000000000000000000000000000000000000000000000000000000000000000000000000000000000000000000000000000000000000000000000000000000000000007070700070707070707070000000000
310
00000000000007000000000000000000070000070000070000000000000000000000000000000000000000000000000000000000000000000000000000000000000000000000000000000000000000000000000000000000000000000000000000000000000000000000000000000000000000000000000000000000000000
310
00000000000000000000000000000000000000000000000000000000000000000000000707070707070700000000000000000000000000000000000700000000000000000007000007000007000000000000000000000000000000000000000000000000000000000000000000000000000000000000000000000000000000
310
00000000000000000000000000000000000000000000000000000000000000000000000000000000000000000000000000000000000000000000000000000000000000000000000000000000000000000000000000000707070700070700000000000000000000000000000000000000070000000000000000000700070000
310
07000000000000000000000000000000000000000000000000000000000000000000000000000000000000000000000000000000000000000000000000000000000000000000000000000000000000000000000000000000000000000000000000000000000000000000000000000000000000000000000000000000000000
310
00000000000000000000000000070707070000000000000000000000000000000000000000000700000000000000000007000700000700000000000000000000000000000000000000000000000000000000000000000000000000000000000000000000000000000000000000000000000000000000000000000000000000
310
00000000000000000000000000000000000000000000000000000000000000000000000000000000000000000000000000000000000000000000000000000000000707000000000000000000000000000000000000000000000000070000000000000000000700070000070000000000000000000000000000000000000000
310
00000000000000000000000000000000000000000000000000000000000000000000000000000000000000000000000000000000000000000000000000000000000000000000000000000000000000000000000000000000000000000000000000000000000000000000000000000000000000000000070000000000000000
310
00000000000000000000000000000000000700000000000000000007000700000700000000000000000000000000000000000000000000000000000000000000000000000000000000000000000000000000000000000000000000000000000000000000000000000000000000000000000000000000000000000000000000
310
00000000000000000000000000000000000000000000000000000000000000000000000000000000000000000700000000000000000000000000000000000000000000000000070000000000000000000700070000070000000000000000000000000000000000000000000000000000000000000000000000000000000000
310
00000000000000000000000000000000000000000000000000000000000000000000000000000000000000000000000000000000000000000000000000000000000000000000000000000000000000000000000000000000000000000000000000070707070707070707070707070707070707070707070707070707070707
310
07070707070707000700000700000000000000000000000000000000000000000000000000000000000000000000000000000000000000000000000000000000000000000000000000000000000000000000000000000000000000000000000000000000000000000000000000000000000000000000000000000000000000
310
00000000000000000000000000000000000000000000000000000000000000000007070707000000000000000000000700000000000000000000070000070000070000000000000000000000000000000000000000000000000000000000000000000000000000000000000000000000000000000000000000000000000000
310
00000000000000000000000000000000000000000000000000000000000000000000000000000000000000000000000000000000000000000000000000000000000000000000000000000000000000000000000000000700000700000000000000000000070000000000000000000007000007000007000000000000000000
310
00000000000000000000000000000000000000000000000000000000000000000000000000000000000000000000000000000000000000000000000000000000000000000000000000000000000000000000000000000000000000000000000000000000000000000000000000000000000000000000000000000000000000
310
00000000000000000000000707000007000000000000000000000700000000000000000000070000070000070000000000000000000000000000000000000000000000000000000000000000000000000000000000000000000000000000000000000000000000000000000000000000000000000000000000000000000000
310
00000000000000000000000000000000000000000000000000000000000000000000000000000000000000000000000000000000000000000000000000000000070707070700000000000000000000070707070707070707070707000700000007000000000000000000000000000000000000000000000000000000000000
310
00000000000000000000000000000000000000000000000000000000000000000000000000000000000000000000000000000000000000000000000000000000000000000000000000000000000000000000000000000000000000000000000000000000000000000000000000000000000000000000000000000000000000
310
00000000000707070707070707000007000007070007000000000000000000000000000000000000000000000000000000000000000000000000000000000000000000000000000000000000000000000000000000000000000000000000000000000000000000000000000000000000000000000000000000000000000000
310
00000000000000000000000000000000000000000000000000000000000000000000000000000000000000000000000000000000000000000000070000000000000007070707000700070707070000000000000000000000000000000000000000000000000000000000000000000000000000000000000000000000000000
310
00000000000000000000000000000000000000000000000000000000000000000000000000000000000000000000000000000000000000000000000000000000000000000000000000000000000000000000000000000000000000000000000000000000000000000000000000000007000000000000000000000707000000
310
00000007070000000000000000000000000000000000000000000000000000000000000000000000000000000000000000000000000000000000000000000000000000000000000000000000000000000000000000000000000000000000000000000000000000000000000000000000000000000000000000000000000000
310
00000000000000000000000000000000000000000000000000000000000000000000000000070000000000000000000007070000000000000007000000000000000000000000000000000000000000000000000000000000000000000000000000000000000000000000000000000000000000000000000000000000000000
310
00000000000000000000000000000000000000000000000000000000000000000000000000000000000000000000000000000000000000000000000000000000000000000000000000000000000000000000000000000000000007000000000000000000000707000000000000000700000000000000000000000000000000
310
00000000000000000000000000000000000000000000000000000000000000000000000000000000000000000000000000000000000000000000000000000000000000000000000000000000000000000000000000000000000000000000000000000000000000000000000000000000000000000000000000000000000000
310
00000000000000070707070707070707000000000000000000000007000000000000000007000000000000000000000000000000000000000000000000000000000000000000000000000000000000000000000000000000000000000000000000000000000000000000000000000000000000000000000000000000000000
310
00000000000000000000000000000000000000000000000000000000000000000000000000000000000000000000000000000000000000000707070707000000000000000000000000000000000000000700000000000000000700000000000000000000000000000000000000000000000000000000000000000000000000
310
00000000000000000000000000000000000000000000000000000000000000000000000000000000000000000000000000000000000000000000000000000000000000000000000000000000000000000000000000000000000000000000000000000000000000000000000707070000070707070707070707070707070707
310
07070707070707000000000000000007000000000000000000000000000000000000000000000000000000000000000000000000000000000000000000000000000000000000000000000000000000000000000000000000000000000000000000000000000000000000000000000000000000000000000000000000000000
310
00000000000000000000000000000000000000000000000000000000000000000007070707070000000000000000000000000000000000000000070000000000000000000700000000000000000000000000000000000000000000000000000000000000000000000000000000000000000000000000000000000000000000
310
00000000000000000000000000000000000000000000000000000000000000000000000000000000000000000000000000000000000000000000000000000000000000000000000000000000000000000000000000000000000000000000000000000000000000000000000000000007070000000000000000070000000000
310
00000000000000000000000000000000000000000000000000000000000000000000000000000000000000000000000000000000000000000000000000000000000000000000000000000000000000000000000000000000000000000000000000000000000000000000000000000000000000000000000000000000000000
310
00000000000000000000000000000000000000000000000000000000000000000000000000070007070707000000000700000000000000000000000000000000000000000000000000000000000000000000000000000000000000000000000000000000000000000000000000000000000000000000000000000000000000
310
00000000000000000000000000000000000000000000000000000000000000000000000000000000000000000000000000000000000000000000000000000000000000000000000000000000000000000000000000000000000007000000000707070700070000000000000000000000000000000000000000000000000000
310
00000000000000000000000000000000000000000000000000000000000000000000000000000000000000000000000000000000000000000000000000000000000000000000000000000000000000000000000000000000000000000000000000000000000000000000000000000000000000000000000000000000000000
310
00000000000000000000000000000007000000000007000000070700000000000000000000000000000000000000000000000000000000000000000000000000000000000000000000000000000000000000000000000000000000000000000000000000000000000000000000000000000000000000000000000000000000
310
00000000000000000000000000000000000000000000000000000000000000000000000000000000000000000000000000000000000000000000000000000000000000000700000000070000000000000000000000000000000000000000000000000000000000000000000000000000000000000000000000000000000000
310
00000000000000000000000000000000000000000000000000000000000000000000000000000000000000000000000000000000000000000000000000000000000000000000000000000000000000000000000000000000000000000000000000000000000000000000000000000000000000000000000000070000000007
310
00000000000000000000000000000000000000000000000000000000000000000000000000000000000000000000000000000000000000000000000000000000000000000000000000000000000000000000000000000000000000000000000000000000000000000000000000000000000000000000000000000000000000
310
00000000000000000000000000000000000000000000000000000000000000000000000000000000000000000000070000000000070000000000000000000000000000000000000000000000000000000000000000000000000000000000000000000000000000000000000000000000000000000000000000000000000000
310
00000000000000000000000000000000000000000000000000000000000000000000000000000000000000000000000000000000000000000000000000000000000000000000000000000000000000000000000000000000000000000000000000000007000000000007000000000000000000000000000000000000000000
310
00000000000000000000000000000000000000000000000000000000000000000000000000000000000000000000000000000000000000000000000000000000000000000000000000000000000000000000000000000000000000000000000000000000000000000000000000000000000000000000000000000000000000
310
00000000000000000000000000000000000000000000000007000000000007000000000000000000000000000000000000000000000000000000000000000000000000000000000000000000000000000000000000000000000000000000000000000000000000000000000000000000000000000000000000000000000000
310
00000000000000000000000000000000000000000000000000000000000000000000000000000000000000000000000000000000000000000000000000000000000000000000000000000000000700000000000700000000000000000000000000000000000000000000000000000000000000000000000000000000000000
310
00000000000000000000000000000000000000000000000000000000000000000000000000000000000000000000000000000000000000000000000000000000000000000000000000000000000000000000000000000000000000000000000000000000000000000000000000000000000000000000000000000000000000
310
00000700000000000700000000000000000000000000000000000000000000000000000000000000000000000000000000000000000000000000000000000000000000000000000000000000000000000000000000000000000000000000000000000000000000000000000000000000000000000000000000000000000000
310
00000000000000000000000000000000000000000000000000000000000000000000000000000000000000000000000000000000000000070000000000070000000000000000000000000000000000000000000000000000000000000000000000000000000000000000000000000000000000000000000000000000000000
310
00000000000000000000000000000000000000000000000000000000000000000000000000000000000000000000000000000000000000000000000000000000000000000000000000000000000000000000000000000000000000000000000000000000000000000000000007000000000700000000000000000000000000
310
00000000000000000000000000000000000000000000000000000000000000000000000000000000000000000000000000000000000000000000000000000000000000000000000000000000000000000000000000000000000000000000000000000000000000000000000000000000000000000000000000000000000000
310
00000000000000000000000000000000000000000000000000000000000000000007000000000007000000000000000000000000000000000000000000000000000000000000000000000000000000000000000000000000000000000000000000000000000000000000000000000000000000000000000000000000000000
310
00000000000000000000000000000000000000000000000000000000000000000000000000000000000000000000000000000000000000000000000000000000000000000000000000000000000000000000000000000700000000070000000000000000000000000000000000000000000000000000000000000000000000
310
00000000000000000000000000000000000000000000000000000000000000000000000000000000000000000000000000000000000000000000000000000000000000000000000000000000000000000000000000000000000000000000000000000000000000000000000000000000000000000000000000000000000000
310
00000000000000000000000007000000000700000000000000000000000000000000000000000000000000000000000000000000000000000000000000000000000000000000000000000000000000000000000000000000000000000000000000000000000000000000000000000000000000000000000000000000000000
310
00000000000000000000000000000000000000000000000000000000000000000000000000000000000000000000000000000000000000000000000000000000070000000007000000000000000000000000000000000000000000000000000000000000000000000000000000000000000000000000000000000000000000
310
00000000000000000000000000000000000000000000000000000000000000000000000000000000000000000000000000000000000000000000000000000000000000000000000000000000000000000000000000000000000000000000000000000000000000000000000000000000000000000007000000000700000000
310
00000000000000000000000000000000000000000000000000000000000000000000000000000000000000000000000000000000000000000000000000000000000000000000000000000000000000000000000000000000000000000000000000000000000000000000000000000000000000000000000000000000000000
310
00000000000000000000000000000000000000000000000000000000000000000000000000000000000007000000000700000000000000000000000000000000000000000000000000000000000000000000000000000000000000000000000000000000000000000000000000000000000000000000000000000000000000
310
00000000000000000000000000000000000000000000000000000000000000000000000000000000000000000000000000000000000000000000000000000000000000000000000000000000000000000000000000000000000000000000000700000000070000000000000000000000000000000000000000000000000000
310
00000000000000000000000000000000000000000000000000000000000000000000000000000000000000000000000000000000000000000000000000000000000000000000000000000000000000000000000000000000000000000000000000000000000000000000000000000000000000000000000000000000000000
310
00000000000000000000000000000000000000000700000000070000000000000000000000000000000000000000000000000000000000000000000000000000000000000000000000000000000000000000000000000000000000000000000000000000000000000000000000000000000000000000000000000000000000
310
00000000000000000000000000000000000000000000000000000000000000000000000000000000000000000000000000000000000000000000000000000000000000000000000007000000000007000000000000000000000000000000000000000000000000000000000000000000000000000000000000000000000000
310
00000000000000000000000000000000000000000000000000000000000000000000000000000000000000000000000000000000000000000000000000000000000000000000000000000000000000000000000000000000000000000000000000000000000000000000000000000000000000000000000000000000000700
310
00000007000000000000000000000000000000000000000000000000000000000000000000000000000000000000000000000000000000000000000000000000000000000000000000000000000000000000000000000000000000000000000000000000000000000000000000000000000000000000000000000000000000
310
00000000000000000000000000000000000000000000000000000000000000000000000000000000000000000000000000000700000000000700000000000000000000000000000000000000000000000000000000000000000000000000000000000000000000000000000000000000000000000000000000000000000000
310
00000000000000000000000000000000000000000000000000000000000000000000000000000000000000000000000000000000000000000000000000000000000000000000000000000000000000000000000000000000000000000000000000000000000707070000000007000000000000000000000000000000000000
310
00000000000000000000000000000000000000000000000000000000000000000000000000000000000000000000000000000000000000000000000000000000000000000000000000000000000000000000000000000000000000000000000000000000000000000000000000000000000000000000000000000000000000
310
00000000000000000000000000000000000000000000000000000700070700000000070000000000000000000000000000000000000000000000000000000000000000000000000000000000000000000000000000000000000000000000000000000000000000000000000000000000000000000000000000000000000000
310
00000000000000000000000000000000000000000000000000000000000000000000000000000000000000000000000000000000000000000000000000000000000000000000000000000000000007000707000000000700000000000000000000000000000000000000000000000000000000000000000000000000000000
310
00000000000000000000000000000000000000000000000000000000000000000000000000000000000000000000000000000000000000000000000000000000000000000000000000000000000000000000000000000000000000000000000000000000000000000000000000000000000000000000000000000000000000
310
00000007000707000000000700000000000000000000000000000000000000000000000000000000000000000000000000000000000000000000000000000000000000000000000000000000000000000000000000000000000000000000000000000000000000000000000000000000000000000000000000000000000000
310
00000000000000000000000000000000000000000000000000000000000000000000000000000000000000000000000000000000000000070007070000000007000000000000000000000000000000000000000000000000000000000000000000000000000000000000000000000000000000000000000000000000000000
310
00000000000000000000000000000000000000000000000000000000000000000000000000000000000000000000000000000000000000000000000000000000000000000000000000000000000000000000000000000000000000000000000000000000000000000000000700070707000000000700000000000000000000
310
00000000000000000000000000000000000000000000000000000000000000000000000000000000000000000000000000000000000000000000000000000000000000000000000000000000000000000000000000000000000000000000000000000000000000000000000000000000000000000000000000000000000000
310
00000000000000000000000000000000000000000000000000000000000000000007000707000000000700000000000000000000000000000000000000000000000000000000000000000000000000000000000000000000000000000000000000000000000000000000000000000000000000000000000000000000000000
310
00000000000000000000000000000000000000000000000000000000000000000000000000000000000000000000000000000000000000000000000000000000000000000000000000000000000000000000000000070007000000000007000000000000000000000000000000000000000000000000000000000000000000
310
00000000000000000000000000000000000000000000000000000000000000000000000000000000000000000000000000000000000000000000000000000000000000000000000000000000000000000000000000000000000000000000000000000000000000000000000000000000000000000000000000000000000000
310
00000000000000000000070000070000000000070000000000000000000000000000000000000000000000000000000000000000000000000000000000000000000000000000000000000000000000000000000000000000000000000000000000000000000000000000000000000000000000000000000000000000000000
310
00000000000000000000000000000000000000000000000000000000000000000000000000000000000000000000000000000000000000000000000000000700000700000000000700000000000000000000000000000000000000000000000000000000000000000000000000000000000000000000000000000000000000
310
00000000000000000000000000000000000000000000000000000000000000000000000000000000000000000000000000000000000000000000000000000000000000000000000000000000000000000000000000000000000000000000000000000000000000000000000000000000000007000007000000000007000000
310
00000000000000000000000000000000000000000000000000000000000000000000000000000000000000000000000000000000000000000000000000000000000000000000000000000000000000000000000000000000000000000000000000000000000000000000000000000000000000000000000000000000000000
310
00000000000000000000000000000000000000000000000000000000000000000000000000000007000007000000000007070000000000000000000000000000000000000000000000000000000000000000000000000000000000000000000000000000000000000000000000000000000000000000000000000000000000
310
00000000000000000000000000000000000000000000000000000000000000000000000000000000000000000000000000000000000000000000000000000000000000000000000000000000000000000000000000000000000000000700070000000000070700000000000000000000000000000000000000000000000000
310
00000000000000000000000000000000000000000000000000000000000000000000000000000000000000000000000000000000000000000000000000000000000000000000000000000000000000000000000000000000000000000000000000000000000000000000000000000000000000000000000000000000000000
310
00000000000000000000000000000000000700070000000000000700000000000000000000000000000000000000000000000000000000000000000000000000000000000000000000000000000000000000000000000000000000000000000000000000000000000000000000000000000000000000000000000000000000
310
00000000000000000000000000000000000000000000000000000000000000000000000000000000000000000000000000000000000000000000000000000000000000000007000007000000000007000000000000000000000000000000000000000000000000000000000000000000000000000000000000000000000000
310
00000000000000000000000000000000000000000000000000000000000000000000000000000000000000000000000000000000000000000000000000000000000000000000000000000000000000000000000000000000000000000000000000000000000000000000000000000000000000000000000000070007070000
310
00000000070000000000000000000000000000000000000000000000000000000000000000000000000000000000000000000000000000000000000000000000000000000000000000000000000000000000000000000000000000000000000000000000000000000000000000000000000000000000000000000000000000
310
00000000000000000000000000000000000000000000000000000000000000000000000000000000000000000000000707070000000000070700000000000000000000000000000000000000000000000000000000000000000000000000000000000000000000000000000000000000000000000000000000000000000000
310
00000000000000000000000000000000000000000000000000000000000000000000000000000000000000000000000000000000000000000000000000000000000000000000000000000000000000000000000000000000000000000000000000000000070707000000000707000000000000000000000000000000000000
310
00000000000000000000000000000000000000000000000000000000000000000000000000000000000000000000000000000000000000000000000000000000000000000000000000000000000000000000000000000000000000000000000000000000000000000000000000000000000000000000000000000000000000
310
00000000000000000000000000000000000000000000000000000707000000000700000000000000000000000000000000000000000000000000000000000000000000000000000000000000000000000000000000000000000000000000000000000000000000000000000000000000000000000000000000000000000000
310
00000000000000000000000000000000000000000000000000000000000000000000000000000000000000000000000000000000000000000000000000000000000000000000000000000000000000000007070707000000000000000000000000000000000000000000000000000000000000000000000000000000000000
310
00000000000000000000000000000000000000000000000000000000000000000000000000000000000000000000000000000000000000000000000000000000000000000000000000000000000000000000000000000000000000000000000000000000000000000000000000000000000000000000000000000000000000
310
000000000000000000000000000000000000000000000000000000000000000000000000000000000000000000000000000000000000000000000000000000000000000000000000000000000000000000000000000000000000000000000000000000000000000000000000
  0
ENDSEC
  0
EOF
