  0
SECTION
  2
HEADER
  9
$ACADVER
  1
AC1015
  9
$ACADMAINTVER
 70
     6
  9
$DWGCODEPAGE
  3
ANSI_1252
  9
$INSBASE
 10
0.0
 20
0.0
 30
0.0
  9
$EXTMIN
 10
0.1217
 20
-0.10355
 30
0.0
  9
$EXTMAX
 10
392.8776
 20
414.10365
 30
0.0
  9
$LIMMIN
 10
0.0
 20
0.0
  9
$LIMMAX
 10
12.0
 20
9.0
  9
$ORTHOMODE
 70
     0
  9
$REGENMODE
 70
     1
  9
$FILLMODE
 70
     1
  9
$QTEXTMODE
 70
     0
  9
$MIRRTEXT
 70
     1
  9
$LTSCALE
 40
1.0
  9
$ATTMODE
 70
     1
  9
$TEXTSIZE
 40
0.2
  9
$TRACEWID
 40
0.05
  9
$TEXTSTYLE
  7
Standard
  9
$CLAYER
  8
0
  9
$CELTYPE
  6
ByBlock
  9
$CECOLOR
 62
   256
  9
$CELTSCALE
 40
1.0
  9
$DISPSILH
 70
     0
  9
$DIMSCALE
 40
1.0
  9
$DIMASZ
 40
0.18
  9
$DIMEXO
 40
0.0625
  9
$DIMDLI
 40
0.38
  9
$DIMRND
 40
0.0
  9
$DIMDLE
 40
0.0
  9
$DIMEXE
 40
0.18
  9
$DIMTP
 40
0.0
  9
$DIMTM
 40
0.0
  9
$DIMTXT
 40
0.18
  9
$DIMCEN
 40
0.09
  9
$DIMTSZ
 40
0.0
  9
$DIMTOL
 70
     0
  9
$DIMLIM
 70
     0
  9
$DIMTIH
 70
     1
  9
$DIMTOH
 70
     1
  9
$DIMSE1
 70
     0
  9
$DIMSE2
 70
     0
  9
$DIMTAD
 70
     0
  9
$DIMZIN
 70
     0
  9
$DIMBLK
  1

  9
$DIMASO
 70
     1
  9
$DIMSHO
 70
     1
  9
$DIMPOST
  1

  9
$DIMAPOST
  1

  9
$DIMALT
 70
     0
  9
$DIMALTD
 70
     2
  9
$DIMALTF
 40
25.4
  9
$DIMLFAC
 40
1.0
  9
$DIMTOFL
 70
     0
  9
$DIMTVP
 40
0.0
  9
$DIMTIX
 70
     0
  9
$DIMSOXD
 70
     0
  9
$DIMSAH
 70
     0
  9
$DIMBLK1
  1

  9
$DIMBLK2
  1

  9
$DIMSTYLE
  2
Standard
  9
$DIMCLRD
 70
     0
  9
$DIMCLRE
 70
     0
  9
$DIMCLRT
 70
     0
  9
$DIMTFAC
 40
1.0
  9
$DIMGAP
 40
0.09
  9
$DIMJUST
 70
     0
  9
$DIMSD1
 70
     0
  9
$DIMSD2
 70
     0
  9
$DIMTOLJ
 70
     1
  9
$DIMTZIN
 70
     0
  9
$DIMALTZ
 70
     0
  9
$DIMALTTZ
 70
     0
  9
$DIMUPT
 70
     0
  9
$DIMDEC
 70
     4
  9
$DIMTDEC
 70
     4
  9
$DIMALTU
 70
     2
  9
$DIMALTTD
 70
     2
  9
$DIMTXSTY
  7
Standard
  9
$DIMAUNIT
 70
     0
  9
$DIMADEC
 70
     0
  9
$DIMALTRND
 40
0.0
  9
$DIMAZIN
 70
     0
  9
$DIMDSEP
 70
    46
  9
$DIMATFIT
 70
     3
  9
$DIMFRAC
 70
     0
  9
$DIMLDRBLK
  1

  9
$DIMLUNIT
 70
     2
  9
$DIMLWD
 70
    -2
  9
$DIMLWE
 70
    -2
  9
$DIMTMOVE
 70
     2
  9
$LUNITS
 70
     2
  9
$LUPREC
 70
     4
  9
$SKETCHINC
 40
0.1
  9
$FILLETRAD
 40
0.5
  9
$AUNITS
 70
     0
  9
$AUPREC
 70
     0
  9
$MENU
  1
.
  9
$ELEVATION
 40
0.0
  9
$PELEVATION
 40
0.0
  9
$THICKNESS
 40
0.0
  9
$LIMCHECK
 70
     0
  9
$CHAMFERA
 40
0.5
  9
$CHAMFERB
 40
0.5
  9
$CHAMFERC
 40
1.0
  9
$CHAMFERD
 40
0.0
  9
$SKPOLY
 70
     0
  9
$TDCREATE
 40
2456647.766090486
  9
$TDUCREATE
 40
2456647.724423819
  9
$TDUPDATE
 40
2456647.774466863
  9
$TDUUPDATE
 40
2456647.732800197
  9
$TDINDWG
 40
0.0083740394
  9
$TDUSRTIMER
 40
0.0083740394
  9
$USRTIMER
 70
     1
  9
$ANGBASE
 50
0.0
  9
$ANGDIR
 70
     0
  9
$PDMODE
 70
     0
  9
$PDSIZE
 40
0.0
  9
$PLINEWID
 40
0.0
  9
$SPLFRAME
 70
     0
  9
$SPLINETYPE
 70
     6
  9
$SPLINESEGS
 70
     8
  9
$HANDSEED
  5
142C
  9
$SURFTAB1
 70
     6
  9
$SURFTAB2
 70
     6
  9
$SURFTYPE
 70
     6
  9
$SURFU
 70
     6
  9
$SURFV
 70
     6
  9
$UCSBASE
  2

  9
$UCSNAME
  2

  9
$UCSORG
 10
0.0
 20
0.0
 30
0.0
  9
$UCSXDIR
 10
1.0
 20
0.0
 30
0.0
  9
$UCSYDIR
 10
0.0
 20
1.0
 30
0.0
  9
$UCSORTHOREF
  2

  9
$UCSORTHOVIEW
 70
     0
  9
$UCSORGTOP
 10
0.0
 20
0.0
 30
0.0
  9
$UCSORGBOTTOM
 10
0.0
 20
0.0
 30
0.0
  9
$UCSORGLEFT
 10
0.0
 20
0.0
 30
0.0
  9
$UCSORGRIGHT
 10
0.0
 20
0.0
 30
0.0
  9
$UCSORGFRONT
 10
0.0
 20
0.0
 30
0.0
  9
$UCSORGBACK
 10
0.0
 20
0.0
 30
0.0
  9
$PUCSBASE
  2

  9
$PUCSNAME
  2

  9
$PUCSORG
 10
0.0
 20
0.0
 30
0.0
  9
$PUCSXDIR
 10
1.0
 20
0.0
 30
0.0
  9
$PUCSYDIR
 10
0.0
 20
1.0
 30
0.0
  9
$PUCSORTHOREF
  2

  9
$PUCSORTHOVIEW
 70
     0
  9
$PUCSORGTOP
 10
0.0
 20
0.0
 30
0.0
  9
$PUCSORGBOTTOM
 10
0.0
 20
0.0
 30
0.0
  9
$PUCSORGLEFT
 10
0.0
 20
0.0
 30
0.0
  9
$PUCSORGRIGHT
 10
0.0
 20
0.0
 30
0.0
  9
$PUCSORGFRONT
 10
0.0
 20
0.0
 30
0.0
  9
$PUCSORGBACK
 10
0.0
 20
0.0
 30
0.0
  9
$USERI1
 70
     0
  9
$USERI2
 70
     0
  9
$USERI3
 70
     0
  9
$USERI4
 70
     0
  9
$USERI5
 70
     0
  9
$USERR1
 40
0.0
  9
$USERR2
 40
0.0
  9
$USERR3
 40
0.0
  9
$USERR4
 40
0.0
  9
$USERR5
 40
0.0
  9
$WORLDVIEW
 70
     1
  9
$SHADEDGE
 70
     3
  9
$SHADEDIF
 70
    70
  9
$TILEMODE
 70
     1
  9
$MAXACTVP
 70
    64
  9
$PINSBASE
 10
0.0
 20
0.0
 30
0.0
  9
$PLIMCHECK
 70
     0
  9
$PEXTMIN
 10
1.000000000000E+20
 20
1.000000000000E+20
 30
1.000000000000E+20
  9
$PEXTMAX
 10
-1.000000000000E+20
 20
-1.000000000000E+20
 30
-1.000000000000E+20
  9
$PLIMMIN
 10
0.0
 20
0.0
  9
$PLIMMAX
 10
12.0
 20
9.0
  9
$UNITMODE
 70
     0
  9
$VISRETAIN
 70
     1
  9
$PLINEGEN
 70
     0
  9
$PSLTSCALE
 70
     1
  9
$TREEDEPTH
 70
  3020
  9
$CMLSTYLE
  2
Standard
  9
$CMLJUST
 70
     0
  9
$CMLSCALE
 40
1.0
  9
$PROXYGRAPHICS
 70
     1
  9
$MEASUREMENT
 70
     0
  9
$CELWEIGHT
370
    -1
  9
$ENDCAPS
280
     0
  9
$JOINSTYLE
280
     0
  9
$LWDISPLAY
290
     0
  9
$INSUNITS
 70
     0
  9
$HYPERLINKBASE
  1

  9
$STYLESHEET
  1

  9
$XEDIT
290
     1
  9
$CEPSNTYPE
380
     0
  9
$PSTYLEMODE
290
     1
  9
$FINGERPRINTGUID
  2
{6337E01E-1C09-4F07-AE6B-8D2F5CFDEE6F}
  9
$VERSIONGUID
  2
{FAEB1C32-E019-11D5-929B-00C0DF256EC4}
  9
$EXTNAMES
290
     1
  9
$PSVPSCALE
 40
0.0
  9
$OLESTARTUP
290
     0
  0
ENDSEC
  0
SECTION
  2
CLASSES
  0
CLASS
  1
ACDBDICTIONARYWDFLT
  2
AcDbDictionaryWithDefault
  3
ObjectDBX Classes
 90
        0
280
     0
281
     0
  0
CLASS
  1
SCALE
  2
AcDbScale
  3
ObjectDBX Classes
 90
     1153
280
     0
281
     0
  0
CLASS
  1
DICTIONARYVAR
  2
AcDbDictionaryVar
  3
ObjectDBX Classes
 90
        0
280
     0
281
     0
  0
CLASS
  1
ACDBPLACEHOLDER
  2
AcDbPlaceHolder
  3
ObjectDBX Classes
 90
        0
280
     0
281
     0
  0
CLASS
  1
LAYOUT
  2
AcDbLayout
  3
ObjectDBX Classes
 90
        0
280
     0
281
     0
  0
ENDSEC
  0
SECTION
  2
TABLES
  0
TABLE
  2
VPORT
  5
8
330
0
100
AcDbSymbolTable
 70
     1
  0
VPORT
  5
AA9
330
8
100
AcDbSymbolTableRecord
100
AcDbViewportTableRecord
  2
*Active
 70
     0
 10
0.0
 20
0.0
 11
1.0
 21
1.0
 12
196.4388
 22
207.00005
 13
0.0
 23
0.0
 14
0.5
 24
0.5
 15
0.5
 25
0.5
 16
0.0
 26
0.0
 36
1.0
 17
0.0
 27
0.0
 37
0.0
 40
422.491344
 41
1.729542302358
 42
50.0
 43
0.0
 44
0.0
 50
0.0
 51
0.0
 71
    16
 72
   100
 73
     1
 74
     3
 75
     0
 76
     0
 77
     0
 78
     0
281
     0
 65
     1
110
0.0
120
0.0
130
0.0
111
1.0
121
0.0
131
0.0
112
0.0
122
1.0
132
0.0
 79
     0
146
0.0
  0
ENDTAB
  0
TABLE
  2
LTYPE
  5
5
330
0
100
AcDbSymbolTable
 70
     1
  0
LTYPE
  5
14
330
5
100
AcDbSymbolTableRecord
100
AcDbLinetypeTableRecord
  2
ByBlock
 70
     0
  3

 72
    65
 73
     0
 40
0.0
  0
LTYPE
  5
15
330
5
100
AcDbSymbolTableRecord
100
AcDbLinetypeTableRecord
  2
ByLayer
 70
     0
  3

 72
    65
 73
     0
 40
0.0
  0
LTYPE
  5
16
330
5
100
AcDbSymbolTableRecord
100
AcDbLinetypeTableRecord
  2
Continuous
 70
     0
  3
Solid line
 72
    65
 73
     0
 40
0.0
  0
ENDTAB
  0
TABLE
  2
LAYER
  5
2
330
0
100
AcDbSymbolTable
 70
     1
  0
LAYER
  5
10
330
2
100
AcDbSymbolTableRecord
100
AcDbLayerTableRecord
  2
0
 70
     0
 62
     7
  6
Continuous
370
    -3
390
F
  0
ENDTAB
  0
TABLE
  2
STYLE
  5
3
330
0
100
AcDbSymbolTable
 70
     1
  0
STYLE
  5
11
330
3
100
AcDbSymbolTableRecord
100
AcDbTextStyleTableRecord
  2
Standard
 70
     0
 40
0.0
 41
1.0
 50
0.0
 71
     0
 42
0.2
  3
txt
  4

  0
ENDTAB
  0
TABLE
  2
VIEW
  5
6
330
0
100
AcDbSymbolTable
 70
     0
  0
ENDTAB
  0
TABLE
  2
UCS
  5
7
330
0
100
AcDbSymbolTable
 70
     0
  0
ENDTAB
  0
TABLE
  2
APPID
  5
9
330
0
100
AcDbSymbolTable
 70
     1
  0
APPID
  5
12
330
9
100
AcDbSymbolTableRecord
100
AcDbRegAppTableRecord
  2
ACAD
 70
     0
  0
ENDTAB
  0
TABLE
  2
DIMSTYLE
  5
A
330
0
100
AcDbSymbolTable
 70
     1
100
AcDbDimStyleTable
  0
DIMSTYLE
105
20
330
A
100
AcDbSymbolTableRecord
100
AcDbDimStyleTableRecord
  2
Standard
 70
     0
340
11
  0
ENDTAB
  0
TABLE
  2
BLOCK_RECORD
  5
1
330
0
100
AcDbSymbolTable
 70
     1
  0
BLOCK_RECORD
  5
1D
330
1
100
AcDbSymbolTableRecord
100
AcDbBlockTableRecord
  2
*Model_Space
340
1E
  0
BLOCK_RECORD
  5
1B
330
1
100
AcDbSymbolTableRecord
100
AcDbBlockTableRecord
  2
*Paper_Space
340
1C
  0
ENDTAB
  0
ENDSEC
  0
SECTION
  2
BLOCKS
  0
BLOCK
  5
AAC
330
1D
100
AcDbEntity
  8
0
100
AcDbBlockBegin
  2
*Model_Space
 70
     0
 10
0.0
 20
0.0
 30
0.0
  3
*Model_Space
  1
*Model_Space
  0
ENDBLK
  5
AAD
330
1D
100
AcDbEntity
  8
0
100
AcDbBlockEnd
  0
BLOCK
  5
AAA
330
1B
100
AcDbEntity
 67
     1
  8
0
100
AcDbBlockBegin
  2
*Paper_Space
 70
     0
 10
0.0
 20
0.0
 30
0.0
  3
*Paper_Space
  1
*Paper_Space
  0
ENDBLK
  5
AAB
330
1B
100
AcDbEntity
 67
     1
  8
0
100
AcDbBlockEnd
  0
ENDSEC
  0
SECTION
  2
ENTITIES
  0
LINE
  5
22
330
1D
100
AcDbEntity
  8
0
100
AcDbLine
 10
0.6519
 20
53.81485
 30
0.0
 11
0.7957
 21
53.81485
 31
0.0
  0
LINE
  5
43
330
1D
100
AcDbEntity
  8
0
100
AcDbLine
 10
48.9595
 20
53.81485
 30
0.0
 11
49.1095
 21
53.81485
 31
0.0
  0
LINE
  5
45
330
1D
100
AcDbEntity
  8
0
100
AcDbLine
 10
0.3821
 20
53.89425
 30
0.0
 11
0.6519
 21
53.81485
 31
0.0
  0
LINE
  5
46
330
1D
100
AcDbEntity
  8
0
100
AcDbLine
 10
0.198
 20
54.10715
 30
0.0
 11
0.3821
 21
53.89425
 31
0.0
  0
LINE
  5
48
330
1D
100
AcDbEntity
  8
0
100
AcDbLine
 10
49.332
 20
53.86705
 30
0.0
 11
49.4019
 21
53.92945
 31
0.0
  0
LINE
  5
49
330
1D
100
AcDbEntity
  8
0
100
AcDbLine
 10
49.4019
 20
53.92945
 30
0.0
 11
49.5077
 21
54.01285
 31
0.0
  0
LINE
  5
4D
330
1D
100
AcDbEntity
  8
0
100
AcDbLine
 10
49.1095
 20
53.81485
 30
0.0
 11
49.332
 21
53.86705
 31
0.0
  0
LINE
  5
4E
330
1D
100
AcDbEntity
  8
0
100
AcDbLine
 10
49.5077
 20
54.01285
 30
0.0
 11
49.601
 21
54.22145
 31
0.0
  0
LINE
  5
4F
330
1D
100
AcDbEntity
  8
0
100
AcDbLine
 10
0.1217
 20
54.38555
 30
0.0
 11
10.9539
 21
129.64825
 31
0.0
  0
LINE
  5
50
330
1D
100
AcDbEntity
  8
0
100
AcDbLine
 10
50.0821
 20
56.36645
 30
0.0
 11
50.7098
 21
58.43405
 31
0.0
  0
LINE
  5
51
330
1D
100
AcDbEntity
  8
0
100
AcDbLine
 10
0.1217
 20
54.38555
 30
0.0
 11
10.9539
 21
129.64825
 31
0.0
  0
LINE
  5
52
330
1D
100
AcDbEntity
  8
0
100
AcDbLine
 10
0.1217
 20
54.38555
 30
0.0
 11
0.198
 21
54.10715
 31
0.0
  0
LINE
  5
53
330
1D
100
AcDbEntity
  8
0
100
AcDbLine
 10
49.601
 20
54.22145
 30
0.0
 11
50.0821
 21
56.36645
 31
0.0
  0
LINE
  5
54
330
1D
100
AcDbEntity
  8
0
100
AcDbLine
 10
53.974424434227
 20
64.566199598177
 30
0.0
 11
55.7683
 21
66.50895
 31
0.0
  0
LINE
  5
55
330
1D
100
AcDbEntity
  8
0
100
AcDbLine
 10
55.7683
 20
66.50895
 30
0.0
 11
57.9772
 21
68.32295
 31
0.0
  0
LINE
  5
56
330
1D
100
AcDbEntity
  8
0
100
AcDbLine
 10
57.9772
 20
68.32295
 30
0.0
 11
60.4951
 21
69.90125
 31
0.0
  0
LINE
  5
57
330
1D
100
AcDbEntity
  8
0
100
AcDbLine
 10
69.4015
 20
73.25605
 30
0.0
 11
73.1795
 21
74.08935
 31
0.0
  0
LINE
  5
58
330
1D
100
AcDbEntity
  8
0
100
AcDbLine
 10
66.2384
 20
72.34195
 30
0.0
 11
69.4015
 21
73.25605
 31
0.0
  0
LINE
  5
59
330
1D
100
AcDbEntity
  8
0
100
AcDbLine
 10
63.3124
 20
71.25485
 30
0.0
 11
66.2384
 21
72.34195
 31
0.0
  0
LINE
  5
5A
330
1D
100
AcDbEntity
  8
0
100
AcDbLine
 10
60.4951
 20
69.90125
 30
0.0
 11
63.3124
 21
71.25485
 31
0.0
  0
LINE
  5
5B
330
1D
100
AcDbEntity
  8
0
100
AcDbLine
 10
75.078450130257
 20
74.417061318729
 30
0.0
 11
77.1796
 21
74.71235
 31
0.0
  0
LINE
  5
5C
330
1D
100
AcDbEntity
  8
0
100
AcDbLine
 10
52.1197
 20
61.68115
 30
0.0
 11
53.9859
 21
64.58405
 31
0.0
  0
LINE
  5
5D
330
1D
100
AcDbEntity
  8
0
100
AcDbLine
 10
50.7098
 20
58.43405
 30
0.0
 11
52.1197
 21
61.68115
 31
0.0
  0
LINE
  5
5E
330
1D
100
AcDbEntity
  8
0
100
AcDbLine
 10
77.1796
 20
74.71235
 30
0.0
 11
82.9732
 21
75.35465
 31
0.0
  0
LINE
  5
5F
330
1D
100
AcDbEntity
  8
0
100
AcDbLine
 10
82.9732
 20
75.35465
 30
0.0
 11
89.0736
 21
75.75745
 31
0.0
  0
LINE
  5
64
330
1D
100
AcDbEntity
  8
0
100
AcDbLine
 10
95.4029
 20
75.98425
 30
0.0
 11
101.8893
 21
76.09095
 31
0.0
  0
LINE
  5
65
330
1D
100
AcDbEntity
  8
0
100
AcDbLine
 10
89.0736
 20
75.75745
 30
0.0
 11
95.4029
 21
75.98425
 31
0.0
  0
LINE
  5
67
330
1D
100
AcDbEntity
  8
0
100
AcDbLine
 10
104.1253
 20
87.89645
 30
0.0
 11
104.6253
 21
88.89645
 31
0.0
  0
LINE
  5
68
330
1D
100
AcDbEntity
  8
0
100
AcDbLine
 10
104.1253
 20
87.89645
 30
0.0
 11
106.1253
 21
59.89645
 31
0.0
  0
LINE
  5
69
330
1D
100
AcDbEntity
  8
0
100
AcDbLine
 10
104.1253
 20
92.13455
 30
0.0
 11
104.1253
 21
88.89645
 31
0.0
  0
LINE
  5
6A
330
1D
100
AcDbEntity
  8
0
100
AcDbLine
 10
104.1253
 20
88.89645
 30
0.0
 11
104.1253
 21
92.13455
 31
0.0
  0
LINE
  5
6B
330
1D
100
AcDbEntity
  8
0
100
AcDbLine
 10
104.1253
 20
88.89645
 30
0.0
 11
104.5133
 21
88.89645
 31
0.0
  0
LINE
  5
6C
330
1D
100
AcDbEntity
  8
0
100
AcDbLine
 10
106.1253
 20
59.89645
 30
0.0
 11
106.4253
 21
59.89645
 31
0.0
  0
LINE
  5
6D
330
1D
100
AcDbEntity
  8
0
100
AcDbLine
 10
106.4253
 20
59.89645
 30
0.0
 11
107.3253
 21
59.89645
 31
0.0
  0
LINE
  5
6E
330
1D
100
AcDbEntity
  8
0
100
AcDbLine
 10
107.3253
 20
59.89645
 30
0.0
 11
107.6253
 21
59.89645
 31
0.0
  0
LINE
  5
6F
330
1D
100
AcDbEntity
  8
0
100
AcDbLine
 10
107.3253
 20
59.89645
 30
0.0
 11
108.7253
 21
59.89645
 31
0.0
  0
LINE
  5
70
330
1D
100
AcDbEntity
  8
0
100
AcDbLine
 10
105.6133
 20
88.89645
 30
0.0
 11
107.3603
 21
88.89645
 31
0.0
  0
LINE
  5
71
330
1D
100
AcDbEntity
  8
0
100
AcDbLine
 10
107.6253
 20
59.89645
 30
0.0
 11
107.6253
 21
-0.10355
 31
0.0
  0
LINE
  5
72
330
1D
100
AcDbEntity
  8
0
100
AcDbLine
 10
107.6253
 20
59.89645
 30
0.0
 11
107.9253
 21
59.89645
 31
0.0
  0
LINE
  5
73
330
1D
100
AcDbEntity
  8
0
100
AcDbLine
 10
107.9883
 20
-0.07725
 30
0.0
 11
108.6633
 21
-0.00225
 31
0.0
  0
LINE
  5
74
330
1D
100
AcDbEntity
  8
0
100
AcDbLine
 10
108.6633
 20
-0.00225
 30
0.0
 11
109.9013
 21
0.37255
 31
0.0
  0
LINE
  5
75
330
1D
100
AcDbEntity
  8
0
100
AcDbLine
 10
109.9013
 20
0.37255
 30
0.0
 11
111.4023
 21
1.04725
 31
0.0
  0
LINE
  5
76
330
1D
100
AcDbEntity
  8
0
100
AcDbLine
 10
111.4023
 20
1.04725
 30
0.0
 11
113.2023
 21
2.17165
 31
0.0
  0
LINE
  5
77
330
1D
100
AcDbEntity
  8
0
100
AcDbLine
 10
108.7253
 20
59.89645
 30
0.0
 11
110.6253
 21
59.89645
 31
0.0
  0
LINE
  5
78
330
1D
100
AcDbEntity
  8
0
100
AcDbLine
 10
107.9253
 20
59.89645
 30
0.0
 11
108.6253
 21
59.89645
 31
0.0
  0
LINE
  5
79
330
1D
100
AcDbEntity
  8
0
100
AcDbLine
 10
108.6253
 20
59.89645
 30
0.0
 11
109.8253
 21
59.89645
 31
0.0
  0
LINE
  5
7A
330
1D
100
AcDbEntity
  8
0
100
AcDbLine
 10
112.8253
 20
59.89645
 30
0.0
 11
115.1253
 21
59.89645
 31
0.0
  0
LINE
  5
7B
330
1D
100
AcDbEntity
  8
0
100
AcDbLine
 10
110.6253
 20
59.89645
 30
0.0
 11
112.8253
 21
59.89645
 31
0.0
  0
LINE
  5
7C
330
1D
100
AcDbEntity
  8
0
100
AcDbLine
 10
109.8253
 20
59.89645
 30
0.0
 11
111.4253
 21
59.89645
 31
0.0
  0
LINE
  5
7D
330
1D
100
AcDbEntity
  8
0
100
AcDbLine
 10
111.4253
 20
59.89645
 30
0.0
 11
113.2253
 21
59.89645
 31
0.0
  0
LINE
  5
7E
330
1D
100
AcDbEntity
  8
0
100
AcDbLine
 10
113.2253
 20
59.89645
 30
0.0
 11
115.1253
 21
59.89645
 31
0.0
  0
LINE
  5
7F
330
1D
100
AcDbEntity
  8
0
100
AcDbLine
 10
113.2023
 20
2.17165
 30
0.0
 11
115.1533
 21
4.15825
 31
0.0
  0
LINE
  5
80
330
1D
100
AcDbEntity
  8
0
100
AcDbLine
 10
117.4253
 20
59.89645
 30
0.0
 11
119.6253
 21
59.89645
 31
0.0
  0
LINE
  5
81
330
1D
100
AcDbEntity
  8
0
100
AcDbLine
 10
119.6253
 20
59.89645
 30
0.0
 11
121.5253
 21
59.89645
 31
0.0
  0
LINE
  5
82
330
1D
100
AcDbEntity
  8
0
100
AcDbLine
 10
120.4253
 20
59.89645
 30
0.0
 11
121.6253
 21
59.89645
 31
0.0
  0
LINE
  5
83
330
1D
100
AcDbEntity
  8
0
100
AcDbLine
 10
121.5253
 20
59.89645
 30
0.0
 11
122.9253
 21
59.89645
 31
0.0
  0
LINE
  5
84
330
1D
100
AcDbEntity
  8
0
100
AcDbLine
 10
122.6253
 20
9.89645
 30
0.0
 11
122.6253
 21
59.89645
 31
0.0
  0
LINE
  5
85
330
1D
100
AcDbEntity
  8
0
100
AcDbLine
 10
122.3253
 20
59.89645
 30
0.0
 11
122.6253
 21
59.89645
 31
0.0
  0
LINE
  5
86
330
1D
100
AcDbEntity
  8
0
100
AcDbLine
 10
122.3563
 20
9.66815
 30
0.0
 11
122.6253
 21
9.89645
 31
0.0
  0
LINE
  5
87
330
1D
100
AcDbEntity
  8
0
100
AcDbLine
 10
121.6253
 20
59.89645
 30
0.0
 11
122.3253
 21
59.89645
 31
0.0
  0
LINE
  5
88
330
1D
100
AcDbEntity
  8
0
100
AcDbLine
 10
121.6433
 20
8.95605
 30
0.0
 11
122.3563
 21
9.66815
 31
0.0
  0
LINE
  5
89
330
1D
100
AcDbEntity
  8
0
100
AcDbLine
 10
120.5553
 20
7.90655
 30
0.0
 11
121.6433
 21
8.95605
 31
0.0
  0
LINE
  5
8A
330
1D
100
AcDbEntity
  8
0
100
AcDbLine
 10
118.8253
 20
59.89645
 30
0.0
 11
120.4253
 21
59.89645
 31
0.0
  0
LINE
  5
8B
330
1D
100
AcDbEntity
  8
0
100
AcDbLine
 10
118.7543
 20
6.70705
 30
0.0
 11
120.5553
 21
7.90655
 31
0.0
  0
LINE
  5
8C
330
1D
100
AcDbEntity
  8
0
100
AcDbLine
 10
117.0253
 20
59.89645
 30
0.0
 11
118.8253
 21
59.89645
 31
0.0
  0
LINE
  5
8D
330
1D
100
AcDbEntity
  8
0
100
AcDbLine
 10
116.9163
 20
5.50765
 30
0.0
 11
118.7543
 21
6.70705
 31
0.0
  0
LINE
  5
8E
330
1D
100
AcDbEntity
  8
0
100
AcDbLine
 10
115.1533
 20
4.15825
 30
0.0
 11
116.9163
 21
5.50765
 31
0.0
  0
LINE
  5
8F
330
1D
100
AcDbEntity
  8
0
100
AcDbLine
 10
115.1253
 20
59.89645
 30
0.0
 11
117.0253
 21
59.89645
 31
0.0
  0
LINE
  5
90
330
1D
100
AcDbEntity
  8
0
100
AcDbLine
 10
115.1253
 20
59.89645
 30
0.0
 11
117.4253
 21
59.89645
 31
0.0
  0
LINE
  5
91
330
1D
100
AcDbEntity
  8
0
100
AcDbLine
 10
122.6253
 20
59.89645
 30
0.0
 11
122.6253
 21
9.89645
 31
0.0
  0
LINE
  5
92
330
1D
100
AcDbEntity
  8
0
100
AcDbLine
 10
122.6253
 20
59.89645
 30
0.0
 11
122.9253
 21
59.89645
 31
0.0
  0
LINE
  5
93
330
1D
100
AcDbEntity
  8
0
100
AcDbLine
 10
107.6253
 20
-0.10355
 30
0.0
 11
107.6253
 21
59.89645
 31
0.0
  0
LINE
  5
94
330
1D
100
AcDbEntity
  8
0
100
AcDbLine
 10
107.6253
 20
-0.10355
 30
0.0
 11
107.9883
 21
-0.07725
 31
0.0
  0
LINE
  5
95
330
1D
100
AcDbEntity
  8
0
100
AcDbLine
 10
109.6573
 20
88.89645
 30
0.0
 11
112.3103
 21
88.89645
 31
0.0
  0
LINE
  5
96
330
1D
100
AcDbEntity
  8
0
100
AcDbLine
 10
107.3603
 20
88.89645
 30
0.0
 11
109.6573
 21
88.89645
 31
0.0
  0
LINE
  5
97
330
1D
100
AcDbEntity
  8
0
100
AcDbLine
 10
120.5933
 20
88.89645
 30
0.0
 11
122.8903
 21
88.89645
 31
0.0
  0
LINE
  5
98
330
1D
100
AcDbEntity
  8
0
100
AcDbLine
 10
123.8253
 20
59.89645
 30
0.0
 11
124.1253
 21
59.89645
 31
0.0
  0
LINE
  5
99
330
1D
100
AcDbEntity
  8
0
100
AcDbLine
 10
124.1253
 20
59.89645
 30
0.0
 11
126.1253
 21
87.89645
 31
0.0
  0
LINE
  5
9A
330
1D
100
AcDbEntity
  8
0
100
AcDbLine
 10
122.9253
 20
59.89645
 30
0.0
 11
123.8253
 21
59.89645
 31
0.0
  0
LINE
  5
9B
330
1D
100
AcDbEntity
  8
0
100
AcDbLine
 10
124.6373
 20
88.89645
 30
0.0
 11
125.7373
 21
88.89645
 31
0.0
  0
LINE
  5
9C
330
1D
100
AcDbEntity
  8
0
100
AcDbLine
 10
122.8903
 20
88.89645
 30
0.0
 11
124.6373
 21
88.89645
 31
0.0
  0
LINE
  5
9D
330
1D
100
AcDbEntity
  8
0
100
AcDbLine
 10
112.3103
 20
88.89645
 30
0.0
 11
115.1253
 21
88.89645
 31
0.0
  0
LINE
  5
9E
330
1D
100
AcDbEntity
  8
0
100
AcDbLine
 10
115.1253
 20
88.89645
 30
0.0
 11
117.9403
 21
88.89645
 31
0.0
  0
LINE
  5
9F
330
1D
100
AcDbEntity
  8
0
100
AcDbLine
 10
117.9403
 20
88.89645
 30
0.0
 11
120.5933
 21
88.89645
 31
0.0
  0
LINE
  5
A0
330
1D
100
AcDbEntity
  8
0
100
AcDbLine
 10
104.5133
 20
88.89645
 30
0.0
 11
104.6253
 21
88.89645
 31
0.0
  0
LINE
  5
A1
330
1D
100
AcDbEntity
  8
0
100
AcDbLine
 10
104.5133
 20
88.89645
 30
0.0
 11
105.6133
 21
88.89645
 31
0.0
  0
LINE
  5
A2
330
1D
100
AcDbEntity
  8
0
100
AcDbLine
 10
125.7373
 20
88.89645
 30
0.0
 11
126.1253
 21
88.89645
 31
0.0
  0
LINE
  5
A3
330
1D
100
AcDbEntity
  8
0
100
AcDbLine
 10
125.6253
 20
88.89645
 30
0.0
 11
125.7373
 21
88.89645
 31
0.0
  0
LINE
  5
A4
330
1D
100
AcDbEntity
  8
0
100
AcDbLine
 10
125.6253
 20
88.89645
 30
0.0
 11
126.1253
 21
87.89645
 31
0.0
  0
LINE
  5
A5
330
1D
100
AcDbEntity
  8
0
100
AcDbLine
 10
106.1813
 20
92.13455
 30
0.0
 11
108.8333
 21
92.13455
 31
0.0
  0
LINE
  5
A6
330
1D
100
AcDbEntity
  8
0
100
AcDbLine
 10
104.1533
 20
92.13455
 30
0.0
 11
106.1813
 21
92.13455
 31
0.0
  0
LINE
  5
A7
330
1D
100
AcDbEntity
  8
0
100
AcDbLine
 10
102.9053
 20
92.13455
 30
0.0
 11
104.1253
 21
92.13455
 31
0.0
  0
LINE
  5
A8
330
1D
100
AcDbEntity
  8
0
100
AcDbLine
 10
102.9053
 20
92.13455
 30
0.0
 11
104.1533
 21
92.13455
 31
0.0
  0
LINE
  5
A9
330
1D
100
AcDbEntity
  8
0
100
AcDbLine
 10
102.4373
 20
92.13455
 30
0.0
 11
102.9053
 21
92.13455
 31
0.0
  0
LINE
  5
AA
330
1D
100
AcDbEntity
  8
0
100
AcDbLine
 10
124.0693
 20
92.13455
 30
0.0
 11
126.0973
 21
92.13455
 31
0.0
  0
LINE
  5
AB
330
1D
100
AcDbEntity
  8
0
100
AcDbLine
 10
126.1253
 20
88.89645
 30
0.0
 11
126.1253
 21
92.13455
 31
0.0
  0
LINE
  5
AC
330
1D
100
AcDbEntity
  8
0
100
AcDbLine
 10
181.3793
 20
53.81485
 30
0.0
 11
182.0933
 21
53.81485
 31
0.0
  0
LINE
  5
AD
330
1D
100
AcDbEntity
  8
0
100
AcDbLine
 10
182.0933
 20
53.81485
 30
0.0
 11
183.7683
 21
53.81485
 31
0.0
  0
LINE
  5
AE
330
1D
100
AcDbEntity
  8
0
100
AcDbLine
 10
183.7683
 20
53.81485
 30
0.0
 11
186.2073
 21
53.81485
 31
0.0
  0
LINE
  5
AF
330
1D
100
AcDbEntity
  8
0
100
AcDbLine
 10
183.5773
 20
53.81485
 30
0.0
 11
185.9593
 21
53.81485
 31
0.0
  0
LINE
  5
B0
330
1D
100
AcDbEntity
  8
0
100
AcDbLine
 10
182.3023
 20
53.81485
 30
0.0
 11
183.5773
 21
53.81485
 31
0.0
  0
LINE
  5
B1
330
1D
100
AcDbEntity
  8
0
100
AcDbLine
 10
181.4893
 20
53.81485
 30
0.0
 11
182.3023
 21
53.81485
 31
0.0
  0
LINE
  5
B2
330
1D
100
AcDbEntity
  8
0
100
AcDbLine
 10
181.1413
 20
53.81485
 30
0.0
 11
181.4893
 21
53.81485
 31
0.0
  0
LINE
  5
B3
330
1D
100
AcDbEntity
  8
0
100
AcDbLine
 10
181.1413
 20
53.81485
 30
0.0
 11
181.3793
 21
53.81485
 31
0.0
  0
LINE
  5
B4
330
1D
100
AcDbEntity
  8
0
100
AcDbLine
 10
183.9253
 20
53.81485
 30
0.0
 11
184.2193
 21
53.81485
 31
0.0
  0
LINE
  5
B5
330
1D
100
AcDbEntity
  8
0
100
AcDbLine
 10
183.9253
 20
53.81485
 30
0.0
 11
184.3333
 21
53.81485
 31
0.0
  0
LINE
  5
B6
330
1D
100
AcDbEntity
  8
0
100
AcDbLine
 10
186.2073
 20
53.81485
 30
0.0
 11
189.3283
 21
53.81485
 31
0.0
  0
LINE
  5
B7
330
1D
100
AcDbEntity
  8
0
100
AcDbLine
 10
189.3283
 20
53.81485
 30
0.0
 11
193.0173
 21
53.81485
 31
0.0
  0
LINE
  5
B8
330
1D
100
AcDbEntity
  8
0
100
AcDbLine
 10
189.0313
 20
53.81485
 30
0.0
 11
192.1873
 21
53.81485
 31
0.0
  0
LINE
  5
B9
330
1D
100
AcDbEntity
  8
0
100
AcDbLine
 10
185.9593
 20
53.81485
 30
0.0
 11
189.0313
 21
53.81485
 31
0.0
  0
LINE
  5
BA
330
1D
100
AcDbEntity
  8
0
100
AcDbLine
 10
196.6983
 20
53.81485
 30
0.0
 11
200.6273
 21
53.81485
 31
0.0
  0
LINE
  5
BB
330
1D
100
AcDbEntity
  8
0
100
AcDbLine
 10
200.6273
 20
53.81485
 30
0.0
 11
205.4053
 21
53.81485
 31
0.0
  0
LINE
  5
BC
330
1D
100
AcDbEntity
  8
0
100
AcDbLine
 10
198.8273
 20
53.81485
 30
0.0
 11
202.0813
 21
53.81485
 31
0.0
  0
LINE
  5
BD
330
1D
100
AcDbEntity
  8
0
100
AcDbLine
 10
195.6993
 20
53.81485
 30
0.0
 11
198.8273
 21
53.81485
 31
0.0
  0
LINE
  5
BE
330
1D
100
AcDbEntity
  8
0
100
AcDbLine
 10
197.0123
 20
53.81485
 30
0.0
 11
200.9893
 21
53.81485
 31
0.0
  0
LINE
  5
BF
330
1D
100
AcDbEntity
  8
0
100
AcDbLine
 10
193.0173
 20
53.81485
 30
0.0
 11
196.6983
 21
53.81485
 31
0.0
  0
LINE
  5
C0
330
1D
100
AcDbEntity
  8
0
100
AcDbLine
 10
192.1873
 20
53.81485
 30
0.0
 11
195.6993
 21
53.81485
 31
0.0
  0
LINE
  5
C1
330
1D
100
AcDbEntity
  8
0
100
AcDbLine
 10
202.0813
 20
53.81485
 30
0.0
 11
205.3983
 21
53.81485
 31
0.0
  0
LINE
  5
C2
330
1D
100
AcDbEntity
  8
0
100
AcDbLine
 10
206.2393
 20
53.81485
 30
0.0
 11
210.9343
 21
53.81485
 31
0.0
  0
LINE
  5
C3
330
1D
100
AcDbEntity
  8
0
100
AcDbLine
 10
205.4053
 20
53.81485
 30
0.0
 11
209.2053
 21
53.81485
 31
0.0
  0
LINE
  5
C4
330
1D
100
AcDbEntity
  8
0
100
AcDbLine
 10
205.3983
 20
53.81485
 30
0.0
 11
206.2393
 21
53.81485
 31
0.0
  0
LINE
  5
C5
330
1D
100
AcDbEntity
  8
0
100
AcDbLine
 10
205.1253
 20
53.81485
 30
0.0
 11
209.6313
 21
53.81485
 31
0.0
  0
LINE
  5
C6
330
1D
100
AcDbEntity
  8
0
100
AcDbLine
 10
200.9893
 20
53.81485
 30
0.0
 11
205.1253
 21
53.81485
 31
0.0
  0
LINE
  5
C7
330
1D
100
AcDbEntity
  8
0
100
AcDbLine
 10
193.3473
 20
53.81485
 30
0.0
 11
197.0123
 21
53.81485
 31
0.0
  0
LINE
  5
C8
330
1D
100
AcDbEntity
  8
0
100
AcDbLine
 10
190.1343
 20
53.81485
 30
0.0
 11
193.3473
 21
53.81485
 31
0.0
  0
LINE
  5
C9
330
1D
100
AcDbEntity
  8
0
100
AcDbLine
 10
187.4983
 20
53.81485
 30
0.0
 11
190.1343
 21
53.81485
 31
0.0
  0
LINE
  5
CA
330
1D
100
AcDbEntity
  8
0
100
AcDbLine
 10
185.5393
 20
53.81485
 30
0.0
 11
187.4983
 21
53.81485
 31
0.0
  0
LINE
  5
CB
330
1D
100
AcDbEntity
  8
0
100
AcDbLine
 10
184.3333
 20
53.81485
 30
0.0
 11
185.5393
 21
53.81485
 31
0.0
  0
LINE
  5
CC
330
1D
100
AcDbEntity
  8
0
100
AcDbLine
 10
184.2193
 20
53.81485
 30
0.0
 11
185.0923
 21
53.81485
 31
0.0
  0
LINE
  5
CF
330
1D
100
AcDbEntity
  8
0
100
AcDbLine
 10
180.9193
 20
53.86705
 30
0.0
 11
181.1413
 21
53.81485
 31
0.0
  0
LINE
  5
D0
330
1D
100
AcDbEntity
  8
0
100
AcDbLine
 10
185.0923
 20
53.81485
 30
0.0
 11
186.5203
 21
53.81485
 31
0.0
  0
LINE
  5
D1
330
1D
100
AcDbEntity
  8
0
100
AcDbLine
 10
180.7433
 20
54.01285
 30
0.0
 11
180.9193
 21
53.86705
 31
0.0
  0
LINE
  5
D2
330
1D
100
AcDbEntity
  8
0
100
AcDbLine
 10
180.6503
 20
54.22165
 30
0.0
 11
180.7433
 21
54.01285
 31
0.0
  0
LINE
  5
D4
330
1D
100
AcDbEntity
  8
0
100
AcDbLine
 10
209.2053
 20
53.81485
 30
0.0
 11
212.7613
 21
53.81485
 31
0.0
  0
LINE
  5
D5
330
1D
100
AcDbEntity
  8
0
100
AcDbLine
 10
212.7613
 20
53.81485
 30
0.0
 11
216.1503
 21
53.81485
 31
0.0
  0
LINE
  5
D6
330
1D
100
AcDbEntity
  8
0
100
AcDbLine
 10
210.9343
 20
53.81485
 30
0.0
 11
215.4263
 21
53.81485
 31
0.0
  0
LINE
  5
D7
330
1D
100
AcDbEntity
  8
0
100
AcDbLine
 10
221.1453
 20
53.81485
 30
0.0
 11
223.7303
 21
53.81485
 31
0.0
  0
LINE
  5
D8
330
1D
100
AcDbEntity
  8
0
100
AcDbLine
 10
216.1503
 20
53.81485
 30
0.0
 11
220.0133
 21
53.81485
 31
0.0
  0
LINE
  5
D9
330
1D
100
AcDbEntity
  8
0
100
AcDbLine
 10
220.0133
 20
53.81485
 30
0.0
 11
223.3603
 21
53.81485
 31
0.0
  0
LINE
  5
DA
330
1D
100
AcDbEntity
  8
0
100
AcDbLine
 10
223.3603
 20
53.81485
 30
0.0
 11
226.0903
 21
53.81485
 31
0.0
  0
LINE
  5
DB
330
1D
100
AcDbEntity
  8
0
100
AcDbLine
 10
226.0903
 20
53.81485
 30
0.0
 11
228.0893
 21
53.81485
 31
0.0
  0
LINE
  5
DC
330
1D
100
AcDbEntity
  8
0
100
AcDbLine
 10
228.0893
 20
53.81485
 30
0.0
 11
229.2883
 21
53.81485
 31
0.0
  0
LINE
  5
DD
330
1D
100
AcDbEntity
  8
0
100
AcDbLine
 10
229.2883
 20
53.81485
 30
0.0
 11
229.6433
 21
53.81485
 31
0.0
  0
LINE
  5
DE
330
1D
100
AcDbEntity
  8
0
100
AcDbLine
 10
229.1393
 20
53.81485
 30
0.0
 11
229.6433
 21
53.81485
 31
0.0
  0
LINE
  5
DF
330
1D
100
AcDbEntity
  8
0
100
AcDbLine
 10
229.6433
 20
53.81485
 30
0.0
 11
229.9133
 21
53.89425
 31
0.0
  0
LINE
  5
E0
330
1D
100
AcDbEntity
  8
0
100
AcDbLine
 10
227.7963
 20
53.81485
 30
0.0
 11
229.1393
 21
53.81485
 31
0.0
  0
LINE
  5
E1
330
1D
100
AcDbEntity
  8
0
100
AcDbLine
 10
225.6633
 20
53.81485
 30
0.0
 11
227.7963
 21
53.81485
 31
0.0
  0
LINE
  5
E2
330
1D
100
AcDbEntity
  8
0
100
AcDbLine
 10
222.8123
 20
53.81485
 30
0.0
 11
225.6633
 21
53.81485
 31
0.0
  0
LINE
  5
E3
330
1D
100
AcDbEntity
  8
0
100
AcDbLine
 10
219.3663
 20
53.81485
 30
0.0
 11
222.8123
 21
53.81485
 31
0.0
  0
LINE
  5
E4
330
1D
100
AcDbEntity
  8
0
100
AcDbLine
 10
215.4263
 20
53.81485
 30
0.0
 11
219.3663
 21
53.81485
 31
0.0
  0
LINE
  5
E5
330
1D
100
AcDbEntity
  8
0
100
AcDbLine
 10
217.8283
 20
53.81485
 30
0.0
 11
221.1453
 21
53.81485
 31
0.0
  0
LINE
  5
E6
330
1D
100
AcDbEntity
  8
0
100
AcDbLine
 10
213.9303
 20
53.81485
 30
0.0
 11
217.8283
 21
53.81485
 31
0.0
  0
LINE
  5
E7
330
1D
100
AcDbEntity
  8
0
100
AcDbLine
 10
229.9133
 20
53.89425
 30
0.0
 11
230.0983
 21
54.10725
 31
0.0
  0
LINE
  5
E8
330
1D
100
AcDbEntity
  8
0
100
AcDbLine
 10
209.6313
 20
53.81485
 30
0.0
 11
213.9303
 21
53.81485
 31
0.0
  0
LINE
  5
E9
330
1D
100
AcDbEntity
  8
0
100
AcDbLine
 10
230.0983
 20
54.10725
 30
0.0
 11
230.1383
 21
54.38615
 31
0.0
  0
LINE
  5
ED
330
1D
100
AcDbEntity
  8
0
100
AcDbLine
 10
179.5403
 20
58.43405
 30
0.0
 11
180.1683
 21
56.36645
 31
0.0
  0
LINE
  5
EE
330
1D
100
AcDbEntity
  8
0
100
AcDbLine
 10
180.1683
 20
56.36645
 30
0.0
 11
180.6503
 21
54.22165
 31
0.0
  0
LINE
  5
EF
330
1D
100
AcDbEntity
  8
0
100
AcDbLine
 10
178.1313
 20
61.68115
 30
0.0
 11
179.5403
 21
58.43405
 31
0.0
  0
LINE
  5
F0
330
1D
100
AcDbEntity
  8
0
100
AcDbLine
 10
176.2653
 20
64.58425
 30
0.0
 11
178.1313
 21
61.68115
 31
0.0
  0
LINE
  5
F1
330
1D
100
AcDbEntity
  8
0
100
AcDbLine
 10
174.4823
 20
66.50885
 30
0.0
 11
176.276710696384
 21
64.566497377989
 31
0.0
  0
LINE
  5
F2
330
1D
100
AcDbEntity
  8
0
100
AcDbLine
 10
174.4823
 20
66.50885
 30
0.0
 11
176.276710696384
 21
64.566497377989
 31
0.0
  0
LINE
  5
F3
330
1D
100
AcDbEntity
  8
0
100
AcDbLine
 10
166.9383
 20
71.25465
 30
0.0
 11
169.7553
 21
69.90105
 31
0.0
  0
LINE
  5
F4
330
1D
100
AcDbEntity
  8
0
100
AcDbLine
 10
164.0123
 20
72.34175
 30
0.0
 11
166.9383
 21
71.25465
 31
0.0
  0
LINE
  5
F5
330
1D
100
AcDbEntity
  8
0
100
AcDbLine
 10
147.2773
 20
75.35465
 30
0.0
 11
153.0713
 21
74.71205
 31
0.0
  0
LINE
  5
F8
330
1D
100
AcDbEntity
  8
0
100
AcDbLine
 10
141.1773
 20
75.75745
 30
0.0
 11
147.2773
 21
75.35465
 31
0.0
  0
LINE
  5
F9
330
1D
100
AcDbEntity
  8
0
100
AcDbLine
 10
134.8473
 20
75.98425
 30
0.0
 11
141.1773
 21
75.75745
 31
0.0
  0
LINE
  5
FA
330
1D
100
AcDbEntity
  8
0
100
AcDbLine
 10
128.3613
 20
76.09095
 30
0.0
 11
134.8473
 21
75.98425
 31
0.0
  0
LINE
  5
FE
330
1D
100
AcDbEntity
  8
0
100
AcDbLine
 10
153.0713
 20
74.71205
 30
0.0
 11
155.180919111264
 21
74.415887962829
 31
0.0
  0
LINE
  5
FF
330
1D
100
AcDbEntity
  8
0
100
AcDbLine
 10
153.0713
 20
74.71205
 30
0.0
 11
155.180919111264
 21
74.415887962829
 31
0.0
  0
LINE
  5
100
330
1D
100
AcDbEntity
  8
0
100
AcDbLine
 10
157.0713
 20
74.08975
 30
0.0
 11
160.8493
 21
73.25645
 31
0.0
  0
LINE
  5
101
330
1D
100
AcDbEntity
  8
0
100
AcDbLine
 10
160.8493
 20
73.25645
 30
0.0
 11
164.0123
 21
72.34175
 31
0.0
  0
LINE
  5
102
330
1D
100
AcDbEntity
  8
0
100
AcDbLine
 10
169.7553
 20
69.90105
 30
0.0
 11
172.2733
 21
68.32275
 31
0.0
  0
LINE
  5
103
330
1D
100
AcDbEntity
  8
0
100
AcDbLine
 10
172.2733
 20
68.32275
 30
0.0
 11
174.4823
 21
66.50885
 31
0.0
  0
LINE
  5
104
330
1D
100
AcDbEntity
  8
0
100
AcDbLine
 10
126.1253
 20
92.13455
 30
0.0
 11
127.3453
 21
92.13455
 31
0.0
  0
LINE
  5
105
330
1D
100
AcDbEntity
  8
0
100
AcDbLine
 10
126.1253
 20
92.13455
 30
0.0
 11
126.1253
 21
88.89645
 31
0.0
  0
LINE
  5
106
330
1D
100
AcDbEntity
  8
0
100
AcDbLine
 10
127.8133
 20
92.13455
 30
0.0
 11
128.1253
 21
92.73455
 31
0.0
  0
LINE
  5
107
330
1D
100
AcDbEntity
  8
0
100
AcDbLine
 10
126.0973
 20
92.13455
 30
0.0
 11
127.3453
 21
92.13455
 31
0.0
  0
LINE
  5
108
330
1D
100
AcDbEntity
  8
0
100
AcDbLine
 10
111.8493
 20
92.13455
 30
0.0
 11
115.1253
 21
92.13455
 31
0.0
  0
LINE
  5
109
330
1D
100
AcDbEntity
  8
0
100
AcDbLine
 10
108.8333
 20
92.13455
 30
0.0
 11
111.8493
 21
92.13455
 31
0.0
  0
LINE
  5
10A
330
1D
100
AcDbEntity
  8
0
100
AcDbLine
 10
115.1253
 20
92.13455
 30
0.0
 11
118.4013
 21
92.13455
 31
0.0
  0
LINE
  5
10B
330
1D
100
AcDbEntity
  8
0
100
AcDbLine
 10
100.8793
 20
108.09225
 30
0.0
 11
101.1263
 21
107.662693146418
 31
0.0
  0
LINE
  5
10D
330
1D
100
AcDbEntity
  8
0
100
AcDbLine
 10
100.6283
 20
109.03835
 30
0.0
 11
100.9653
 21
110.16075
 31
0.0
  0
LINE
  5
10E
330
1D
100
AcDbEntity
  8
0
100
AcDbLine
 10
100.6283
 20
109.03835
 30
0.0
 11
100.8793
 21
108.09225
 31
0.0
  0
LINE
  5
10F
330
1D
100
AcDbEntity
  8
0
100
AcDbLine
 10
101.1263
 20
109.28235
 30
0.0
 11
101.2053
 21
109.86185
 31
0.0
  0
LINE
  5
110
330
1D
100
AcDbEntity
  8
0
100
AcDbLine
 10
101.1263
 20
109.28235
 30
0.0
 11
101.1263
 21
99.20085
 31
0.0
  0
LINE
  5
111
330
1D
100
AcDbEntity
  8
0
100
AcDbLine
 10
101.3863
 20
97.93225
 30
0.0
 11
101.6873
 21
97.35505
 31
0.0
  0
LINE
  5
112
330
1D
100
AcDbEntity
  8
0
100
AcDbLine
 10
101.1793
 20
98.61985
 30
0.0
 11
101.3863
 21
97.93225
 31
0.0
  0
LINE
  5
113
330
1D
100
AcDbEntity
  8
0
100
AcDbLine
 10
101.1263
 20
99.20085
 30
0.0
 11
101.1793
 21
98.61985
 31
0.0
  0
LINE
  5
114
330
1D
100
AcDbEntity
  8
0
100
AcDbLine
 10
101.1263
 20
99.20085
 30
0.0
 11
101.1263
 21
109.28235
 31
0.0
  0
LINE
  5
115
330
1D
100
AcDbEntity
  8
0
100
AcDbLine
 10
10.9539
 20
129.64825
 30
0.0
 11
11.295522066956
 21
130.107139685966
 31
0.0
  0
LINE
  5
116
330
1D
100
AcDbEntity
  8
0
100
AcDbLine
 10
11.3753
 20
130.25525
 30
0.0
 11
12.0178
 21
130.50465
 31
0.0
  0
LINE
  5
117
330
1D
100
AcDbEntity
  8
0
100
AcDbLine
 10
11.0477
 20
129.64705
 30
0.0
 11
11.3753
 21
130.25525
 31
0.0
  0
LINE
  5
138
330
1D
100
AcDbEntity
  8
0
100
AcDbLine
 10
89.0264
 20
130.816764725962
 30
0.0
 11
89.0264
 21
148.73455
 31
0.0
  0
LINE
  5
139
330
1D
100
AcDbEntity
  8
0
100
AcDbLine
 10
89.0264
 20
148.73455
 30
0.0
 11
89.0937
 21
148.98455
 31
0.0
  0
LINE
  5
13A
330
1D
100
AcDbEntity
  8
0
100
AcDbLine
 10
89.0264
 20
148.73455
 30
0.0
 11
89.0264
 21
130.816764725962
 31
0.0
  0
LINE
  5
13B
330
1D
100
AcDbEntity
  8
0
100
AcDbLine
 10
89.0937
 20
148.98455
 30
0.0
 11
89.2761
 21
149.16755
 31
0.0
  0
LINE
  5
142
330
1D
100
AcDbEntity
  8
0
100
AcDbLine
 10
89.6594
 20
149.43455
 30
0.0
 11
89.7325
 21
149.36135
 31
0.0
  0
LINE
  5
143
330
1D
100
AcDbEntity
  8
0
100
AcDbLine
 10
89.6324
 20
149.53455
 30
0.0
 11
89.6324
 21
150.13455
 31
0.0
  0
LINE
  5
144
330
1D
100
AcDbEntity
  8
0
100
AcDbLine
 10
89.6324
 20
149.53455
 30
0.0
 11
89.6594
 21
149.43455
 31
0.0
  0
LINE
  5
145
330
1D
100
AcDbEntity
  8
0
100
AcDbLine
 10
89.6324
 20
150.13455
 30
0.0
 11
89.6594
 21
150.23455
 31
0.0
  0
LINE
  5
146
330
1D
100
AcDbEntity
  8
0
100
AcDbLine
 10
89.6324
 20
150.13455
 30
0.0
 11
89.6324
 21
149.53455
 31
0.0
  0
LINE
  5
147
330
1D
100
AcDbEntity
  8
0
100
AcDbLine
 10
89.6594
 20
150.23455
 30
0.0
 11
89.7325
 21
150.30775
 31
0.0
  0
LINE
  5
149
330
1D
100
AcDbEntity
  8
0
100
AcDbLine
 10
89.8323
 20
149.33455
 30
0.0
 11
90.0727
 21
149.33455
 31
0.0
  0
LINE
  5
14A
330
1D
100
AcDbEntity
  8
0
100
AcDbLine
 10
89.7325
 20
149.36135
 30
0.0
 11
89.8323
 21
149.33455
 31
0.0
  0
LINE
  5
14B
330
1D
100
AcDbEntity
  8
0
100
AcDbLine
 10
89.7325
 20
150.30775
 30
0.0
 11
89.8323
 21
150.33455
 31
0.0
  0
LINE
  5
14D
330
1D
100
AcDbEntity
  8
0
100
AcDbLine
 10
90.0727
 20
149.33455
 30
0.0
 11
90.6521
 21
149.33455
 31
0.0
  0
LINE
  5
14F
330
1D
100
AcDbEntity
  8
0
100
AcDbLine
 10
90.1118
 20
150.33455
 30
0.0
 11
90.6017
 21
150.44935
 31
0.0
  0
LINE
  5
151
330
1D
100
AcDbEntity
  8
0
100
AcDbLine
 10
90.6521
 20
149.33455
 30
0.0
 11
91.5616
 21
149.33455
 31
0.0
  0
LINE
  5
153
330
1D
100
AcDbEntity
  8
0
100
AcDbLine
 10
90.6017
 20
150.44935
 30
0.0
 11
90.9597
 21
150.76725
 31
0.0
  0
LINE
  5
15B
330
1D
100
AcDbEntity
  8
0
100
AcDbLine
 10
91.3568
 20
149.33455
 30
0.0
 11
91.5784
 21
149.33455
 31
0.0
  0
LINE
  5
15C
330
1D
100
AcDbEntity
  8
0
100
AcDbLine
 10
91.3568
 20
149.33455
 30
0.0
 11
91.4827
 21
149.33455
 31
0.0
  0
LINE
  5
15D
330
1D
100
AcDbEntity
  8
0
100
AcDbLine
 10
91.5784
 20
149.33455
 30
0.0
 11
92.1426
 21
149.33455
 31
0.0
  0
LINE
  5
15E
330
1D
100
AcDbEntity
  8
0
100
AcDbLine
 10
91.4827
 20
149.33455
 30
0.0
 11
91.9527
 21
149.33455
 31
0.0
  0
LINE
  5
15F
330
1D
100
AcDbEntity
  8
0
100
AcDbLine
 10
91.5616
 20
149.33455
 30
0.0
 11
92.791
 21
149.33455
 31
0.0
  0
LINE
  5
160
330
1D
100
AcDbEntity
  8
0
100
AcDbLine
 10
91.9527
 20
149.33455
 30
0.0
 11
92.7609
 21
149.33455
 31
0.0
  0
LINE
  5
162
330
1D
100
AcDbEntity
  8
0
100
AcDbLine
 10
91.1043
 20
151.21555
 30
0.0
 11
91.375233927848
 21
152.78455
 31
0.0
  0
LINE
  5
163
330
1D
100
AcDbEntity
  8
0
100
AcDbLine
 10
92.1426
 20
149.33455
 30
0.0
 11
93.0427
 21
149.33455
 31
0.0
  0
LINE
  5
164
330
1D
100
AcDbEntity
  8
0
100
AcDbLine
 10
93.8956
 20
149.33455
 30
0.0
 11
95.339
 21
149.33455
 31
0.0
  0
LINE
  5
165
330
1D
100
AcDbEntity
  8
0
100
AcDbLine
 10
92.7609
 20
149.33455
 30
0.0
 11
93.8956
 21
149.33455
 31
0.0
  0
LINE
  5
168
330
1D
100
AcDbEntity
  8
0
100
AcDbLine
 10
93.0427
 20
149.33455
 30
0.0
 11
94.2638
 21
149.33455
 31
0.0
  0
LINE
  5
169
330
1D
100
AcDbEntity
  8
0
100
AcDbLine
 10
94.2638
 20
149.33455
 30
0.0
 11
95.7898
 21
149.33455
 31
0.0
  0
LINE
  5
16E
330
1D
100
AcDbEntity
  8
0
100
AcDbLine
 10
90.9597
 20
150.76725
 30
0.0
 11
91.1043
 21
151.21555
 31
0.0
  0
LINE
  5
16F
330
1D
100
AcDbEntity
  8
0
100
AcDbLine
 10
91.7138
 20
152.78455
 30
0.0
 11
93.2522
 21
152.78455
 31
0.0
  0
LINE
  5
170
330
1D
100
AcDbEntity
  8
0
100
AcDbLine
 10
90.5916
 20
152.78455
 30
0.0
 11
91.7138
 21
152.78455
 31
0.0
  0
LINE
  5
171
330
1D
100
AcDbEntity
  8
0
100
AcDbLine
 10
89.9053
 20
152.78455
 30
0.0
 11
90.5916
 21
152.78455
 31
0.0
  0
LINE
  5
172
330
1D
100
AcDbEntity
  8
0
100
AcDbLine
 10
89.6673
 20
152.78455
 30
0.0
 11
89.9053
 21
152.78455
 31
0.0
  0
LINE
  5
173
330
1D
100
AcDbEntity
  8
0
100
AcDbLine
 10
89.0041
 20
152.78455
 30
0.0
 11
89.6673
 21
152.78455
 31
0.0
  0
LINE
  5
17D
330
1D
100
AcDbEntity
  8
0
100
AcDbLine
 10
95.339
 20
149.33455
 30
0.0
 11
97.0719
 21
149.33455
 31
0.0
  0
LINE
  5
17E
330
1D
100
AcDbEntity
  8
0
100
AcDbLine
 10
98.2022
 20
149.33455
 30
0.0
 11
100.5003
 21
149.33455
 31
0.0
  0
LINE
  5
17F
330
1D
100
AcDbEntity
  8
0
100
AcDbLine
 10
99.0673
 20
149.33455
 30
0.0
 11
101.2973
 21
149.33455
 31
0.0
  0
LINE
  5
180
330
1D
100
AcDbEntity
  8
0
100
AcDbLine
 10
97.0719
 20
149.33455
 30
0.0
 11
99.0673
 21
149.33455
 31
0.0
  0
LINE
  5
181
330
1D
100
AcDbEntity
  8
0
100
AcDbLine
 10
95.7898
 20
149.33455
 30
0.0
 11
97.5976
 21
149.33455
 31
0.0
  0
LINE
  5
184
330
1D
100
AcDbEntity
  8
0
100
AcDbLine
 10
97.5976
 20
149.33455
 30
0.0
 11
99.6608
 21
149.33455
 31
0.0
  0
LINE
  5
185
330
1D
100
AcDbEntity
  8
0
100
AcDbLine
 10
99.6608
 20
149.33455
 30
0.0
 11
101.9493
 21
149.33455
 31
0.0
  0
LINE
  5
189
330
1D
100
AcDbEntity
  8
0
100
AcDbLine
 10
101.2973
 20
149.33455
 30
0.0
 11
103.7283
 21
149.33455
 31
0.0
  0
LINE
  5
18A
330
1D
100
AcDbEntity
  8
0
100
AcDbLine
 10
100.5003
 20
149.33455
 30
0.0
 11
102.9963
 21
149.33455
 31
0.0
  0
LINE
  5
18C
330
1D
100
AcDbEntity
  8
0
100
AcDbLine
 10
100.9653
 20
110.16075
 30
0.0
 11
101.6683
 21
110.75895
 31
0.0
  0
LINE
  5
18D
330
1D
100
AcDbEntity
  8
0
100
AcDbLine
 10
100.0566
 20
152.78455
 30
0.0
 11
102.9203
 21
152.78455
 31
0.0
  0
LINE
  5
18E
330
1D
100
AcDbEntity
  8
0
100
AcDbLine
 10
97.4608
 20
152.78455
 30
0.0
 11
100.0566
 21
152.78455
 31
0.0
  0
LINE
  5
18F
330
1D
100
AcDbEntity
  8
0
100
AcDbLine
 10
95.1793
 20
152.78455
 30
0.0
 11
97.4608
 21
152.78455
 31
0.0
  0
LINE
  5
190
330
1D
100
AcDbEntity
  8
0
100
AcDbLine
 10
88.6505
 20
152.93105
 30
0.0
 11
88.7877
 21
152.83475
 31
0.0
  0
LINE
  5
191
330
1D
100
AcDbEntity
  8
0
100
AcDbLine
 10
88.5707
 20
153.04945
 30
0.0
 11
88.6505
 21
152.93105
 31
0.0
  0
LINE
  5
192
330
1D
100
AcDbEntity
  8
0
100
AcDbLine
 10
88.5421
 20
153.09335
 30
0.0
 11
88.5707
 21
153.04945
 31
0.0
  0
LINE
  5
193
330
1D
100
AcDbEntity
  8
0
100
AcDbLine
 10
88.8127
 20
152.82265
 30
0.0
 11
89.0041
 21
152.78455
 31
0.0
  0
LINE
  5
194
330
1D
100
AcDbEntity
  8
0
100
AcDbLine
 10
93.2522
 20
152.78455
 30
0.0
 11
95.1793
 21
152.78455
 31
0.0
  0
LINE
  5
195
330
1D
100
AcDbEntity
  8
0
100
AcDbLine
 10
88.5041
 20
153.28455
 30
0.0
 11
88.5154
 21
157.28755
 31
0.0
  0
LINE
  5
196
330
1D
100
AcDbEntity
  8
0
100
AcDbLine
 10
88.5041
 20
153.28455
 30
0.0
 11
88.5421
 21
153.09335
 31
0.0
  0
LINE
  5
197
330
1D
100
AcDbEntity
  8
0
100
AcDbLine
 10
101.2053
 20
109.86185
 30
0.0
 11
101.4203
 21
110.43535
 31
0.0
  0
LINE
  5
198
330
1D
100
AcDbEntity
  8
0
100
AcDbLine
 10
102.1243
 20
96.79355
 30
0.0
 11
102.6923
 21
96.25335
 31
0.0
  0
LINE
  5
19A
330
1D
100
AcDbEntity
  8
0
100
AcDbLine
 10
101.9493
 20
149.33455
 30
0.0
 11
104.4313
 21
149.33455
 31
0.0
  0
LINE
  5
19C
330
1D
100
AcDbEntity
  8
0
100
AcDbLine
 10
101.6683
 20
110.75895
 30
0.0
 11
103.2683
 21
111.44805
 31
0.0
  0
LINE
  5
19D
330
1D
100
AcDbEntity
  8
0
100
AcDbLine
 10
101.6873
 20
97.35505
 30
0.0
 11
102.1243
 21
96.79355
 31
0.0
  0
LINE
  5
19E
330
1D
100
AcDbEntity
  8
0
100
AcDbLine
 10
101.4203
 20
110.43535
 30
0.0
 11
101.565807504287
 21
110.671736613179
 31
0.0
  0
LINE
  5
19F
330
1D
100
AcDbEntity
  8
0
100
AcDbLine
 10
102.1253
 20
96.792598943662
 30
0.0
 11
102.1253
 21
92.73455
 31
0.0
  0
LINE
  5
1A0
330
1D
100
AcDbEntity
  8
0
100
AcDbLine
 10
102.6923
 20
96.25335
 30
0.0
 11
102.8553
 21
96.12235
 31
0.0
  0
LINE
  5
1A1
330
1D
100
AcDbEntity
  8
0
100
AcDbLine
 10
102.8553
 20
96.12235
 30
0.0
 11
103.5393
 21
95.61575
 31
0.0
  0
LINE
  5
1A2
330
1D
100
AcDbEntity
  8
0
100
AcDbLine
 10
103.5393
 20
95.61575
 30
0.0
 11
104.3403
 21
95.14055
 31
0.0
  0
LINE
  5
1A3
330
1D
100
AcDbEntity
  8
0
100
AcDbLine
 10
103.4733
 20
96.62305
 30
0.0
 11
103.9643
 21
96.11775
 31
0.0
  0
LINE
  5
1A4
330
1D
100
AcDbEntity
  8
0
100
AcDbLine
 10
103.1093
 20
97.14725
 30
0.0
 11
103.4733
 21
96.62305
 31
0.0
  0
LINE
  5
1A5
330
1D
100
AcDbEntity
  8
0
100
AcDbLine
 10
102.8773
 20
97.68455
 30
0.0
 11
103.1093
 21
97.14725
 31
0.0
  0
LINE
  5
1A6
330
1D
100
AcDbEntity
  8
0
100
AcDbLine
 10
102.8163
 20
98.77545
 30
0.0
 11
102.9883
 21
99.31695
 31
0.0
  0
LINE
  5
1A7
330
1D
100
AcDbEntity
  8
0
100
AcDbLine
 10
102.7783
 20
98.22935
 30
0.0
 11
102.8773
 21
97.68455
 31
0.0
  0
LINE
  5
1A8
330
1D
100
AcDbEntity
  8
0
100
AcDbLine
 10
102.7783
 20
98.22935
 30
0.0
 11
102.8163
 21
98.77545
 31
0.0
  0
LINE
  5
1A9
330
1D
100
AcDbEntity
  8
0
100
AcDbLine
 10
105.2493
 20
94.70175
 30
0.0
 11
106.2583
 21
94.30375
 31
0.0
  0
LINE
  5
1AA
330
1D
100
AcDbEntity
  8
0
100
AcDbLine
 10
104.3403
 20
95.14055
 30
0.0
 11
105.2493
 21
94.70175
 31
0.0
  0
LINE
  5
1AB
330
1D
100
AcDbEntity
  8
0
100
AcDbLine
 10
106.2583
 20
94.30375
 30
0.0
 11
107.3563
 21
93.95035
 31
0.0
  0
LINE
  5
1AC
330
1D
100
AcDbEntity
  8
0
100
AcDbLine
 10
106.1453
 20
94.76955
 30
0.0
 11
107.0803
 21
94.39245
 31
0.0
  0
LINE
  5
1AD
330
1D
100
AcDbEntity
  8
0
100
AcDbLine
 10
105.3083
 20
95.18585
 30
0.0
 11
106.1453
 21
94.76955
 31
0.0
  0
LINE
  5
1AE
330
1D
100
AcDbEntity
  8
0
100
AcDbLine
 10
104.5783
 20
95.63695
 30
0.0
 11
105.3083
 21
95.18585
 31
0.0
  0
LINE
  5
1AF
330
1D
100
AcDbEntity
  8
0
100
AcDbLine
 10
103.9643
 20
96.11775
 30
0.0
 11
104.5783
 21
95.63695
 31
0.0
  0
LINE
  5
1B0
330
1D
100
AcDbEntity
  8
0
100
AcDbLine
 10
104.7093
 20
96.70495
 30
0.0
 11
106.6293
 21
95.61365
 31
0.0
  0
LINE
  5
1B1
330
1D
100
AcDbEntity
  8
0
100
AcDbLine
 10
103.5573
 20
97.94035
 30
0.0
 11
104.7093
 21
96.70495
 31
0.0
  0
LINE
  5
1B2
330
1D
100
AcDbEntity
  8
0
100
AcDbLine
 10
102.9963
 20
149.33455
 30
0.0
 11
105.6553
 21
149.33455
 31
0.0
  0
LINE
  5
1B4
330
1D
100
AcDbEntity
  8
0
100
AcDbLine
 10
102.9883
 20
99.31695
 30
0.0
 11
103.2933
 21
99.84785
 31
0.0
  0
LINE
  5
1B5
330
1D
100
AcDbEntity
  8
0
100
AcDbLine
 10
103.2933
 20
99.84785
 30
0.0
 11
103.7283
 21
100.36225
 31
0.0
  0
LINE
  5
1B6
330
1D
100
AcDbEntity
  8
0
100
AcDbLine
 10
103.7283
 20
100.36225
 30
0.0
 11
104.2873
 21
100.85475
 31
0.0
  0
LINE
  5
1B7
330
1D
100
AcDbEntity
  8
0
100
AcDbLine
 10
103.7283
 20
149.33455
 30
0.0
 11
106.3263
 21
149.33455
 31
0.0
  0
LINE
  5
1B9
330
1D
100
AcDbEntity
  8
0
100
AcDbLine
 10
104.4313
 20
149.33455
 30
0.0
 11
106.4693
 21
149.33455
 31
0.0
  0
LINE
  5
1BB
330
1D
100
AcDbEntity
  8
0
100
AcDbLine
 10
105.6553
 20
149.33455
 30
0.0
 11
106.4693
 21
149.33455
 31
0.0
  0
LINE
  5
1BD
330
1D
100
AcDbEntity
  8
0
100
AcDbLine
 10
105.4763
 20
112.02285
 30
0.0
 11
108.1733
 21
112.49235
 31
0.0
  0
LINE
  5
1BE
330
1D
100
AcDbEntity
  8
0
100
AcDbLine
 10
103.2683
 20
111.44805
 30
0.0
 11
105.4763
 21
112.02285
 31
0.0
  0
LINE
  5
1BF
330
1D
100
AcDbEntity
  8
0
100
AcDbLine
 10
104.9653
 20
101.31995
 30
0.0
 11
105.7553
 21
101.75245
 31
0.0
  0
LINE
  5
1C2
330
1D
100
AcDbEntity
  8
0
100
AcDbLine
 10
106.3263
 20
149.33455
 30
0.0
 11
106.4693
 21
149.33455
 31
0.0
  0
LINE
  5
1C4
330
1D
100
AcDbEntity
  8
0
100
AcDbLine
 10
105.7553
 20
101.75245
 30
0.0
 11
106.6473
 21
102.14775
 31
0.0
  0
LINE
  5
1C5
330
1D
100
AcDbEntity
  8
0
100
AcDbLine
 10
104.2873
 20
100.85475
 30
0.0
 11
104.9653
 21
101.31995
 31
0.0
  0
LINE
  5
1C6
330
1D
100
AcDbEntity
  8
0
100
AcDbLine
 10
103.1253
 20
99.555419836066
 30
0.0
 11
103.1253
 21
99.25815
 31
0.0
  0
LINE
  5
1C7
330
1D
100
AcDbEntity
  8
0
100
AcDbLine
 10
103.1253
 20
99.25815
 30
0.0
 11
103.1253
 21
99.555419836066
 31
0.0
  0
LINE
  5
1C8
330
1D
100
AcDbEntity
  8
0
100
AcDbLine
 10
103.1253
 20
99.25815
 30
0.0
 11
103.334640975015
 21
99.896736890915
 31
0.0
  0
LINE
  5
1C9
330
1D
100
AcDbEntity
  8
0
100
AcDbLine
 10
103.1253
 20
99.25815
 30
0.0
 11
103.5573
 21
97.94035
 31
0.0
  0
LINE
  5
1CA
330
1D
100
AcDbEntity
  8
0
100
AcDbLine
 10
106.5183
 20
145.44585
 30
0.0
 11
106.6533
 21
145.27345
 31
0.0
  0
LINE
  5
1CB
330
1D
100
AcDbEntity
  8
0
100
AcDbLine
 10
106.4693
 20
145.65705
 30
0.0
 11
106.5183
 21
145.44585
 31
0.0
  0
LINE
  5
1CC
330
1D
100
AcDbEntity
  8
0
100
AcDbLine
 10
106.4693
 20
145.65705
 30
0.0
 11
106.4693
 21
151.09815
 31
0.0
  0
LINE
  5
1CD
330
1D
100
AcDbEntity
  8
0
100
AcDbLine
 10
106.4693
 20
151.09815
 30
0.0
 11
106.5263
 21
151.32735
 31
0.0
  0
LINE
  5
1CE
330
1D
100
AcDbEntity
  8
0
100
AcDbLine
 10
106.4693
 20
151.09815
 30
0.0
 11
106.4693
 21
145.65705
 31
0.0
  0
LINE
  5
1CF
330
1D
100
AcDbEntity
  8
0
100
AcDbLine
 10
106.6473
 20
102.14775
 30
0.0
 11
107.6323
 21
102.50145
 31
0.0
  0
LINE
  5
1D0
330
1D
100
AcDbEntity
  8
0
100
AcDbLine
 10
106.6293
 20
95.61365
 30
0.0
 11
109.1733
 21
94.79005
 31
0.0
  0
LINE
  5
1D1
330
1D
100
AcDbEntity
  8
0
100
AcDbLine
 10
106.8503
 20
145.17475
 30
0.0
 11
107.0483
 21
145.07615
 31
0.0
  0
LINE
  5
1D3
330
1D
100
AcDbEntity
  8
0
100
AcDbLine
 10
107.0803
 20
94.39245
 30
0.0
 11
108.1043
 21
94.05885
 31
0.0
  0
LINE
  5
1D4
330
1D
100
AcDbEntity
  8
0
100
AcDbLine
 10
107.2443
 20
144.69245
 30
0.0
 11
107.2443
 21
135.49245
 31
0.0
  0
LINE
  5
1D5
330
1D
100
AcDbEntity
  8
0
100
AcDbLine
 10
107.3563
 20
93.95035
 30
0.0
 11
107.7153
 21
93.83945
 31
0.0
  0
LINE
  5
1D8
330
1D
100
AcDbEntity
  8
0
100
AcDbLine
 10
107.6323
 20
102.50145
 30
0.0
 11
108.6993
 21
102.80985
 31
0.0
  0
LINE
  5
1D9
330
1D
100
AcDbEntity
  8
0
100
AcDbLine
 10
107.7153
 20
93.83945
 30
0.0
 11
108.8373
 21
93.54875
 31
0.0
  0
LINE
  5
1DA
330
1D
100
AcDbEntity
  8
0
100
AcDbLine
 10
107.5513
 20
135.19345
 30
0.0
 11
107.6733
 21
135.19345
 31
0.0
  0
LINE
  5
1DC
330
1D
100
AcDbEntity
  8
0
100
AcDbLine
 10
108.1733
 20
112.49235
 30
0.0
 11
111.2443
 21
112.81615
 31
0.0
  0
LINE
  5
1DD
330
1D
100
AcDbEntity
  8
0
100
AcDbLine
 10
108.1043
 20
94.05885
 30
0.0
 11
109.2043
 21
93.77215
 31
0.0
  0
LINE
  5
1DE
330
1D
100
AcDbEntity
  8
0
100
AcDbLine
 10
108.2483
 20
135.19345
 30
0.0
 11
108.7033
 21
135.19345
 31
0.0
  0
LINE
  5
1E1
330
1D
100
AcDbEntity
  8
0
100
AcDbLine
 10
108.2913
 20
135.19345
 30
0.0
 11
108.4623
 21
135.19345
 31
0.0
  0
LINE
  5
1E2
330
1D
100
AcDbEntity
  8
0
100
AcDbLine
 10
107.9123
 20
135.19345
 30
0.0
 11
108.2653
 21
135.19345
 31
0.0
  0
LINE
  5
1E3
330
1D
100
AcDbEntity
  8
0
100
AcDbLine
 10
107.8993
 20
135.19345
 30
0.0
 11
108.2483
 21
135.19345
 31
0.0
  0
LINE
  5
1E4
330
1D
100
AcDbEntity
  8
0
100
AcDbLine
 10
108.2493
 20
135.19345
 30
0.0
 11
108.3333
 21
135.19345
 31
0.0
  0
LINE
  5
1E5
330
1D
100
AcDbEntity
  8
0
100
AcDbLine
 10
108.4623
 20
135.19345
 30
0.0
 11
108.7563
 21
135.19345
 31
0.0
  0
LINE
  5
1E7
330
1D
100
AcDbEntity
  8
0
100
AcDbLine
 10
108.6993
 20
102.80985
 30
0.0
 11
109.8373
 21
103.06925
 31
0.0
  0
LINE
  5
1E8
330
1D
100
AcDbEntity
  8
0
100
AcDbLine
 10
108.8373
 20
93.54875
 30
0.0
 11
109.9173
 21
93.32575
 31
0.0
  0
LINE
  5
1E9
330
1D
100
AcDbEntity
  8
0
100
AcDbLine
 10
108.8143
 20
130.739771510195
 30
0.0
 11
108.8143
 21
135.19345
 31
0.0
  0
LINE
  5
1EA
330
1D
100
AcDbEntity
  8
0
100
AcDbLine
 10
108.8143
 20
135.19345
 30
0.0
 11
108.8143
 21
130.739771510195
 31
0.0
  0
LINE
  5
1EB
330
1D
100
AcDbEntity
  8
0
100
AcDbLine
 10
109.2043
 20
93.77215
 30
0.0
 11
110.3703
 21
93.53575
 31
0.0
  0
LINE
  5
1EC
330
1D
100
AcDbEntity
  8
0
100
AcDbLine
 10
109.9173
 20
93.32575
 30
0.0
 11
111.0423
 21
93.14565
 31
0.0
  0
LINE
  5
1ED
330
1D
100
AcDbEntity
  8
0
100
AcDbLine
 10
109.8373
 20
103.06925
 30
0.0
 11
111.0333
 21
103.27695
 31
0.0
  0
LINE
  5
1F6
330
1D
100
AcDbEntity
  8
0
100
AcDbLine
 10
109.1733
 20
94.79005
 30
0.0
 11
112.0533
 21
94.29585
 31
0.0
  0
LINE
  5
1F7
330
1D
100
AcDbEntity
  8
0
100
AcDbLine
 10
109.1683
 20
135.19345
 30
0.0
 11
109.6923
 21
135.19345
 31
0.0
  0
LINE
  5
1F8
330
1D
100
AcDbEntity
  8
0
100
AcDbLine
 10
109.6923
 20
135.19345
 30
0.0
 11
110.3163
 21
135.19345
 31
0.0
  0
LINE
  5
1F9
330
1D
100
AcDbEntity
  8
0
100
AcDbLine
 10
110.3703
 20
93.53575
 30
0.0
 11
111.5873
 21
93.35195
 31
0.0
  0
LINE
  5
1FB
330
1D
100
AcDbEntity
  8
0
100
AcDbLine
 10
111.0423
 20
93.14565
 30
0.0
 11
112.2013
 21
93.00965
 31
0.0
  0
LINE
  5
1FC
330
1D
100
AcDbEntity
  8
0
100
AcDbLine
 10
111.2443
 20
112.81615
 30
0.0
 11
113.1663
 21
112.91925
 31
0.0
  0
LINE
  5
1FD
330
1D
100
AcDbEntity
  8
0
100
AcDbLine
 10
111.0333
 20
103.27695
 30
0.0
 11
112.2733
 21
103.43075
 31
0.0
  0
LINE
  5
1FF
330
1D
100
AcDbEntity
  8
0
100
AcDbLine
 10
111.5873
 20
93.35195
 30
0.0
 11
112.8433
 21
93.22305
 31
0.0
  0
LINE
  5
201
330
1D
100
AcDbEntity
  8
0
100
AcDbLine
 10
113.3843
 20
92.91925
 30
0.0
 11
114.2433
 21
92.88355
 31
0.0
  0
LINE
  5
202
330
1D
100
AcDbEntity
  8
0
100
AcDbLine
 10
114.1243
 20
93.15035
 30
0.0
 11
115.4163
 21
93.13465
 31
0.0
  0
LINE
  5
203
330
1D
100
AcDbEntity
  8
0
100
AcDbLine
 10
112.8433
 20
93.22305
 30
0.0
 11
114.1243
 21
93.15035
 31
0.0
  0
LINE
  5
204
330
1D
100
AcDbEntity
  8
0
100
AcDbLine
 10
112.2013
 20
93.00965
 30
0.0
 11
113.3843
 21
92.91925
 31
0.0
  0
LINE
  5
206
330
1D
100
AcDbEntity
  8
0
100
AcDbLine
 10
114.2433
 20
92.88355
 30
0.0
 11
115.6283
 21
92.87765
 31
0.0
  0
LINE
  5
207
330
1D
100
AcDbEntity
  8
0
100
AcDbLine
 10
112.2733
 20
103.43075
 30
0.0
 11
113.5443
 21
103.52895
 31
0.0
  0
LINE
  5
208
330
1D
100
AcDbEntity
  8
0
100
AcDbLine
 10
113.5443
 20
103.52895
 30
0.0
 11
114.8343
 21
103.57045
 31
0.0
  0
LINE
  5
209
330
1D
100
AcDbEntity
  8
0
100
AcDbLine
 10
113.1663
 20
112.91925
 30
0.0
 11
115.1253
 21
112.95305
 31
0.0
  0
LINE
  5
211
330
1D
100
AcDbEntity
  8
0
100
AcDbLine
 10
112.0533
 20
94.29585
 30
0.0
 11
115.1253
 21
94.11055
 31
0.0
  0
LINE
  5
212
330
1D
100
AcDbEntity
  8
0
100
AcDbLine
 10
115.4163
 20
93.13465
 30
0.0
 11
116.7063
 21
93.17605
 31
0.0
  0
LINE
  5
213
330
1D
100
AcDbEntity
  8
0
100
AcDbLine
 10
115.6283
 20
92.87765
 30
0.0
 11
116.4533
 21
92.89695
 31
0.0
  0
LINE
  5
214
330
1D
100
AcDbEntity
  8
0
100
AcDbLine
 10
114.8343
 20
103.57045
 30
0.0
 11
116.1263
 21
103.55475
 31
0.0
  0
LINE
  5
216
330
1D
100
AcDbEntity
  8
0
100
AcDbLine
 10
115.1253
 20
112.95305
 30
0.0
 11
118.2553
 21
112.86545
 31
0.0
  0
LINE
  5
21B
330
1D
100
AcDbEntity
  8
0
100
AcDbLine
 10
115.1253
 20
94.11055
 30
0.0
 11
118.1973
 21
94.29585
 31
0.0
  0
LINE
  5
21C
330
1D
100
AcDbEntity
  8
0
100
AcDbLine
 10
116.1263
 20
103.55475
 30
0.0
 11
117.4073
 21
103.48205
 31
0.0
  0
LINE
  5
21D
330
1D
100
AcDbEntity
  8
0
100
AcDbLine
 10
116.7063
 20
93.17605
 30
0.0
 11
117.9773
 21
93.27435
 31
0.0
  0
LINE
  5
221
330
1D
100
AcDbEntity
  8
0
100
AcDbLine
 10
117.4073
 20
103.48205
 30
0.0
 11
118.6633
 21
103.35315
 31
0.0
  0
LINE
  5
223
330
1D
100
AcDbEntity
  8
0
100
AcDbLine
 10
117.9773
 20
93.27435
 30
0.0
 11
119.2173
 21
93.42805
 31
0.0
  0
LINE
  5
225
330
1D
100
AcDbEntity
  8
0
100
AcDbLine
 10
118.1593
 20
93.02055
 30
0.0
 11
119.4223
 21
93.17605
 31
0.0
  0
LINE
  5
227
330
1D
100
AcDbEntity
  8
0
100
AcDbLine
 10
116.8663
 20
92.91925
 30
0.0
 11
118.1593
 21
93.02055
 31
0.0
  0
LINE
  5
228
330
1D
100
AcDbEntity
  8
0
100
AcDbLine
 10
116.4533
 20
92.89695
 30
0.0
 11
116.8663
 21
92.91925
 31
0.0
  0
LINE
  5
229
330
1D
100
AcDbEntity
  8
0
100
AcDbLine
 10
118.2553
 20
112.86545
 30
0.0
 11
121.3193
 21
112.59125
 31
0.0
  0
LINE
  5
22B
330
1D
100
AcDbEntity
  8
0
100
AcDbLine
 10
118.1973
 20
94.29585
 30
0.0
 11
121.0773
 21
94.79005
 31
0.0
  0
LINE
  5
22D
330
1D
100
AcDbEntity
  8
0
100
AcDbLine
 10
117.5823
 20
135.19345
 30
0.0
 11
118.4323
 21
135.19345
 31
0.0
  0
LINE
  5
22E
330
1D
100
AcDbEntity
  8
0
100
AcDbLine
 10
116.6873
 20
135.19345
 30
0.0
 11
117.5823
 21
135.19345
 31
0.0
  0
LINE
  5
22F
330
1D
100
AcDbEntity
  8
0
100
AcDbLine
 10
118.6633
 20
103.35315
 30
0.0
 11
119.8803
 21
103.16935
 31
0.0
  0
LINE
  5
230
330
1D
100
AcDbEntity
  8
0
100
AcDbLine
 10
119.2173
 20
93.42805
 30
0.0
 11
120.4133
 21
93.63575
 31
0.0
  0
LINE
  5
236
330
1D
100
AcDbEntity
  8
0
100
AcDbLine
 10
119.8803
 20
103.16935
 30
0.0
 11
121.0463
 21
102.93295
 31
0.0
  0
LINE
  5
238
330
1D
100
AcDbEntity
  8
0
100
AcDbLine
 10
119.4223
 20
93.17605
 30
0.0
 11
120.6423
 21
93.38435
 31
0.0
  0
LINE
  5
239
330
1D
100
AcDbEntity
  8
0
100
AcDbLine
 10
120.4133
 20
93.63575
 30
0.0
 11
121.5513
 21
93.89525
 31
0.0
  0
LINE
  5
23C
330
1D
100
AcDbEntity
  8
0
100
AcDbLine
 10
121.0463
 20
102.93295
 30
0.0
 11
122.1463
 21
102.64625
 31
0.0
  0
LINE
  5
23D
330
1D
100
AcDbEntity
  8
0
100
AcDbLine
 10
120.6423
 20
93.38435
 30
0.0
 11
121.8063
 21
93.64325
 31
0.0
  0
LINE
  5
23E
330
1D
100
AcDbEntity
  8
0
100
AcDbLine
 10
121.3193
 20
112.59125
 30
0.0
 11
124.1183
 21
112.15575
 31
0.0
  0
LINE
  5
23F
330
1D
100
AcDbEntity
  8
0
100
AcDbLine
 10
121.0773
 20
94.79005
 30
0.0
 11
123.6213
 21
95.61365
 31
0.0
  0
LINE
  5
242
330
1D
100
AcDbEntity
  8
0
100
AcDbLine
 10
120.5583
 20
135.19345
 30
0.0
 11
121.0823
 21
135.19345
 31
0.0
  0
LINE
  5
243
330
1D
100
AcDbEntity
  8
0
100
AcDbLine
 10
121.0823
 20
135.19345
 30
0.0
 11
121.4943
 21
135.19345
 31
0.0
  0
LINE
  5
244
330
1D
100
AcDbEntity
  8
0
100
AcDbLine
 10
119.9343
 20
135.19345
 30
0.0
 11
120.5583
 21
135.19345
 31
0.0
  0
LINE
  5
245
330
1D
100
AcDbEntity
  8
0
100
AcDbLine
 10
119.2223
 20
135.19345
 30
0.0
 11
119.9343
 21
135.19345
 31
0.0
  0
LINE
  5
246
330
1D
100
AcDbEntity
  8
0
100
AcDbLine
 10
118.4323
 20
135.19345
 30
0.0
 11
119.2223
 21
135.19345
 31
0.0
  0
LINE
  5
247
330
1D
100
AcDbEntity
  8
0
100
AcDbLine
 10
118.7743
 20
135.19345
 30
0.0
 11
119.5783
 21
135.19345
 31
0.0
  0
LINE
  5
248
330
1D
100
AcDbEntity
  8
0
100
AcDbLine
 10
115.7623
 20
135.19345
 30
0.0
 11
116.6873
 21
135.19345
 31
0.0
  0
LINE
  5
249
330
1D
100
AcDbEntity
  8
0
100
AcDbLine
 10
115.1253
 20
135.19345
 30
0.0
 11
115.7623
 21
135.19345
 31
0.0
  0
LINE
  5
24A
330
1D
100
AcDbEntity
  8
0
100
AcDbLine
 10
114.4883
 20
135.19345
 30
0.0
 11
115.1253
 21
135.19345
 31
0.0
  0
LINE
  5
24B
330
1D
100
AcDbEntity
  8
0
100
AcDbLine
 10
112.6683
 20
135.19345
 30
0.0
 11
113.5633
 21
135.19345
 31
0.0
  0
LINE
  5
24C
330
1D
100
AcDbEntity
  8
0
100
AcDbLine
 10
111.8183
 20
135.19345
 30
0.0
 11
112.6683
 21
135.19345
 31
0.0
  0
LINE
  5
24D
330
1D
100
AcDbEntity
  8
0
100
AcDbLine
 10
113.5633
 20
135.19345
 30
0.0
 11
114.4883
 21
135.19345
 31
0.0
  0
LINE
  5
24E
330
1D
100
AcDbEntity
  8
0
100
AcDbLine
 10
111.0283
 20
135.19345
 30
0.0
 11
111.8183
 21
135.19345
 31
0.0
  0
LINE
  5
24F
330
1D
100
AcDbEntity
  8
0
100
AcDbLine
 10
110.6723
 20
135.19345
 30
0.0
 11
111.4763
 21
135.19345
 31
0.0
  0
LINE
  5
250
330
1D
100
AcDbEntity
  8
0
100
AcDbLine
 10
110.3163
 20
135.19345
 30
0.0
 11
111.0283
 21
135.19345
 31
0.0
  0
LINE
  5
251
330
1D
100
AcDbEntity
  8
0
100
AcDbLine
 10
108.7563
 20
135.19345
 30
0.0
 11
109.1683
 21
135.19345
 31
0.0
  0
LINE
  5
252
330
1D
100
AcDbEntity
  8
0
100
AcDbLine
 10
108.5433
 20
135.19345
 30
0.0
 11
108.8143
 21
135.19345
 31
0.0
  0
LINE
  5
253
330
1D
100
AcDbEntity
  8
0
100
AcDbLine
 10
108.7033
 20
135.19345
 30
0.0
 11
108.8143
 21
135.19345
 31
0.0
  0
LINE
  5
254
330
1D
100
AcDbEntity
  8
0
100
AcDbLine
 10
108.3333
 20
135.19345
 30
0.0
 11
108.5433
 21
135.19345
 31
0.0
  0
LINE
  5
255
330
1D
100
AcDbEntity
  8
0
100
AcDbLine
 10
107.6653
 20
135.19345
 30
0.0
 11
107.8993
 21
135.19345
 31
0.0
  0
LINE
  5
256
330
1D
100
AcDbEntity
  8
0
100
AcDbLine
 10
107.5493
 20
135.19345
 30
0.0
 11
107.6653
 21
135.19345
 31
0.0
  0
LINE
  5
257
330
1D
100
AcDbEntity
  8
0
100
AcDbLine
 10
107.2853
 20
135.34295
 30
0.0
 11
107.3973
 21
135.23435
 31
0.0
  0
LINE
  5
258
330
1D
100
AcDbEntity
  8
0
100
AcDbLine
 10
107.3973
 20
135.23435
 30
0.0
 11
107.5493
 21
135.19345
 31
0.0
  0
LINE
  5
259
330
1D
100
AcDbEntity
  8
0
100
AcDbLine
 10
107.2443
 20
135.49245
 30
0.0
 11
107.2853
 21
135.34295
 31
0.0
  0
LINE
  5
25A
330
1D
100
AcDbEntity
  8
0
100
AcDbLine
 10
107.2443
 20
135.49245
 30
0.0
 11
107.2443
 21
144.69245
 31
0.0
  0
LINE
  5
25B
330
1D
100
AcDbEntity
  8
0
100
AcDbLine
 10
107.1853
 20
144.90475
 30
0.0
 11
107.2443
 21
144.69245
 31
0.0
  0
LINE
  5
25C
330
1D
100
AcDbEntity
  8
0
100
AcDbLine
 10
107.0483
 20
145.07615
 30
0.0
 11
107.1853
 21
144.90475
 31
0.0
  0
LINE
  5
25D
330
1D
100
AcDbEntity
  8
0
100
AcDbLine
 10
106.6533
 20
145.27345
 30
0.0
 11
106.8503
 21
145.17475
 31
0.0
  0
LINE
  5
25E
330
1D
100
AcDbEntity
  8
0
100
AcDbLine
 10
106.5263
 20
151.32735
 30
0.0
 11
106.6853
 21
151.50575
 31
0.0
  0
LINE
  5
25F
330
1D
100
AcDbEntity
  8
0
100
AcDbLine
 10
103.5753
 20
152.78455
 30
0.0
 11
106.3053
 21
152.78455
 31
0.0
  0
LINE
  5
260
330
1D
100
AcDbEntity
  8
0
100
AcDbLine
 10
105.8003
 20
152.78455
 30
0.0
 11
108.8263
 21
152.78455
 31
0.0
  0
LINE
  5
261
330
1D
100
AcDbEntity
  8
0
100
AcDbLine
 10
102.9203
 20
152.78455
 30
0.0
 11
105.8003
 21
152.78455
 31
0.0
  0
LINE
  5
262
330
1D
100
AcDbEntity
  8
0
100
AcDbLine
 10
120.6173
 20
151.89335
 30
0.0
 11
123.3413
 21
151.59245
 31
0.0
  0
LINE
  5
26A
330
1D
100
AcDbEntity
  8
0
100
AcDbLine
 10
109.1583
 20
152.78455
 30
0.0
 11
112.1003
 21
152.78455
 31
0.0
  0
LINE
  5
26B
330
1D
100
AcDbEntity
  8
0
100
AcDbLine
 10
112.1003
 20
152.78455
 30
0.0
 11
115.1253
 21
152.78455
 31
0.0
  0
LINE
  5
26C
330
1D
100
AcDbEntity
  8
0
100
AcDbLine
 10
111.9513
 20
152.78455
 30
0.0
 11
115.1253
 21
152.78455
 31
0.0
  0
LINE
  5
26D
330
1D
100
AcDbEntity
  8
0
100
AcDbLine
 10
114.5333
 20
157.22755
 30
0.0
 11
115.1253
 21
157.15055
 31
0.0
  0
LINE
  5
26E
330
1D
100
AcDbEntity
  8
0
100
AcDbLine
 10
113.9793
 20
157.45055
 30
0.0
 11
114.5333
 21
157.22755
 31
0.0
  0
LINE
  5
26F
330
1D
100
AcDbEntity
  8
0
100
AcDbLine
 10
108.8263
 20
152.78455
 30
0.0
 11
111.9513
 21
152.78455
 31
0.0
  0
LINE
  5
270
330
1D
100
AcDbEntity
  8
0
100
AcDbLine
 10
115.1253
 20
157.15055
 30
0.0
 11
115.7173
 21
157.22755
 31
0.0
  0
LINE
  5
271
330
1D
100
AcDbEntity
  8
0
100
AcDbLine
 10
115.1253
 20
152.78455
 30
0.0
 11
118.4403
 21
152.78455
 31
0.0
  0
LINE
  5
272
330
1D
100
AcDbEntity
  8
0
100
AcDbLine
 10
115.7173
 20
157.22755
 30
0.0
 11
116.3723
 21
157.50955
 31
0.0
  0
LINE
  5
273
330
1D
100
AcDbEntity
  8
0
100
AcDbLine
 10
116.3723
 20
157.50955
 30
0.0
 11
117.1323
 21
158.21355
 31
0.0
  0
LINE
  5
274
330
1D
100
AcDbEntity
  8
0
100
AcDbLine
 10
118.4403
 20
152.78455
 30
0.0
 11
121.7003
 21
152.78455
 31
0.0
  0
LINE
  5
276
330
1D
100
AcDbEntity
  8
0
100
AcDbLine
 10
106.9093
 20
151.59245
 30
0.0
 11
109.6333
 21
151.89335
 31
0.0
  0
LINE
  5
277
330
1D
100
AcDbEntity
  8
0
100
AcDbLine
 10
106.6853
 20
151.50575
 30
0.0
 11
106.9093
 21
151.59245
 31
0.0
  0
LINE
  5
278
330
1D
100
AcDbEntity
  8
0
100
AcDbLine
 10
102.1253
 20
92.73455
 30
0.0
 11
102.4373
 21
92.13455
 31
0.0
  0
LINE
  5
279
330
1D
100
AcDbEntity
  8
0
100
AcDbLine
 10
102.1253
 20
92.73455
 30
0.0
 11
102.1253
 21
96.792598943662
 31
0.0
  0
LINE
  5
27A
330
1D
100
AcDbEntity
  8
0
100
AcDbLine
 10
118.4013
 20
92.13455
 30
0.0
 11
121.4173
 21
92.13455
 31
0.0
  0
LINE
  5
27E
330
1D
100
AcDbEntity
  8
0
100
AcDbLine
 10
121.4363
 20
130.739771510195
 30
0.0
 11
121.4363
 21
135.19345
 31
0.0
  0
LINE
  5
27F
330
1D
100
AcDbEntity
  8
0
100
AcDbLine
 10
121.4943
 20
135.19345
 30
0.0
 11
121.7883
 21
135.19345
 31
0.0
  0
LINE
  5
280
330
1D
100
AcDbEntity
  8
0
100
AcDbLine
 10
121.5513
 20
93.89525
 30
0.0
 11
122.6183
 21
94.20365
 31
0.0
  0
LINE
  5
281
330
1D
100
AcDbEntity
  8
0
100
AcDbLine
 10
121.5473
 20
135.19345
 30
0.0
 11
122.0023
 21
135.19345
 31
0.0
  0
LINE
  5
282
330
1D
100
AcDbEntity
  8
0
100
AcDbLine
 10
121.4363
 20
135.19345
 30
0.0
 11
121.7073
 21
135.19345
 31
0.0
  0
LINE
  5
283
330
1D
100
AcDbEntity
  8
0
100
AcDbLine
 10
121.4363
 20
135.19345
 30
0.0
 11
121.5473
 21
135.19345
 31
0.0
  0
LINE
  5
284
330
1D
100
AcDbEntity
  8
0
100
AcDbLine
 10
121.4363
 20
135.19345
 30
0.0
 11
121.4363
 21
130.739771510195
 31
0.0
  0
LINE
  5
285
330
1D
100
AcDbEntity
  8
0
100
AcDbLine
 10
121.8063
 20
93.64325
 30
0.0
 11
122.9033
 21
93.95005
 31
0.0
  0
LINE
  5
286
330
1D
100
AcDbEntity
  8
0
100
AcDbLine
 10
122.1463
 20
102.64625
 30
0.0
 11
123.1703
 21
102.31265
 31
0.0
  0
LINE
  5
287
330
1D
100
AcDbEntity
  8
0
100
AcDbLine
 10
122.0023
 20
135.19345
 30
0.0
 11
122.3513
 21
135.19345
 31
0.0
  0
LINE
  5
288
330
1D
100
AcDbEntity
  8
0
100
AcDbLine
 10
122.3513
 20
135.19345
 30
0.0
 11
122.5853
 21
135.19345
 31
0.0
  0
LINE
  5
289
330
1D
100
AcDbEntity
  8
0
100
AcDbLine
 10
122.6183
 20
94.20365
 30
0.0
 11
123.6033
 21
94.55735
 31
0.0
  0
LINE
  5
28A
330
1D
100
AcDbEntity
  8
0
100
AcDbLine
 10
122.9033
 20
93.95005
 30
0.0
 11
123.2603
 21
94.06015
 31
0.0
  0
LINE
  5
28B
330
1D
100
AcDbEntity
  8
0
100
AcDbLine
 10
123.2603
 20
94.06015
 30
0.0
 11
124.3303
 21
94.42845
 31
0.0
  0
LINE
  5
28C
330
1D
100
AcDbEntity
  8
0
100
AcDbLine
 10
123.6033
 20
94.55735
 30
0.0
 11
124.4953
 21
94.95265
 31
0.0
  0
LINE
  5
28D
330
1D
100
AcDbEntity
  8
0
100
AcDbLine
 10
125.2853
 20
95.38515
 30
0.0
 11
125.9633
 21
95.85025
 31
0.0
  0
LINE
  5
28E
330
1D
100
AcDbEntity
  8
0
100
AcDbLine
 10
124.4953
 20
94.95265
 30
0.0
 11
125.2853
 21
95.38515
 31
0.0
  0
LINE
  5
28F
330
1D
100
AcDbEntity
  8
0
100
AcDbLine
 10
124.3303
 20
94.42845
 30
0.0
 11
125.3083
 21
94.84015
 31
0.0
  0
LINE
  5
290
330
1D
100
AcDbEntity
  8
0
100
AcDbLine
 10
125.3083
 20
94.84015
 30
0.0
 11
126.1833
 21
95.29135
 31
0.0
  0
LINE
  5
291
330
1D
100
AcDbEntity
  8
0
100
AcDbLine
 10
123.6213
 20
95.61365
 30
0.0
 11
125.5413
 21
96.70495
 31
0.0
  0
LINE
  5
292
330
1D
100
AcDbEntity
  8
0
100
AcDbLine
 10
125.9633
 20
95.85025
 30
0.0
 11
126.5223
 21
96.34285
 31
0.0
  0
LINE
  5
293
330
1D
100
AcDbEntity
  8
0
100
AcDbLine
 10
126.1833
 20
95.29135
 30
0.0
 11
126.9473
 21
95.77725
 31
0.0
  0
LINE
  5
294
330
1D
100
AcDbEntity
  8
0
100
AcDbLine
 10
126.9473
 20
95.77725
 30
0.0
 11
127.5913
 21
96.29305
 31
0.0
  0
LINE
  5
295
330
1D
100
AcDbEntity
  8
0
100
AcDbLine
 10
127.5913
 20
96.29305
 30
0.0
 11
127.7573
 21
96.42625
 31
0.0
  0
LINE
  5
296
330
1D
100
AcDbEntity
  8
0
100
AcDbLine
 10
126.5223
 20
96.34285
 30
0.0
 11
126.9573
 21
96.85725
 31
0.0
  0
LINE
  5
297
330
1D
100
AcDbEntity
  8
0
100
AcDbLine
 10
126.9573
 20
96.85725
 30
0.0
 11
127.2623
 21
97.38815
 31
0.0
  0
LINE
  5
298
330
1D
100
AcDbEntity
  8
0
100
AcDbLine
 10
127.4343
 20
97.92965
 30
0.0
 11
127.4723
 21
98.47575
 31
0.0
  0
LINE
  5
299
330
1D
100
AcDbEntity
  8
0
100
AcDbLine
 10
127.2623
 20
97.38815
 30
0.0
 11
127.4343
 21
97.92965
 31
0.0
  0
LINE
  5
29A
330
1D
100
AcDbEntity
  8
0
100
AcDbLine
 10
127.7573
 20
96.42625
 30
0.0
 11
128.2833
 21
96.97405
 31
0.0
  0
LINE
  5
29B
330
1D
100
AcDbEntity
  8
0
100
AcDbLine
 10
125.5413
 20
96.70495
 30
0.0
 11
126.6933
 21
97.94035
 31
0.0
  0
LINE
  5
29C
330
1D
100
AcDbEntity
  8
0
100
AcDbLine
 10
127.1253
 20
99.580891758242
 30
0.0
 11
127.1253
 21
99.25815
 31
0.0
  0
LINE
  5
29E
330
1D
100
AcDbEntity
  8
0
100
AcDbLine
 10
124.1183
 20
112.15575
 30
0.0
 11
126.4663
 21
111.60585
 31
0.0
  0
LINE
  5
29F
330
1D
100
AcDbEntity
  8
0
100
AcDbLine
 10
123.1703
 20
102.31265
 30
0.0
 11
124.1053
 21
101.93555
 31
0.0
  0
LINE
  5
2A0
330
1D
100
AcDbEntity
  8
0
100
AcDbLine
 10
124.1053
 20
101.93555
 30
0.0
 11
124.9423
 21
101.51925
 31
0.0
  0
LINE
  5
2A1
330
1D
100
AcDbEntity
  8
0
100
AcDbLine
 10
124.9423
 20
101.51925
 30
0.0
 11
125.6723
 21
101.06815
 31
0.0
  0
LINE
  5
2A2
330
1D
100
AcDbEntity
  8
0
100
AcDbLine
 10
125.6723
 20
101.06815
 30
0.0
 11
126.2863
 21
100.58735
 31
0.0
  0
LINE
  5
2A7
330
1D
100
AcDbEntity
  8
0
100
AcDbLine
 10
126.4663
 20
111.60585
 30
0.0
 11
128.2313
 21
110.95235
 31
0.0
  0
LINE
  5
2A8
330
1D
100
AcDbEntity
  8
0
100
AcDbLine
 10
126.2863
 20
100.58735
 30
0.0
 11
126.7773
 21
100.08205
 31
0.0
  0
LINE
  5
2A9
330
1D
100
AcDbEntity
  8
0
100
AcDbLine
 10
126.7773
 20
100.08205
 30
0.0
 11
127.1413
 21
99.55785
 31
0.0
  0
LINE
  5
2AA
330
1D
100
AcDbEntity
  8
0
100
AcDbLine
 10
126.924883231974
 20
99.86951392802
 30
0.0
 11
127.1253
 21
99.25815
 31
0.0
  0
LINE
  5
2AB
330
1D
100
AcDbEntity
  8
0
100
AcDbLine
 10
127.3743
 20
99.02055
 30
0.0
 11
127.4723
 21
98.47575
 31
0.0
  0
LINE
  5
2AE
330
1D
100
AcDbEntity
  8
0
100
AcDbLine
 10
127.1413
 20
99.55785
 30
0.0
 11
127.3743
 21
99.02055
 31
0.0
  0
LINE
  5
2AF
330
1D
100
AcDbEntity
  8
0
100
AcDbLine
 10
127.1253
 20
99.25815
 30
0.0
 11
127.1253
 21
99.580891758242
 31
0.0
  0
LINE
  5
2B0
330
1D
100
AcDbEntity
  8
0
100
AcDbLine
 10
126.6933
 20
97.94035
 30
0.0
 11
127.1253
 21
99.25815
 31
0.0
  0
LINE
  5
2B1
330
1D
100
AcDbEntity
  8
0
100
AcDbLine
 10
122.7013
 20
135.19345
 30
0.0
 11
122.8533
 21
135.23435
 31
0.0
  0
LINE
  5
2B2
330
1D
100
AcDbEntity
  8
0
100
AcDbLine
 10
122.5773
 20
135.19345
 30
0.0
 11
122.6993
 21
135.19345
 31
0.0
  0
LINE
  5
2B3
330
1D
100
AcDbEntity
  8
0
100
AcDbLine
 10
122.5853
 20
135.19345
 30
0.0
 11
122.7013
 21
135.19345
 31
0.0
  0
LINE
  5
2B4
330
1D
100
AcDbEntity
  8
0
100
AcDbLine
 10
122.3383
 20
135.19345
 30
0.0
 11
122.5773
 21
135.19345
 31
0.0
  0
LINE
  5
2B5
330
1D
100
AcDbEntity
  8
0
100
AcDbLine
 10
121.7883
 20
135.19345
 30
0.0
 11
121.9593
 21
135.19345
 31
0.0
  0
LINE
  5
2B6
330
1D
100
AcDbEntity
  8
0
100
AcDbLine
 10
121.7073
 20
135.19345
 30
0.0
 11
121.9173
 21
135.19345
 31
0.0
  0
LINE
  5
2B7
330
1D
100
AcDbEntity
  8
0
100
AcDbLine
 10
121.7003
 20
152.78455
 30
0.0
 11
124.8473
 21
152.78455
 31
0.0
  0
LINE
  5
2B8
330
1D
100
AcDbEntity
  8
0
100
AcDbLine
 10
123.0063
 20
135.49245
 30
0.0
 11
123.0063
 21
144.69245
 31
0.0
  0
LINE
  5
2B9
330
1D
100
AcDbEntity
  8
0
100
AcDbLine
 10
122.9653
 20
135.34295
 30
0.0
 11
123.0063
 21
135.49245
 31
0.0
  0
LINE
  5
2BA
330
1D
100
AcDbEntity
  8
0
100
AcDbLine
 10
122.8533
 20
135.23435
 30
0.0
 11
122.9653
 21
135.34295
 31
0.0
  0
LINE
  5
2BB
330
1D
100
AcDbEntity
  8
0
100
AcDbLine
 10
123.0653
 20
144.90475
 30
0.0
 11
123.2023
 21
145.07615
 31
0.0
  0
LINE
  5
2BC
330
1D
100
AcDbEntity
  8
0
100
AcDbLine
 10
123.3413
 20
151.59245
 30
0.0
 11
123.5653
 21
151.50575
 31
0.0
  0
LINE
  5
2BD
330
1D
100
AcDbEntity
  8
0
100
AcDbLine
 10
123.5653
 20
151.50575
 30
0.0
 11
123.7243
 21
151.32735
 31
0.0
  0
LINE
  5
2BE
330
1D
100
AcDbEntity
  8
0
100
AcDbLine
 10
123.4003
 20
145.17475
 30
0.0
 11
123.5973
 21
145.27345
 31
0.0
  0
LINE
  5
2C0
330
1D
100
AcDbEntity
  8
0
100
AcDbLine
 10
123.7813
 20
149.33455
 30
0.0
 11
123.9243
 21
149.33455
 31
0.0
  0
LINE
  5
2C1
330
1D
100
AcDbEntity
  8
0
100
AcDbLine
 10
123.7813
 20
149.33455
 30
0.0
 11
125.8203
 21
149.33455
 31
0.0
  0
LINE
  5
2C2
330
1D
100
AcDbEntity
  8
0
100
AcDbLine
 10
123.7243
 20
151.32735
 30
0.0
 11
123.7813
 21
151.09815
 31
0.0
  0
LINE
  5
2C3
330
1D
100
AcDbEntity
  8
0
100
AcDbLine
 10
123.7813
 20
145.65705
 30
0.0
 11
123.7813
 21
151.09815
 31
0.0
  0
LINE
  5
2C4
330
1D
100
AcDbEntity
  8
0
100
AcDbLine
 10
123.9243
 20
149.33455
 30
0.0
 11
126.5223
 21
149.33455
 31
0.0
  0
LINE
  5
2C6
330
1D
100
AcDbEntity
  8
0
100
AcDbLine
 10
126.5223
 20
149.33455
 30
0.0
 11
128.9533
 21
149.33455
 31
0.0
  0
LINE
  5
2C7
330
1D
100
AcDbEntity
  8
0
100
AcDbLine
 10
125.8203
 20
149.33455
 30
0.0
 11
128.3013
 21
149.33455
 31
0.0
  0
LINE
  5
2C8
330
1D
100
AcDbEntity
  8
0
100
AcDbLine
 10
125.6913
 20
149.33455
 30
0.0
 11
128.2883
 21
149.33455
 31
0.0
  0
LINE
  5
2CA
330
1D
100
AcDbEntity
  8
0
100
AcDbLine
 10
127.8293
 20
152.78455
 30
0.0
 11
130.5943
 21
152.78455
 31
0.0
  0
LINE
  5
2CB
330
1D
100
AcDbEntity
  8
0
100
AcDbLine
 10
124.8473
 20
152.78455
 30
0.0
 11
127.8293
 21
152.78455
 31
0.0
  0
LINE
  5
2CC
330
1D
100
AcDbEntity
  8
0
100
AcDbLine
 10
123.7813
 20
151.09815
 30
0.0
 11
123.7813
 21
145.65705
 31
0.0
  0
LINE
  5
2CD
330
1D
100
AcDbEntity
  8
0
100
AcDbLine
 10
123.7323
 20
145.44585
 30
0.0
 11
123.7813
 21
145.65705
 31
0.0
  0
LINE
  5
2CE
330
1D
100
AcDbEntity
  8
0
100
AcDbLine
 10
123.5973
 20
145.27345
 30
0.0
 11
123.7323
 21
145.44585
 31
0.0
  0
LINE
  5
2CF
330
1D
100
AcDbEntity
  8
0
100
AcDbLine
 10
123.2023
 20
145.07615
 30
0.0
 11
123.4003
 21
145.17475
 31
0.0
  0
LINE
  5
2D0
330
1D
100
AcDbEntity
  8
0
100
AcDbLine
 10
123.0063
 20
144.69245
 30
0.0
 11
123.0653
 21
144.90475
 31
0.0
  0
LINE
  5
2D1
330
1D
100
AcDbEntity
  8
0
100
AcDbLine
 10
123.0063
 20
144.69245
 30
0.0
 11
123.0063
 21
135.49245
 31
0.0
  0
LINE
  5
2D2
330
1D
100
AcDbEntity
  8
0
100
AcDbLine
 10
121.9173
 20
135.19345
 30
0.0
 11
122.0013
 21
135.19345
 31
0.0
  0
LINE
  5
2D3
330
1D
100
AcDbEntity
  8
0
100
AcDbLine
 10
128.3013
 20
149.33455
 30
0.0
 11
130.5893
 21
149.33455
 31
0.0
  0
LINE
  5
2D4
330
1D
100
AcDbEntity
  8
0
100
AcDbLine
 10
128.2883
 20
149.33455
 30
0.0
 11
130.7083
 21
149.33455
 31
0.0
  0
LINE
  5
2D5
330
1D
100
AcDbEntity
  8
0
100
AcDbLine
 10
128.2313
 20
110.95235
 30
0.0
 11
129.3233
 21
110.10905
 31
0.0
  0
LINE
  5
2D6
330
1D
100
AcDbEntity
  8
0
100
AcDbLine
 10
128.8803
 20
110.32955
 30
0.0
 11
129.0703
 21
109.75445
 31
0.0
  0
LINE
  5
2D7
330
1D
100
AcDbEntity
  8
0
100
AcDbLine
 10
128.9533
 20
149.33455
 30
0.0
 11
131.1833
 21
149.33455
 31
0.0
  0
LINE
  5
2D9
330
1D
100
AcDbEntity
  8
0
100
AcDbLine
 10
128.75700464116
 20
110.546373146621
 30
0.0
 11
128.8803
 21
110.32955
 31
0.0
  0
LINE
  5
2DB
330
1D
100
AcDbEntity
  8
0
100
AcDbLine
 10
129.1243
 20
107.639964986376
 30
0.0
 11
129.2623
 21
107.85755
 31
0.0
  0
LINE
  5
2DC
330
1D
100
AcDbEntity
  8
0
100
AcDbLine
 10
129.1243
 20
99.07405
 30
0.0
 11
129.1243
 21
109.17415
 31
0.0
  0
LINE
  5
2E0
330
1D
100
AcDbEntity
  8
0
100
AcDbLine
 10
129.2623
 20
107.85755
 30
0.0
 11
129.6223
 21
109.03835
 31
0.0
  0
LINE
  5
2E1
330
1D
100
AcDbEntity
  8
0
100
AcDbLine
 10
129.1243
 20
109.17415
 30
0.0
 11
129.1243
 21
99.07405
 31
0.0
  0
LINE
  5
2E7
330
1D
100
AcDbEntity
  8
0
100
AcDbLine
 10
129.3233
 20
110.10905
 30
0.0
 11
129.6223
 21
109.03835
 31
0.0
  0
LINE
  5
2EB
330
1D
100
AcDbEntity
  8
0
100
AcDbLine
 10
130.5893
 20
149.33455
 30
0.0
 11
132.6533
 21
149.33455
 31
0.0
  0
LINE
  5
2EC
330
1D
100
AcDbEntity
  8
0
100
AcDbLine
 10
132.6533
 20
149.33455
 30
0.0
 11
134.4603
 21
149.33455
 31
0.0
  0
LINE
  5
2ED
330
1D
100
AcDbEntity
  8
0
100
AcDbLine
 10
132.9163
 20
149.33455
 30
0.0
 11
134.8843
 21
149.33455
 31
0.0
  0
LINE
  5
2EE
330
1D
100
AcDbEntity
  8
0
100
AcDbLine
 10
130.7083
 20
149.33455
 30
0.0
 11
132.9163
 21
149.33455
 31
0.0
  0
LINE
  5
2EF
330
1D
100
AcDbEntity
  8
0
100
AcDbLine
 10
132.0483
 20
149.33455
 30
0.0
 11
134.1173
 21
149.33455
 31
0.0
  0
LINE
  5
2F0
330
1D
100
AcDbEntity
  8
0
100
AcDbLine
 10
129.7503
 20
149.33455
 30
0.0
 11
132.0483
 21
149.33455
 31
0.0
  0
LINE
  5
2F2
330
1D
100
AcDbEntity
  8
0
100
AcDbLine
 10
131.1833
 20
149.33455
 30
0.0
 11
133.1783
 21
149.33455
 31
0.0
  0
LINE
  5
2F3
330
1D
100
AcDbEntity
  8
0
100
AcDbLine
 10
134.4603
 20
149.33455
 30
0.0
 11
135.9873
 21
149.33455
 31
0.0
  0
LINE
  5
2F4
330
1D
100
AcDbEntity
  8
0
100
AcDbLine
 10
134.8843
 20
149.33455
 30
0.0
 11
136.5853
 21
149.33455
 31
0.0
  0
LINE
  5
2F6
330
1D
100
AcDbEntity
  8
0
100
AcDbLine
 10
134.9113
 20
149.33455
 30
0.0
 11
136.3553
 21
149.33455
 31
0.0
  0
LINE
  5
2F7
330
1D
100
AcDbEntity
  8
0
100
AcDbLine
 10
133.1783
 20
149.33455
 30
0.0
 11
134.9113
 21
149.33455
 31
0.0
  0
LINE
  5
2FB
330
1D
100
AcDbEntity
  8
0
100
AcDbLine
 10
135.9873
 20
149.33455
 30
0.0
 11
137.2083
 21
149.33455
 31
0.0
  0
LINE
  5
2FC
330
1D
100
AcDbEntity
  8
0
100
AcDbLine
 10
136.3553
 20
149.33455
 30
0.0
 11
137.4893
 21
149.33455
 31
0.0
  0
LINE
  5
2FE
330
1D
100
AcDbEntity
  8
0
100
AcDbLine
 10
137.4893
 20
149.33455
 30
0.0
 11
138.2983
 21
149.33455
 31
0.0
  0
LINE
  5
2FF
330
1D
100
AcDbEntity
  8
0
100
AcDbLine
 10
137.2083
 20
149.33455
 30
0.0
 11
138.1083
 21
149.33455
 31
0.0
  0
LINE
  5
302
330
1D
100
AcDbEntity
  8
0
100
AcDbLine
 10
137.4603
 20
149.33455
 30
0.0
 11
138.6883
 21
149.33455
 31
0.0
  0
LINE
  5
306
330
1D
100
AcDbEntity
  8
0
100
AcDbLine
 10
138.6723
 20
149.33455
 30
0.0
 11
138.8933
 21
149.33455
 31
0.0
  0
LINE
  5
307
330
1D
100
AcDbEntity
  8
0
100
AcDbLine
 10
138.1083
 20
149.33455
 30
0.0
 11
138.6723
 21
149.33455
 31
0.0
  0
LINE
  5
308
330
1D
100
AcDbEntity
  8
0
100
AcDbLine
 10
137.9963
 20
149.33455
 30
0.0
 11
139.0963
 21
149.33455
 31
0.0
  0
LINE
  5
309
330
1D
100
AcDbEntity
  8
0
100
AcDbLine
 10
138.2983
 20
149.33455
 30
0.0
 11
138.7683
 21
149.33455
 31
0.0
  0
LINE
  5
30A
330
1D
100
AcDbEntity
  8
0
100
AcDbLine
 10
138.7683
 20
149.33455
 30
0.0
 11
138.8933
 21
149.33455
 31
0.0
  0
LINE
  5
30C
330
1D
100
AcDbEntity
  8
0
100
AcDbLine
 10
138.875366072152
 20
152.78455
 30
0.0
 11
139.1463
 21
151.21555
 31
0.0
  0
LINE
  5
30D
330
1D
100
AcDbEntity
  8
0
100
AcDbLine
 10
139.0963
 20
149.33455
 30
0.0
 11
139.8743
 21
149.33455
 31
0.0
  0
LINE
  5
30F
330
1D
100
AcDbEntity
  8
0
100
AcDbLine
 10
140.1393
 20
150.33455
 30
0.0
 11
140.4183
 21
150.33455
 31
0.0
  0
LINE
  5
310
330
1D
100
AcDbEntity
  8
0
100
AcDbLine
 10
139.8743
 20
149.33455
 30
0.0
 11
140.3163
 21
149.33455
 31
0.0
  0
LINE
  5
311
330
1D
100
AcDbEntity
  8
0
100
AcDbLine
 10
140.3163
 20
149.33455
 30
0.0
 11
140.4183
 21
149.33455
 31
0.0
  0
LINE
  5
312
330
1D
100
AcDbEntity
  8
0
100
AcDbLine
 10
139.2913
 20
150.76725
 30
0.0
 11
139.6493
 21
150.44935
 31
0.0
  0
LINE
  5
313
330
1D
100
AcDbEntity
  8
0
100
AcDbLine
 10
139.6493
 20
150.44935
 30
0.0
 11
140.1393
 21
150.33455
 31
0.0
  0
LINE
  5
314
330
1D
100
AcDbEntity
  8
0
100
AcDbLine
 10
139.1463
 20
151.21555
 30
0.0
 11
139.2913
 21
150.76725
 31
0.0
  0
LINE
  5
316
330
1D
100
AcDbEntity
  8
0
100
AcDbLine
 10
140.9743
 20
149.16755
 30
0.0
 11
141.1573
 21
148.98455
 31
0.0
  0
LINE
  5
319
330
1D
100
AcDbEntity
  8
0
100
AcDbLine
 10
141.1573
 20
148.98455
 30
0.0
 11
141.2243
 21
148.73455
 31
0.0
  0
LINE
  5
31A
330
1D
100
AcDbEntity
  8
0
100
AcDbLine
 10
140.4183
 20
149.33455
 30
0.0
 11
140.5183
 21
149.36135
 31
0.0
  0
LINE
  5
31B
330
1D
100
AcDbEntity
  8
0
100
AcDbLine
 10
140.5913
 20
149.43455
 30
0.0
 11
140.6183
 21
149.53455
 31
0.0
  0
LINE
  5
31C
330
1D
100
AcDbEntity
  8
0
100
AcDbLine
 10
140.5183
 20
149.36135
 30
0.0
 11
140.5913
 21
149.43455
 31
0.0
  0
LINE
  5
31D
330
1D
100
AcDbEntity
  8
0
100
AcDbLine
 10
140.4183
 20
150.33455
 30
0.0
 11
140.5183
 21
150.30775
 31
0.0
  0
LINE
  5
31E
330
1D
100
AcDbEntity
  8
0
100
AcDbLine
 10
140.5913
 20
150.23455
 30
0.0
 11
140.6183
 21
150.13455
 31
0.0
  0
LINE
  5
31F
330
1D
100
AcDbEntity
  8
0
100
AcDbLine
 10
140.5183
 20
150.30775
 30
0.0
 11
140.5913
 21
150.23455
 31
0.0
  0
LINE
  5
320
330
1D
100
AcDbEntity
  8
0
100
AcDbLine
 10
140.6183
 20
149.53455
 30
0.0
 11
140.6183
 21
150.13455
 31
0.0
  0
LINE
  5
321
330
1D
100
AcDbEntity
  8
0
100
AcDbLine
 10
140.6183
 20
150.13455
 30
0.0
 11
140.6183
 21
149.53455
 31
0.0
  0
LINE
  5
323
330
1D
100
AcDbEntity
  8
0
100
AcDbLine
 10
141.2243
 20
130.817495705128
 30
0.0
 11
141.2243
 21
148.73455
 31
0.0
  0
LINE
  5
328
330
1D
100
AcDbEntity
  8
0
100
AcDbLine
 10
141.2243
 20
148.73455
 30
0.0
 11
141.2243
 21
130.817495705128
 31
0.0
  0
LINE
  5
33F
330
1D
100
AcDbEntity
  8
0
100
AcDbLine
 10
218.2383
 20
130.50605
 30
0.0
 11
218.8813
 21
130.25675
 31
0.0
  0
LINE
  5
341
330
1D
100
AcDbEntity
  8
0
100
AcDbLine
 10
219.2963
 20
129.64815
 30
0.0
 11
230.1383
 21
54.38615
 31
0.0
  0
LINE
  5
342
330
1D
100
AcDbEntity
  8
0
100
AcDbLine
 10
218.8813
 20
130.25675
 30
0.0
 11
219.2963
 21
129.64815
 31
0.0
  0
LINE
  5
349
330
1D
100
AcDbEntity
  8
0
100
AcDbLine
 10
141.2463
 20
152.78455
 30
0.0
 11
141.4963
 21
152.85155
 31
0.0
  0
LINE
  5
34A
330
1D
100
AcDbEntity
  8
0
100
AcDbLine
 10
141.1863
 20
152.78455
 30
0.0
 11
141.2463
 21
152.78455
 31
0.0
  0
LINE
  5
34B
330
1D
100
AcDbEntity
  8
0
100
AcDbLine
 10
140.8263
 20
152.78455
 30
0.0
 11
141.1863
 21
152.78455
 31
0.0
  0
LINE
  5
34C
330
1D
100
AcDbEntity
  8
0
100
AcDbLine
 10
140.3553
 20
152.78455
 30
0.0
 11
140.5833
 21
152.78455
 31
0.0
  0
LINE
  5
34D
330
1D
100
AcDbEntity
  8
0
100
AcDbLine
 10
139.6973
 20
152.78455
 30
0.0
 11
140.3553
 21
152.78455
 31
0.0
  0
LINE
  5
34E
330
1D
100
AcDbEntity
  8
0
100
AcDbLine
 10
137.8933
 20
152.78455
 30
0.0
 11
139.1663
 21
152.78455
 31
0.0
  0
LINE
  5
34F
330
1D
100
AcDbEntity
  8
0
100
AcDbLine
 10
136.3453
 20
152.78455
 30
0.0
 11
137.8933
 21
152.78455
 31
0.0
  0
LINE
  5
350
330
1D
100
AcDbEntity
  8
0
100
AcDbLine
 10
135.2913
 20
152.78455
 30
0.0
 11
137.1433
 21
152.78455
 31
0.0
  0
LINE
  5
351
330
1D
100
AcDbEntity
  8
0
100
AcDbLine
 10
141.326026184581
 20
152.822034775622
 30
0.0
 11
141.4633
 21
152.83475
 31
0.0
  0
LINE
  5
352
330
1D
100
AcDbEntity
  8
0
100
AcDbLine
 10
141.36234587388
 20
152.831778370985
 30
0.0
 11
141.4963
 21
152.85155
 31
0.0
  0
LINE
  5
353
330
1D
100
AcDbEntity
  8
0
100
AcDbLine
 10
141.4963
 20
152.85155
 30
0.0
 11
141.6793
 21
153.03465
 31
0.0
  0
LINE
  5
354
330
1D
100
AcDbEntity
  8
0
100
AcDbLine
 10
141.6793
 20
153.03465
 30
0.0
 11
141.7453
 21
153.28455
 31
0.0
  0
LINE
  5
355
330
1D
100
AcDbEntity
  8
0
100
AcDbLine
 10
133.0953
 20
152.78455
 30
0.0
 11
135.2913
 21
152.78455
 31
0.0
  0
LINE
  5
356
330
1D
100
AcDbEntity
  8
0
100
AcDbLine
 10
129.2733
 20
152.78455
 30
0.0
 11
133.0953
 21
152.78455
 31
0.0
  0
LINE
  5
357
330
1D
100
AcDbEntity
  8
0
100
AcDbLine
 10
129.0703
 20
109.75445
 30
0.0
 11
129.1243
 21
109.17415
 31
0.0
  0
LINE
  5
358
330
1D
100
AcDbEntity
  8
0
100
AcDbLine
 10
129.0423
 20
98.49355
 30
0.0
 11
129.1243
 21
99.07405
 31
0.0
  0
LINE
  5
359
330
1D
100
AcDbEntity
  8
0
100
AcDbLine
 10
128.9333
 20
98.12235
 30
0.0
 11
129.0423
 21
98.49355
 31
0.0
  0
LINE
  5
35A
330
1D
100
AcDbEntity
  8
0
100
AcDbLine
 10
128.6763
 20
97.54135
 30
0.0
 11
128.9333
 21
98.12235
 31
0.0
  0
LINE
  5
35B
330
1D
100
AcDbEntity
  8
0
100
AcDbLine
 10
128.2833
 20
96.97405
 30
0.0
 11
128.6763
 21
97.54135
 31
0.0
  0
LINE
  5
35C
330
1D
100
AcDbEntity
  8
0
100
AcDbLine
 10
128.1253
 20
96.809501711027
 30
0.0
 11
128.1253
 21
92.73455
 31
0.0
  0
LINE
  5
35D
330
1D
100
AcDbEntity
  8
0
100
AcDbLine
 10
128.1253
 20
92.73455
 30
0.0
 11
128.1253
 21
96.809501711027
 31
0.0
  0
LINE
  5
35E
330
1D
100
AcDbEntity
  8
0
100
AcDbLine
 10
121.4173
 20
92.13455
 30
0.0
 11
124.0693
 21
92.13455
 31
0.0
  0
LINE
  5
35F
330
1D
100
AcDbEntity
  8
0
100
AcDbLine
 10
127.3453
 20
92.13455
 30
0.0
 11
127.8133
 21
92.13455
 31
0.0
  0
LINE
  5
36B
330
1D
100
AcDbEntity
  8
0
100
AcDbLine
 10
113.3853
 20
157.90255
 30
0.0
 11
113.9793
 21
157.45055
 31
0.0
  0
LINE
  5
36D
330
1D
100
AcDbEntity
  8
0
100
AcDbLine
 10
335.5283
 20
86.64565
 30
0.0
 11
337.3053
 21
86.65165
 31
0.0
  0
LINE
  5
36E
330
1D
100
AcDbEntity
  8
0
100
AcDbLine
 10
337.4013
 20
86.64465
 30
0.0
 11
338.949097889757
 21
86.648342559578
 31
0.0
  0
LINE
  5
36F
330
1D
100
AcDbEntity
  8
0
100
AcDbLine
 10
339.7903
 20
86.64665
 30
0.0
 11
342.8853
 21
86.64765
 31
0.0
  0
LINE
  5
370
330
1D
100
AcDbEntity
  8
0
100
AcDbLine
 10
335.764537914365
 20
86.646447651934
 30
0.0
 11
337.4013
 21
86.64465
 31
0.0
  0
LINE
  5
371
330
1D
100
AcDbEntity
  8
0
100
AcDbLine
 10
337.3053
 20
86.65165
 30
0.0
 11
339.7903
 21
86.64665
 31
0.0
  0
LINE
  5
372
330
1D
100
AcDbEntity
  8
0
100
AcDbLine
 10
334.9533
 20
86.65065
 30
0.0
 11
335.5283
 21
86.64565
 31
0.0
  0
LINE
  5
373
330
1D
100
AcDbEntity
  8
0
100
AcDbLine
 10
342.8853
 20
86.64765
 30
0.0
 11
345.9903
 21
86.64965
 31
0.0
  0
LINE
  5
374
330
1D
100
AcDbEntity
  8
0
100
AcDbLine
 10
345.9903
 20
86.64965
 30
0.0
 11
348.5053
 21
86.64565
 31
0.0
  0
LINE
  5
375
330
1D
100
AcDbEntity
  8
0
100
AcDbLine
 10
348.5053
 20
86.64565
 30
0.0
 11
350.3273
 21
86.64265
 31
0.0
  0
LINE
  5
376
330
1D
100
AcDbEntity
  8
0
100
AcDbLine
 10
350.3273
 20
86.64265
 30
0.0
 11
350.9543
 21
86.64965
 31
0.0
  0
LINE
  5
37C
330
1D
100
AcDbEntity
  8
0
100
AcDbLine
 10
112.6113
 20
159.30755
 30
0.0
 11
112.9033
 21
158.55055
 31
0.0
  0
LINE
  5
37D
330
1D
100
AcDbEntity
  8
0
100
AcDbLine
 10
112.5273
 20
160.15155
 30
0.0
 11
112.6803
 21
160.98555
 31
0.0
  0
LINE
  5
37E
330
1D
100
AcDbEntity
  8
0
100
AcDbLine
 10
112.5273
 20
160.15155
 30
0.0
 11
112.6113
 21
159.30755
 31
0.0
  0
LINE
  5
37F
330
1D
100
AcDbEntity
  8
0
100
AcDbLine
 10
112.9033
 20
158.55055
 30
0.0
 11
113.3853
 21
157.90255
 31
0.0
  0
LINE
  5
380
330
1D
100
AcDbEntity
  8
0
100
AcDbLine
 10
112.6803
 20
160.98555
 30
0.0
 11
113.0453
 21
161.70355
 31
0.0
  0
LINE
  5
381
330
1D
100
AcDbEntity
  8
0
100
AcDbLine
 10
117.1323
 20
158.21355
 30
0.0
 11
117.5333
 21
158.95855
 31
0.0
  0
LINE
  5
382
330
1D
100
AcDbEntity
  8
0
100
AcDbLine
 10
117.5333
 20
158.95855
 30
0.0
 11
117.7153
 21
159.78655
 31
0.0
  0
LINE
  5
383
330
1D
100
AcDbEntity
  8
0
100
AcDbLine
 10
113.6023
 20
162.28055
 30
0.0
 11
113.8783
 21
162.46355
 31
0.0
  0
LINE
  5
384
330
1D
100
AcDbEntity
  8
0
100
AcDbLine
 10
113.0453
 20
161.70355
 30
0.0
 11
113.6023
 21
162.28055
 31
0.0
  0
LINE
  5
385
330
1D
100
AcDbEntity
  8
0
100
AcDbLine
 10
113.8783
 20
162.46355
 30
0.0
 11
114.4803
 21
162.71055
 31
0.0
  0
LINE
  5
386
330
1D
100
AcDbEntity
  8
0
100
AcDbLine
 10
116.5633
 20
162.34255
 30
0.0
 11
117.0443
 21
161.90855
 31
0.0
  0
LINE
  5
387
330
1D
100
AcDbEntity
  8
0
100
AcDbLine
 10
117.0443
 20
161.90855
 30
0.0
 11
117.4083
 21
161.36955
 31
0.0
  0
LINE
  5
388
330
1D
100
AcDbEntity
  8
0
100
AcDbLine
 10
117.4083
 20
161.36955
 30
0.0
 11
117.6713
 21
160.60055
 31
0.0
  0
LINE
  5
389
330
1D
100
AcDbEntity
  8
0
100
AcDbLine
 10
117.6713
 20
160.60055
 30
0.0
 11
117.7153
 21
159.78655
 31
0.0
  0
LINE
  5
38A
330
1D
100
AcDbEntity
  8
0
100
AcDbLine
 10
88.5135
 20
167.63155
 30
0.0
 11
88.5172
 21
168.98355
 31
0.0
  0
LINE
  5
38B
330
1D
100
AcDbEntity
  8
0
100
AcDbLine
 10
88.5094
 20
164.92355
 30
0.0
 11
88.5135
 21
167.63155
 31
0.0
  0
LINE
  5
38C
330
1D
100
AcDbEntity
  8
0
100
AcDbLine
 10
88.5094
 20
164.92355
 30
0.0
 11
88.5154
 21
157.28755
 31
0.0
  0
LINE
  5
38D
330
1D
100
AcDbEntity
  8
0
100
AcDbLine
 10
114.4803
 20
162.71055
 30
0.0
 11
115.1253
 21
162.79555
 31
0.0
  0
LINE
  5
38E
330
1D
100
AcDbEntity
  8
0
100
AcDbLine
 10
115.1253
 20
162.79555
 30
0.0
 11
115.8783
 21
162.67955
 31
0.0
  0
LINE
  5
38F
330
1D
100
AcDbEntity
  8
0
100
AcDbLine
 10
88.5172
 20
168.98355
 30
0.0
 11
88.5251
 21
171.00955
 31
0.0
  0
LINE
  5
390
330
1D
100
AcDbEntity
  8
0
100
AcDbLine
 10
88.5241
 20
188.98855
 30
0.0
 11
88.7186
 21
189.72555
 31
0.0
  0
LINE
  5
391
330
1D
100
AcDbEntity
  8
0
100
AcDbLine
 10
88.5222
 20
178.04355
 30
0.0
 11
88.5241
 21
188.98855
 31
0.0
  0
LINE
  5
392
330
1D
100
AcDbEntity
  8
0
100
AcDbLine
 10
88.5175
 20
177.08055
 30
0.0
 11
88.519
 21
176.08355
 31
0.0
  0
LINE
  5
393
330
1D
100
AcDbEntity
  8
0
100
AcDbLine
 10
88.5175
 20
177.08055
 30
0.0
 11
88.5222
 21
178.04355
 31
0.0
  0
LINE
  5
394
330
1D
100
AcDbEntity
  8
0
100
AcDbLine
 10
88.519
 20
176.08355
 30
0.0
 11
88.5318
 21
174.01555
 31
0.0
  0
LINE
  5
395
330
1D
100
AcDbEntity
  8
0
100
AcDbLine
 10
88.7186
 20
189.72555
 30
0.0
 11
89.2506
 21
190.27255
 31
0.0
  0
LINE
  5
396
330
1D
100
AcDbEntity
  8
0
100
AcDbLine
 10
89.2506
 20
190.27255
 30
0.0
 11
89.9827
 21
190.48655
 31
0.0
  0
LINE
  5
399
330
1D
100
AcDbEntity
  8
0
100
AcDbLine
 10
89.9827
 20
190.48655
 30
0.0
 11
90.045
 21
190.49055
 31
0.0
  0
LINE
  5
39A
330
1D
100
AcDbEntity
  8
0
100
AcDbLine
 10
90.045
 20
190.49055
 30
0.0
 11
90.3354
 21
190.50255
 31
0.0
  0
LINE
  5
39B
330
1D
100
AcDbEntity
  8
0
100
AcDbLine
 10
91.8496
 20
190.54855
 30
0.0
 11
93.2565
 21
190.58555
 31
0.0
  0
LINE
  5
39C
330
1D
100
AcDbEntity
  8
0
100
AcDbLine
 10
90.8688
 20
190.51955
 30
0.0
 11
91.8496
 21
190.54855
 31
0.0
  0
LINE
  5
39D
330
1D
100
AcDbEntity
  8
0
100
AcDbLine
 10
94.4358
 20
191.43255
 30
0.0
 11
94.7884
 21
192.40455
 31
0.0
  0
LINE
  5
39E
330
1D
100
AcDbEntity
  8
0
100
AcDbLine
 10
94.0964
 20
190.74455
 30
0.0
 11
94.4358
 21
191.43255
 31
0.0
  0
LINE
  5
39F
330
1D
100
AcDbEntity
  8
0
100
AcDbLine
 10
95.0185
 20
192.80755
 30
0.0
 11
95.5163
 21
193.27555
 31
0.0
  0
LINE
  5
3A0
330
1D
100
AcDbEntity
  8
0
100
AcDbLine
 10
95.5163
 20
193.27555
 30
0.0
 11
95.9333
 21
193.55655
 31
0.0
  0
LINE
  5
3A1
330
1D
100
AcDbEntity
  8
0
100
AcDbLine
 10
95.9333
 20
193.55655
 30
0.0
 11
96.5319
 21
193.79855
 31
0.0
  0
LINE
  5
3A2
330
1D
100
AcDbEntity
  8
0
100
AcDbLine
 10
96.5319
 20
193.79855
 30
0.0
 11
97.0831
 21
193.95055
 31
0.0
  0
LINE
  5
3A3
330
1D
100
AcDbEntity
  8
0
100
AcDbLine
 10
97.0831
 20
193.95055
 30
0.0
 11
97.6944
 21
194.06755
 31
0.0
  0
LINE
  5
3A4
330
1D
100
AcDbEntity
  8
0
100
AcDbLine
 10
94.7951
 20
192.42555
 30
0.0
 11
95.0185
 21
192.80755
 31
0.0
  0
LINE
  5
3A5
330
1D
100
AcDbEntity
  8
0
100
AcDbLine
 10
99.4595
 20
194.22855
 30
0.0
 11
106.5913
 21
194.52355
 31
0.0
  0
LINE
  5
3A6
330
1D
100
AcDbEntity
  8
0
100
AcDbLine
 10
106.5913
 20
194.52355
 30
0.0
 11
113.7583
 21
194.63655
 31
0.0
  0
LINE
  5
3A7
330
1D
100
AcDbEntity
  8
0
100
AcDbLine
 10
113.7583
 20
194.63655
 30
0.0
 11
115.1253
 21
194.63955
 31
0.0
  0
LINE
  5
3A8
330
1D
100
AcDbEntity
  8
0
100
AcDbLine
 10
115.1253
 20
194.63955
 30
0.0
 11
123.1553
 21
194.53755
 31
0.0
  0
LINE
  5
3A9
330
1D
100
AcDbEntity
  8
0
100
AcDbLine
 10
98.6166
 20
194.17355
 30
0.0
 11
99.4595
 21
194.22855
 31
0.0
  0
LINE
  5
3AA
330
1D
100
AcDbEntity
  8
0
100
AcDbLine
 10
97.6944
 20
194.06755
 30
0.0
 11
98.6166
 21
194.17355
 31
0.0
  0
LINE
  5
3AB
330
1D
100
AcDbEntity
  8
0
100
AcDbLine
 10
93.2565
 20
190.58555
 30
0.0
 11
93.992073674601
 21
190.602518779824
 31
0.0
  0
LINE
  5
3AC
330
1D
100
AcDbEntity
  8
0
100
AcDbLine
 10
90.3354
 20
190.50255
 30
0.0
 11
90.8688
 21
190.51955
 31
0.0
  0
LINE
  5
3AF
330
1D
100
AcDbEntity
  8
0
100
AcDbLine
 10
88.5318
 20
174.01555
 30
0.0
 11
88.5365
 21
173.01855
 31
0.0
  0
LINE
  5
3B0
330
1D
100
AcDbEntity
  8
0
100
AcDbLine
 10
88.5251
 20
171.00955
 30
0.0
 11
88.5365
 21
173.01855
 31
0.0
  0
LINE
  5
3B1
330
1D
100
AcDbEntity
  8
0
100
AcDbLine
 10
115.8783
 20
162.67955
 30
0.0
 11
116.5633
 21
162.34255
 31
0.0
  0
LINE
  5
3B2
330
1D
100
AcDbEntity
  8
0
100
AcDbLine
 10
141.712699289223
 20
173.183844449672
 30
0.0
 11
141.7183
 21
174.01555
 31
0.0
  0
LINE
  5
3B3
330
1D
100
AcDbEntity
  8
0
100
AcDbLine
 10
141.7143
 20
173.01855
 30
0.0
 11
141.7253
 21
171.00955
 31
0.0
  0
LINE
  5
3B4
330
1D
100
AcDbEntity
  8
0
100
AcDbLine
 10
141.7253
 20
171.00955
 30
0.0
 11
141.7333
 21
168.98355
 31
0.0
  0
LINE
  5
3B5
330
1D
100
AcDbEntity
  8
0
100
AcDbLine
 10
141.7333
 20
168.98355
 30
0.0
 11
141.7373
 21
167.63155
 31
0.0
  0
LINE
  5
3B6
330
1D
100
AcDbEntity
  8
0
100
AcDbLine
 10
141.7413
 20
164.92355
 30
0.0
 11
141.7463
 21
153.28455
 31
0.0
  0
LINE
  5
3B7
330
1D
100
AcDbEntity
  8
0
100
AcDbLine
 10
141.7373
 20
167.63155
 30
0.0
 11
141.7413
 21
164.92355
 31
0.0
  0
LINE
  5
3BB
330
1D
100
AcDbEntity
  8
0
100
AcDbLine
 10
134.0933
 20
193.66055
 30
0.0
 11
134.5753
 21
193.40355
 31
0.0
  0
LINE
  5
3BC
330
1D
100
AcDbEntity
  8
0
100
AcDbLine
 10
133.3673
 20
193.90055
 30
0.0
 11
134.0933
 21
193.66055
 31
0.0
  0
LINE
  5
3BD
330
1D
100
AcDbEntity
  8
0
100
AcDbLine
 10
132.1033
 20
194.12855
 30
0.0
 11
132.7593
 21
194.03355
 31
0.0
  0
LINE
  5
3BE
330
1D
100
AcDbEntity
  8
0
100
AcDbLine
 10
132.7593
 20
194.03355
 30
0.0
 11
133.3673
 21
193.90055
 31
0.0
  0
LINE
  5
3BF
330
1D
100
AcDbEntity
  8
0
100
AcDbLine
 10
131.7033
 20
194.16755
 30
0.0
 11
132.1033
 21
194.12855
 31
0.0
  0
LINE
  5
3C0
330
1D
100
AcDbEntity
  8
0
100
AcDbLine
 10
123.1553
 20
194.53755
 30
0.0
 11
130.7913
 21
194.22855
 31
0.0
  0
LINE
  5
3C1
330
1D
100
AcDbEntity
  8
0
100
AcDbLine
 10
130.7913
 20
194.22855
 30
0.0
 11
131.7033
 21
194.16755
 31
0.0
  0
LINE
  5
3C2
330
1D
100
AcDbEntity
  8
0
100
AcDbLine
 10
135.4623
 20
192.40455
 30
0.0
 11
135.8643
 21
191.31655
 31
0.0
  0
LINE
  5
3C4
330
1D
100
AcDbEntity
  8
0
100
AcDbLine
 10
135.2973
 20
192.73055
 30
0.0
 11
135.4623
 21
192.40455
 31
0.0
  0
LINE
  5
3C5
330
1D
100
AcDbEntity
  8
0
100
AcDbLine
 10
134.7943
 20
193.21355
 30
0.0
 11
134.967688666879
 21
193.047055514707
 31
0.0
  0
LINE
  5
3C6
330
1D
100
AcDbEntity
  8
0
100
AcDbLine
 10
134.5753
 20
193.40355
 30
0.0
 11
134.7943
 21
193.21355
 31
0.0
  0
LINE
  5
3C7
330
1D
100
AcDbEntity
  8
0
100
AcDbLine
 10
136.250623672558
 20
190.602771024036
 30
0.0
 11
136.9943
 21
190.58555
 31
0.0
  0
LINE
  5
3C9
330
1D
100
AcDbEntity
  8
0
100
AcDbLine
 10
141.0013
 20
190.27155
 30
0.0
 11
141.5333
 21
189.72555
 31
0.0
  0
LINE
  5
3CA
330
1D
100
AcDbEntity
  8
0
100
AcDbLine
 10
140.2683
 20
190.48655
 30
0.0
 11
141.0013
 21
190.27155
 31
0.0
  0
LINE
  5
3CB
330
1D
100
AcDbEntity
  8
0
100
AcDbLine
 10
141.5333
 20
189.72555
 30
0.0
 11
141.7273
 21
188.98755
 31
0.0
  0
LINE
  5
3CC
330
1D
100
AcDbEntity
  8
0
100
AcDbLine
 10
139.5293
 20
190.51555
 30
0.0
 11
140.0763
 21
190.49655
 31
0.0
  0
LINE
  5
3CD
330
1D
100
AcDbEntity
  8
0
100
AcDbLine
 10
140.0763
 20
190.49655
 30
0.0
 11
140.2683
 21
190.48655
 31
0.0
  0
LINE
  5
3CE
330
1D
100
AcDbEntity
  8
0
100
AcDbLine
 10
137.9323
 20
190.56155
 30
0.0
 11
138.6423
 21
190.54155
 31
0.0
  0
LINE
  5
3CF
330
1D
100
AcDbEntity
  8
0
100
AcDbLine
 10
136.9943
 20
190.58555
 30
0.0
 11
137.9323
 21
190.56155
 31
0.0
  0
LINE
  5
3D0
330
1D
100
AcDbEntity
  8
0
100
AcDbLine
 10
138.6423
 20
190.54155
 30
0.0
 11
139.5293
 21
190.51555
 31
0.0
  0
LINE
  5
3D3
330
1D
100
AcDbEntity
  8
0
100
AcDbLine
 10
141.7273
 20
188.98755
 30
0.0
 11
141.7333
 21
177.08055
 31
0.0
  0
LINE
  5
3D4
330
1D
100
AcDbEntity
  8
0
100
AcDbLine
 10
141.7313
 20
176.08355
 30
0.0
 11
141.7333
 21
177.08055
 31
0.0
  0
LINE
  5
3D5
330
1D
100
AcDbEntity
  8
0
100
AcDbLine
 10
141.7183
 20
174.01555
 30
0.0
 11
141.7313
 21
176.08355
 31
0.0
  0
LINE
  5
F74
330
1D
100
AcDbEntity
  8
0
100
AcDbLine
 10
292.8776
 20
368.14865
 30
0.0
 11
292.8776
 21
366.54165
 31
0.0
  0
LINE
  5
F75
330
1D
100
AcDbEntity
  8
0
100
AcDbLine
 10
292.8776
 20
368.14865
 30
0.0
 11
294.6776
 21
377.95465
 31
0.0
  0
LINE
  5
F76
330
1D
100
AcDbEntity
  8
0
100
AcDbLine
 10
292.8776
 20
366.54165
 30
0.0
 11
294.6776
 21
356.73665
 31
0.0
  0
LINE
  5
F77
330
1D
100
AcDbEntity
  8
0
100
AcDbLine
 10
292.8776
 20
366.54165
 30
0.0
 11
292.8776
 21
368.14865
 31
0.0
  0
LINE
  5
F78
330
1D
100
AcDbEntity
  8
0
100
AcDbLine
 10
292.8776
 20
375.54165
 30
0.0
 11
294.6776
 21
385.34565
 31
0.0
  0
LINE
  5
F79
330
1D
100
AcDbEntity
  8
0
100
AcDbLine
 10
292.8776
 20
375.54165
 30
0.0
 11
292.8776
 21
368.79165
 31
0.0
  0
LINE
  5
F7A
330
1D
100
AcDbEntity
  8
0
100
AcDbLine
 10
294.6776
 20
377.95465
 30
0.0
 11
299.5776
 21
387.22365
 31
0.0
  0
LINE
  5
F7B
330
1D
100
AcDbEntity
  8
0
100
AcDbLine
 10
294.6776
 20
377.95465
 30
0.0
 11
299.5776
 21
387.22365
 31
0.0
  0
LINE
  5
F7C
330
1D
100
AcDbEntity
  8
0
100
AcDbLine
 10
294.6776
 20
356.73665
 30
0.0
 11
295.1776
 21
355.20665
 31
0.0
  0
LINE
  5
F7D
330
1D
100
AcDbEntity
  8
0
100
AcDbLine
 10
294.6776
 20
378.59665
 30
0.0
 11
299.5776
 21
387.86665
 31
0.0
  0
LINE
  5
F7E
330
1D
100
AcDbEntity
  8
0
100
AcDbLine
 10
294.6776
 20
385.34565
 30
0.0
 11
299.5776
 21
394.61565
 31
0.0
  0
LINE
  5
F7F
330
1D
100
AcDbEntity
  8
0
100
AcDbLine
 10
294.6776
 20
378.59665
 30
0.0
 11
299.5776
 21
387.86665
 31
0.0
  0
LINE
  5
F80
330
1D
100
AcDbEntity
  8
0
100
AcDbLine
 10
327.8776
 20
202.52265
 30
0.0
 11
327.8776
 21
162.55095
 31
0.0
  0
LINE
  5
F81
330
1D
100
AcDbEntity
  8
0
100
AcDbLine
 10
327.8776
 20
202.52265
 30
0.0
 11
327.9937
 21
202.28355
 31
0.0
  0
LINE
  5
F82
330
1D
100
AcDbEntity
  8
0
100
AcDbLine
 10
327.8776
 20
202.52265
 30
0.0
 11
327.8776
 21
212.55645
 31
0.0
  0
LINE
  5
F83
330
1D
100
AcDbEntity
  8
0
100
AcDbLine
 10
327.8776
 20
162.55095
 30
0.0
 11
327.8776
 21
156.28775
 31
0.0
  0
LINE
  5
F84
330
1D
100
AcDbEntity
  8
0
100
AcDbLine
 10
327.8776
 20
162.55095
 30
0.0
 11
327.8776
 21
202.52265
 31
0.0
  0
LINE
  5
F85
330
1D
100
AcDbEntity
  8
0
100
AcDbLine
 10
327.8776
 20
162.55095
 30
0.0
 11
327.8776
 21
212.55645
 31
0.0
  0
LINE
  5
F86
330
1D
100
AcDbEntity
  8
0
100
AcDbLine
 10
327.8776
 20
156.28775
 30
0.0
 11
328.0252
 21
156.04085
 31
0.0
  0
LINE
  5
F87
330
1D
100
AcDbEntity
  8
0
100
AcDbLine
 10
327.8776
 20
156.28775
 30
0.0
 11
327.8776
 21
162.55095
 31
0.0
  0
LINE
  5
F88
330
1D
100
AcDbEntity
  8
0
100
AcDbLine
 10
329.9655
 20
154.91435
 30
0.0
 11
331.3736
 21
154.55645
 31
0.0
  0
LINE
  5
F89
330
1D
100
AcDbEntity
  8
0
100
AcDbLine
 10
328.9457
 20
155.37445
 30
0.0
 11
329.9655
 21
154.91435
 31
0.0
  0
LINE
  5
F8A
330
1D
100
AcDbEntity
  8
0
100
AcDbLine
 10
328.3178
 20
155.77325
 30
0.0
 11
328.9457
 21
155.37445
 31
0.0
  0
LINE
  5
F8B
330
1D
100
AcDbEntity
  8
0
100
AcDbLine
 10
329.4491
 20
201.44335
 30
0.0
 11
331.3981
 21
200.97315
 31
0.0
  0
LINE
  5
F8C
330
1D
100
AcDbEntity
  8
0
100
AcDbLine
 10
328.5666
 20
201.80575
 30
0.0
 11
329.4491
 21
201.44335
 31
0.0
  0
LINE
  5
F8D
330
1D
100
AcDbEntity
  8
0
100
AcDbLine
 10
328.0252
 20
156.04085
 30
0.0
 11
328.3178
 21
155.77325
 31
0.0
  0
LINE
  5
F8E
330
1D
100
AcDbEntity
  8
0
100
AcDbLine
 10
327.9937
 20
202.28355
 30
0.0
 11
328.5666
 21
201.80575
 31
0.0
  0
LINE
  5
F8F
330
1D
100
AcDbEntity
  8
0
100
AcDbLine
 10
327.8776
 20
212.55645
 30
0.0
 11
327.8776
 21
162.55095
 31
0.0
  0
LINE
  5
F90
330
1D
100
AcDbEntity
  8
0
100
AcDbLine
 10
327.8776
 20
212.55645
 30
0.0
 11
330.8776
 21
212.55645
 31
0.0
  0
LINE
  5
F91
330
1D
100
AcDbEntity
  8
0
100
AcDbLine
 10
327.8776
 20
212.55645
 30
0.0
 11
327.8776
 21
202.52265
 31
0.0
  0
LINE
  5
F92
330
1D
100
AcDbEntity
  8
0
100
AcDbLine
 10
317.8952
 20
337.35565
 30
0.0
 11
318.5749
 21
337.61865
 31
0.0
  0
LINE
  5
F93
330
1D
100
AcDbEntity
  8
0
100
AcDbLine
 10
295.1776
 20
355.20665
 30
0.0
 11
299.9776
 21
346.09065
 31
0.0
  0
LINE
  5
F94
330
1D
100
AcDbEntity
  8
0
100
AcDbLine
 10
306.5716
 20
350.05865
 30
0.0
 11
307.1268
 21
350.45865
 31
0.0
  0
LINE
  5
F95
330
1D
100
AcDbEntity
  8
0
100
AcDbLine
 10
307.1268
 20
350.45865
 30
0.0
 11
307.1693
 21
351.04065
 31
0.0
  0
LINE
  5
F96
330
1D
100
AcDbEntity
  8
0
100
AcDbLine
 10
305.8112
 20
350.09065
 30
0.0
 11
306.5716
 21
350.05865
 31
0.0
  0
LINE
  5
F97
330
1D
100
AcDbEntity
  8
0
100
AcDbLine
 10
305.2899
 20
350.51665
 30
0.0
 11
305.3324
 21
351.09965
 31
0.0
  0
LINE
  5
F98
330
1D
100
AcDbEntity
  8
0
100
AcDbLine
 10
305.2899
 20
350.51665
 30
0.0
 11
305.8112
 21
350.09065
 31
0.0
  0
LINE
  5
F99
330
1D
100
AcDbEntity
  8
0
100
AcDbLine
 10
305.8876
 20
351.49865
 30
0.0
 11
306.648
 21
351.46565
 31
0.0
  0
LINE
  5
F9A
330
1D
100
AcDbEntity
  8
0
100
AcDbLine
 10
306.648
 20
351.46565
 30
0.0
 11
307.1693
 21
351.04065
 31
0.0
  0
LINE
  5
F9B
330
1D
100
AcDbEntity
  8
0
100
AcDbLine
 10
305.3324
 20
351.09965
 30
0.0
 11
305.8876
 21
351.49865
 31
0.0
  0
LINE
  5
F9C
330
1D
100
AcDbEntity
  8
0
100
AcDbLine
 10
304.6437
 20
355.05365
 30
0.0
 11
305.281
 21
355.37365
 31
0.0
  0
LINE
  5
F9D
330
1D
100
AcDbEntity
  8
0
100
AcDbLine
 10
303.9023
 20
355.18765
 30
0.0
 11
304.6437
 21
355.05365
 31
0.0
  0
LINE
  5
F9E
330
1D
100
AcDbEntity
  8
0
100
AcDbLine
 10
299.9776
 20
346.09065
 30
0.0
 11
307.8776
 21
338.12265
 31
0.0
  0
LINE
  5
F9F
330
1D
100
AcDbEntity
  8
0
100
AcDbLine
 10
303.1776
 20
361.53265
 30
0.0
 11
303.8776
 21
361.76265
 31
0.0
  0
LINE
  5
FA0
330
1D
100
AcDbEntity
  8
0
100
AcDbLine
 10
302.8776
 20
360.99665
 30
0.0
 11
303.1776
 21
360.46065
 31
0.0
  0
LINE
  5
FA1
330
1D
100
AcDbEntity
  8
0
100
AcDbLine
 10
302.8776
 20
360.99665
 30
0.0
 11
303.1776
 21
361.53265
 31
0.0
  0
LINE
  5
FA2
330
1D
100
AcDbEntity
  8
0
100
AcDbLine
 10
303.4853
 20
355.67665
 30
0.0
 11
303.6592
 21
356.24365
 31
0.0
  0
LINE
  5
FA3
330
1D
100
AcDbEntity
  8
0
100
AcDbLine
 10
303.4853
 20
355.67665
 30
0.0
 11
303.9023
 21
355.18765
 31
0.0
  0
LINE
  5
FA4
330
1D
100
AcDbEntity
  8
0
100
AcDbLine
 10
303.6592
 20
356.24365
 30
0.0
 11
304.2964
 21
356.56365
 31
0.0
  0
LINE
  5
FA5
330
1D
100
AcDbEntity
  8
0
100
AcDbLine
 10
303.1776
 20
360.46065
 30
0.0
 11
303.8776
 21
360.23065
 31
0.0
  0
LINE
  5
FA6
330
1D
100
AcDbEntity
  8
0
100
AcDbLine
 10
303.4853
 20
366.31765
 30
0.0
 11
303.6592
 21
365.74965
 31
0.0
  0
LINE
  5
FA7
330
1D
100
AcDbEntity
  8
0
100
AcDbLine
 10
303.4853
 20
366.31765
 30
0.0
 11
303.9023
 21
366.80565
 31
0.0
  0
LINE
  5
FA8
330
1D
100
AcDbEntity
  8
0
100
AcDbLine
 10
304.2964
 20
356.56365
 30
0.0
 11
305.0379
 21
356.42965
 31
0.0
  0
LINE
  5
FA9
330
1D
100
AcDbEntity
  8
0
100
AcDbLine
 10
303.8776
 20
360.23065
 30
0.0
 11
304.5776
 21
360.46065
 31
0.0
  0
LINE
  5
FAA
330
1D
100
AcDbEntity
  8
0
100
AcDbLine
 10
303.8776
 20
361.76265
 30
0.0
 11
304.5776
 21
361.53265
 31
0.0
  0
LINE
  5
FAB
330
1D
100
AcDbEntity
  8
0
100
AcDbLine
 10
305.0379
 20
356.42965
 30
0.0
 11
305.4549
 21
355.94165
 31
0.0
  0
LINE
  5
FAC
330
1D
100
AcDbEntity
  8
0
100
AcDbLine
 10
305.281
 20
355.37365
 30
0.0
 11
305.4549
 21
355.94165
 31
0.0
  0
LINE
  5
FAD
330
1D
100
AcDbEntity
  8
0
100
AcDbLine
 10
304.5776
 20
360.46065
 30
0.0
 11
304.8776
 21
360.99665
 31
0.0
  0
LINE
  5
FAE
330
1D
100
AcDbEntity
  8
0
100
AcDbLine
 10
304.5776
 20
361.53265
 30
0.0
 11
304.8776
 21
360.99665
 31
0.0
  0
LINE
  5
FAF
330
1D
100
AcDbEntity
  8
0
100
AcDbLine
 10
304.2964
 20
365.42965
 30
0.0
 11
305.0379
 21
365.56365
 31
0.0
  0
LINE
  5
FB0
330
1D
100
AcDbEntity
  8
0
100
AcDbLine
 10
305.0379
 20
365.56365
 30
0.0
 11
305.4549
 21
366.05165
 31
0.0
  0
LINE
  5
FB1
330
1D
100
AcDbEntity
  8
0
100
AcDbLine
 10
305.281
 20
366.61965
 30
0.0
 11
305.4549
 21
366.05165
 31
0.0
  0
LINE
  5
FB2
330
1D
100
AcDbEntity
  8
0
100
AcDbLine
 10
304.6437
 20
366.93865
 30
0.0
 11
305.281
 21
366.61965
 31
0.0
  0
LINE
  5
FB3
330
1D
100
AcDbEntity
  8
0
100
AcDbLine
 10
303.9023
 20
366.80565
 30
0.0
 11
304.6437
 21
366.93865
 31
0.0
  0
LINE
  5
FB4
330
1D
100
AcDbEntity
  8
0
100
AcDbLine
 10
303.6592
 20
365.74965
 30
0.0
 11
304.2964
 21
365.42965
 31
0.0
  0
LINE
  5
FB5
330
1D
100
AcDbEntity
  8
0
100
AcDbLine
 10
305.8876
 20
370.49465
 30
0.0
 11
306.648
 21
370.52765
 31
0.0
  0
LINE
  5
FB6
330
1D
100
AcDbEntity
  8
0
100
AcDbLine
 10
306.648
 20
370.52765
 30
0.0
 11
307.1693
 21
370.95265
 31
0.0
  0
LINE
  5
FB7
330
1D
100
AcDbEntity
  8
0
100
AcDbLine
 10
307.1268
 20
371.53465
 30
0.0
 11
307.1693
 21
370.95265
 31
0.0
  0
LINE
  5
FB8
330
1D
100
AcDbEntity
  8
0
100
AcDbLine
 10
306.5716
 20
371.93465
 30
0.0
 11
307.1268
 21
371.53465
 31
0.0
  0
LINE
  5
FB9
330
1D
100
AcDbEntity
  8
0
100
AcDbLine
 10
305.8112
 20
371.90165
 30
0.0
 11
306.5716
 21
371.93465
 31
0.0
  0
LINE
  5
FBA
330
1D
100
AcDbEntity
  8
0
100
AcDbLine
 10
305.2899
 20
371.47765
 30
0.0
 11
305.3324
 21
370.89365
 31
0.0
  0
LINE
  5
FBB
330
1D
100
AcDbEntity
  8
0
100
AcDbLine
 10
305.2899
 20
371.47765
 30
0.0
 11
305.8112
 21
371.90165
 31
0.0
  0
LINE
  5
FBC
330
1D
100
AcDbEntity
  8
0
100
AcDbLine
 10
305.3324
 20
370.89365
 30
0.0
 11
305.8876
 21
370.49465
 31
0.0
  0
LINE
  5
FBD
330
1D
100
AcDbEntity
  8
0
100
AcDbLine
 10
299.5776
 20
387.22365
 30
0.0
 11
307.5776
 21
395.19065
 31
0.0
  0
LINE
  5
FBE
330
1D
100
AcDbEntity
  8
0
100
AcDbLine
 10
295.1776
 20
355.20665
 30
0.0
 11
299.9776
 21
346.09065
 31
0.0
  0
LINE
  5
FBF
330
1D
100
AcDbEntity
  8
0
100
AcDbLine
 10
309.6026
 20
345.39565
 30
0.0
 11
310.0588
 21
345.86265
 31
0.0
  0
LINE
  5
FC0
330
1D
100
AcDbEntity
  8
0
100
AcDbLine
 10
308.8464
 20
345.32565
 30
0.0
 11
309.6026
 21
345.39565
 31
0.0
  0
LINE
  5
FC1
330
1D
100
AcDbEntity
  8
0
100
AcDbLine
 10
308.6026
 20
346.72265
 30
0.0
 11
309.3588
 21
346.79065
 31
0.0
  0
LINE
  5
FC2
330
1D
100
AcDbEntity
  8
0
100
AcDbLine
 10
309.3588
 20
346.79065
 30
0.0
 11
309.9686
 21
346.44265
 31
0.0
  0
LINE
  5
FC3
330
1D
100
AcDbEntity
  8
0
100
AcDbLine
 10
309.9686
 20
346.44265
 30
0.0
 11
310.0588
 21
345.86265
 31
0.0
  0
LINE
  5
FC4
330
1D
100
AcDbEntity
  8
0
100
AcDbLine
 10
308.2366
 20
345.67565
 30
0.0
 11
308.8464
 21
345.32565
 31
0.0
  0
LINE
  5
FC5
330
1D
100
AcDbEntity
  8
0
100
AcDbLine
 10
308.1464
 20
346.25565
 30
0.0
 11
308.6026
 21
346.72265
 31
0.0
  0
LINE
  5
FC6
330
1D
100
AcDbEntity
  8
0
100
AcDbLine
 10
308.1464
 20
346.25565
 30
0.0
 11
308.2366
 21
345.67565
 31
0.0
  0
LINE
  5
FC7
330
1D
100
AcDbEntity
  8
0
100
AcDbLine
 10
311.0345
 20
358.63565
 30
0.0
 11
311.2723
 21
359.19065
 31
0.0
  0
LINE
  5
FC8
330
1D
100
AcDbEntity
  8
0
100
AcDbLine
 10
311.0345
 20
358.63565
 30
0.0
 11
311.3943
 21
358.12165
 31
0.0
  0
LINE
  5
FC9
330
1D
100
AcDbEntity
  8
0
100
AcDbLine
 10
311.2723
 20
359.19065
 30
0.0
 11
311.9435
 21
359.46665
 31
0.0
  0
LINE
  5
FCA
330
1D
100
AcDbEntity
  8
0
100
AcDbLine
 10
311.0345
 20
362.90465
 30
0.0
 11
311.2723
 21
362.34965
 31
0.0
  0
LINE
  5
FCB
330
1D
100
AcDbEntity
  8
0
100
AcDbLine
 10
311.0345
 20
362.90465
 30
0.0
 11
311.3943
 21
363.41865
 31
0.0
  0
LINE
  5
FCC
330
1D
100
AcDbEntity
  8
0
100
AcDbLine
 10
311.9435
 20
359.46665
 30
0.0
 11
312.667
 21
359.28365
 31
0.0
  0
LINE
  5
FCD
330
1D
100
AcDbEntity
  8
0
100
AcDbLine
 10
311.3943
 20
358.12165
 30
0.0
 11
312.1178
 21
357.93965
 31
0.0
  0
LINE
  5
FCE
330
1D
100
AcDbEntity
  8
0
100
AcDbLine
 10
312.0157
 20
341.85865
 30
0.0
 11
312.3591
 21
342.37965
 31
0.0
  0
LINE
  5
FCF
330
1D
100
AcDbEntity
  8
0
100
AcDbLine
 10
312.0157
 20
341.85865
 30
0.0
 11
312.2358
 21
341.30065
 31
0.0
  0
LINE
  5
FD0
330
1D
100
AcDbEntity
  8
0
100
AcDbLine
 10
312.002
 20
354.43265
 30
0.0
 11
312.1106
 21
355.00965
 31
0.0
  0
LINE
  5
FD1
330
1D
100
AcDbEntity
  8
0
100
AcDbLine
 10
312.002
 20
354.43265
 30
0.0
 11
312.4729
 21
353.97465
 31
0.0
  0
LINE
  5
FD2
330
1D
100
AcDbEntity
  8
0
100
AcDbLine
 10
312.3591
 20
342.37965
 30
0.0
 11
313.0881
 21
342.54765
 31
0.0
  0
LINE
  5
FD3
330
1D
100
AcDbEntity
  8
0
100
AcDbLine
 10
312.2358
 20
341.30065
 30
0.0
 11
312.9156
 21
341.03765
 31
0.0
  0
LINE
  5
FD4
330
1D
100
AcDbEntity
  8
0
100
AcDbLine
 10
312.7091
 20
355.37065
 30
0.0
 11
313.4629
 21
355.28765
 31
0.0
  0
LINE
  5
FD5
330
1D
100
AcDbEntity
  8
0
100
AcDbLine
 10
312.4729
 20
353.97465
 30
0.0
 11
313.2267
 21
353.89065
 31
0.0
  0
LINE
  5
FD6
330
1D
100
AcDbEntity
  8
0
100
AcDbLine
 10
312.1106
 20
355.00965
 30
0.0
 11
312.7091
 21
355.37065
 31
0.0
  0
LINE
  5
FD7
330
1D
100
AcDbEntity
  8
0
100
AcDbLine
 10
312.667
 20
359.28365
 30
0.0
 11
313.0268
 21
358.76965
 31
0.0
  0
LINE
  5
FD8
330
1D
100
AcDbEntity
  8
0
100
AcDbLine
 10
312.789
 20
358.21565
 30
0.0
 11
313.0268
 21
358.76965
 31
0.0
  0
LINE
  5
FD9
330
1D
100
AcDbEntity
  8
0
100
AcDbLine
 10
312.1178
 20
357.93965
 30
0.0
 11
312.789
 21
358.21565
 31
0.0
  0
LINE
  5
FDA
330
1D
100
AcDbEntity
  8
0
100
AcDbLine
 10
311.9435
 20
362.07465
 30
0.0
 11
312.667
 21
362.25665
 31
0.0
  0
LINE
  5
FDB
330
1D
100
AcDbEntity
  8
0
100
AcDbLine
 10
312.667
 20
362.25665
 30
0.0
 11
313.0268
 21
362.77065
 31
0.0
  0
LINE
  5
FDC
330
1D
100
AcDbEntity
  8
0
100
AcDbLine
 10
313.0881
 20
342.54765
 30
0.0
 11
313.7679
 21
342.28465
 31
0.0
  0
LINE
  5
FDD
330
1D
100
AcDbEntity
  8
0
100
AcDbLine
 10
312.9156
 20
341.03765
 30
0.0
 11
313.6447
 21
341.20565
 31
0.0
  0
LINE
  5
FDE
330
1D
100
AcDbEntity
  8
0
100
AcDbLine
 10
313.4629
 20
355.28765
 30
0.0
 11
313.9338
 21
354.82965
 31
0.0
  0
LINE
  5
FDF
330
1D
100
AcDbEntity
  8
0
100
AcDbLine
 10
313.2267
 20
353.89065
 30
0.0
 11
313.8252
 21
354.25165
 31
0.0
  0
LINE
  5
FE0
330
1D
100
AcDbEntity
  8
0
100
AcDbLine
 10
312.789
 20
363.32465
 30
0.0
 11
313.0268
 21
362.77065
 31
0.0
  0
LINE
  5
FE1
330
1D
100
AcDbEntity
  8
0
100
AcDbLine
 10
312.1178
 20
363.60165
 30
0.0
 11
312.789
 21
363.32465
 31
0.0
  0
LINE
  5
FE2
330
1D
100
AcDbEntity
  8
0
100
AcDbLine
 10
311.3943
 20
363.41865
 30
0.0
 11
312.1178
 21
363.60165
 31
0.0
  0
LINE
  5
FE3
330
1D
100
AcDbEntity
  8
0
100
AcDbLine
 10
311.2723
 20
362.34965
 30
0.0
 11
311.9435
 21
362.07465
 31
0.0
  0
LINE
  5
FE4
330
1D
100
AcDbEntity
  8
0
100
AcDbLine
 10
312.7091
 20
366.16965
 30
0.0
 11
313.4629
 21
366.25265
 31
0.0
  0
LINE
  5
FE5
330
1D
100
AcDbEntity
  8
0
100
AcDbLine
 10
313.7679
 20
342.28465
 30
0.0
 11
313.988
 21
341.72665
 31
0.0
  0
LINE
  5
FE6
330
1D
100
AcDbEntity
  8
0
100
AcDbLine
 10
313.6447
 20
341.20565
 30
0.0
 11
313.988
 21
341.72665
 31
0.0
  0
LINE
  5
FE7
330
1D
100
AcDbEntity
  8
0
100
AcDbLine
 10
315.2366
 20
350.05065
 30
0.0
 11
315.7442
 21
350.48665
 31
0.0
  0
LINE
  5
FE8
330
1D
100
AcDbEntity
  8
0
100
AcDbLine
 10
314.4754
 20
350.03365
 30
0.0
 11
315.2366
 21
350.05065
 31
0.0
  0
LINE
  5
FE9
330
1D
100
AcDbEntity
  8
0
100
AcDbLine
 10
313.9077
 20
350.42265
 30
0.0
 11
314.4754
 21
350.03365
 31
0.0
  0
LINE
  5
FEA
330
1D
100
AcDbEntity
  8
0
100
AcDbLine
 10
314.3914
 20
351.43965
 30
0.0
 11
315.1526
 21
351.45865
 31
0.0
  0
LINE
  5
FEB
330
1D
100
AcDbEntity
  8
0
100
AcDbLine
 10
313.8252
 20
354.25165
 30
0.0
 11
313.9338
 21
354.82965
 31
0.0
  0
LINE
  5
FEC
330
1D
100
AcDbEntity
  8
0
100
AcDbLine
 10
315.1526
 20
351.45865
 30
0.0
 11
315.7203
 21
351.06965
 31
0.0
  0
LINE
  5
FED
330
1D
100
AcDbEntity
  8
0
100
AcDbLine
 10
315.7203
 20
351.06965
 30
0.0
 11
315.7442
 21
350.48665
 31
0.0
  0
LINE
  5
FEE
330
1D
100
AcDbEntity
  8
0
100
AcDbLine
 10
313.8837
 20
351.00465
 30
0.0
 11
314.3914
 21
351.43965
 31
0.0
  0
LINE
  5
FEF
330
1D
100
AcDbEntity
  8
0
100
AcDbLine
 10
313.8837
 20
351.00465
 30
0.0
 11
313.9077
 21
350.42265
 31
0.0
  0
LINE
  5
FF0
330
1D
100
AcDbEntity
  8
0
100
AcDbLine
 10
316.6936
 20
346.72565
 30
0.0
 11
317.3408
 21
346.41865
 31
0.0
  0
LINE
  5
FF1
330
1D
100
AcDbEntity
  8
0
100
AcDbLine
 10
316.5378
 20
347.29665
 30
0.0
 11
316.9392
 21
347.79265
 31
0.0
  0
LINE
  5
FF2
330
1D
100
AcDbEntity
  8
0
100
AcDbLine
 10
316.5378
 20
347.29665
 30
0.0
 11
316.6936
 21
346.72565
 31
0.0
  0
LINE
  5
FF3
330
1D
100
AcDbEntity
  8
0
100
AcDbLine
 10
317.0428
 20
338.60265
 30
0.0
 11
317.7226
 21
338.86565
 31
0.0
  0
LINE
  5
FF4
330
1D
100
AcDbEntity
  8
0
100
AcDbLine
 10
316.9392
 20
347.79265
 30
0.0
 11
317.6846
 21
347.91165
 31
0.0
  0
LINE
  5
FF5
330
1D
100
AcDbEntity
  8
0
100
AcDbLine
 10
317.6846
 20
347.91165
 30
0.0
 11
318.3319
 21
347.60465
 31
0.0
  0
LINE
  5
FF6
330
1D
100
AcDbEntity
  8
0
100
AcDbLine
 10
317.3408
 20
346.41865
 30
0.0
 11
318.0863
 21
346.53765
 31
0.0
  0
LINE
  5
FF7
330
1D
100
AcDbEntity
  8
0
100
AcDbLine
 10
318.3319
 20
347.60465
 30
0.0
 11
318.4876
 21
347.03265
 31
0.0
  0
LINE
  5
FF8
330
1D
100
AcDbEntity
  8
0
100
AcDbLine
 10
318.0863
 20
346.53765
 30
0.0
 11
318.4876
 21
347.03265
 31
0.0
  0
LINE
  5
FF9
330
1D
100
AcDbEntity
  8
0
100
AcDbLine
 10
317.7226
 20
338.86565
 30
0.0
 11
318.4517
 21
338.69765
 31
0.0
  0
LINE
  5
FFA
330
1D
100
AcDbEntity
  8
0
100
AcDbLine
 10
318.4517
 20
338.69765
 30
0.0
 11
318.7951
 21
338.17665
 31
0.0
  0
LINE
  5
FFB
330
1D
100
AcDbEntity
  8
0
100
AcDbLine
 10
318.5749
 20
337.61865
 30
0.0
 11
318.7951
 21
338.17665
 31
0.0
  0
LINE
  5
FFC
330
1D
100
AcDbEntity
  8
0
100
AcDbLine
 10
317.1661
 20
337.52365
 30
0.0
 11
317.8952
 21
337.35565
 31
0.0
  0
LINE
  5
FFD
330
1D
100
AcDbEntity
  8
0
100
AcDbLine
 10
316.8227
 20
338.04465
 30
0.0
 11
317.0428
 21
338.60265
 31
0.0
  0
LINE
  5
FFE
330
1D
100
AcDbEntity
  8
0
100
AcDbLine
 10
316.8227
 20
338.04465
 30
0.0
 11
317.1661
 21
337.52365
 31
0.0
  0
LINE
  5
FFF
330
1D
100
AcDbEntity
  8
0
100
AcDbLine
 10
318.9128
 20
360.54465
 30
0.0
 11
319.2128
 21
360.00765
 31
0.0
  0
LINE
  5
1000
330
1D
100
AcDbEntity
  8
0
100
AcDbLine
 10
318.9128
 20
360.54465
 30
0.0
 11
319.2128
 21
361.07965
 31
0.0
  0
LINE
  5
1001
330
1D
100
AcDbEntity
  8
0
100
AcDbLine
 10
313.4629
 20
366.25265
 30
0.0
 11
313.9338
 21
366.71165
 31
0.0
  0
LINE
  5
1002
330
1D
100
AcDbEntity
  8
0
100
AcDbLine
 10
308.6026
 20
375.27165
 30
0.0
 11
309.3588
 21
375.20265
 31
0.0
  0
LINE
  5
1003
330
1D
100
AcDbEntity
  8
0
100
AcDbLine
 10
309.3588
 20
375.20265
 30
0.0
 11
309.9686
 21
375.55065
 31
0.0
  0
LINE
  5
1004
330
1D
100
AcDbEntity
  8
0
100
AcDbLine
 10
309.9686
 20
375.55065
 30
0.0
 11
310.0588
 21
376.13065
 31
0.0
  0
LINE
  5
1005
330
1D
100
AcDbEntity
  8
0
100
AcDbLine
 10
309.6026
 20
376.59765
 30
0.0
 11
310.0588
 21
376.13065
 31
0.0
  0
LINE
  5
1006
330
1D
100
AcDbEntity
  8
0
100
AcDbLine
 10
308.8464
 20
376.66765
 30
0.0
 11
309.6026
 21
376.59765
 31
0.0
  0
LINE
  5
1007
330
1D
100
AcDbEntity
  8
0
100
AcDbLine
 10
308.2366
 20
376.31765
 30
0.0
 11
308.8464
 21
376.66765
 31
0.0
  0
LINE
  5
1008
330
1D
100
AcDbEntity
  8
0
100
AcDbLine
 10
308.1464
 20
375.73765
 30
0.0
 11
308.6026
 21
375.27165
 31
0.0
  0
LINE
  5
1009
330
1D
100
AcDbEntity
  8
0
100
AcDbLine
 10
308.1464
 20
375.73765
 30
0.0
 11
308.2366
 21
376.31765
 31
0.0
  0
LINE
  5
100A
330
1D
100
AcDbEntity
  8
0
100
AcDbLine
 10
313.8252
 20
367.28865
 30
0.0
 11
313.9338
 21
366.71165
 31
0.0
  0
LINE
  5
100B
330
1D
100
AcDbEntity
  8
0
100
AcDbLine
 10
312.3591
 20
379.61365
 30
0.0
 11
313.0881
 21
379.44565
 31
0.0
  0
LINE
  5
100C
330
1D
100
AcDbEntity
  8
0
100
AcDbLine
 10
313.0881
 20
379.44565
 30
0.0
 11
313.7679
 21
379.70865
 31
0.0
  0
LINE
  5
100D
330
1D
100
AcDbEntity
  8
0
100
AcDbLine
 10
312.9156
 20
380.95565
 30
0.0
 11
313.6447
 21
380.78765
 31
0.0
  0
LINE
  5
100E
330
1D
100
AcDbEntity
  8
0
100
AcDbLine
 10
312.2358
 20
380.69265
 30
0.0
 11
312.9156
 21
380.95565
 31
0.0
  0
LINE
  5
100F
330
1D
100
AcDbEntity
  8
0
100
AcDbLine
 10
312.0157
 20
380.13465
 30
0.0
 11
312.3591
 21
379.61365
 31
0.0
  0
LINE
  5
1010
330
1D
100
AcDbEntity
  8
0
100
AcDbLine
 10
312.0157
 20
380.13465
 30
0.0
 11
312.2358
 21
380.69265
 31
0.0
  0
LINE
  5
1011
330
1D
100
AcDbEntity
  8
0
100
AcDbLine
 10
314.3914
 20
370.10065
 30
0.0
 11
315.1526
 21
370.08265
 31
0.0
  0
LINE
  5
1012
330
1D
100
AcDbEntity
  8
0
100
AcDbLine
 10
315.1526
 20
370.08265
 30
0.0
 11
315.7203
 21
370.47165
 31
0.0
  0
LINE
  5
1013
330
1D
100
AcDbEntity
  8
0
100
AcDbLine
 10
315.7203
 20
370.47165
 30
0.0
 11
315.7442
 21
371.05365
 31
0.0
  0
LINE
  5
1014
330
1D
100
AcDbEntity
  8
0
100
AcDbLine
 10
315.2366
 20
371.48965
 30
0.0
 11
315.7442
 21
371.05365
 31
0.0
  0
LINE
  5
1015
330
1D
100
AcDbEntity
  8
0
100
AcDbLine
 10
314.4754
 20
371.50765
 30
0.0
 11
315.2366
 21
371.48965
 31
0.0
  0
LINE
  5
1016
330
1D
100
AcDbEntity
  8
0
100
AcDbLine
 10
313.9077
 20
371.11965
 30
0.0
 11
314.4754
 21
371.50765
 31
0.0
  0
LINE
  5
1017
330
1D
100
AcDbEntity
  8
0
100
AcDbLine
 10
313.8837
 20
370.53565
 30
0.0
 11
314.3914
 21
370.10065
 31
0.0
  0
LINE
  5
1018
330
1D
100
AcDbEntity
  8
0
100
AcDbLine
 10
313.8837
 20
370.53565
 30
0.0
 11
313.9077
 21
371.11965
 31
0.0
  0
LINE
  5
1019
330
1D
100
AcDbEntity
  8
0
100
AcDbLine
 10
316.9392
 20
373.74765
 30
0.0
 11
317.6846
 21
373.62865
 31
0.0
  0
LINE
  5
101A
330
1D
100
AcDbEntity
  8
0
100
AcDbLine
 10
317.6846
 20
373.62865
 30
0.0
 11
318.3319
 21
373.93665
 31
0.0
  0
LINE
  5
101B
330
1D
100
AcDbEntity
  8
0
100
AcDbLine
 10
318.3319
 20
373.93665
 30
0.0
 11
318.4876
 21
374.50765
 31
0.0
  0
LINE
  5
101C
330
1D
100
AcDbEntity
  8
0
100
AcDbLine
 10
313.7679
 20
379.70865
 30
0.0
 11
313.988
 21
380.26665
 31
0.0
  0
LINE
  5
101D
330
1D
100
AcDbEntity
  8
0
100
AcDbLine
 10
313.6447
 20
380.78765
 30
0.0
 11
313.988
 21
380.26665
 31
0.0
  0
LINE
  5
101E
330
1D
100
AcDbEntity
  8
0
100
AcDbLine
 10
318.0863
 20
375.00365
 30
0.0
 11
318.4876
 21
374.50765
 31
0.0
  0
LINE
  5
101F
330
1D
100
AcDbEntity
  8
0
100
AcDbLine
 10
317.0428
 20
383.39065
 30
0.0
 11
317.7226
 21
383.12765
 31
0.0
  0
LINE
  5
1020
330
1D
100
AcDbEntity
  8
0
100
AcDbLine
 10
317.1661
 20
384.46965
 30
0.0
 11
317.8952
 21
384.63765
 31
0.0
  0
LINE
  5
1021
330
1D
100
AcDbEntity
  8
0
100
AcDbLine
 10
316.8227
 20
383.94865
 30
0.0
 11
317.0428
 21
383.39065
 31
0.0
  0
LINE
  5
1022
330
1D
100
AcDbEntity
  8
0
100
AcDbLine
 10
316.8227
 20
383.94865
 30
0.0
 11
317.1661
 21
384.46965
 31
0.0
  0
LINE
  5
1023
330
1D
100
AcDbEntity
  8
0
100
AcDbLine
 10
317.7226
 20
383.12765
 30
0.0
 11
318.4517
 21
383.29565
 31
0.0
  0
LINE
  5
1024
330
1D
100
AcDbEntity
  8
0
100
AcDbLine
 10
318.4517
 20
383.29565
 30
0.0
 11
318.7951
 21
383.81665
 31
0.0
  0
LINE
  5
1025
330
1D
100
AcDbEntity
  8
0
100
AcDbLine
 10
318.5749
 20
384.37465
 30
0.0
 11
318.7951
 21
383.81665
 31
0.0
  0
LINE
  5
1026
330
1D
100
AcDbEntity
  8
0
100
AcDbLine
 10
317.8952
 20
384.63765
 30
0.0
 11
318.5749
 21
384.37465
 31
0.0
  0
LINE
  5
1027
330
1D
100
AcDbEntity
  8
0
100
AcDbLine
 10
317.3408
 20
375.12265
 30
0.0
 11
318.0863
 21
375.00365
 31
0.0
  0
LINE
  5
1028
330
1D
100
AcDbEntity
  8
0
100
AcDbLine
 10
316.6936
 20
374.81465
 30
0.0
 11
317.3408
 21
375.12265
 31
0.0
  0
LINE
  5
1029
330
1D
100
AcDbEntity
  8
0
100
AcDbLine
 10
316.5378
 20
374.24465
 30
0.0
 11
316.9392
 21
373.74765
 31
0.0
  0
LINE
  5
102A
330
1D
100
AcDbEntity
  8
0
100
AcDbLine
 10
316.5378
 20
374.24465
 30
0.0
 11
316.6936
 21
374.81465
 31
0.0
  0
LINE
  5
102B
330
1D
100
AcDbEntity
  8
0
100
AcDbLine
 10
313.2267
 20
367.64965
 30
0.0
 11
313.8252
 21
367.28865
 31
0.0
  0
LINE
  5
102C
330
1D
100
AcDbEntity
  8
0
100
AcDbLine
 10
312.4729
 20
367.56665
 30
0.0
 11
313.2267
 21
367.64965
 31
0.0
  0
LINE
  5
102D
330
1D
100
AcDbEntity
  8
0
100
AcDbLine
 10
312.002
 20
367.10765
 30
0.0
 11
312.1106
 21
366.53065
 31
0.0
  0
LINE
  5
102E
330
1D
100
AcDbEntity
  8
0
100
AcDbLine
 10
312.002
 20
367.10765
 30
0.0
 11
312.4729
 21
367.56665
 31
0.0
  0
LINE
  5
102F
330
1D
100
AcDbEntity
  8
0
100
AcDbLine
 10
312.1106
 20
366.53065
 30
0.0
 11
312.7091
 21
366.16965
 31
0.0
  0
LINE
  5
1030
330
1D
100
AcDbEntity
  8
0
100
AcDbLine
 10
307.8776
 20
338.12265
 30
0.0
 11
308.9776
 21
337.35865
 31
0.0
  0
LINE
  5
1031
330
1D
100
AcDbEntity
  8
0
100
AcDbLine
 10
308.9776
 20
337.35865
 30
0.0
 11
318.9776
 21
331.46075
 31
0.0
  0
LINE
  5
1032
330
1D
100
AcDbEntity
  8
0
100
AcDbLine
 10
319.2128
 20
361.07965
 30
0.0
 11
319.9128
 21
361.30965
 31
0.0
  0
LINE
  5
1033
330
1D
100
AcDbEntity
  8
0
100
AcDbLine
 10
320.2751
 20
343.45565
 30
0.0
 11
320.9822
 21
343.23965
 31
0.0
  0
LINE
  5
1034
330
1D
100
AcDbEntity
  8
0
100
AcDbLine
 10
320.2751
 20
344.53865
 30
0.0
 11
320.9822
 21
344.75565
 31
0.0
  0
LINE
  5
1035
330
1D
100
AcDbEntity
  8
0
100
AcDbLine
 10
319.9922
 20
343.99665
 30
0.0
 11
320.2751
 21
344.53865
 31
0.0
  0
LINE
  5
1036
330
1D
100
AcDbEntity
  8
0
100
AcDbLine
 10
319.9922
 20
343.99665
 30
0.0
 11
320.2751
 21
343.45565
 31
0.0
  0
LINE
  5
1037
330
1D
100
AcDbEntity
  8
0
100
AcDbLine
 10
320.3581
 20
354.26565
 30
0.0
 11
320.4006
 21
354.84765
 31
0.0
  0
LINE
  5
1038
330
1D
100
AcDbEntity
  8
0
100
AcDbLine
 10
320.3581
 20
354.26565
 30
0.0
 11
320.8794
 21
353.83965
 31
0.0
  0
LINE
  5
1039
330
1D
100
AcDbEntity
  8
0
100
AcDbLine
 10
320.4006
 20
354.84765
 30
0.0
 11
320.9557
 21
355.24765
 31
0.0
  0
LINE
  5
103A
330
1D
100
AcDbEntity
  8
0
100
AcDbLine
 10
319.9128
 20
359.77765
 30
0.0
 11
320.6128
 21
360.00765
 31
0.0
  0
LINE
  5
103B
330
1D
100
AcDbEntity
  8
0
100
AcDbLine
 10
320.6128
 20
360.00765
 30
0.0
 11
320.9128
 21
360.54465
 31
0.0
  0
LINE
  5
103C
330
1D
100
AcDbEntity
  8
0
100
AcDbLine
 10
320.9822
 20
344.75565
 30
0.0
 11
321.6893
 21
344.53865
 31
0.0
  0
LINE
  5
103D
330
1D
100
AcDbEntity
  8
0
100
AcDbLine
 10
321.6893
 20
344.53865
 30
0.0
 11
321.9721
 21
343.99665
 31
0.0
  0
LINE
  5
103E
330
1D
100
AcDbEntity
  8
0
100
AcDbLine
 10
321.6893
 20
343.45565
 30
0.0
 11
321.9721
 21
343.99665
 31
0.0
  0
LINE
  5
103F
330
1D
100
AcDbEntity
  8
0
100
AcDbLine
 10
320.9822
 20
343.23965
 30
0.0
 11
321.6893
 21
343.45565
 31
0.0
  0
LINE
  5
1040
330
1D
100
AcDbEntity
  8
0
100
AcDbLine
 10
320.9557
 20
355.24765
 30
0.0
 11
321.7161
 21
355.21465
 31
0.0
  0
LINE
  5
1041
330
1D
100
AcDbEntity
  8
0
100
AcDbLine
 10
321.7161
 20
355.21465
 30
0.0
 11
322.2375
 21
354.78965
 31
0.0
  0
LINE
  5
1042
330
1D
100
AcDbEntity
  8
0
100
AcDbLine
 10
321.6398
 20
353.80765
 30
0.0
 11
322.195
 21
354.20665
 31
0.0
  0
LINE
  5
1043
330
1D
100
AcDbEntity
  8
0
100
AcDbLine
 10
320.8794
 20
353.83965
 30
0.0
 11
321.6398
 21
353.80765
 31
0.0
  0
LINE
  5
1044
330
1D
100
AcDbEntity
  8
0
100
AcDbLine
 10
320.6128
 20
361.07965
 30
0.0
 11
320.9128
 21
360.54465
 31
0.0
  0
LINE
  5
1045
330
1D
100
AcDbEntity
  8
0
100
AcDbLine
 10
319.9128
 20
361.30965
 30
0.0
 11
320.6128
 21
361.07965
 31
0.0
  0
LINE
  5
1046
330
1D
100
AcDbEntity
  8
0
100
AcDbLine
 10
319.2128
 20
360.00765
 30
0.0
 11
319.9128
 21
359.77765
 31
0.0
  0
LINE
  5
1047
330
1D
100
AcDbEntity
  8
0
100
AcDbLine
 10
320.9557
 20
365.84065
 30
0.0
 11
321.7161
 21
365.87365
 31
0.0
  0
LINE
  5
1048
330
1D
100
AcDbEntity
  8
0
100
AcDbLine
 10
323.6338
 20
334.39145
 30
0.0
 11
324.2436
 21
334.74025
 31
0.0
  0
LINE
  5
1049
330
1D
100
AcDbEntity
  8
0
100
AcDbLine
 10
322.5116
 20
335.50665
 30
0.0
 11
323.1214
 21
335.85565
 31
0.0
  0
LINE
  5
104A
330
1D
100
AcDbEntity
  8
0
100
AcDbLine
 10
323.1214
 20
335.85565
 30
0.0
 11
323.8776
 21
335.78765
 31
0.0
  0
LINE
  5
104B
330
1D
100
AcDbEntity
  8
0
100
AcDbLine
 10
323.8776
 20
335.78765
 30
0.0
 11
324.3338
 21
335.31965
 31
0.0
  0
LINE
  5
104C
330
1D
100
AcDbEntity
  8
0
100
AcDbLine
 10
324.2436
 20
334.74025
 30
0.0
 11
324.3338
 21
335.31965
 31
0.0
  0
LINE
  5
104D
330
1D
100
AcDbEntity
  8
0
100
AcDbLine
 10
322.8776
 20
334.45985
 30
0.0
 11
323.6338
 21
334.39145
 31
0.0
  0
LINE
  5
104E
330
1D
100
AcDbEntity
  8
0
100
AcDbLine
 10
322.4214
 20
334.92715
 30
0.0
 11
322.5116
 21
335.50665
 31
0.0
  0
LINE
  5
104F
330
1D
100
AcDbEntity
  8
0
100
AcDbLine
 10
322.4214
 20
334.92715
 30
0.0
 11
322.8776
 21
334.45985
 31
0.0
  0
LINE
  5
1050
330
1D
100
AcDbEntity
  8
0
100
AcDbLine
 10
324.2978
 20
341.77865
 30
0.0
 11
324.945
 21
342.08665
 31
0.0
  0
LINE
  5
1051
330
1D
100
AcDbEntity
  8
0
100
AcDbLine
 10
324.142
 20
341.20865
 30
0.0
 11
324.2978
 21
341.77865
 31
0.0
  0
LINE
  5
1052
330
1D
100
AcDbEntity
  8
0
100
AcDbLine
 10
324.142
 20
341.20865
 30
0.0
 11
324.5434
 21
340.71265
 31
0.0
  0
LINE
  5
1053
330
1D
100
AcDbEntity
  8
0
100
AcDbLine
 10
324.945
 20
342.08665
 30
0.0
 11
325.6905
 21
341.96665
 31
0.0
  0
LINE
  5
1054
330
1D
100
AcDbEntity
  8
0
100
AcDbLine
 10
324.5434
 20
340.71265
 30
0.0
 11
325.2888
 21
340.59265
 31
0.0
  0
LINE
  5
1055
330
1D
100
AcDbEntity
  8
0
100
AcDbLine
 10
325.6905
 20
341.96665
 30
0.0
 11
326.0918
 21
341.47165
 31
0.0
  0
LINE
  5
1056
330
1D
100
AcDbEntity
  8
0
100
AcDbLine
 10
325.9361
 20
340.89965
 30
0.0
 11
326.0918
 21
341.47165
 31
0.0
  0
LINE
  5
1057
330
1D
100
AcDbEntity
  8
0
100
AcDbLine
 10
325.2888
 20
340.59265
 30
0.0
 11
325.9361
 21
340.89965
 31
0.0
  0
LINE
  5
1058
330
1D
100
AcDbEntity
  8
0
100
AcDbLine
 10
325.9283
 20
348.64965
 30
0.0
 11
326.2717
 21
349.16965
 31
0.0
  0
LINE
  5
1059
330
1D
100
AcDbEntity
  8
0
100
AcDbLine
 10
325.1993
 20
348.48065
 30
0.0
 11
325.9283
 21
348.64965
 31
0.0
  0
LINE
  5
105A
330
1D
100
AcDbEntity
  8
0
100
AcDbLine
 10
324.6428
 20
349.82265
 30
0.0
 11
325.3718
 21
349.99165
 31
0.0
  0
LINE
  5
105B
330
1D
100
AcDbEntity
  8
0
100
AcDbLine
 10
325.3718
 20
349.99165
 30
0.0
 11
326.0516
 21
349.72865
 31
0.0
  0
LINE
  5
105C
330
1D
100
AcDbEntity
  8
0
100
AcDbLine
 10
326.0516
 20
349.72865
 30
0.0
 11
326.2717
 21
349.16965
 31
0.0
  0
LINE
  5
105D
330
1D
100
AcDbEntity
  8
0
100
AcDbLine
 10
324.5195
 20
348.74365
 30
0.0
 11
325.1993
 21
348.48065
 31
0.0
  0
LINE
  5
105E
330
1D
100
AcDbEntity
  8
0
100
AcDbLine
 10
324.2994
 20
349.30165
 30
0.0
 11
324.6428
 21
349.82265
 31
0.0
  0
LINE
  5
105F
330
1D
100
AcDbEntity
  8
0
100
AcDbLine
 10
324.2994
 20
349.30165
 30
0.0
 11
324.5195
 21
348.74365
 31
0.0
  0
LINE
  5
1060
330
1D
100
AcDbEntity
  8
0
100
AcDbLine
 10
322.195
 20
354.20665
 30
0.0
 11
322.2375
 21
354.78965
 31
0.0
  0
LINE
  5
1061
330
1D
100
AcDbEntity
  8
0
100
AcDbLine
 10
328.6416
 20
332.60205
 30
0.0
 11
329.1968
 21
332.20265
 31
0.0
  0
LINE
  5
1062
330
1D
100
AcDbEntity
  8
0
100
AcDbLine
 10
328.5991
 20
333.18435
 30
0.0
 11
328.6416
 21
332.60205
 31
0.0
  0
LINE
  5
1063
330
1D
100
AcDbEntity
  8
0
100
AcDbLine
 10
328.5991
 20
333.18435
 30
0.0
 11
329.1204
 21
333.61025
 31
0.0
  0
LINE
  5
1064
330
1D
100
AcDbEntity
  8
0
100
AcDbLine
 10
328.0753
 20
359.56465
 30
0.0
 11
328.7465
 21
359.83965
 31
0.0
  0
LINE
  5
1065
330
1D
100
AcDbEntity
  8
0
100
AcDbLine
 10
327.3518
 20
359.74565
 30
0.0
 11
328.0753
 21
359.56465
 31
0.0
  0
LINE
  5
1066
330
1D
100
AcDbEntity
  8
0
100
AcDbLine
 10
326.9919
 20
360.26065
 30
0.0
 11
327.2298
 21
360.81465
 31
0.0
  0
LINE
  5
1067
330
1D
100
AcDbEntity
  8
0
100
AcDbLine
 10
326.9919
 20
360.26065
 30
0.0
 11
327.3518
 21
359.74565
 31
0.0
  0
LINE
  5
1068
330
1D
100
AcDbEntity
  8
0
100
AcDbLine
 10
327.2298
 20
360.87788944
 30
0.0
 11
327.2298
 21
360.81465
 31
0.0
  0
LINE
  5
1069
330
1D
100
AcDbEntity
  8
0
100
AcDbLine
 10
327.901
 20
361.08965
 30
0.0
 11
328.6245
 21
360.90765
 31
0.0
  0
LINE
  5
106A
330
1D
100
AcDbEntity
  8
0
100
AcDbLine
 10
328.6245
 20
360.90765
 30
0.0
 11
328.9843
 21
360.39365
 31
0.0
  0
LINE
  5
106B
330
1D
100
AcDbEntity
  8
0
100
AcDbLine
 10
327.2298
 20
360.81465
 30
0.0
 11
327.901
 21
361.08965
 31
0.0
  0
LINE
  5
106C
330
1D
100
AcDbEntity
  8
0
100
AcDbLine
 10
327.2298
 20
360.81465
 30
0.0
 11
327.2298
 21
360.87788944
 31
0.0
  0
LINE
  5
106D
330
1D
100
AcDbEntity
  8
0
100
AcDbLine
 10
329.1204
 20
333.61025
 30
0.0
 11
329.8808
 21
333.64235
 31
0.0
  0
LINE
  5
106E
330
1D
100
AcDbEntity
  8
0
100
AcDbLine
 10
329.1968
 20
332.20265
 30
0.0
 11
329.9572
 21
332.23485
 31
0.0
  0
LINE
  5
106F
330
1D
100
AcDbEntity
  8
0
100
AcDbLine
 10
328.885
 20
339.59665
 30
0.0
 11
329.4527
 21
339.98465
 31
0.0
  0
LINE
  5
1070
330
1D
100
AcDbEntity
  8
0
100
AcDbLine
 10
328.8611
 20
339.01265
 30
0.0
 11
328.885
 21
339.59665
 31
0.0
  0
LINE
  5
1071
330
1D
100
AcDbEntity
  8
0
100
AcDbLine
 10
328.8611
 20
339.01265
 30
0.0
 11
329.3687
 21
338.57865
 31
0.0
  0
LINE
  5
1072
330
1D
100
AcDbEntity
  8
0
100
AcDbLine
 10
329.8808
 20
333.64235
 30
0.0
 11
330.436
 21
333.24305
 31
0.0
  0
LINE
  5
1073
330
1D
100
AcDbEntity
  8
0
100
AcDbLine
 10
329.9572
 20
332.23485
 30
0.0
 11
330.4785
 21
332.66075
 31
0.0
  0
LINE
  5
1074
330
1D
100
AcDbEntity
  8
0
100
AcDbLine
 10
330.436
 20
333.24305
 30
0.0
 11
330.4785
 21
332.66075
 31
0.0
  0
LINE
  5
1075
330
1D
100
AcDbEntity
  8
0
100
AcDbLine
 10
330.1299
 20
338.55965
 30
0.0
 11
330.6976
 21
338.94865
 31
0.0
  0
LINE
  5
1076
330
1D
100
AcDbEntity
  8
0
100
AcDbLine
 10
329.4527
 20
339.98465
 30
0.0
 11
330.2139
 21
339.96665
 31
0.0
  0
LINE
  5
1077
330
1D
100
AcDbEntity
  8
0
100
AcDbLine
 10
330.2139
 20
339.96665
 30
0.0
 11
330.7216
 21
339.53165
 31
0.0
  0
LINE
  5
1078
330
1D
100
AcDbEntity
  8
0
100
AcDbLine
 10
329.3687
 20
338.57865
 30
0.0
 11
330.1299
 21
338.55965
 31
0.0
  0
LINE
  5
1079
330
1D
100
AcDbEntity
  8
0
100
AcDbLine
 10
330.5292
 20
345.69165
 30
0.0
 11
331.139
 21
346.04165
 31
0.0
  0
LINE
  5
107A
330
1D
100
AcDbEntity
  8
0
100
AcDbLine
 10
330.439
 20
345.11265
 30
0.0
 11
330.5292
 21
345.69165
 31
0.0
  0
LINE
  5
107B
330
1D
100
AcDbEntity
  8
0
100
AcDbLine
 10
330.439
 20
345.11265
 30
0.0
 11
330.8952
 21
344.64565
 31
0.0
  0
LINE
  5
107C
330
1D
100
AcDbEntity
  8
0
100
AcDbLine
 10
330.0816
 20
354.47565
 30
0.0
 11
330.5893
 21
354.90965
 31
0.0
  0
LINE
  5
107D
330
1D
100
AcDbEntity
  8
0
100
AcDbLine
 10
329.3204
 20
354.45665
 30
0.0
 11
330.0816
 21
354.47565
 31
0.0
  0
LINE
  5
107E
330
1D
100
AcDbEntity
  8
0
100
AcDbLine
 10
329.2364
 20
355.86365
 30
0.0
 11
329.9976
 21
355.88265
 31
0.0
  0
LINE
  5
107F
330
1D
100
AcDbEntity
  8
0
100
AcDbLine
 10
328.7465
 20
359.83965
 30
0.0
 11
328.9843
 21
360.39365
 31
0.0
  0
LINE
  5
1080
330
1D
100
AcDbEntity
  8
0
100
AcDbLine
 10
329.9976
 20
355.88265
 30
0.0
 11
330.5653
 21
355.49365
 31
0.0
  0
LINE
  5
1081
330
1D
100
AcDbEntity
  8
0
100
AcDbLine
 10
330.5653
 20
355.49365
 30
0.0
 11
330.5893
 21
354.90965
 31
0.0
  0
LINE
  5
1082
330
1D
100
AcDbEntity
  8
0
100
AcDbLine
 10
328.7527
 20
354.84565
 30
0.0
 11
329.3204
 21
354.45665
 31
0.0
  0
LINE
  5
1083
330
1D
100
AcDbEntity
  8
0
100
AcDbLine
 10
328.7288
 20
355.42965
 30
0.0
 11
329.2364
 21
355.86365
 31
0.0
  0
LINE
  5
1084
330
1D
100
AcDbEntity
  8
0
100
AcDbLine
 10
328.7288
 20
355.42965
 30
0.0
 11
328.7527
 21
354.84565
 31
0.0
  0
LINE
  5
1085
330
1D
100
AcDbEntity
  8
0
100
AcDbLine
 10
329.2364
 20
364.90765
 30
0.0
 11
329.9976
 21
364.88965
 31
0.0
  0
LINE
  5
1086
330
1D
100
AcDbEntity
  8
0
100
AcDbLine
 10
329.9976
 20
364.88965
 30
0.0
 11
330.5653
 21
365.27765
 31
0.0
  0
LINE
  5
1087
330
1D
100
AcDbEntity
  8
0
100
AcDbLine
 10
330.6976
 20
338.94865
 30
0.0
 11
330.7216
 21
339.53165
 31
0.0
  0
LINE
  5
1088
330
1D
100
AcDbEntity
  8
0
100
AcDbLine
 10
330.5653
 20
365.27765
 30
0.0
 11
330.5893
 21
365.86165
 31
0.0
  0
LINE
  5
1089
330
1D
100
AcDbEntity
  8
0
100
AcDbLine
 10
328.7527
 20
365.92565
 30
0.0
 11
329.3204
 21
366.31465
 31
0.0
  0
LINE
  5
108A
330
1D
100
AcDbEntity
  8
0
100
AcDbLine
 10
328.7288
 20
365.34165
 30
0.0
 11
329.2364
 21
364.90765
 31
0.0
  0
LINE
  5
108B
330
1D
100
AcDbEntity
  8
0
100
AcDbLine
 10
328.7288
 20
365.34165
 30
0.0
 11
328.7527
 21
365.92565
 31
0.0
  0
LINE
  5
108C
330
1D
100
AcDbEntity
  8
0
100
AcDbLine
 10
321.7161
 20
365.87365
 30
0.0
 11
322.2375
 21
366.29965
 31
0.0
  0
LINE
  5
108D
330
1D
100
AcDbEntity
  8
0
100
AcDbLine
 10
320.2751
 20
377.00165
 30
0.0
 11
320.9822
 21
376.78465
 31
0.0
  0
LINE
  5
108E
330
1D
100
AcDbEntity
  8
0
100
AcDbLine
 10
320.2751
 20
378.08465
 30
0.0
 11
320.9822
 21
378.30165
 31
0.0
  0
LINE
  5
108F
330
1D
100
AcDbEntity
  8
0
100
AcDbLine
 10
319.9922
 20
377.54365
 30
0.0
 11
320.2751
 21
377.00165
 31
0.0
  0
LINE
  5
1090
330
1D
100
AcDbEntity
  8
0
100
AcDbLine
 10
319.9922
 20
377.54365
 30
0.0
 11
320.2751
 21
378.08465
 31
0.0
  0
LINE
  5
1091
330
1D
100
AcDbEntity
  8
0
100
AcDbLine
 10
330.0816
 20
366.29565
 30
0.0
 11
330.5893
 21
365.86165
 31
0.0
  0
LINE
  5
1092
330
1D
100
AcDbEntity
  8
0
100
AcDbLine
 10
329.3204
 20
366.31465
 30
0.0
 11
330.0816
 21
366.29565
 31
0.0
  0
LINE
  5
1093
330
1D
100
AcDbEntity
  8
0
100
AcDbLine
 10
322.195
 20
366.88165
 30
0.0
 11
322.2375
 21
366.29965
 31
0.0
  0
LINE
  5
1094
330
1D
100
AcDbEntity
  8
0
100
AcDbLine
 10
320.9822
 20
376.78465
 30
0.0
 11
321.6893
 21
377.00165
 31
0.0
  0
LINE
  5
1095
330
1D
100
AcDbEntity
  8
0
100
AcDbLine
 10
320.9822
 20
378.30165
 30
0.0
 11
321.6893
 21
378.08465
 31
0.0
  0
LINE
  5
1096
330
1D
100
AcDbEntity
  8
0
100
AcDbLine
 10
324.6428
 20
371.26465
 30
0.0
 11
325.3718
 21
371.09665
 31
0.0
  0
LINE
  5
1097
330
1D
100
AcDbEntity
  8
0
100
AcDbLine
 10
325.3718
 20
371.09665
 30
0.0
 11
326.0516
 21
371.35965
 31
0.0
  0
LINE
  5
1098
330
1D
100
AcDbEntity
  8
0
100
AcDbLine
 10
326.0516
 20
371.35965
 30
0.0
 11
326.2717
 21
371.91765
 31
0.0
  0
LINE
  5
1099
330
1D
100
AcDbEntity
  8
0
100
AcDbLine
 10
325.9283
 20
372.43865
 30
0.0
 11
326.2717
 21
371.91765
 31
0.0
  0
LINE
  5
109A
330
1D
100
AcDbEntity
  8
0
100
AcDbLine
 10
330.5292
 20
375.39565
 30
0.0
 11
331.139
 21
375.04665
 31
0.0
  0
LINE
  5
109B
330
1D
100
AcDbEntity
  8
0
100
AcDbLine
 10
330.439
 20
375.97565
 30
0.0
 11
330.5292
 21
375.39565
 31
0.0
  0
LINE
  5
109C
330
1D
100
AcDbEntity
  8
0
100
AcDbLine
 10
330.439
 20
375.97565
 30
0.0
 11
330.8952
 21
376.44265
 31
0.0
  0
LINE
  5
109D
330
1D
100
AcDbEntity
  8
0
100
AcDbLine
 10
325.1993
 20
372.60765
 30
0.0
 11
325.9283
 21
372.43865
 31
0.0
  0
LINE
  5
109E
330
1D
100
AcDbEntity
  8
0
100
AcDbLine
 10
324.5195
 20
372.34365
 30
0.0
 11
325.1993
 21
372.60765
 31
0.0
  0
LINE
  5
109F
330
1D
100
AcDbEntity
  8
0
100
AcDbLine
 10
324.2994
 20
371.78565
 30
0.0
 11
324.6428
 21
371.26465
 31
0.0
  0
LINE
  5
10A0
330
1D
100
AcDbEntity
  8
0
100
AcDbLine
 10
324.2994
 20
371.78565
 30
0.0
 11
324.5195
 21
372.34365
 31
0.0
  0
LINE
  5
10A1
330
1D
100
AcDbEntity
  8
0
100
AcDbLine
 10
321.6893
 20
377.00165
 30
0.0
 11
321.9721
 21
377.54365
 31
0.0
  0
LINE
  5
10A2
330
1D
100
AcDbEntity
  8
0
100
AcDbLine
 10
324.142
 20
380.33265
 30
0.0
 11
324.2978
 21
379.76165
 31
0.0
  0
LINE
  5
10A3
330
1D
100
AcDbEntity
  8
0
100
AcDbLine
 10
324.142
 20
380.33265
 30
0.0
 11
324.5434
 21
380.82865
 31
0.0
  0
LINE
  5
10A4
330
1D
100
AcDbEntity
  8
0
100
AcDbLine
 10
323.1214
 20
386.13765
 30
0.0
 11
323.8776
 21
386.20565
 31
0.0
  0
LINE
  5
10A5
330
1D
100
AcDbEntity
  8
0
100
AcDbLine
 10
322.5116
 20
386.48665
 30
0.0
 11
323.1214
 21
386.13765
 31
0.0
  0
LINE
  5
10A6
330
1D
100
AcDbEntity
  8
0
100
AcDbLine
 10
323.8776
 20
386.20565
 30
0.0
 11
324.3338
 21
386.67365
 31
0.0
  0
LINE
  5
10A7
330
1D
100
AcDbEntity
  8
0
100
AcDbLine
 10
324.2978
 20
379.76165
 30
0.0
 11
324.945
 21
379.45465
 31
0.0
  0
LINE
  5
10A8
330
1D
100
AcDbEntity
  8
0
100
AcDbLine
 10
324.945
 20
379.45465
 30
0.0
 11
325.6905
 21
379.57365
 31
0.0
  0
LINE
  5
10A9
330
1D
100
AcDbEntity
  8
0
100
AcDbLine
 10
325.6905
 20
379.57365
 30
0.0
 11
326.0918
 21
380.06865
 31
0.0
  0
LINE
  5
10AA
330
1D
100
AcDbEntity
  8
0
100
AcDbLine
 10
325.9361
 20
380.64065
 30
0.0
 11
326.0918
 21
380.06865
 31
0.0
  0
LINE
  5
10AB
330
1D
100
AcDbEntity
  8
0
100
AcDbLine
 10
329.4527
 20
381.55565
 30
0.0
 11
330.2139
 21
381.57365
 31
0.0
  0
LINE
  5
10AC
330
1D
100
AcDbEntity
  8
0
100
AcDbLine
 10
328.885
 20
381.94465
 30
0.0
 11
329.4527
 21
381.55565
 31
0.0
  0
LINE
  5
10AD
330
1D
100
AcDbEntity
  8
0
100
AcDbLine
 10
330.2139
 20
381.57365
 30
0.0
 11
330.7216
 21
382.00965
 31
0.0
  0
LINE
  5
10AE
330
1D
100
AcDbEntity
  8
0
100
AcDbLine
 10
330.6976
 20
382.59165
 30
0.0
 11
330.7216
 21
382.00965
 31
0.0
  0
LINE
  5
10AF
330
1D
100
AcDbEntity
  8
0
100
AcDbLine
 10
330.1299
 20
382.98065
 30
0.0
 11
330.6976
 21
382.59165
 31
0.0
  0
LINE
  5
10B0
330
1D
100
AcDbEntity
  8
0
100
AcDbLine
 10
329.3687
 20
382.96265
 30
0.0
 11
330.1299
 21
382.98065
 31
0.0
  0
LINE
  5
10B1
330
1D
100
AcDbEntity
  8
0
100
AcDbLine
 10
328.8611
 20
382.52765
 30
0.0
 11
328.885
 21
381.94465
 31
0.0
  0
LINE
  5
10B2
330
1D
100
AcDbEntity
  8
0
100
AcDbLine
 10
328.8611
 20
382.52765
 30
0.0
 11
329.3687
 21
382.96265
 31
0.0
  0
LINE
  5
10B3
330
1D
100
AcDbEntity
  8
0
100
AcDbLine
 10
325.2888
 20
380.94765
 30
0.0
 11
325.9361
 21
380.64065
 31
0.0
  0
LINE
  5
10B4
330
1D
100
AcDbEntity
  8
0
100
AcDbLine
 10
324.5434
 20
380.82865
 30
0.0
 11
325.2888
 21
380.94765
 31
0.0
  0
LINE
  5
10B5
330
1D
100
AcDbEntity
  8
0
100
AcDbLine
 10
324.2436
 20
387.25265
 30
0.0
 11
324.3338
 21
386.67365
 31
0.0
  0
LINE
  5
10B6
330
1D
100
AcDbEntity
  8
0
100
AcDbLine
 10
323.6338
 20
387.60265
 30
0.0
 11
324.2436
 21
387.25265
 31
0.0
  0
LINE
  5
10B7
330
1D
100
AcDbEntity
  8
0
100
AcDbLine
 10
322.8776
 20
387.53365
 30
0.0
 11
323.6338
 21
387.60265
 31
0.0
  0
LINE
  5
10B8
330
1D
100
AcDbEntity
  8
0
100
AcDbLine
 10
322.4214
 20
387.06565
 30
0.0
 11
322.5116
 21
386.48665
 31
0.0
  0
LINE
  5
10B9
330
1D
100
AcDbEntity
  8
0
100
AcDbLine
 10
322.4214
 20
387.06565
 30
0.0
 11
322.8776
 21
387.53365
 31
0.0
  0
LINE
  5
10BA
330
1D
100
AcDbEntity
  8
0
100
AcDbLine
 10
321.6893
 20
378.08465
 30
0.0
 11
321.9721
 21
377.54365
 31
0.0
  0
LINE
  5
10BB
330
1D
100
AcDbEntity
  8
0
100
AcDbLine
 10
321.6398
 20
367.28065
 30
0.0
 11
322.195
 21
366.88165
 31
0.0
  0
LINE
  5
10BC
330
1D
100
AcDbEntity
  8
0
100
AcDbLine
 10
320.8794
 20
367.24865
 30
0.0
 11
321.6398
 21
367.28065
 31
0.0
  0
LINE
  5
10BD
330
1D
100
AcDbEntity
  8
0
100
AcDbLine
 10
320.3581
 20
366.82265
 30
0.0
 11
320.4006
 21
366.24065
 31
0.0
  0
LINE
  5
10BE
330
1D
100
AcDbEntity
  8
0
100
AcDbLine
 10
320.3581
 20
366.82265
 30
0.0
 11
320.8794
 21
367.24865
 31
0.0
  0
LINE
  5
10BF
330
1D
100
AcDbEntity
  8
0
100
AcDbLine
 10
320.4006
 20
366.24065
 30
0.0
 11
320.9557
 21
365.84065
 31
0.0
  0
LINE
  5
10C0
330
1D
100
AcDbEntity
  8
0
100
AcDbLine
 10
318.9776
 20
331.46075
 30
0.0
 11
330.5776
 21
327.86015
 31
0.0
  0
LINE
  5
10C1
330
1D
100
AcDbEntity
  8
0
100
AcDbLine
 10
330.5776
 20
327.86015
 30
0.0
 11
341.3776
 21
326.716754878049
 31
0.0
  0
LINE
  5
10C2
330
1D
100
AcDbEntity
  8
0
100
AcDbLine
 10
330.794334890799
 20
327.837204294732
 30
0.0
 11
330.8776
 21
327.51005
 31
0.0
  0
LINE
  5
10C3
330
1D
100
AcDbEntity
  8
0
100
AcDbLine
 10
330.8776
 20
327.51005
 30
0.0
 11
330.8776
 21
317.18885
 31
0.0
  0
LINE
  5
10C4
330
1D
100
AcDbEntity
  8
0
100
AcDbLine
 10
330.8776
 20
317.18885
 30
0.0
 11
330.8776
 21
306.11705
 31
0.0
  0
LINE
  5
10C5
330
1D
100
AcDbEntity
  8
0
100
AcDbLine
 10
330.8776
 20
317.18885
 30
0.0
 11
330.8776
 21
327.51005
 31
0.0
  0
LINE
  5
10C6
330
1D
100
AcDbEntity
  8
0
100
AcDbLine
 10
330.8776
 20
306.11705
 30
0.0
 11
330.8776
 21
291.28245
 31
0.0
  0
LINE
  5
10C7
330
1D
100
AcDbEntity
  8
0
100
AcDbLine
 10
330.8776
 20
306.11705
 30
0.0
 11
330.8776
 21
317.18885
 31
0.0
  0
LINE
  5
10C8
330
1D
100
AcDbEntity
  8
0
100
AcDbLine
 10
330.8776
 20
291.28245
 30
0.0
 11
330.8776
 21
275.68645
 31
0.0
  0
LINE
  5
10C9
330
1D
100
AcDbEntity
  8
0
100
AcDbLine
 10
330.8776
 20
291.28245
 30
0.0
 11
330.8776
 21
306.11705
 31
0.0
  0
LINE
  5
10CA
330
1D
100
AcDbEntity
  8
0
100
AcDbLine
 10
330.8776
 20
275.68645
 30
0.0
 11
330.8776
 21
258.62945
 31
0.0
  0
LINE
  5
10CB
330
1D
100
AcDbEntity
  8
0
100
AcDbLine
 10
330.8776
 20
275.68645
 30
0.0
 11
330.8776
 21
291.28245
 31
0.0
  0
LINE
  5
10CC
330
1D
100
AcDbEntity
  8
0
100
AcDbLine
 10
330.8776
 20
258.62945
 30
0.0
 11
330.8776
 21
239.22466
 31
0.0
  0
LINE
  5
10CD
330
1D
100
AcDbEntity
  8
0
100
AcDbLine
 10
330.8776
 20
258.62945
 30
0.0
 11
330.8776
 21
275.68645
 31
0.0
  0
LINE
  5
10CE
330
1D
100
AcDbEntity
  8
0
100
AcDbLine
 10
330.8776
 20
239.22466
 30
0.0
 11
330.8776
 21
223.63665
 31
0.0
  0
LINE
  5
10CF
330
1D
100
AcDbEntity
  8
0
100
AcDbLine
 10
330.8776
 20
239.22466
 30
0.0
 11
330.8776
 21
258.62945
 31
0.0
  0
LINE
  5
10D0
330
1D
100
AcDbEntity
  8
0
100
AcDbLine
 10
330.8776
 20
223.63665
 30
0.0
 11
330.8776
 21
207.44405
 31
0.0
  0
LINE
  5
10D1
330
1D
100
AcDbEntity
  8
0
100
AcDbLine
 10
330.8776
 20
223.63665
 30
0.0
 11
330.8776
 21
239.22466
 31
0.0
  0
LINE
  5
10D2
330
1D
100
AcDbEntity
  8
0
100
AcDbLine
 10
330.8776
 20
203.19405
 30
0.0
 11
330.980975699369
 21
202.986006405019
 31
0.0
  0
LINE
  5
10D3
330
1D
100
AcDbEntity
  8
0
100
AcDbLine
 10
330.8776
 20
203.19405
 30
0.0
 11
330.8776
 21
207.44405
 31
0.0
  0
LINE
  5
10D4
330
1D
100
AcDbEntity
  8
0
100
AcDbLine
 10
331.3736
 20
154.55645
 30
0.0
 11
333.7048
 21
154.78235
 31
0.0
  0
LINE
  5
10D5
330
1D
100
AcDbEntity
  8
0
100
AcDbLine
 10
331.3981
 20
200.97315
 30
0.0
 11
333.5942
 21
201.18205
 31
0.0
  0
LINE
  5
10D6
330
1D
100
AcDbEntity
  8
0
100
AcDbLine
 10
332.2873
 20
201.54795
 30
0.0
 11
333.5942
 21
201.18205
 31
0.0
  0
LINE
  5
10D7
330
1D
100
AcDbEntity
  8
0
100
AcDbLine
 10
333.5942
 20
201.18205
 30
0.0
 11
333.7048
 21
154.78235
 31
0.0
  0
LINE
  5
10D8
330
1D
100
AcDbEntity
  8
0
100
AcDbLine
 10
333.595050845089
 20
200.825097406278
 30
0.0
 11
334.6216
 21
200.47765
 31
0.0
  0
LINE
  5
10D9
330
1D
100
AcDbEntity
  8
0
100
AcDbLine
 10
333.697396069237
 20
157.888499784889
 30
0.0
 11
334.7
 21
158.17175
 31
0.0
  0
LINE
  5
10DA
330
1D
100
AcDbEntity
  8
0
100
AcDbLine
 10
334.7
 20
158.17175
 30
0.0
 11
334.882921335347
 21
158.200927503291
 31
0.0
  0
LINE
  5
10DB
330
1D
100
AcDbEntity
  8
0
100
AcDbLine
 10
334.9373
 20
119.65165
 30
0.0
 11
334.9532
 21
86.65065
 31
0.0
  0
LINE
  5
10DC
330
1D
100
AcDbEntity
  8
0
100
AcDbLine
 10
334.9373
 20
119.65165
 30
0.0
 11
334.9532
 21
86.65065
 31
0.0
  0
LINE
  5
10DD
330
1D
100
AcDbEntity
  8
0
100
AcDbLine
 10
334.9532
 20
86.65065
 30
0.0
 11
335.5274
 21
86.64565
 31
0.0
  0
LINE
  5
10DE
330
1D
100
AcDbEntity
  8
0
100
AcDbLine
 10
335.0776
 20
172.60325
 30
0.0
 11
336.4776
 21
172.11155
 31
0.0
  0
LINE
  5
10DF
330
1D
100
AcDbEntity
  8
0
100
AcDbLine
 10
334.9092
 20
142.64885
 30
0.0
 11
334.9373
 21
119.65165
 31
0.0
  0
LINE
  5
10E0
330
1D
100
AcDbEntity
  8
0
100
AcDbLine
 10
334.8673
 20
167.44585
 30
0.0
 11
334.9092
 21
142.64885
 31
0.0
  0
LINE
  5
10E1
330
1D
100
AcDbEntity
  8
0
100
AcDbLine
 10
333.652282397756
 20
176.814908669259
 30
0.0
 11
333.8776
 21
173.76795
 31
0.0
  0
LINE
  5
10E2
330
1D
100
AcDbEntity
  8
0
100
AcDbLine
 10
334.1776
 20
173.17265
 30
0.0
 11
335.0776
 21
172.60325
 31
0.0
  0
LINE
  5
10E3
330
1D
100
AcDbEntity
  8
0
100
AcDbLine
 10
333.8776
 20
173.76795
 30
0.0
 11
334.1776
 21
173.17265
 31
0.0
  0
LINE
  5
10E4
330
1D
100
AcDbEntity
  8
0
100
AcDbLine
 10
334.855922415899
 20
172.743498018208
 30
0.0
 11
334.8673
 21
167.44585
 31
0.0
  0
LINE
  5
10E5
330
1D
100
AcDbEntity
  8
0
100
AcDbLine
 10
336.4776
 20
172.11155
 30
0.0
 11
338.3776
 21
171.74915
 31
0.0
  0
LINE
  5
10E6
330
1D
100
AcDbEntity
  8
0
100
AcDbLine
 10
335.763917052658
 20
86.646448235075
 30
0.0
 11
337.4013
 21
86.64465
 31
0.0
  0
LINE
  5
10E7
330
1D
100
AcDbEntity
  8
0
100
AcDbLine
 10
335.5274
 20
86.64565
 30
0.0
 11
337.3052
 21
86.65165
 31
0.0
  0
LINE
  5
10E8
330
1D
100
AcDbEntity
  8
0
100
AcDbLine
 10
335.093
 20
192.15225
 30
0.0
 11
337.3776
 21
191.76205
 31
0.0
  0
LINE
  5
10E9
330
1D
100
AcDbEntity
  8
0
100
AcDbLine
 10
335.093
 20
200.18555
 30
0.0
 11
337.3776
 21
199.79535
 31
0.0
  0
LINE
  5
10EA
330
1D
100
AcDbEntity
  8
0
100
AcDbLine
 10
333.614612205897
 20
192.61857594959
 30
0.0
 11
335.093
 21
192.15225
 31
0.0
  0
LINE
  5
10EB
330
1D
100
AcDbEntity
  8
0
100
AcDbLine
 10
337.3052
 20
86.65165
 30
0.0
 11
339.7902
 21
86.64665
 31
0.0
  0
LINE
  5
10EC
330
1D
100
AcDbEntity
  8
0
100
AcDbLine
 10
337.4013
 20
86.64465
 30
0.0
 11
338.949052137531
 21
86.648342450427
 31
0.0
  0
LINE
  5
10ED
330
1D
100
AcDbEntity
  8
0
100
AcDbLine
 10
338.3776
 20
171.74915
 30
0.0
 11
340.5776
 21
171.51625
 31
0.0
  0
LINE
  5
10EE
330
1D
100
AcDbEntity
  8
0
100
AcDbLine
 10
342.8776
 20
171.43855
 30
0.0
 11
345.1776
 21
171.51625
 31
0.0
  0
LINE
  5
10EF
330
1D
100
AcDbEntity
  8
0
100
AcDbLine
 10
340.5776
 20
171.51625
 30
0.0
 11
342.8776
 21
171.43855
 31
0.0
  0
LINE
  5
10F0
330
1D
100
AcDbEntity
  8
0
100
AcDbLine
 10
339.7902
 20
86.64665
 30
0.0
 11
342.8853
 21
86.64765
 31
0.0
  0
LINE
  5
10F1
330
1D
100
AcDbEntity
  8
0
100
AcDbLine
 10
345.1776
 20
171.51625
 30
0.0
 11
347.3776
 21
171.74915
 31
0.0
  0
LINE
  5
10F2
330
1D
100
AcDbEntity
  8
0
100
AcDbLine
 10
342.8853
 20
86.64765
 30
0.0
 11
345.9903
 21
86.64965
 31
0.0
  0
LINE
  5
10F3
330
1D
100
AcDbEntity
  8
0
100
AcDbLine
 10
342.8776
 20
191.39655
 30
0.0
 11
345.7545
 21
191.51545
 31
0.0
  0
LINE
  5
10F4
330
1D
100
AcDbEntity
  8
0
100
AcDbLine
 10
342.8776
 20
199.42985
 30
0.0
 11
345.7545
 21
199.54905
 31
0.0
  0
LINE
  5
10F5
330
1D
100
AcDbEntity
  8
0
100
AcDbLine
 10
345.7545
 20
199.54905
 30
0.0
 11
348.3776
 21
199.85285
 31
0.0
  0
LINE
  5
10F6
330
1D
100
AcDbEntity
  8
0
100
AcDbLine
 10
340.0007
 20
199.52985
 30
0.0
 11
342.8776
 21
199.42985
 31
0.0
  0
LINE
  5
10F7
330
1D
100
AcDbEntity
  8
0
100
AcDbLine
 10
345.7545
 20
191.51545
 30
0.0
 11
348.3776
 21
191.81945
 31
0.0
  0
LINE
  5
10F8
330
1D
100
AcDbEntity
  8
0
100
AcDbLine
 10
340.0007
 20
191.49635
 30
0.0
 11
342.8776
 21
191.39655
 31
0.0
  0
LINE
  5
10F9
330
1D
100
AcDbEntity
  8
0
100
AcDbLine
 10
337.3776
 20
191.76205
 30
0.0
 11
340.0007
 21
191.49635
 31
0.0
  0
LINE
  5
10FA
330
1D
100
AcDbEntity
  8
0
100
AcDbLine
 10
342.8776
 20
199.58325
 30
0.0
 11
345.9016
 21
199.69485
 31
0.0
  0
LINE
  5
10FB
330
1D
100
AcDbEntity
  8
0
100
AcDbLine
 10
347.3776
 20
171.74915
 30
0.0
 11
349.2776
 21
172.11155
 31
0.0
  0
LINE
  5
10FC
330
1D
100
AcDbEntity
  8
0
100
AcDbLine
 10
345.9903
 20
86.64965
 30
0.0
 11
348.5053
 21
86.64565
 31
0.0
  0
LINE
  5
10FD
330
1D
100
AcDbEntity
  8
0
100
AcDbLine
 10
350.3264
 20
86.64265
 30
0.0
 11
350.9534
 21
86.64965
 31
0.0
  0
LINE
  5
10FE
330
1D
100
AcDbEntity
  8
0
100
AcDbLine
 10
349.2776
 20
172.11155
 30
0.0
 11
350.6776
 21
172.60325
 31
0.0
  0
LINE
  5
10FF
330
1D
100
AcDbEntity
  8
0
100
AcDbLine
 10
350.6776
 20
172.60325
 30
0.0
 11
351.5776
 21
173.17265
 31
0.0
  0
LINE
  5
1100
330
1D
100
AcDbEntity
  8
0
100
AcDbLine
 10
348.5053
 20
86.64565
 30
0.0
 11
350.3264
 21
86.64265
 31
0.0
  0
LINE
  5
1101
330
1D
100
AcDbEntity
  8
0
100
AcDbLine
 10
350.9372
 20
119.65065
 30
0.0
 11
350.9534
 21
86.64965
 31
0.0
  0
LINE
  5
1102
330
1D
100
AcDbEntity
  8
0
100
AcDbLine
 10
350.9372
 20
119.65065
 30
0.0
 11
350.9534
 21
86.64965
 31
0.0
  0
LINE
  5
1103
330
1D
100
AcDbEntity
  8
0
100
AcDbLine
 10
351.0552
 20
158.17175
 30
0.0
 11
352.057897173697
 21
157.888473442402
 31
0.0
  0
LINE
  5
1104
330
1D
100
AcDbEntity
  8
0
100
AcDbLine
 10
357.73
 20
156.04085
 30
0.0
 11
357.8776
 21
156.28775
 31
0.0
  0
LINE
  5
1105
330
1D
100
AcDbEntity
  8
0
100
AcDbLine
 10
357.4374
 20
155.77325
 30
0.0
 11
357.73
 21
156.04085
 31
0.0
  0
LINE
  5
1106
330
1D
100
AcDbEntity
  8
0
100
AcDbLine
 10
356.8094
 20
155.37445
 30
0.0
 11
357.4374
 21
155.77325
 31
0.0
  0
LINE
  5
1107
330
1D
100
AcDbEntity
  8
0
100
AcDbLine
 10
355.7897
 20
154.91435
 30
0.0
 11
356.8094
 21
155.37445
 31
0.0
  0
LINE
  5
1108
330
1D
100
AcDbEntity
  8
0
100
AcDbLine
 10
354.3815
 20
154.55645
 30
0.0
 11
355.7897
 21
154.91435
 31
0.0
  0
LINE
  5
1109
330
1D
100
AcDbEntity
  8
0
100
AcDbLine
 10
352.0505
 20
154.78235
 30
0.0
 11
354.3815
 21
154.55645
 31
0.0
  0
LINE
  5
110A
330
1D
100
AcDbEntity
  8
0
100
AcDbLine
 10
352.0505
 20
154.78235
 30
0.0
 11
352.161
 21
201.18205
 31
0.0
  0
LINE
  5
110B
330
1D
100
AcDbEntity
  8
0
100
AcDbLine
 10
350.882503370988
 20
158.199296575974
 30
0.0
 11
351.0552
 21
158.17175
 31
0.0
  0
LINE
  5
110C
330
1D
100
AcDbEntity
  8
0
100
AcDbLine
 10
357.8776
 20
162.55095
 30
0.0
 11
357.8776
 21
202.52265
 31
0.0
  0
LINE
  5
110D
330
1D
100
AcDbEntity
  8
0
100
AcDbLine
 10
357.8776
 20
162.55095
 30
0.0
 11
357.8776
 21
156.28775
 31
0.0
  0
LINE
  5
110E
330
1D
100
AcDbEntity
  8
0
100
AcDbLine
 10
357.8776
 20
156.28775
 30
0.0
 11
357.8776
 21
162.55095
 31
0.0
  0
LINE
  5
110F
330
1D
100
AcDbEntity
  8
0
100
AcDbLine
 10
350.9082
 20
142.65785
 30
0.0
 11
350.9372
 21
119.65065
 31
0.0
  0
LINE
  5
1110
330
1D
100
AcDbEntity
  8
0
100
AcDbLine
 10
350.8672
 20
167.45485
 30
0.0
 11
350.9082
 21
142.65785
 31
0.0
  0
LINE
  5
1111
330
1D
100
AcDbEntity
  8
0
100
AcDbLine
 10
351.5776
 20
173.17265
 30
0.0
 11
351.8776
 21
173.76795
 31
0.0
  0
LINE
  5
1112
330
1D
100
AcDbEntity
  8
0
100
AcDbLine
 10
351.8776
 20
173.76795
 30
0.0
 11
352.102971865503
 21
176.815642468604
 31
0.0
  0
LINE
  5
1113
330
1D
100
AcDbEntity
  8
0
100
AcDbLine
 10
350.855691338499
 20
172.71592245349
 30
0.0
 11
350.8672
 21
167.45485
 31
0.0
  0
LINE
  5
1114
330
1D
100
AcDbEntity
  8
0
100
AcDbLine
 10
348.3776
 20
191.81945
 30
0.0
 11
350.6622
 21
192.30525
 31
0.0
  0
LINE
  5
1115
330
1D
100
AcDbEntity
  8
0
100
AcDbLine
 10
350.6622
 20
192.30525
 30
0.0
 11
352.141210020615
 21
192.872103335325
 31
0.0
  0
LINE
  5
1116
330
1D
100
AcDbEntity
  8
0
100
AcDbLine
 10
345.9016
 20
199.69485
 30
0.0
 11
348.6856
 21
199.99315
 31
0.0
  0
LINE
  5
1117
330
1D
100
AcDbEntity
  8
0
100
AcDbLine
 10
348.3776
 20
199.85285
 30
0.0
 11
350.6622
 21
200.33855
 31
0.0
  0
LINE
  5
1118
330
1D
100
AcDbEntity
  8
0
100
AcDbLine
 10
337.3776
 20
199.79535
 30
0.0
 11
340.0007
 21
199.52985
 31
0.0
  0
LINE
  5
1119
330
1D
100
AcDbEntity
  8
0
100
AcDbLine
 10
350.6622
 20
200.33855
 30
0.0
 11
350.909313038367
 21
200.433259872177
 31
0.0
  0
LINE
  5
111A
330
1D
100
AcDbEntity
  8
0
100
AcDbLine
 10
348.6856
 20
199.99315
 30
0.0
 11
351.1336
 21
200.47765
 31
0.0
  0
LINE
  5
111B
330
1D
100
AcDbEntity
  8
0
100
AcDbLine
 10
351.1336
 20
200.47765
 30
0.0
 11
352.160149924831
 21
200.825097666866
 31
0.0
  0
LINE
  5
111C
330
1D
100
AcDbEntity
  8
0
100
AcDbLine
 10
339.8536
 20
199.69485
 30
0.0
 11
342.8776
 21
199.58325
 31
0.0
  0
LINE
  5
111D
330
1D
100
AcDbEntity
  8
0
100
AcDbLine
 10
337.0696
 20
199.99315
 30
0.0
 11
339.8536
 21
199.69485
 31
0.0
  0
LINE
  5
111E
330
1D
100
AcDbEntity
  8
0
100
AcDbLine
 10
352.161
 20
201.18205
 30
0.0
 11
354.3571
 21
200.97315
 31
0.0
  0
LINE
  5
111F
330
1D
100
AcDbEntity
  8
0
100
AcDbLine
 10
352.161
 20
201.18205
 30
0.0
 11
353.4678
 21
201.54795
 31
0.0
  0
LINE
  5
1120
330
1D
100
AcDbEntity
  8
0
100
AcDbLine
 10
354.3571
 20
200.97315
 30
0.0
 11
356.3061
 21
201.44335
 31
0.0
  0
LINE
  5
1121
330
1D
100
AcDbEntity
  8
0
100
AcDbLine
 10
333.595448700796
 20
200.658186145426
 30
0.0
 11
335.093
 21
200.18555
 31
0.0
  0
LINE
  5
1122
330
1D
100
AcDbEntity
  8
0
100
AcDbLine
 10
354.208433766212
 20
201.923939132956
 30
0.0
 11
354.5896
 21
202.61445
 31
0.0
  0
LINE
  5
1123
330
1D
100
AcDbEntity
  8
0
100
AcDbLine
 10
357.8776
 20
202.52265
 30
0.0
 11
357.8776
 21
212.55645
 31
0.0
  0
LINE
  5
1124
330
1D
100
AcDbEntity
  8
0
100
AcDbLine
 10
357.8776
 20
202.52265
 30
0.0
 11
357.8776
 21
162.55095
 31
0.0
  0
LINE
  5
1125
330
1D
100
AcDbEntity
  8
0
100
AcDbLine
 10
357.7615
 20
202.28355
 30
0.0
 11
357.8776
 21
202.52265
 31
0.0
  0
LINE
  5
1126
330
1D
100
AcDbEntity
  8
0
100
AcDbLine
 10
357.1887
 20
201.80575
 30
0.0
 11
357.7615
 21
202.28355
 31
0.0
  0
LINE
  5
1127
330
1D
100
AcDbEntity
  8
0
100
AcDbLine
 10
356.3061
 20
201.44335
 30
0.0
 11
357.1887
 21
201.80575
 31
0.0
  0
LINE
  5
1128
330
1D
100
AcDbEntity
  8
0
100
AcDbLine
 10
354.5896
 20
202.61445
 30
0.0
 11
354.774231159416
 21
202.986020208325
 31
0.0
  0
LINE
  5
1129
330
1D
100
AcDbEntity
  8
0
100
AcDbLine
 10
334.6216
 20
200.47765
 30
0.0
 11
337.0696
 21
199.99315
 31
0.0
  0
LINE
  5
112A
330
1D
100
AcDbEntity
  8
0
100
AcDbLine
 10
333.595050845089
 20
200.825097406278
 30
0.0
 11
334.6216
 21
200.47765
 31
0.0
  0
LINE
  5
112B
330
1D
100
AcDbEntity
  8
0
100
AcDbLine
 10
330.8952
 20
344.64565
 30
0.0
 11
331.6514
 21
344.57665
 31
0.0
  0
LINE
  5
112C
330
1D
100
AcDbEntity
  8
0
100
AcDbLine
 10
330.8952
 20
376.44265
 30
0.0
 11
331.6514
 21
376.51165
 31
0.0
  0
LINE
  5
112D
330
1D
100
AcDbEntity
  8
0
100
AcDbLine
 10
354.8776
 20
212.55645
 30
0.0
 11
357.8776
 21
212.55645
 31
0.0
  0
LINE
  5
112E
330
1D
100
AcDbEntity
  8
0
100
AcDbLine
 10
354.8776
 20
203.19405
 30
0.0
 11
354.8776
 21
207.44405
 31
0.0
  0
LINE
  5
112F
330
1D
100
AcDbEntity
  8
0
100
AcDbLine
 10
354.8776
 20
207.44405
 30
0.0
 11
354.8776
 21
203.19405
 31
0.0
  0
LINE
  5
1130
330
1D
100
AcDbEntity
  8
0
100
AcDbLine
 10
354.8776
 20
207.44405
 30
0.0
 11
354.8776
 21
223.63665
 31
0.0
  0
LINE
  5
1131
330
1D
100
AcDbEntity
  8
0
100
AcDbLine
 10
354.774231159416
 20
202.986020208325
 30
0.0
 11
354.8776
 21
203.19405
 31
0.0
  0
LINE
  5
1132
330
1D
100
AcDbEntity
  8
0
100
AcDbLine
 10
354.8776
 20
223.63665
 30
0.0
 11
354.8776
 21
239.22466
 31
0.0
  0
LINE
  5
1133
330
1D
100
AcDbEntity
  8
0
100
AcDbLine
 10
354.8776
 20
223.63665
 30
0.0
 11
354.8776
 21
207.44405
 31
0.0
  0
LINE
  5
1134
330
1D
100
AcDbEntity
  8
0
100
AcDbLine
 10
354.8776
 20
275.68645
 30
0.0
 11
354.8776
 21
291.28245
 31
0.0
  0
LINE
  5
1135
330
1D
100
AcDbEntity
  8
0
100
AcDbLine
 10
354.8776
 20
275.68645
 30
0.0
 11
354.8776
 21
258.62945
 31
0.0
  0
LINE
  5
1136
330
1D
100
AcDbEntity
  8
0
100
AcDbLine
 10
354.8776
 20
258.62945
 30
0.0
 11
354.8776
 21
275.68645
 31
0.0
  0
LINE
  5
1137
330
1D
100
AcDbEntity
  8
0
100
AcDbLine
 10
354.8776
 20
258.62945
 30
0.0
 11
354.8776
 21
239.22466
 31
0.0
  0
LINE
  5
1138
330
1D
100
AcDbEntity
  8
0
100
AcDbLine
 10
354.8776
 20
239.22466
 30
0.0
 11
354.8776
 21
258.62945
 31
0.0
  0
LINE
  5
1139
330
1D
100
AcDbEntity
  8
0
100
AcDbLine
 10
354.8776
 20
239.22466
 30
0.0
 11
354.8776
 21
223.63665
 31
0.0
  0
LINE
  5
113A
330
1D
100
AcDbEntity
  8
0
100
AcDbLine
 10
354.8776
 20
291.28245
 30
0.0
 11
354.8776
 21
306.11705
 31
0.0
  0
LINE
  5
113B
330
1D
100
AcDbEntity
  8
0
100
AcDbLine
 10
354.8776
 20
291.28245
 30
0.0
 11
354.8776
 21
275.68645
 31
0.0
  0
LINE
  5
113C
330
1D
100
AcDbEntity
  8
0
100
AcDbLine
 10
341.3776
 20
318.01415
 30
0.0
 11
341.3776
 21
317.90695
 31
0.0
  0
LINE
  5
113D
330
1D
100
AcDbEntity
  8
0
100
AcDbLine
 10
341.3776
 20
318.01415
 30
0.0
 11
341.3776
 21
319.18235
 31
0.0
  0
LINE
  5
113E
330
1D
100
AcDbEntity
  8
0
100
AcDbLine
 10
341.3776
 20
317.90695
 30
0.0
 11
341.3776
 21
318.62255
 31
0.0
  0
LINE
  5
113F
330
1D
100
AcDbEntity
  8
0
100
AcDbLine
 10
341.3776
 20
317.90695
 30
0.0
 11
344.3776
 21
317.90695
 31
0.0
  0
LINE
  5
1140
330
1D
100
AcDbEntity
  8
0
100
AcDbLine
 10
341.3776
 20
317.90695
 30
0.0
 11
341.3776
 21
318.01415
 31
0.0
  0
LINE
  5
1141
330
1D
100
AcDbEntity
  8
0
100
AcDbLine
 10
344.3776
 20
317.90695
 30
0.0
 11
344.3776
 21
318.62255
 31
0.0
  0
LINE
  5
1142
330
1D
100
AcDbEntity
  8
0
100
AcDbLine
 10
341.3776
 20
318.62255
 30
0.0
 11
341.3776
 21
320.33215
 31
0.0
  0
LINE
  5
1143
330
1D
100
AcDbEntity
  8
0
100
AcDbLine
 10
341.3776
 20
318.62255
 30
0.0
 11
341.3776
 21
317.90695
 31
0.0
  0
LINE
  5
1144
330
1D
100
AcDbEntity
  8
0
100
AcDbLine
 10
341.3776
 20
320.22175
 30
0.0
 11
341.3776
 21
319.18235
 31
0.0
  0
LINE
  5
1145
330
1D
100
AcDbEntity
  8
0
100
AcDbLine
 10
341.3776
 20
320.22175
 30
0.0
 11
341.3776
 21
321.85075
 31
0.0
  0
LINE
  5
1146
330
1D
100
AcDbEntity
  8
0
100
AcDbLine
 10
341.3776
 20
319.18235
 30
0.0
 11
341.3776
 21
318.01415
 31
0.0
  0
LINE
  5
1147
330
1D
100
AcDbEntity
  8
0
100
AcDbLine
 10
341.3776
 20
319.18235
 30
0.0
 11
341.3776
 21
320.22175
 31
0.0
  0
LINE
  5
1148
330
1D
100
AcDbEntity
  8
0
100
AcDbLine
 10
341.3776
 20
321.85075
 30
0.0
 11
341.3776
 21
320.22175
 31
0.0
  0
LINE
  5
1149
330
1D
100
AcDbEntity
  8
0
100
AcDbLine
 10
341.3776
 20
321.85075
 30
0.0
 11
341.3776
 21
323.51615
 31
0.0
  0
LINE
  5
114A
330
1D
100
AcDbEntity
  8
0
100
AcDbLine
 10
341.3776
 20
320.33215
 30
0.0
 11
341.3776
 21
322.33245
 31
0.0
  0
LINE
  5
114B
330
1D
100
AcDbEntity
  8
0
100
AcDbLine
 10
341.3776
 20
320.33215
 30
0.0
 11
341.3776
 21
318.62255
 31
0.0
  0
LINE
  5
114C
330
1D
100
AcDbEntity
  8
0
100
AcDbLine
 10
341.3776
 20
322.33245
 30
0.0
 11
341.3776
 21
324.27315
 31
0.0
  0
LINE
  5
114D
330
1D
100
AcDbEntity
  8
0
100
AcDbLine
 10
341.3776
 20
322.33245
 30
0.0
 11
341.3776
 21
320.33215
 31
0.0
  0
LINE
  5
114E
330
1D
100
AcDbEntity
  8
0
100
AcDbLine
 10
344.3776
 20
318.62255
 30
0.0
 11
344.3776
 21
317.90695
 31
0.0
  0
LINE
  5
114F
330
1D
100
AcDbEntity
  8
0
100
AcDbLine
 10
344.3776
 20
318.62255
 30
0.0
 11
344.3776
 21
320.33215
 31
0.0
  0
LINE
  5
1150
330
1D
100
AcDbEntity
  8
0
100
AcDbLine
 10
344.3776
 20
320.33215
 30
0.0
 11
344.3776
 21
318.62255
 31
0.0
  0
LINE
  5
1151
330
1D
100
AcDbEntity
  8
0
100
AcDbLine
 10
344.3776
 20
320.33215
 30
0.0
 11
344.3776
 21
322.33245
 31
0.0
  0
LINE
  5
1152
330
1D
100
AcDbEntity
  8
0
100
AcDbLine
 10
341.3776
 20
323.51615
 30
0.0
 11
341.3776
 21
321.85075
 31
0.0
  0
LINE
  5
1153
330
1D
100
AcDbEntity
  8
0
100
AcDbLine
 10
341.3776
 20
323.51615
 30
0.0
 11
341.3776
 21
325.67595
 31
0.0
  0
LINE
  5
1154
330
1D
100
AcDbEntity
  8
0
100
AcDbLine
 10
341.3776
 20
325.67595
 30
0.0
 11
341.3776
 21
323.51615
 31
0.0
  0
LINE
  5
1155
330
1D
100
AcDbEntity
  8
0
100
AcDbLine
 10
341.3776
 20
325.67595
 30
0.0
 11
341.3776
 21
326.716754878049
 31
0.0
  0
LINE
  5
1156
330
1D
100
AcDbEntity
  8
0
100
AcDbLine
 10
341.3776
 20
326.716754878049
 30
0.0
 11
341.3776
 21
325.67595
 31
0.0
  0
LINE
  5
1157
330
1D
100
AcDbEntity
  8
0
100
AcDbLine
 10
341.3776
 20
324.27315
 30
0.0
 11
341.3776
 21
326.92035
 31
0.0
  0
LINE
  5
1158
330
1D
100
AcDbEntity
  8
0
100
AcDbLine
 10
341.3776
 20
324.27315
 30
0.0
 11
341.3776
 21
322.33245
 31
0.0
  0
LINE
  5
1159
330
1D
100
AcDbEntity
  8
0
100
AcDbLine
 10
341.3776
 20
326.92035
 30
0.0
 11
341.3776
 21
329.984222727273
 31
0.0
  0
LINE
  5
115A
330
1D
100
AcDbEntity
  8
0
100
AcDbLine
 10
341.3776
 20
326.92035
 30
0.0
 11
341.3776
 21
324.27315
 31
0.0
  0
LINE
  5
115B
330
1D
100
AcDbEntity
  8
0
100
AcDbLine
 10
344.3776
 20
322.33245
 30
0.0
 11
344.3776
 21
320.33215
 31
0.0
  0
LINE
  5
115C
330
1D
100
AcDbEntity
  8
0
100
AcDbLine
 10
344.3776
 20
322.33245
 30
0.0
 11
344.3776
 21
324.27315
 31
0.0
  0
LINE
  5
115D
330
1D
100
AcDbEntity
  8
0
100
AcDbLine
 10
344.3776
 20
324.27315
 30
0.0
 11
344.3776
 21
322.33245
 31
0.0
  0
LINE
  5
115E
330
1D
100
AcDbEntity
  8
0
100
AcDbLine
 10
344.3776
 20
324.27315
 30
0.0
 11
344.3776
 21
326.92035
 31
0.0
  0
LINE
  5
115F
330
1D
100
AcDbEntity
  8
0
100
AcDbLine
 10
344.3776
 20
326.92035
 30
0.0
 11
344.3776
 21
324.27315
 31
0.0
  0
LINE
  5
1160
330
1D
100
AcDbEntity
  8
0
100
AcDbLine
 10
344.3776
 20
326.92035
 30
0.0
 11
344.3776
 21
329.984222727273
 31
0.0
  0
LINE
  5
1161
330
1D
100
AcDbEntity
  8
0
100
AcDbLine
 10
344.3776
 20
326.716754878049
 30
0.0
 11
355.1776
 21
327.86015
 31
0.0
  0
LINE
  5
1162
330
1D
100
AcDbEntity
  8
0
100
AcDbLine
 10
354.8776
 20
317.18885
 30
0.0
 11
354.8776
 21
327.51005
 31
0.0
  0
LINE
  5
1163
330
1D
100
AcDbEntity
  8
0
100
AcDbLine
 10
354.8776
 20
317.18885
 30
0.0
 11
354.8776
 21
306.11705
 31
0.0
  0
LINE
  5
1164
330
1D
100
AcDbEntity
  8
0
100
AcDbLine
 10
357.8776
 20
212.55645
 30
0.0
 11
357.8776
 21
202.52265
 31
0.0
  0
LINE
  5
1165
330
1D
100
AcDbEntity
  8
0
100
AcDbLine
 10
354.8776
 20
306.11705
 30
0.0
 11
354.8776
 21
317.18885
 31
0.0
  0
LINE
  5
1166
330
1D
100
AcDbEntity
  8
0
100
AcDbLine
 10
354.8776
 20
306.11705
 30
0.0
 11
354.8776
 21
291.28245
 31
0.0
  0
LINE
  5
1167
330
1D
100
AcDbEntity
  8
0
100
AcDbLine
 10
335.1205
 20
331.70825
 30
0.0
 11
335.2944
 21
331.13965
 31
0.0
  0
LINE
  5
1168
330
1D
100
AcDbEntity
  8
0
100
AcDbLine
 10
335.1205
 20
331.70825
 30
0.0
 11
335.5375
 21
332.19595
 31
0.0
  0
LINE
  5
1169
330
1D
100
AcDbEntity
  8
0
100
AcDbLine
 10
334.6045
 20
337.11865
 30
0.0
 11
335.3583
 21
337.20165
 31
0.0
  0
LINE
  5
116A
330
1D
100
AcDbEntity
  8
0
100
AcDbLine
 10
334.006
 20
337.47965
 30
0.0
 11
334.6045
 21
337.11865
 31
0.0
  0
LINE
  5
116B
330
1D
100
AcDbEntity
  8
0
100
AcDbLine
 10
331.139
 20
346.04165
 30
0.0
 11
331.8952
 21
345.97265
 31
0.0
  0
LINE
  5
116C
330
1D
100
AcDbEntity
  8
0
100
AcDbLine
 10
331.8952
 20
345.97265
 30
0.0
 11
332.3514
 21
345.50465
 31
0.0
  0
LINE
  5
116D
330
1D
100
AcDbEntity
  8
0
100
AcDbLine
 10
332.2612
 20
344.92665
 30
0.0
 11
332.3514
 21
345.50465
 31
0.0
  0
LINE
  5
116E
330
1D
100
AcDbEntity
  8
0
100
AcDbLine
 10
331.6514
 20
344.57665
 30
0.0
 11
332.2612
 21
344.92665
 31
0.0
  0
LINE
  5
116F
330
1D
100
AcDbEntity
  8
0
100
AcDbLine
 10
333.8081
 20
351.24765
 30
0.0
 11
334.0909
 21
351.78865
 31
0.0
  0
LINE
  5
1170
330
1D
100
AcDbEntity
  8
0
100
AcDbLine
 10
333.101
 20
351.03065
 30
0.0
 11
333.8081
 21
351.24765
 31
0.0
  0
LINE
  5
1171
330
1D
100
AcDbEntity
  8
0
100
AcDbLine
 10
332.3939
 20
351.24765
 30
0.0
 11
333.101
 21
351.03065
 31
0.0
  0
LINE
  5
1172
330
1D
100
AcDbEntity
  8
0
100
AcDbLine
 10
332.3939
 20
352.33065
 30
0.0
 11
333.101
 21
352.54765
 31
0.0
  0
LINE
  5
1173
330
1D
100
AcDbEntity
  8
0
100
AcDbLine
 10
333.101
 20
352.54765
 30
0.0
 11
333.8081
 21
352.33065
 31
0.0
  0
LINE
  5
1174
330
1D
100
AcDbEntity
  8
0
100
AcDbLine
 10
333.8081
 20
352.33065
 30
0.0
 11
334.0909
 21
351.78865
 31
0.0
  0
LINE
  5
1175
330
1D
100
AcDbEntity
  8
0
100
AcDbLine
 10
332.111
 20
351.78865
 30
0.0
 11
332.3939
 21
352.33065
 31
0.0
  0
LINE
  5
1176
330
1D
100
AcDbEntity
  8
0
100
AcDbLine
 10
332.111
 20
351.78865
 30
0.0
 11
332.3939
 21
351.24765
 31
0.0
  0
LINE
  5
1177
330
1D
100
AcDbEntity
  8
0
100
AcDbLine
 10
334.3683
 20
338.51465
 30
0.0
 11
335.1221
 21
338.59865
 31
0.0
  0
LINE
  5
1178
330
1D
100
AcDbEntity
  8
0
100
AcDbLine
 10
335.1221
 20
338.59865
 30
0.0
 11
335.7206
 21
338.23765
 31
0.0
  0
LINE
  5
1179
330
1D
100
AcDbEntity
  8
0
100
AcDbLine
 10
333.8974
 20
338.05665
 30
0.0
 11
334.006
 21
337.47965
 31
0.0
  0
LINE
  5
117A
330
1D
100
AcDbEntity
  8
0
100
AcDbLine
 10
333.8974
 20
338.05665
 30
0.0
 11
334.3683
 21
338.51465
 31
0.0
  0
LINE
  5
117B
330
1D
100
AcDbEntity
  8
0
100
AcDbLine
 10
335.5375
 20
332.19595
 30
0.0
 11
336.279
 21
332.32945
 31
0.0
  0
LINE
  5
117C
330
1D
100
AcDbEntity
  8
0
100
AcDbLine
 10
335.2944
 20
331.13965
 30
0.0
 11
335.9317
 21
330.82035
 31
0.0
  0
LINE
  5
117D
330
1D
100
AcDbEntity
  8
0
100
AcDbLine
 10
335.7206
 20
338.23765
 30
0.0
 11
335.8293
 21
337.65965
 31
0.0
  0
LINE
  5
117E
330
1D
100
AcDbEntity
  8
0
100
AcDbLine
 10
335.3583
 20
337.20165
 30
0.0
 11
335.8293
 21
337.65965
 31
0.0
  0
LINE
  5
117F
330
1D
100
AcDbEntity
  8
0
100
AcDbLine
 10
341.3776
 20
329.984222727273
 30
0.0
 11
341.3776
 21
326.92035
 31
0.0
  0
LINE
  5
1180
330
1D
100
AcDbEntity
  8
0
100
AcDbLine
 10
336.279
 20
332.32945
 30
0.0
 11
336.9162
 21
332.01015
 31
0.0
  0
LINE
  5
1181
330
1D
100
AcDbEntity
  8
0
100
AcDbLine
 10
336.9162
 20
332.01015
 30
0.0
 11
337.0901
 21
331.44155
 31
0.0
  0
LINE
  5
1182
330
1D
100
AcDbEntity
  8
0
100
AcDbLine
 10
336.6731
 20
330.95385
 30
0.0
 11
337.0901
 21
331.44155
 31
0.0
  0
LINE
  5
1183
330
1D
100
AcDbEntity
  8
0
100
AcDbLine
 10
335.9317
 20
330.82035
 30
0.0
 11
336.6731
 21
330.95385
 31
0.0
  0
LINE
  5
1184
330
1D
100
AcDbEntity
  8
0
100
AcDbLine
 10
338.7162
 20
342.46465
 30
0.0
 11
339.4576
 21
342.59865
 31
0.0
  0
LINE
  5
1185
330
1D
100
AcDbEntity
  8
0
100
AcDbLine
 10
338.322
 20
343.84065
 30
0.0
 11
339.0635
 21
343.97365
 31
0.0
  0
LINE
  5
1186
330
1D
100
AcDbEntity
  8
0
100
AcDbLine
 10
338.0789
 20
342.78465
 30
0.0
 11
338.7162
 21
342.46465
 31
0.0
  0
LINE
  5
1187
330
1D
100
AcDbEntity
  8
0
100
AcDbLine
 10
337.905
 20
343.35165
 30
0.0
 11
338.0789
 21
342.78465
 31
0.0
  0
LINE
  5
1188
330
1D
100
AcDbEntity
  8
0
100
AcDbLine
 10
337.905
 20
343.35165
 30
0.0
 11
338.322
 21
343.84065
 31
0.0
  0
LINE
  5
1189
330
1D
100
AcDbEntity
  8
0
100
AcDbLine
 10
339.1826
 20
337.20665
 30
0.0
 11
339.4205
 21
336.65265
 31
0.0
  0
LINE
  5
118A
330
1D
100
AcDbEntity
  8
0
100
AcDbLine
 10
339.1826
 20
337.20665
 30
0.0
 11
339.5425
 21
337.72065
 31
0.0
  0
LINE
  5
118B
330
1D
100
AcDbEntity
  8
0
100
AcDbLine
 10
339.4205
 20
336.65265
 30
0.0
 11
340.0917
 21
336.37765
 31
0.0
  0
LINE
  5
118C
330
1D
100
AcDbEntity
  8
0
100
AcDbLine
 10
339.0635
 20
343.97365
 30
0.0
 11
339.7007
 21
343.65465
 31
0.0
  0
LINE
  5
118D
330
1D
100
AcDbEntity
  8
0
100
AcDbLine
 10
339.5425
 20
337.72065
 30
0.0
 11
340.266
 21
337.90265
 31
0.0
  0
LINE
  5
118E
330
1D
100
AcDbEntity
  8
0
100
AcDbLine
 10
339.7007
 20
343.65465
 30
0.0
 11
339.8746
 21
343.08565
 31
0.0
  0
LINE
  5
118F
330
1D
100
AcDbEntity
  8
0
100
AcDbLine
 10
339.4576
 20
342.59865
 30
0.0
 11
339.8746
 21
343.08565
 31
0.0
  0
LINE
  5
1190
330
1D
100
AcDbEntity
  8
0
100
AcDbLine
 10
338.8071
 20
349.28365
 30
0.0
 11
339.3749
 21
349.67165
 31
0.0
  0
LINE
  5
1191
330
1D
100
AcDbEntity
  8
0
100
AcDbLine
 10
339.3749
 20
349.67165
 30
0.0
 11
340.1361
 21
349.65365
 31
0.0
  0
LINE
  5
1192
330
1D
100
AcDbEntity
  8
0
100
AcDbLine
 10
339.2908
 20
348.26565
 30
0.0
 11
340.052
 21
348.24665
 31
0.0
  0
LINE
  5
1193
330
1D
100
AcDbEntity
  8
0
100
AcDbLine
 10
338.7832
 20
348.69965
 30
0.0
 11
338.8071
 21
349.28365
 31
0.0
  0
LINE
  5
1194
330
1D
100
AcDbEntity
  8
0
100
AcDbLine
 10
338.7832
 20
348.69965
 30
0.0
 11
339.2908
 21
348.26565
 31
0.0
  0
LINE
  5
1195
330
1D
100
AcDbEntity
  8
0
100
AcDbLine
 10
337.9067
 20
356.78665
 30
0.0
 11
338.2501
 21
357.30765
 31
0.0
  0
LINE
  5
1196
330
1D
100
AcDbEntity
  8
0
100
AcDbLine
 10
337.1776
 20
356.61865
 30
0.0
 11
337.9067
 21
356.78665
 31
0.0
  0
LINE
  5
1197
330
1D
100
AcDbEntity
  8
0
100
AcDbLine
 10
336.4979
 20
356.88165
 30
0.0
 11
337.1776
 21
356.61865
 31
0.0
  0
LINE
  5
1198
330
1D
100
AcDbEntity
  8
0
100
AcDbLine
 10
336.6211
 20
357.96065
 30
0.0
 11
337.3502
 21
358.12865
 31
0.0
  0
LINE
  5
1199
330
1D
100
AcDbEntity
  8
0
100
AcDbLine
 10
337.3502
 20
358.12865
 30
0.0
 11
338.03
 21
357.86565
 31
0.0
  0
LINE
  5
119A
330
1D
100
AcDbEntity
  8
0
100
AcDbLine
 10
338.03
 20
357.86565
 30
0.0
 11
338.2501
 21
357.30765
 31
0.0
  0
LINE
  5
119B
330
1D
100
AcDbEntity
  8
0
100
AcDbLine
 10
336.2777
 20
357.43965
 30
0.0
 11
336.6211
 21
357.96065
 31
0.0
  0
LINE
  5
119C
330
1D
100
AcDbEntity
  8
0
100
AcDbLine
 10
336.2777
 20
357.43965
 30
0.0
 11
336.4979
 21
356.88165
 31
0.0
  0
LINE
  5
119D
330
1D
100
AcDbEntity
  8
0
100
AcDbLine
 10
340.0917
 20
336.37765
 30
0.0
 11
340.8152
 21
336.55965
 31
0.0
  0
LINE
  5
119E
330
1D
100
AcDbEntity
  8
0
100
AcDbLine
 10
340.266
 20
337.90265
 30
0.0
 11
340.9372
 21
337.62765
 31
0.0
  0
LINE
  5
119F
330
1D
100
AcDbEntity
  8
0
100
AcDbLine
 10
340.1361
 20
349.65365
 30
0.0
 11
340.6437
 21
349.21865
 31
0.0
  0
LINE
  5
11A0
330
1D
100
AcDbEntity
  8
0
100
AcDbLine
 10
340.052
 20
348.24665
 30
0.0
 11
340.6197
 21
348.63565
 31
0.0
  0
LINE
  5
11A1
330
1D
100
AcDbEntity
  8
0
100
AcDbLine
 10
340.9372
 20
337.62765
 30
0.0
 11
341.175
 21
337.07365
 31
0.0
  0
LINE
  5
11A2
330
1D
100
AcDbEntity
  8
0
100
AcDbLine
 10
340.8152
 20
336.55965
 30
0.0
 11
341.175
 21
337.07365
 31
0.0
  0
LINE
  5
11A3
330
1D
100
AcDbEntity
  8
0
100
AcDbLine
 10
340.6197
 20
348.63565
 30
0.0
 11
340.6437
 21
349.21865
 31
0.0
  0
LINE
  5
11A4
330
1D
100
AcDbEntity
  8
0
100
AcDbLine
 10
341.2873
 20
354.43765
 30
0.0
 11
341.7043
 21
354.92465
 31
0.0
  0
LINE
  5
11A5
330
1D
100
AcDbEntity
  8
0
100
AcDbLine
 10
340.5458
 20
354.30365
 30
0.0
 11
341.2873
 21
354.43765
 31
0.0
  0
LINE
  5
11A6
330
1D
100
AcDbEntity
  8
0
100
AcDbLine
 10
340.1516
 20
355.67965
 30
0.0
 11
340.8931
 21
355.81265
 31
0.0
  0
LINE
  5
11A7
330
1D
100
AcDbEntity
  8
0
100
AcDbLine
 10
340.8931
 20
355.81265
 30
0.0
 11
341.5304
 21
355.49365
 31
0.0
  0
LINE
  5
11A8
330
1D
100
AcDbEntity
  8
0
100
AcDbLine
 10
341.5304
 20
355.49365
 30
0.0
 11
341.7043
 21
354.92465
 31
0.0
  0
LINE
  5
11A9
330
1D
100
AcDbEntity
  8
0
100
AcDbLine
 10
339.9085
 20
354.62265
 30
0.0
 11
340.5458
 21
354.30365
 31
0.0
  0
LINE
  5
11AA
330
1D
100
AcDbEntity
  8
0
100
AcDbLine
 10
339.7346
 20
355.19065
 30
0.0
 11
339.9085
 21
354.62265
 31
0.0
  0
LINE
  5
11AB
330
1D
100
AcDbEntity
  8
0
100
AcDbLine
 10
339.7346
 20
355.19065
 30
0.0
 11
340.1516
 21
355.67965
 31
0.0
  0
LINE
  5
11AC
330
1D
100
AcDbEntity
  8
0
100
AcDbLine
 10
342.1776
 20
331.65755
 30
0.0
 11
342.8776
 21
331.88735
 31
0.0
  0
LINE
  5
11AD
330
1D
100
AcDbEntity
  8
0
100
AcDbLine
 10
341.8776
 20
331.12085
 30
0.0
 11
342.1776
 21
330.58515
 31
0.0
  0
LINE
  5
11AE
330
1D
100
AcDbEntity
  8
0
100
AcDbLine
 10
341.8776
 20
331.12085
 30
0.0
 11
342.1776
 21
331.65755
 31
0.0
  0
LINE
  5
11AF
330
1D
100
AcDbEntity
  8
0
100
AcDbLine
 10
342.1776
 20
330.58515
 30
0.0
 11
342.8776
 21
330.35445
 31
0.0
  0
LINE
  5
11B0
330
1D
100
AcDbEntity
  8
0
100
AcDbLine
 10
335.8776
 20
359.47665
 30
0.0
 11
336.5776
 21
359.70665
 31
0.0
  0
LINE
  5
11B1
330
1D
100
AcDbEntity
  8
0
100
AcDbLine
 10
336.5776
 20
359.70665
 30
0.0
 11
336.8776
 21
360.24265
 31
0.0
  0
LINE
  5
11B2
330
1D
100
AcDbEntity
  8
0
100
AcDbLine
 10
335.1776
 20
359.70665
 30
0.0
 11
335.8776
 21
359.47665
 31
0.0
  0
LINE
  5
11B3
330
1D
100
AcDbEntity
  8
0
100
AcDbLine
 10
334.8776
 20
360.24265
 30
0.0
 11
335.1776
 21
359.70665
 31
0.0
  0
LINE
  5
11B4
330
1D
100
AcDbEntity
  8
0
100
AcDbLine
 10
334.8776
 20
360.24265
 30
0.0
 11
335.1776
 21
360.77865
 31
0.0
  0
LINE
  5
11B5
330
1D
100
AcDbEntity
  8
0
100
AcDbLine
 10
331.139
 20
375.04665
 30
0.0
 11
331.8952
 21
375.11565
 31
0.0
  0
LINE
  5
11B6
330
1D
100
AcDbEntity
  8
0
100
AcDbLine
 10
331.8952
 20
375.11565
 30
0.0
 11
332.3514
 21
375.58265
 31
0.0
  0
LINE
  5
11B7
330
1D
100
AcDbEntity
  8
0
100
AcDbLine
 10
331.6514
 20
376.51165
 30
0.0
 11
332.2612
 21
376.16265
 31
0.0
  0
LINE
  5
11B8
330
1D
100
AcDbEntity
  8
0
100
AcDbLine
 10
332.3939
 20
368.44065
 30
0.0
 11
333.101
 21
368.22365
 31
0.0
  0
LINE
  5
11B9
330
1D
100
AcDbEntity
  8
0
100
AcDbLine
 10
333.101
 20
368.22365
 30
0.0
 11
333.8081
 21
368.44065
 31
0.0
  0
LINE
  5
11BA
330
1D
100
AcDbEntity
  8
0
100
AcDbLine
 10
333.8081
 20
368.44065
 30
0.0
 11
334.0909
 21
368.98265
 31
0.0
  0
LINE
  5
11BB
330
1D
100
AcDbEntity
  8
0
100
AcDbLine
 10
335.8776
 20
361.00865
 30
0.0
 11
336.5776
 21
360.77865
 31
0.0
  0
LINE
  5
11BC
330
1D
100
AcDbEntity
  8
0
100
AcDbLine
 10
335.1776
 20
360.77865
 30
0.0
 11
335.8776
 21
361.00865
 31
0.0
  0
LINE
  5
11BD
330
1D
100
AcDbEntity
  8
0
100
AcDbLine
 10
336.5776
 20
360.77865
 30
0.0
 11
336.8776
 21
360.24265
 31
0.0
  0
LINE
  5
11BE
330
1D
100
AcDbEntity
  8
0
100
AcDbLine
 10
336.6211
 20
362.52465
 30
0.0
 11
337.3502
 21
362.35565
 31
0.0
  0
LINE
  5
11BF
330
1D
100
AcDbEntity
  8
0
100
AcDbLine
 10
337.3502
 20
362.35565
 30
0.0
 11
338.03
 21
362.61865
 31
0.0
  0
LINE
  5
11C0
330
1D
100
AcDbEntity
  8
0
100
AcDbLine
 10
338.03
 20
362.61865
 30
0.0
 11
338.2501
 21
363.17765
 31
0.0
  0
LINE
  5
11C1
330
1D
100
AcDbEntity
  8
0
100
AcDbLine
 10
337.9067
 20
363.69865
 30
0.0
 11
338.2501
 21
363.17765
 31
0.0
  0
LINE
  5
11C2
330
1D
100
AcDbEntity
  8
0
100
AcDbLine
 10
337.1776
 20
363.86665
 30
0.0
 11
337.9067
 21
363.69865
 31
0.0
  0
LINE
  5
11C3
330
1D
100
AcDbEntity
  8
0
100
AcDbLine
 10
336.4979
 20
363.60365
 30
0.0
 11
337.1776
 21
363.86665
 31
0.0
  0
LINE
  5
11C4
330
1D
100
AcDbEntity
  8
0
100
AcDbLine
 10
336.2777
 20
363.04565
 30
0.0
 11
336.6211
 21
362.52465
 31
0.0
  0
LINE
  5
11C5
330
1D
100
AcDbEntity
  8
0
100
AcDbLine
 10
336.2777
 20
363.04565
 30
0.0
 11
336.4979
 21
363.60365
 31
0.0
  0
LINE
  5
11C6
330
1D
100
AcDbEntity
  8
0
100
AcDbLine
 10
333.8081
 20
369.52365
 30
0.0
 11
334.0909
 21
368.98265
 31
0.0
  0
LINE
  5
11C7
330
1D
100
AcDbEntity
  8
0
100
AcDbLine
 10
332.2612
 20
376.16265
 30
0.0
 11
332.3514
 21
375.58265
 31
0.0
  0
LINE
  5
11C8
330
1D
100
AcDbEntity
  8
0
100
AcDbLine
 10
338.8071
 20
371.48865
 30
0.0
 11
339.3749
 21
371.09965
 31
0.0
  0
LINE
  5
11C9
330
1D
100
AcDbEntity
  8
0
100
AcDbLine
 10
339.3749
 20
371.09965
 30
0.0
 11
340.1361
 21
371.11765
 31
0.0
  0
LINE
  5
11CA
330
1D
100
AcDbEntity
  8
0
100
AcDbLine
 10
339.2908
 20
372.50565
 30
0.0
 11
340.052
 21
372.52465
 31
0.0
  0
LINE
  5
11CB
330
1D
100
AcDbEntity
  8
0
100
AcDbLine
 10
338.7832
 20
372.07165
 30
0.0
 11
338.8071
 21
371.48865
 31
0.0
  0
LINE
  5
11CC
330
1D
100
AcDbEntity
  8
0
100
AcDbLine
 10
338.7832
 20
372.07165
 30
0.0
 11
339.2908
 21
372.50565
 31
0.0
  0
LINE
  5
11CD
330
1D
100
AcDbEntity
  8
0
100
AcDbLine
 10
333.101
 20
369.74165
 30
0.0
 11
333.8081
 21
369.52365
 31
0.0
  0
LINE
  5
11CE
330
1D
100
AcDbEntity
  8
0
100
AcDbLine
 10
332.3939
 20
369.52365
 30
0.0
 11
333.101
 21
369.74165
 31
0.0
  0
LINE
  5
11CF
330
1D
100
AcDbEntity
  8
0
100
AcDbLine
 10
332.111
 20
368.98265
 30
0.0
 11
332.3939
 21
368.44065
 31
0.0
  0
LINE
  5
11D0
330
1D
100
AcDbEntity
  8
0
100
AcDbLine
 10
332.111
 20
368.98265
 30
0.0
 11
332.3939
 21
369.52365
 31
0.0
  0
LINE
  5
11D1
330
1D
100
AcDbEntity
  8
0
100
AcDbLine
 10
338.322
 20
377.24765
 30
0.0
 11
339.0635
 21
377.11465
 31
0.0
  0
LINE
  5
11D2
330
1D
100
AcDbEntity
  8
0
100
AcDbLine
 10
339.0635
 20
377.11465
 30
0.0
 11
339.7007
 21
377.43365
 31
0.0
  0
LINE
  5
11D3
330
1D
100
AcDbEntity
  8
0
100
AcDbLine
 10
340.1516
 20
364.80665
 30
0.0
 11
340.8931
 21
364.67265
 31
0.0
  0
LINE
  5
11D4
330
1D
100
AcDbEntity
  8
0
100
AcDbLine
 10
340.8931
 20
364.67265
 30
0.0
 11
341.5304
 21
364.99265
 31
0.0
  0
LINE
  5
11D5
330
1D
100
AcDbEntity
  8
0
100
AcDbLine
 10
341.5304
 20
364.99265
 30
0.0
 11
341.7043
 21
365.55965
 31
0.0
  0
LINE
  5
11D6
330
1D
100
AcDbEntity
  8
0
100
AcDbLine
 10
341.2873
 20
366.04865
 30
0.0
 11
341.7043
 21
365.55965
 31
0.0
  0
LINE
  5
11D7
330
1D
100
AcDbEntity
  8
0
100
AcDbLine
 10
340.1361
 20
371.11765
 30
0.0
 11
340.6437
 21
371.55265
 31
0.0
  0
LINE
  5
11D8
330
1D
100
AcDbEntity
  8
0
100
AcDbLine
 10
340.6197
 20
372.13565
 30
0.0
 11
340.6437
 21
371.55265
 31
0.0
  0
LINE
  5
11D9
330
1D
100
AcDbEntity
  8
0
100
AcDbLine
 10
340.052
 20
372.52465
 30
0.0
 11
340.6197
 21
372.13565
 31
0.0
  0
LINE
  5
11DA
330
1D
100
AcDbEntity
  8
0
100
AcDbLine
 10
340.5458
 20
366.18065
 30
0.0
 11
341.2873
 21
366.04865
 31
0.0
  0
LINE
  5
11DB
330
1D
100
AcDbEntity
  8
0
100
AcDbLine
 10
339.9085
 20
365.86165
 30
0.0
 11
340.5458
 21
366.18065
 31
0.0
  0
LINE
  5
11DC
330
1D
100
AcDbEntity
  8
0
100
AcDbLine
 10
339.7346
 20
365.29465
 30
0.0
 11
339.9085
 21
365.86165
 31
0.0
  0
LINE
  5
11DD
330
1D
100
AcDbEntity
  8
0
100
AcDbLine
 10
339.7346
 20
365.29465
 30
0.0
 11
340.1516
 21
364.80665
 31
0.0
  0
LINE
  5
11DE
330
1D
100
AcDbEntity
  8
0
100
AcDbLine
 10
339.7007
 20
377.43365
 30
0.0
 11
339.8746
 21
378.00165
 31
0.0
  0
LINE
  5
11DF
330
1D
100
AcDbEntity
  8
0
100
AcDbLine
 10
339.4576
 20
378.49065
 30
0.0
 11
339.8746
 21
378.00165
 31
0.0
  0
LINE
  5
11E0
330
1D
100
AcDbEntity
  8
0
100
AcDbLine
 10
338.0789
 20
378.30365
 30
0.0
 11
338.7162
 21
378.62365
 31
0.0
  0
LINE
  5
11E1
330
1D
100
AcDbEntity
  8
0
100
AcDbLine
 10
337.905
 20
377.73565
 30
0.0
 11
338.0789
 21
378.30365
 31
0.0
  0
LINE
  5
11E2
330
1D
100
AcDbEntity
  8
0
100
AcDbLine
 10
337.905
 20
377.73565
 30
0.0
 11
338.322
 21
377.24765
 31
0.0
  0
LINE
  5
11E3
330
1D
100
AcDbEntity
  8
0
100
AcDbLine
 10
342.1776
 20
360.64965
 30
0.0
 11
342.8776
 21
360.87965
 31
0.0
  0
LINE
  5
11E4
330
1D
100
AcDbEntity
  8
0
100
AcDbLine
 10
341.8776
 20
360.11465
 30
0.0
 11
342.1776
 21
359.57765
 31
0.0
  0
LINE
  5
11E5
330
1D
100
AcDbEntity
  8
0
100
AcDbLine
 10
341.8776
 20
360.11465
 30
0.0
 11
342.1776
 21
360.64965
 31
0.0
  0
LINE
  5
11E6
330
1D
100
AcDbEntity
  8
0
100
AcDbLine
 10
342.8776
 20
330.35445
 30
0.0
 11
343.5776
 21
330.58515
 31
0.0
  0
LINE
  5
11E7
330
1D
100
AcDbEntity
  8
0
100
AcDbLine
 10
342.8776
 20
331.88735
 30
0.0
 11
343.5776
 21
331.65755
 31
0.0
  0
LINE
  5
11E8
330
1D
100
AcDbEntity
  8
0
100
AcDbLine
 10
343.5776
 20
331.65755
 30
0.0
 11
343.8776
 21
331.12085
 31
0.0
  0
LINE
  5
11E9
330
1D
100
AcDbEntity
  8
0
100
AcDbLine
 10
343.5776
 20
330.58515
 30
0.0
 11
343.8776
 21
331.12085
 31
0.0
  0
LINE
  5
11EA
330
1D
100
AcDbEntity
  8
0
100
AcDbLine
 10
342.8776
 20
359.34765
 30
0.0
 11
343.5776
 21
359.57765
 31
0.0
  0
LINE
  5
11EB
330
1D
100
AcDbEntity
  8
0
100
AcDbLine
 10
343.5776
 20
359.57765
 30
0.0
 11
343.8776
 21
360.11465
 31
0.0
  0
LINE
  5
11EC
330
1D
100
AcDbEntity
  8
0
100
AcDbLine
 10
344.3776
 20
329.984222727273
 30
0.0
 11
344.3776
 21
326.92035
 31
0.0
  0
LINE
  5
11ED
330
1D
100
AcDbEntity
  8
0
100
AcDbLine
 10
348.839
 20
332.01015
 30
0.0
 11
349.4762
 21
332.32945
 31
0.0
  0
LINE
  5
11EE
330
1D
100
AcDbEntity
  8
0
100
AcDbLine
 10
348.6651
 20
331.44155
 30
0.0
 11
349.0821
 21
330.95385
 31
0.0
  0
LINE
  5
11EF
330
1D
100
AcDbEntity
  8
0
100
AcDbLine
 10
348.6651
 20
331.44155
 30
0.0
 11
348.839
 21
332.01015
 31
0.0
  0
LINE
  5
11F0
330
1D
100
AcDbEntity
  8
0
100
AcDbLine
 10
349.4762
 20
332.32945
 30
0.0
 11
350.2177
 21
332.19595
 31
0.0
  0
LINE
  5
11F1
330
1D
100
AcDbEntity
  8
0
100
AcDbLine
 10
349.0821
 20
330.95385
 30
0.0
 11
349.8235
 21
330.82035
 31
0.0
  0
LINE
  5
11F2
330
1D
100
AcDbEntity
  8
0
100
AcDbLine
 10
349.8235
 20
330.82035
 30
0.0
 11
350.4608
 21
331.13965
 31
0.0
  0
LINE
  5
11F3
330
1D
100
AcDbEntity
  8
0
100
AcDbLine
 10
345.4892
 20
337.90265
 30
0.0
 11
346.2127
 21
337.72065
 31
0.0
  0
LINE
  5
11F4
330
1D
100
AcDbEntity
  8
0
100
AcDbLine
 10
344.818
 20
337.62765
 30
0.0
 11
345.4892
 21
337.90265
 31
0.0
  0
LINE
  5
11F5
330
1D
100
AcDbEntity
  8
0
100
AcDbLine
 10
344.5802
 20
337.07365
 30
0.0
 11
344.94
 21
336.55965
 31
0.0
  0
LINE
  5
11F6
330
1D
100
AcDbEntity
  8
0
100
AcDbLine
 10
344.5802
 20
337.07365
 30
0.0
 11
344.818
 21
337.62765
 31
0.0
  0
LINE
  5
11F7
330
1D
100
AcDbEntity
  8
0
100
AcDbLine
 10
344.94
 20
336.55965
 30
0.0
 11
345.6635
 21
336.37765
 31
0.0
  0
LINE
  5
11F8
330
1D
100
AcDbEntity
  8
0
100
AcDbLine
 10
345.6635
 20
336.37765
 30
0.0
 11
346.3347
 21
336.65265
 31
0.0
  0
LINE
  5
11F9
330
1D
100
AcDbEntity
  8
0
100
AcDbLine
 10
345.7399
 20
349.36365
 30
0.0
 11
345.7639
 21
348.77965
 31
0.0
  0
LINE
  5
11FA
330
1D
100
AcDbEntity
  8
0
100
AcDbLine
 10
345.7399
 20
349.36365
 30
0.0
 11
346.2476
 21
349.79865
 31
0.0
  0
LINE
  5
11FB
330
1D
100
AcDbEntity
  8
0
100
AcDbLine
 10
346.2127
 20
337.72065
 30
0.0
 11
346.5726
 21
337.20665
 31
0.0
  0
LINE
  5
11FC
330
1D
100
AcDbEntity
  8
0
100
AcDbLine
 10
346.0545
 20
343.65465
 30
0.0
 11
346.6917
 21
343.97365
 31
0.0
  0
LINE
  5
11FD
330
1D
100
AcDbEntity
  8
0
100
AcDbLine
 10
345.8806
 20
343.08565
 30
0.0
 11
346.2976
 21
342.59865
 31
0.0
  0
LINE
  5
11FE
330
1D
100
AcDbEntity
  8
0
100
AcDbLine
 10
345.8806
 20
343.08565
 30
0.0
 11
346.0545
 21
343.65465
 31
0.0
  0
LINE
  5
11FF
330
1D
100
AcDbEntity
  8
0
100
AcDbLine
 10
346.2476
 20
349.79865
 30
0.0
 11
347.0088
 21
349.81665
 31
0.0
  0
LINE
  5
1200
330
1D
100
AcDbEntity
  8
0
100
AcDbLine
 10
345.7639
 20
348.77965
 30
0.0
 11
346.3316
 21
348.39165
 31
0.0
  0
LINE
  5
1201
330
1D
100
AcDbEntity
  8
0
100
AcDbLine
 10
344.6647
 20
355.73465
 30
0.0
 11
345.302
 21
356.05365
 31
0.0
  0
LINE
  5
1202
330
1D
100
AcDbEntity
  8
0
100
AcDbLine
 10
344.4908
 20
355.16665
 30
0.0
 11
344.9078
 21
354.67765
 31
0.0
  0
LINE
  5
1203
330
1D
100
AcDbEntity
  8
0
100
AcDbLine
 10
344.4908
 20
355.16665
 30
0.0
 11
344.6647
 21
355.73465
 31
0.0
  0
LINE
  5
1204
330
1D
100
AcDbEntity
  8
0
100
AcDbLine
 10
346.0434
 20
355.91965
 30
0.0
 11
346.4604
 21
355.43265
 31
0.0
  0
LINE
  5
1205
330
1D
100
AcDbEntity
  8
0
100
AcDbLine
 10
345.302
 20
356.05365
 30
0.0
 11
346.0434
 21
355.91965
 31
0.0
  0
LINE
  5
1206
330
1D
100
AcDbEntity
  8
0
100
AcDbLine
 10
344.9078
 20
354.67765
 30
0.0
 11
345.6493
 21
354.54465
 31
0.0
  0
LINE
  5
1207
330
1D
100
AcDbEntity
  8
0
100
AcDbLine
 10
345.6493
 20
354.54465
 30
0.0
 11
346.2866
 21
354.86365
 31
0.0
  0
LINE
  5
1208
330
1D
100
AcDbEntity
  8
0
100
AcDbLine
 10
346.3347
 20
336.65265
 30
0.0
 11
346.5726
 21
337.20665
 31
0.0
  0
LINE
  5
1209
330
1D
100
AcDbEntity
  8
0
100
AcDbLine
 10
346.2976
 20
342.59865
 30
0.0
 11
347.039
 21
342.46465
 31
0.0
  0
LINE
  5
120A
330
1D
100
AcDbEntity
  8
0
100
AcDbLine
 10
346.3316
 20
348.39165
 30
0.0
 11
347.0928
 21
348.40965
 31
0.0
  0
LINE
  5
120B
330
1D
100
AcDbEntity
  8
0
100
AcDbLine
 10
346.6917
 20
343.97365
 30
0.0
 11
347.4332
 21
343.84065
 31
0.0
  0
LINE
  5
120C
330
1D
100
AcDbEntity
  8
0
100
AcDbLine
 10
347.039
 20
342.46465
 30
0.0
 11
347.6763
 21
342.78465
 31
0.0
  0
LINE
  5
120D
330
1D
100
AcDbEntity
  8
0
100
AcDbLine
 10
347.4332
 20
343.84065
 30
0.0
 11
347.8502
 21
343.35165
 31
0.0
  0
LINE
  5
120E
330
1D
100
AcDbEntity
  8
0
100
AcDbLine
 10
347.6763
 20
342.78465
 30
0.0
 11
347.8502
 21
343.35165
 31
0.0
  0
LINE
  5
120F
330
1D
100
AcDbEntity
  8
0
100
AcDbLine
 10
347.0928
 20
348.40965
 30
0.0
 11
347.6004
 21
348.84365
 31
0.0
  0
LINE
  5
1210
330
1D
100
AcDbEntity
  8
0
100
AcDbLine
 10
347.0088
 20
349.81665
 30
0.0
 11
347.5765
 21
349.42765
 31
0.0
  0
LINE
  5
1211
330
1D
100
AcDbEntity
  8
0
100
AcDbLine
 10
347.5765
 20
349.42765
 30
0.0
 11
347.6004
 21
348.84365
 31
0.0
  0
LINE
  5
1212
330
1D
100
AcDbEntity
  8
0
100
AcDbLine
 10
347.7252
 20
357.86565
 30
0.0
 11
348.405
 21
358.12865
 31
0.0
  0
LINE
  5
1213
330
1D
100
AcDbEntity
  8
0
100
AcDbLine
 10
347.5051
 20
357.30765
 30
0.0
 11
347.8485
 21
356.78665
 31
0.0
  0
LINE
  5
1214
330
1D
100
AcDbEntity
  8
0
100
AcDbLine
 10
347.5051
 20
357.30765
 30
0.0
 11
347.7252
 21
357.86565
 31
0.0
  0
LINE
  5
1215
330
1D
100
AcDbEntity
  8
0
100
AcDbLine
 10
348.405
 20
358.12865
 30
0.0
 11
349.1341
 21
357.96065
 31
0.0
  0
LINE
  5
1216
330
1D
100
AcDbEntity
  8
0
100
AcDbLine
 10
347.8485
 20
356.78665
 30
0.0
 11
348.5776
 21
356.61865
 31
0.0
  0
LINE
  5
1217
330
1D
100
AcDbEntity
  8
0
100
AcDbLine
 10
348.5776
 20
356.61865
 30
0.0
 11
349.2573
 21
356.88165
 31
0.0
  0
LINE
  5
1218
330
1D
100
AcDbEntity
  8
0
100
AcDbLine
 10
349.2573
 20
356.88165
 30
0.0
 11
349.4775
 21
357.43965
 31
0.0
  0
LINE
  5
1219
330
1D
100
AcDbEntity
  8
0
100
AcDbLine
 10
349.1341
 20
357.96065
 30
0.0
 11
349.4775
 21
357.43965
 31
0.0
  0
LINE
  5
121A
330
1D
100
AcDbEntity
  8
0
100
AcDbLine
 10
346.2866
 20
354.86365
 30
0.0
 11
346.4604
 21
355.43265
 31
0.0
  0
LINE
  5
121B
330
1D
100
AcDbEntity
  8
0
100
AcDbLine
 10
350.2177
 20
332.19595
 30
0.0
 11
350.6347
 21
331.70825
 31
0.0
  0
LINE
  5
121C
330
1D
100
AcDbEntity
  8
0
100
AcDbLine
 10
350.4608
 20
331.13965
 30
0.0
 11
350.6347
 21
331.70825
 31
0.0
  0
LINE
  5
121D
330
1D
100
AcDbEntity
  8
0
100
AcDbLine
 10
350.3969
 20
337.20165
 30
0.0
 11
351.1507
 21
337.11865
 31
0.0
  0
LINE
  5
121E
330
1D
100
AcDbEntity
  8
0
100
AcDbLine
 10
355.1776
 20
327.86015
 30
0.0
 11
366.7776
 21
331.46075
 31
0.0
  0
LINE
  5
121F
330
1D
100
AcDbEntity
  8
0
100
AcDbLine
 10
355.798
 20
332.23485
 30
0.0
 11
356.5584
 21
332.20265
 31
0.0
  0
LINE
  5
1220
330
1D
100
AcDbEntity
  8
0
100
AcDbLine
 10
356.5584
 20
332.20265
 30
0.0
 11
357.1136
 21
332.60205
 31
0.0
  0
LINE
  5
1221
330
1D
100
AcDbEntity
  8
0
100
AcDbLine
 10
356.6348
 20
333.61025
 30
0.0
 11
357.1561
 21
333.18435
 31
0.0
  0
LINE
  5
1222
330
1D
100
AcDbEntity
  8
0
100
AcDbLine
 10
355.8744
 20
333.64235
 30
0.0
 11
356.6348
 21
333.61025
 31
0.0
  0
LINE
  5
1223
330
1D
100
AcDbEntity
  8
0
100
AcDbLine
 10
355.3192
 20
333.24305
 30
0.0
 11
355.8744
 21
333.64235
 31
0.0
  0
LINE
  5
1224
330
1D
100
AcDbEntity
  8
0
100
AcDbLine
 10
355.2767
 20
332.66075
 30
0.0
 11
355.798
 21
332.23485
 31
0.0
  0
LINE
  5
1225
330
1D
100
AcDbEntity
  8
0
100
AcDbLine
 10
355.2767
 20
332.66075
 30
0.0
 11
355.3192
 21
333.24305
 31
0.0
  0
LINE
  5
1226
330
1D
100
AcDbEntity
  8
0
100
AcDbLine
 10
357.1136
 20
332.60205
 30
0.0
 11
357.1561
 21
333.18435
 31
0.0
  0
LINE
  5
1227
330
1D
100
AcDbEntity
  8
0
100
AcDbLine
 10
351.1507
 20
337.11865
 30
0.0
 11
351.7492
 21
337.47965
 31
0.0
  0
LINE
  5
1228
330
1D
100
AcDbEntity
  8
0
100
AcDbLine
 10
351.2559
 20
350.81365
 30
0.0
 11
351.963
 21
350.59765
 31
0.0
  0
LINE
  5
1229
330
1D
100
AcDbEntity
  8
0
100
AcDbLine
 10
351.963
 20
350.59765
 30
0.0
 11
352.6701
 21
350.81365
 31
0.0
  0
LINE
  5
122A
330
1D
100
AcDbEntity
  8
0
100
AcDbLine
 10
351.963
 20
352.11365
 30
0.0
 11
352.6701
 21
351.89665
 31
0.0
  0
LINE
  5
122B
330
1D
100
AcDbEntity
  8
0
100
AcDbLine
 10
351.2559
 20
351.89665
 30
0.0
 11
351.963
 21
352.11365
 31
0.0
  0
LINE
  5
122C
330
1D
100
AcDbEntity
  8
0
100
AcDbLine
 10
350.973
 20
351.35565
 30
0.0
 11
351.2559
 21
350.81365
 31
0.0
  0
LINE
  5
122D
330
1D
100
AcDbEntity
  8
0
100
AcDbLine
 10
350.973
 20
351.35565
 30
0.0
 11
351.2559
 21
351.89665
 31
0.0
  0
LINE
  5
122E
330
1D
100
AcDbEntity
  8
0
100
AcDbLine
 10
352.6701
 20
350.81365
 30
0.0
 11
352.9529
 21
351.35565
 31
0.0
  0
LINE
  5
122F
330
1D
100
AcDbEntity
  8
0
100
AcDbLine
 10
355.0336
 20
339.53165
 30
0.0
 11
355.0576
 21
338.94865
 31
0.0
  0
LINE
  5
1230
330
1D
100
AcDbEntity
  8
0
100
AcDbLine
 10
355.0336
 20
339.53165
 30
0.0
 11
355.5413
 21
339.96665
 31
0.0
  0
LINE
  5
1231
330
1D
100
AcDbEntity
  8
0
100
AcDbLine
 10
355.0576
 20
338.94865
 30
0.0
 11
355.6253
 21
338.55965
 31
0.0
  0
LINE
  5
1232
330
1D
100
AcDbEntity
  8
0
100
AcDbLine
 10
354.1038
 20
344.57665
 30
0.0
 11
354.86
 21
344.64565
 31
0.0
  0
LINE
  5
1233
330
1D
100
AcDbEntity
  8
0
100
AcDbLine
 10
353.4038
 20
345.50465
 30
0.0
 11
353.494
 21
344.92665
 31
0.0
  0
LINE
  5
1234
330
1D
100
AcDbEntity
  8
0
100
AcDbLine
 10
353.4038
 20
345.50465
 30
0.0
 11
353.86
 21
345.97265
 31
0.0
  0
LINE
  5
1235
330
1D
100
AcDbEntity
  8
0
100
AcDbLine
 10
354.6162
 20
346.04165
 30
0.0
 11
355.226
 21
345.69165
 31
0.0
  0
LINE
  5
1236
330
1D
100
AcDbEntity
  8
0
100
AcDbLine
 10
353.86
 20
345.97265
 30
0.0
 11
354.6162
 21
346.04165
 31
0.0
  0
LINE
  5
1237
330
1D
100
AcDbEntity
  8
0
100
AcDbLine
 10
353.494
 20
344.92665
 30
0.0
 11
354.1038
 21
344.57665
 31
0.0
  0
LINE
  5
1238
330
1D
100
AcDbEntity
  8
0
100
AcDbLine
 10
354.86
 20
344.64565
 30
0.0
 11
355.3162
 21
345.11265
 31
0.0
  0
LINE
  5
1239
330
1D
100
AcDbEntity
  8
0
100
AcDbLine
 10
355.6253
 20
338.55965
 30
0.0
 11
356.3865
 21
338.57865
 31
0.0
  0
LINE
  5
123A
330
1D
100
AcDbEntity
  8
0
100
AcDbLine
 10
356.3865
 20
338.57865
 30
0.0
 11
356.8941
 21
339.01265
 31
0.0
  0
LINE
  5
123B
330
1D
100
AcDbEntity
  8
0
100
AcDbLine
 10
356.3025
 20
339.98465
 30
0.0
 11
356.8702
 21
339.59665
 31
0.0
  0
LINE
  5
123C
330
1D
100
AcDbEntity
  8
0
100
AcDbLine
 10
355.5413
 20
339.96665
 30
0.0
 11
356.3025
 21
339.98465
 31
0.0
  0
LINE
  5
123D
330
1D
100
AcDbEntity
  8
0
100
AcDbLine
 10
356.8702
 20
339.59665
 30
0.0
 11
356.8941
 21
339.01265
 31
0.0
  0
LINE
  5
123E
330
1D
100
AcDbEntity
  8
0
100
AcDbLine
 10
355.226
 20
345.69165
 30
0.0
 11
355.3162
 21
345.11265
 31
0.0
  0
LINE
  5
123F
330
1D
100
AcDbEntity
  8
0
100
AcDbLine
 10
355.1229
 20
355.53465
 30
0.0
 11
355.6907
 21
355.92365
 31
0.0
  0
LINE
  5
1240
330
1D
100
AcDbEntity
  8
0
100
AcDbLine
 10
355.099
 20
354.95265
 30
0.0
 11
355.6066
 21
354.51765
 31
0.0
  0
LINE
  5
1241
330
1D
100
AcDbEntity
  8
0
100
AcDbLine
 10
355.099
 20
354.95265
 30
0.0
 11
355.1229
 21
355.53465
 31
0.0
  0
LINE
  5
1242
330
1D
100
AcDbEntity
  8
0
100
AcDbLine
 10
355.6066
 20
354.51765
 30
0.0
 11
356.3678
 21
354.49865
 31
0.0
  0
LINE
  5
1243
330
1D
100
AcDbEntity
  8
0
100
AcDbLine
 10
356.3678
 20
354.49865
 30
0.0
 11
356.9356
 21
354.88765
 31
0.0
  0
LINE
  5
1244
330
1D
100
AcDbEntity
  8
0
100
AcDbLine
 10
356.9356
 20
354.88765
 30
0.0
 11
356.9595
 21
355.47065
 31
0.0
  0
LINE
  5
1245
330
1D
100
AcDbEntity
  8
0
100
AcDbLine
 10
355.6907
 20
355.92365
 30
0.0
 11
356.4519
 21
355.90565
 31
0.0
  0
LINE
  5
1246
330
1D
100
AcDbEntity
  8
0
100
AcDbLine
 10
356.4519
 20
355.90565
 30
0.0
 11
356.9595
 21
355.47065
 31
0.0
  0
LINE
  5
1247
330
1D
100
AcDbEntity
  8
0
100
AcDbLine
 10
352.6701
 20
351.89665
 30
0.0
 11
352.9529
 21
351.35565
 31
0.0
  0
LINE
  5
1248
330
1D
100
AcDbEntity
  8
0
100
AcDbLine
 10
351.3869
 20
338.51465
 30
0.0
 11
351.8578
 21
338.05665
 31
0.0
  0
LINE
  5
1249
330
1D
100
AcDbEntity
  8
0
100
AcDbLine
 10
350.6331
 20
338.59865
 30
0.0
 11
351.3869
 21
338.51465
 31
0.0
  0
LINE
  5
124A
330
1D
100
AcDbEntity
  8
0
100
AcDbLine
 10
350.0346
 20
338.23765
 30
0.0
 11
350.6331
 21
338.59865
 31
0.0
  0
LINE
  5
124B
330
1D
100
AcDbEntity
  8
0
100
AcDbLine
 10
349.9259
 20
337.65965
 30
0.0
 11
350.3969
 21
337.20165
 31
0.0
  0
LINE
  5
124C
330
1D
100
AcDbEntity
  8
0
100
AcDbLine
 10
349.9259
 20
337.65965
 30
0.0
 11
350.0346
 21
338.23765
 31
0.0
  0
LINE
  5
124D
330
1D
100
AcDbEntity
  8
0
100
AcDbLine
 10
351.7492
 20
337.47965
 30
0.0
 11
351.8578
 21
338.05665
 31
0.0
  0
LINE
  5
124E
330
1D
100
AcDbEntity
  8
0
100
AcDbLine
 10
349.8776
 20
359.47665
 30
0.0
 11
350.5776
 21
359.70665
 31
0.0
  0
LINE
  5
124F
330
1D
100
AcDbEntity
  8
0
100
AcDbLine
 10
349.1776
 20
359.70665
 30
0.0
 11
349.8776
 21
359.47665
 31
0.0
  0
LINE
  5
1250
330
1D
100
AcDbEntity
  8
0
100
AcDbLine
 10
350.5776
 20
359.70665
 30
0.0
 11
350.8776
 21
360.24265
 31
0.0
  0
LINE
  5
1251
330
1D
100
AcDbEntity
  8
0
100
AcDbLine
 10
357.1307
 20
359.67365
 30
0.0
 11
357.8542
 21
359.49065
 31
0.0
  0
LINE
  5
1252
330
1D
100
AcDbEntity
  8
0
100
AcDbLine
 10
360.0647
 20
341.96665
 30
0.0
 11
360.8102
 21
342.08665
 31
0.0
  0
LINE
  5
1253
330
1D
100
AcDbEntity
  8
0
100
AcDbLine
 10
359.6634
 20
341.47165
 30
0.0
 11
359.8191
 21
340.89965
 31
0.0
  0
LINE
  5
1254
330
1D
100
AcDbEntity
  8
0
100
AcDbLine
 10
359.6634
 20
341.47165
 30
0.0
 11
360.0647
 21
341.96665
 31
0.0
  0
LINE
  5
1255
330
1D
100
AcDbEntity
  8
0
100
AcDbLine
 10
359.8191
 20
340.89965
 30
0.0
 11
360.4664
 21
340.59265
 31
0.0
  0
LINE
  5
1256
330
1D
100
AcDbEntity
  8
0
100
AcDbLine
 10
360.8102
 20
342.08665
 30
0.0
 11
361.4574
 21
341.77865
 31
0.0
  0
LINE
  5
1257
330
1D
100
AcDbEntity
  8
0
100
AcDbLine
 10
360.4664
 20
340.59265
 30
0.0
 11
361.2118
 21
340.71265
 31
0.0
  0
LINE
  5
1258
330
1D
100
AcDbEntity
  8
0
100
AcDbLine
 10
359.7036
 20
349.72865
 30
0.0
 11
360.3834
 21
349.99165
 31
0.0
  0
LINE
  5
1259
330
1D
100
AcDbEntity
  8
0
100
AcDbLine
 10
359.4835
 20
349.16965
 30
0.0
 11
359.8268
 21
348.64965
 31
0.0
  0
LINE
  5
125A
330
1D
100
AcDbEntity
  8
0
100
AcDbLine
 10
359.4835
 20
349.16965
 30
0.0
 11
359.7036
 21
349.72865
 31
0.0
  0
LINE
  5
125B
330
1D
100
AcDbEntity
  8
0
100
AcDbLine
 10
360.3834
 20
349.99165
 30
0.0
 11
361.1124
 21
349.82265
 31
0.0
  0
LINE
  5
125C
330
1D
100
AcDbEntity
  8
0
100
AcDbLine
 10
359.8268
 20
348.64965
 30
0.0
 11
360.5559
 21
348.48065
 31
0.0
  0
LINE
  5
125D
330
1D
100
AcDbEntity
  8
0
100
AcDbLine
 10
360.5559
 20
348.48065
 30
0.0
 11
361.2357
 21
348.74365
 31
0.0
  0
LINE
  5
125E
330
1D
100
AcDbEntity
  8
0
100
AcDbLine
 10
361.4214
 20
335.31965
 30
0.0
 11
361.5116
 21
334.74025
 31
0.0
  0
LINE
  5
125F
330
1D
100
AcDbEntity
  8
0
100
AcDbLine
 10
361.4214
 20
335.31965
 30
0.0
 11
361.8776
 21
335.78765
 31
0.0
  0
LINE
  5
1260
330
1D
100
AcDbEntity
  8
0
100
AcDbLine
 10
361.2118
 20
340.71265
 30
0.0
 11
361.6132
 21
341.20865
 31
0.0
  0
LINE
  5
1261
330
1D
100
AcDbEntity
  8
0
100
AcDbLine
 10
362.1214
 20
334.39145
 30
0.0
 11
362.8776
 21
334.45985
 31
0.0
  0
LINE
  5
1262
330
1D
100
AcDbEntity
  8
0
100
AcDbLine
 10
362.6338
 20
335.85565
 30
0.0
 11
363.2436
 21
335.50665
 31
0.0
  0
LINE
  5
1263
330
1D
100
AcDbEntity
  8
0
100
AcDbLine
 10
361.8776
 20
335.78765
 30
0.0
 11
362.6338
 21
335.85565
 31
0.0
  0
LINE
  5
1264
330
1D
100
AcDbEntity
  8
0
100
AcDbLine
 10
361.5116
 20
334.74025
 30
0.0
 11
362.1214
 21
334.39145
 31
0.0
  0
LINE
  5
1265
330
1D
100
AcDbEntity
  8
0
100
AcDbLine
 10
362.8776
 20
334.45985
 30
0.0
 11
363.3338
 21
334.92715
 31
0.0
  0
LINE
  5
1266
330
1D
100
AcDbEntity
  8
0
100
AcDbLine
 10
363.2436
 20
335.50665
 30
0.0
 11
363.3338
 21
334.92715
 31
0.0
  0
LINE
  5
1267
330
1D
100
AcDbEntity
  8
0
100
AcDbLine
 10
364.0659
 20
344.53865
 30
0.0
 11
364.773
 21
344.75565
 31
0.0
  0
LINE
  5
1268
330
1D
100
AcDbEntity
  8
0
100
AcDbLine
 10
363.7831
 20
343.99665
 30
0.0
 11
364.0659
 21
343.45565
 31
0.0
  0
LINE
  5
1269
330
1D
100
AcDbEntity
  8
0
100
AcDbLine
 10
363.7831
 20
343.99665
 30
0.0
 11
364.0659
 21
344.53865
 31
0.0
  0
LINE
  5
126A
330
1D
100
AcDbEntity
  8
0
100
AcDbLine
 10
364.0659
 20
343.45565
 30
0.0
 11
364.773
 21
343.23965
 31
0.0
  0
LINE
  5
126B
330
1D
100
AcDbEntity
  8
0
100
AcDbLine
 10
364.773
 20
343.23965
 30
0.0
 11
365.4801
 21
343.45565
 31
0.0
  0
LINE
  5
126C
330
1D
100
AcDbEntity
  8
0
100
AcDbLine
 10
365.4801
 20
343.45565
 30
0.0
 11
365.763
 21
343.99665
 31
0.0
  0
LINE
  5
126D
330
1D
100
AcDbEntity
  8
0
100
AcDbLine
 10
364.773
 20
344.75565
 30
0.0
 11
365.4801
 21
344.53865
 31
0.0
  0
LINE
  5
126E
330
1D
100
AcDbEntity
  8
0
100
AcDbLine
 10
365.4801
 20
344.53865
 30
0.0
 11
365.763
 21
343.99665
 31
0.0
  0
LINE
  5
126F
330
1D
100
AcDbEntity
  8
0
100
AcDbLine
 10
361.4574
 20
341.77865
 30
0.0
 11
361.6132
 21
341.20865
 31
0.0
  0
LINE
  5
1270
330
1D
100
AcDbEntity
  8
0
100
AcDbLine
 10
363.5177
 20
354.78965
 30
0.0
 11
363.5602
 21
354.20665
 31
0.0
  0
LINE
  5
1271
330
1D
100
AcDbEntity
  8
0
100
AcDbLine
 10
363.5177
 20
354.78965
 30
0.0
 11
364.0391
 21
355.21465
 31
0.0
  0
LINE
  5
1272
330
1D
100
AcDbEntity
  8
0
100
AcDbLine
 10
364.0391
 20
355.21465
 30
0.0
 11
364.7995
 21
355.24765
 31
0.0
  0
LINE
  5
1273
330
1D
100
AcDbEntity
  8
0
100
AcDbLine
 10
363.5602
 20
354.20665
 30
0.0
 11
364.1154
 21
353.80765
 31
0.0
  0
LINE
  5
1274
330
1D
100
AcDbEntity
  8
0
100
AcDbLine
 10
364.1154
 20
353.80765
 30
0.0
 11
364.8758
 21
353.83965
 31
0.0
  0
LINE
  5
1275
330
1D
100
AcDbEntity
  8
0
100
AcDbLine
 10
364.8758
 20
353.83965
 30
0.0
 11
365.3971
 21
354.26565
 31
0.0
  0
LINE
  5
1276
330
1D
100
AcDbEntity
  8
0
100
AcDbLine
 10
365.3546
 20
354.84765
 30
0.0
 11
365.3971
 21
354.26565
 31
0.0
  0
LINE
  5
1277
330
1D
100
AcDbEntity
  8
0
100
AcDbLine
 10
364.7995
 20
355.24765
 30
0.0
 11
365.3546
 21
354.84765
 31
0.0
  0
LINE
  5
1278
330
1D
100
AcDbEntity
  8
0
100
AcDbLine
 10
361.2357
 20
348.74365
 30
0.0
 11
361.4558
 21
349.30165
 31
0.0
  0
LINE
  5
1279
330
1D
100
AcDbEntity
  8
0
100
AcDbLine
 10
361.1124
 20
349.82265
 30
0.0
 11
361.4558
 21
349.30165
 31
0.0
  0
LINE
  5
127A
330
1D
100
AcDbEntity
  8
0
100
AcDbLine
 10
358.5254
 20
359.76765
 30
0.0
 11
358.7633
 21
360.32165
 31
0.0
  0
LINE
  5
127B
330
1D
100
AcDbEntity
  8
0
100
AcDbLine
 10
357.8542
 20
359.49065
 30
0.0
 11
358.5254
 21
359.76765
 31
0.0
  0
LINE
  5
127C
330
1D
100
AcDbEntity
  8
0
100
AcDbLine
 10
365.1424
 20
360.00765
 30
0.0
 11
365.8424
 21
359.77765
 31
0.0
  0
LINE
  5
127D
330
1D
100
AcDbEntity
  8
0
100
AcDbLine
 10
366.7776
 20
331.46075
 30
0.0
 11
376.7776
 21
337.35865
 31
0.0
  0
LINE
  5
127E
330
1D
100
AcDbEntity
  8
0
100
AcDbLine
 10
367.86
 20
337.35565
 30
0.0
 11
368.5891
 21
337.52365
 31
0.0
  0
LINE
  5
127F
330
1D
100
AcDbEntity
  8
0
100
AcDbLine
 10
366.9601
 20
338.17665
 30
0.0
 11
367.1803
 21
337.61865
 31
0.0
  0
LINE
  5
1280
330
1D
100
AcDbEntity
  8
0
100
AcDbLine
 10
366.9601
 20
338.17665
 30
0.0
 11
367.3035
 21
338.69765
 31
0.0
  0
LINE
  5
1281
330
1D
100
AcDbEntity
  8
0
100
AcDbLine
 10
367.4233
 20
347.60465
 30
0.0
 11
368.0706
 21
347.91165
 31
0.0
  0
LINE
  5
1282
330
1D
100
AcDbEntity
  8
0
100
AcDbLine
 10
367.2676
 20
347.03265
 30
0.0
 11
367.6689
 21
346.53765
 31
0.0
  0
LINE
  5
1283
330
1D
100
AcDbEntity
  8
0
100
AcDbLine
 10
367.2676
 20
347.03265
 30
0.0
 11
367.4233
 21
347.60465
 31
0.0
  0
LINE
  5
1284
330
1D
100
AcDbEntity
  8
0
100
AcDbLine
 10
367.6689
 20
346.53765
 30
0.0
 11
368.4144
 21
346.41865
 31
0.0
  0
LINE
  5
1285
330
1D
100
AcDbEntity
  8
0
100
AcDbLine
 10
368.0706
 20
347.91165
 30
0.0
 11
368.816
 21
347.79265
 31
0.0
  0
LINE
  5
1286
330
1D
100
AcDbEntity
  8
0
100
AcDbLine
 10
368.4144
 20
346.41865
 30
0.0
 11
369.0616
 21
346.72565
 31
0.0
  0
LINE
  5
1287
330
1D
100
AcDbEntity
  8
0
100
AcDbLine
 10
368.0326
 20
338.86565
 30
0.0
 11
368.7124
 21
338.60265
 31
0.0
  0
LINE
  5
1288
330
1D
100
AcDbEntity
  8
0
100
AcDbLine
 10
367.3035
 20
338.69765
 30
0.0
 11
368.0326
 21
338.86565
 31
0.0
  0
LINE
  5
1289
330
1D
100
AcDbEntity
  8
0
100
AcDbLine
 10
367.1803
 20
337.61865
 30
0.0
 11
367.86
 21
337.35565
 31
0.0
  0
LINE
  5
128A
330
1D
100
AcDbEntity
  8
0
100
AcDbLine
 10
368.5891
 20
337.52365
 30
0.0
 11
368.9325
 21
338.04465
 31
0.0
  0
LINE
  5
128B
330
1D
100
AcDbEntity
  8
0
100
AcDbLine
 10
376.7776
 20
337.35865
 30
0.0
 11
377.8776
 21
338.12265
 31
0.0
  0
LINE
  5
128C
330
1D
100
AcDbEntity
  8
0
100
AcDbLine
 10
368.816
 20
347.79265
 30
0.0
 11
369.2174
 21
347.29665
 31
0.0
  0
LINE
  5
128D
330
1D
100
AcDbEntity
  8
0
100
AcDbLine
 10
371.9873
 20
342.28465
 30
0.0
 11
372.6671
 21
342.54765
 31
0.0
  0
LINE
  5
128E
330
1D
100
AcDbEntity
  8
0
100
AcDbLine
 10
371.7671
 20
341.72665
 30
0.0
 11
372.1105
 21
341.20565
 31
0.0
  0
LINE
  5
128F
330
1D
100
AcDbEntity
  8
0
100
AcDbLine
 10
371.7671
 20
341.72665
 30
0.0
 11
371.9873
 21
342.28465
 31
0.0
  0
LINE
  5
1290
330
1D
100
AcDbEntity
  8
0
100
AcDbLine
 10
372.6671
 20
342.54765
 30
0.0
 11
373.3961
 21
342.37965
 31
0.0
  0
LINE
  5
1291
330
1D
100
AcDbEntity
  8
0
100
AcDbLine
 10
372.1105
 20
341.20565
 30
0.0
 11
372.8396
 21
341.03765
 31
0.0
  0
LINE
  5
1292
330
1D
100
AcDbEntity
  8
0
100
AcDbLine
 10
372.8396
 20
341.03765
 30
0.0
 11
373.5194
 21
341.30065
 31
0.0
  0
LINE
  5
1293
330
1D
100
AcDbEntity
  8
0
100
AcDbLine
 10
377.8776
 20
338.12265
 30
0.0
 11
385.7776
 21
346.09065
 31
0.0
  0
LINE
  5
1294
330
1D
100
AcDbEntity
  8
0
100
AcDbLine
 10
375.7866
 20
346.44265
 30
0.0
 11
376.3964
 21
346.79065
 31
0.0
  0
LINE
  5
1295
330
1D
100
AcDbEntity
  8
0
100
AcDbLine
 10
375.6964
 20
345.86265
 30
0.0
 11
376.1526
 21
345.39565
 31
0.0
  0
LINE
  5
1296
330
1D
100
AcDbEntity
  8
0
100
AcDbLine
 10
375.6964
 20
345.86265
 30
0.0
 11
375.7866
 21
346.44265
 31
0.0
  0
LINE
  5
1297
330
1D
100
AcDbEntity
  8
0
100
AcDbLine
 10
376.1526
 20
345.39565
 30
0.0
 11
376.9088
 21
345.32565
 31
0.0
  0
LINE
  5
1298
330
1D
100
AcDbEntity
  8
0
100
AcDbLine
 10
376.9088
 20
345.32565
 30
0.0
 11
377.5186
 21
345.67565
 31
0.0
  0
LINE
  5
1299
330
1D
100
AcDbEntity
  8
0
100
AcDbLine
 10
377.5186
 20
345.67565
 30
0.0
 11
377.6088
 21
346.25565
 31
0.0
  0
LINE
  5
129A
330
1D
100
AcDbEntity
  8
0
100
AcDbLine
 10
377.1526
 20
346.72265
 30
0.0
 11
377.6088
 21
346.25565
 31
0.0
  0
LINE
  5
129B
330
1D
100
AcDbEntity
  8
0
100
AcDbLine
 10
373.5194
 20
341.30065
 30
0.0
 11
373.7395
 21
341.85865
 31
0.0
  0
LINE
  5
129C
330
1D
100
AcDbEntity
  8
0
100
AcDbLine
 10
373.3961
 20
342.37965
 30
0.0
 11
373.7395
 21
341.85865
 31
0.0
  0
LINE
  5
129D
330
1D
100
AcDbEntity
  8
0
100
AcDbLine
 10
370.0349
 20
351.06965
 30
0.0
 11
370.6026
 21
351.45865
 31
0.0
  0
LINE
  5
129E
330
1D
100
AcDbEntity
  8
0
100
AcDbLine
 10
370.011
 20
350.48665
 30
0.0
 11
370.5186
 21
350.05065
 31
0.0
  0
LINE
  5
129F
330
1D
100
AcDbEntity
  8
0
100
AcDbLine
 10
370.011
 20
350.48665
 30
0.0
 11
370.0349
 21
351.06965
 31
0.0
  0
LINE
  5
12A0
330
1D
100
AcDbEntity
  8
0
100
AcDbLine
 10
370.6026
 20
351.45865
 30
0.0
 11
371.3638
 21
351.43965
 31
0.0
  0
LINE
  5
12A1
330
1D
100
AcDbEntity
  8
0
100
AcDbLine
 10
370.5186
 20
350.05065
 30
0.0
 11
371.2798
 21
350.03365
 31
0.0
  0
LINE
  5
12A2
330
1D
100
AcDbEntity
  8
0
100
AcDbLine
 10
371.2798
 20
350.03365
 30
0.0
 11
371.8475
 21
350.42265
 31
0.0
  0
LINE
  5
12A3
330
1D
100
AcDbEntity
  8
0
100
AcDbLine
 10
376.3964
 20
346.79065
 30
0.0
 11
377.1526
 21
346.72265
 31
0.0
  0
LINE
  5
12A4
330
1D
100
AcDbEntity
  8
0
100
AcDbLine
 10
379.1836
 20
350.05865
 30
0.0
 11
379.944
 21
350.09065
 31
0.0
  0
LINE
  5
12A5
330
1D
100
AcDbEntity
  8
0
100
AcDbLine
 10
379.944
 20
350.09065
 30
0.0
 11
380.4653
 21
350.51665
 31
0.0
  0
LINE
  5
12A6
330
1D
100
AcDbEntity
  8
0
100
AcDbLine
 10
372.5285
 20
353.89065
 30
0.0
 11
373.2823
 21
353.97465
 31
0.0
  0
LINE
  5
12A7
330
1D
100
AcDbEntity
  8
0
100
AcDbLine
 10
371.8214
 20
354.82965
 30
0.0
 11
371.93
 21
354.25165
 31
0.0
  0
LINE
  5
12A8
330
1D
100
AcDbEntity
  8
0
100
AcDbLine
 10
371.8214
 20
354.82965
 30
0.0
 11
372.2923
 21
355.28765
 31
0.0
  0
LINE
  5
12A9
330
1D
100
AcDbEntity
  8
0
100
AcDbLine
 10
371.93
 20
354.25165
 30
0.0
 11
372.5285
 21
353.89065
 31
0.0
  0
LINE
  5
12AA
330
1D
100
AcDbEntity
  8
0
100
AcDbLine
 10
373.2823
 20
353.97465
 30
0.0
 11
373.7532
 21
354.43265
 31
0.0
  0
LINE
  5
12AB
330
1D
100
AcDbEntity
  8
0
100
AcDbLine
 10
379.1072
 20
351.46565
 30
0.0
 11
379.8676
 21
351.49865
 31
0.0
  0
LINE
  5
12AC
330
1D
100
AcDbEntity
  8
0
100
AcDbLine
 10
378.5859
 20
351.04065
 30
0.0
 11
378.6284
 21
350.45865
 31
0.0
  0
LINE
  5
12AD
330
1D
100
AcDbEntity
  8
0
100
AcDbLine
 10
378.5859
 20
351.04065
 30
0.0
 11
379.1072
 21
351.46565
 31
0.0
  0
LINE
  5
12AE
330
1D
100
AcDbEntity
  8
0
100
AcDbLine
 10
378.6284
 20
350.45865
 30
0.0
 11
379.1836
 21
350.05865
 31
0.0
  0
LINE
  5
12AF
330
1D
100
AcDbEntity
  8
0
100
AcDbLine
 10
380.4228
 20
351.09965
 30
0.0
 11
380.4653
 21
350.51665
 31
0.0
  0
LINE
  5
12B0
330
1D
100
AcDbEntity
  8
0
100
AcDbLine
 10
379.8676
 20
351.49865
 30
0.0
 11
380.4228
 21
351.09965
 31
0.0
  0
LINE
  5
12B1
330
1D
100
AcDbEntity
  8
0
100
AcDbLine
 10
373.6446
 20
355.00965
 30
0.0
 11
373.7532
 21
354.43265
 31
0.0
  0
LINE
  5
12B2
330
1D
100
AcDbEntity
  8
0
100
AcDbLine
 10
371.8475
 20
350.42265
 30
0.0
 11
371.8715
 21
351.00465
 31
0.0
  0
LINE
  5
12B3
330
1D
100
AcDbEntity
  8
0
100
AcDbLine
 10
371.3638
 20
351.43965
 30
0.0
 11
371.8715
 21
351.00465
 31
0.0
  0
LINE
  5
12B4
330
1D
100
AcDbEntity
  8
0
100
AcDbLine
 10
369.0616
 20
346.72565
 30
0.0
 11
369.2174
 21
347.29665
 31
0.0
  0
LINE
  5
12B5
330
1D
100
AcDbEntity
  8
0
100
AcDbLine
 10
368.7124
 20
338.60265
 30
0.0
 11
368.9325
 21
338.04465
 31
0.0
  0
LINE
  5
12B6
330
1D
100
AcDbEntity
  8
0
100
AcDbLine
 10
372.2923
 20
355.28765
 30
0.0
 11
373.0461
 21
355.37065
 31
0.0
  0
LINE
  5
12B7
330
1D
100
AcDbEntity
  8
0
100
AcDbLine
 10
373.0461
 20
355.37065
 30
0.0
 11
373.6446
 21
355.00965
 31
0.0
  0
LINE
  5
12B8
330
1D
100
AcDbEntity
  8
0
100
AcDbLine
 10
372.7284
 20
358.76965
 30
0.0
 11
372.9662
 21
358.21565
 31
0.0
  0
LINE
  5
12B9
330
1D
100
AcDbEntity
  8
0
100
AcDbLine
 10
372.7284
 20
358.76965
 30
0.0
 11
373.0882
 21
359.28365
 31
0.0
  0
LINE
  5
12BA
330
1D
100
AcDbEntity
  8
0
100
AcDbLine
 10
373.0882
 20
359.28365
 30
0.0
 11
373.8117
 21
359.46665
 31
0.0
  0
LINE
  5
12BB
330
1D
100
AcDbEntity
  8
0
100
AcDbLine
 10
372.9662
 20
358.21565
 30
0.0
 11
373.6374
 21
357.93965
 31
0.0
  0
LINE
  5
12BC
330
1D
100
AcDbEntity
  8
0
100
AcDbLine
 10
373.6374
 20
357.93965
 30
0.0
 11
374.3609
 21
358.12165
 31
0.0
  0
LINE
  5
12BD
330
1D
100
AcDbEntity
  8
0
100
AcDbLine
 10
374.3609
 20
358.12165
 30
0.0
 11
374.7207
 21
358.63565
 31
0.0
  0
LINE
  5
12BE
330
1D
100
AcDbEntity
  8
0
100
AcDbLine
 10
374.4829
 20
359.19065
 30
0.0
 11
374.7207
 21
358.63565
 31
0.0
  0
LINE
  5
12BF
330
1D
100
AcDbEntity
  8
0
100
AcDbLine
 10
373.8117
 20
359.46665
 30
0.0
 11
374.4829
 21
359.19065
 31
0.0
  0
LINE
  5
12C0
330
1D
100
AcDbEntity
  8
0
100
AcDbLine
 10
380.3003
 20
355.94165
 30
0.0
 11
380.4742
 21
355.37365
 31
0.0
  0
LINE
  5
12C1
330
1D
100
AcDbEntity
  8
0
100
AcDbLine
 10
380.3003
 20
355.94165
 30
0.0
 11
380.7173
 21
356.42965
 31
0.0
  0
LINE
  5
12C2
330
1D
100
AcDbEntity
  8
0
100
AcDbLine
 10
380.7173
 20
356.42965
 30
0.0
 11
381.4588
 21
356.56365
 31
0.0
  0
LINE
  5
12C3
330
1D
100
AcDbEntity
  8
0
100
AcDbLine
 10
380.4742
 20
355.37365
 30
0.0
 11
381.1115
 21
355.05365
 31
0.0
  0
LINE
  5
12C4
330
1D
100
AcDbEntity
  8
0
100
AcDbLine
 10
381.1115
 20
355.05365
 30
0.0
 11
381.8529
 21
355.18765
 31
0.0
  0
LINE
  5
12C5
330
1D
100
AcDbEntity
  8
0
100
AcDbLine
 10
390.5776
 20
355.20665
 30
0.0
 11
391.0776
 21
356.73665
 31
0.0
  0
LINE
  5
12C6
330
1D
100
AcDbEntity
  8
0
100
AcDbLine
 10
385.7776
 20
346.09065
 30
0.0
 11
390.5776
 21
355.20665
 31
0.0
  0
LINE
  5
12C7
330
1D
100
AcDbEntity
  8
0
100
AcDbLine
 10
381.8529
 20
355.18765
 30
0.0
 11
382.2699
 21
355.67665
 31
0.0
  0
LINE
  5
12C8
330
1D
100
AcDbEntity
  8
0
100
AcDbLine
 10
391.0776
 20
356.73665
 30
0.0
 11
392.8776
 21
366.54165
 31
0.0
  0
LINE
  5
12C9
330
1D
100
AcDbEntity
  8
0
100
AcDbLine
 10
382.096
 20
356.24365
 30
0.0
 11
382.2699
 21
355.67665
 31
0.0
  0
LINE
  5
12CA
330
1D
100
AcDbEntity
  8
0
100
AcDbLine
 10
381.4588
 20
356.56365
 30
0.0
 11
382.096
 21
356.24365
 31
0.0
  0
LINE
  5
12CB
330
1D
100
AcDbEntity
  8
0
100
AcDbLine
 10
366.5424
 20
360.00765
 30
0.0
 11
366.8424
 21
360.54465
 31
0.0
  0
LINE
  5
12CC
330
1D
100
AcDbEntity
  8
0
100
AcDbLine
 10
365.8424
 20
359.77765
 30
0.0
 11
366.5424
 21
360.00765
 31
0.0
  0
LINE
  5
12CD
330
1D
100
AcDbEntity
  8
0
100
AcDbLine
 10
356.7709
 20
360.18765
 30
0.0
 11
357.0087
 21
360.74265
 31
0.0
  0
LINE
  5
12CE
330
1D
100
AcDbEntity
  8
0
100
AcDbLine
 10
356.7709
 20
360.18765
 30
0.0
 11
357.1307
 21
359.67365
 31
0.0
  0
LINE
  5
12CF
330
1D
100
AcDbEntity
  8
0
100
AcDbLine
 10
348.8776
 20
360.24265
 30
0.0
 11
349.1776
 21
360.77865
 31
0.0
  0
LINE
  5
12D0
330
1D
100
AcDbEntity
  8
0
100
AcDbLine
 10
348.8776
 20
360.24265
 30
0.0
 11
349.1776
 21
359.70665
 31
0.0
  0
LINE
  5
12D1
330
1D
100
AcDbEntity
  8
0
100
AcDbLine
 10
349.1776
 20
360.77865
 30
0.0
 11
349.8776
 21
361.00865
 31
0.0
  0
LINE
  5
12D2
330
1D
100
AcDbEntity
  8
0
100
AcDbLine
 10
350.5776
 20
360.77865
 30
0.0
 11
350.8776
 21
360.24265
 31
0.0
  0
LINE
  5
12D3
330
1D
100
AcDbEntity
  8
0
100
AcDbLine
 10
357.0087
 20
360.74265
 30
0.0
 11
357.6799
 21
361.01765
 31
0.0
  0
LINE
  5
12D4
330
1D
100
AcDbEntity
  8
0
100
AcDbLine
 10
358.4034
 20
360.83565
 30
0.0
 11
358.7633
 21
360.32165
 31
0.0
  0
LINE
  5
12D5
330
1D
100
AcDbEntity
  8
0
100
AcDbLine
 10
364.8424
 20
360.54465
 30
0.0
 11
365.1424
 21
361.07965
 31
0.0
  0
LINE
  5
12D6
330
1D
100
AcDbEntity
  8
0
100
AcDbLine
 10
364.8424
 20
360.54465
 30
0.0
 11
365.1424
 21
360.00765
 31
0.0
  0
LINE
  5
12D7
330
1D
100
AcDbEntity
  8
0
100
AcDbLine
 10
381.1776
 20
360.46065
 30
0.0
 11
381.8776
 21
360.23065
 31
0.0
  0
LINE
  5
12D8
330
1D
100
AcDbEntity
  8
0
100
AcDbLine
 10
382.5776
 20
360.46065
 30
0.0
 11
382.8776
 21
360.99665
 31
0.0
  0
LINE
  5
12D9
330
1D
100
AcDbEntity
  8
0
100
AcDbLine
 10
381.8776
 20
360.23065
 30
0.0
 11
382.5776
 21
360.46065
 31
0.0
  0
LINE
  5
12DA
330
1D
100
AcDbEntity
  8
0
100
AcDbLine
 10
343.5776
 20
360.64965
 30
0.0
 11
343.8776
 21
360.11465
 31
0.0
  0
LINE
  5
12DB
330
1D
100
AcDbEntity
  8
0
100
AcDbLine
 10
349.8776
 20
361.00865
 30
0.0
 11
350.5776
 21
360.77865
 31
0.0
  0
LINE
  5
12DC
330
1D
100
AcDbEntity
  8
0
100
AcDbLine
 10
357.6799
 20
361.01765
 30
0.0
 11
358.4034
 21
360.83565
 31
0.0
  0
LINE
  5
12DD
330
1D
100
AcDbEntity
  8
0
100
AcDbLine
 10
365.1424
 20
361.07965
 30
0.0
 11
365.8424
 21
361.30965
 31
0.0
  0
LINE
  5
12DE
330
1D
100
AcDbEntity
  8
0
100
AcDbLine
 10
366.5424
 20
361.07965
 30
0.0
 11
366.8424
 21
360.54465
 31
0.0
  0
LINE
  5
12DF
330
1D
100
AcDbEntity
  8
0
100
AcDbLine
 10
380.8776
 20
360.99665
 30
0.0
 11
381.1776
 21
361.53265
 31
0.0
  0
LINE
  5
12E0
330
1D
100
AcDbEntity
  8
0
100
AcDbLine
 10
380.8776
 20
360.99665
 30
0.0
 11
381.1776
 21
360.46065
 31
0.0
  0
LINE
  5
12E1
330
1D
100
AcDbEntity
  8
0
100
AcDbLine
 10
348.405
 20
362.35565
 30
0.0
 11
349.1341
 21
362.52465
 31
0.0
  0
LINE
  5
12E2
330
1D
100
AcDbEntity
  8
0
100
AcDbLine
 10
347.7252
 20
362.61865
 30
0.0
 11
348.405
 21
362.35565
 31
0.0
  0
LINE
  5
12E3
330
1D
100
AcDbEntity
  8
0
100
AcDbLine
 10
349.1341
 20
362.52465
 30
0.0
 11
349.4775
 21
363.04565
 31
0.0
  0
LINE
  5
12E4
330
1D
100
AcDbEntity
  8
0
100
AcDbLine
 10
365.8424
 20
361.30965
 30
0.0
 11
366.5424
 21
361.07965
 31
0.0
  0
LINE
  5
12E5
330
1D
100
AcDbEntity
  8
0
100
AcDbLine
 10
347.5051
 20
363.17765
 30
0.0
 11
347.8485
 21
363.69865
 31
0.0
  0
LINE
  5
12E6
330
1D
100
AcDbEntity
  8
0
100
AcDbLine
 10
347.5051
 20
363.17765
 30
0.0
 11
347.7252
 21
362.61865
 31
0.0
  0
LINE
  5
12E7
330
1D
100
AcDbEntity
  8
0
100
AcDbLine
 10
372.7284
 20
362.77065
 30
0.0
 11
372.9662
 21
363.32465
 31
0.0
  0
LINE
  5
12E8
330
1D
100
AcDbEntity
  8
0
100
AcDbLine
 10
372.7284
 20
362.77065
 30
0.0
 11
373.0882
 21
362.25665
 31
0.0
  0
LINE
  5
12E9
330
1D
100
AcDbEntity
  8
0
100
AcDbLine
 10
373.0882
 20
362.25665
 30
0.0
 11
373.8117
 21
362.07465
 31
0.0
  0
LINE
  5
12EA
330
1D
100
AcDbEntity
  8
0
100
AcDbLine
 10
372.9662
 20
363.32465
 30
0.0
 11
373.6374
 21
363.60165
 31
0.0
  0
LINE
  5
12EB
330
1D
100
AcDbEntity
  8
0
100
AcDbLine
 10
346.0434
 20
364.56465
 30
0.0
 11
346.4604
 21
365.05365
 31
0.0
  0
LINE
  5
12EC
330
1D
100
AcDbEntity
  8
0
100
AcDbLine
 10
345.302
 20
364.43165
 30
0.0
 11
346.0434
 21
364.56465
 31
0.0
  0
LINE
  5
12ED
330
1D
100
AcDbEntity
  8
0
100
AcDbLine
 10
344.6647
 20
364.75165
 30
0.0
 11
345.302
 21
364.43165
 31
0.0
  0
LINE
  5
12EE
330
1D
100
AcDbEntity
  8
0
100
AcDbLine
 10
344.4908
 20
365.31965
 30
0.0
 11
344.9078
 21
365.80765
 31
0.0
  0
LINE
  5
12EF
330
1D
100
AcDbEntity
  8
0
100
AcDbLine
 10
344.4908
 20
365.31965
 30
0.0
 11
344.6647
 21
364.75165
 31
0.0
  0
LINE
  5
12F0
330
1D
100
AcDbEntity
  8
0
100
AcDbLine
 10
344.9078
 20
365.80765
 30
0.0
 11
345.6493
 21
365.94065
 31
0.0
  0
LINE
  5
12F1
330
1D
100
AcDbEntity
  8
0
100
AcDbLine
 10
347.8485
 20
363.69865
 30
0.0
 11
348.5776
 21
363.86665
 31
0.0
  0
LINE
  5
12F2
330
1D
100
AcDbEntity
  8
0
100
AcDbLine
 10
355.4434
 20
365.22565
 30
0.0
 11
356.2046
 21
365.24465
 31
0.0
  0
LINE
  5
12F3
330
1D
100
AcDbEntity
  8
0
100
AcDbLine
 10
356.2046
 20
365.24465
 30
0.0
 11
356.7122
 21
365.67965
 31
0.0
  0
LINE
  5
12F4
330
1D
100
AcDbEntity
  8
0
100
AcDbLine
 10
348.5776
 20
363.86665
 30
0.0
 11
349.2573
 21
363.60365
 31
0.0
  0
LINE
  5
12F5
330
1D
100
AcDbEntity
  8
0
100
AcDbLine
 10
349.2573
 20
363.60365
 30
0.0
 11
349.4775
 21
363.04565
 31
0.0
  0
LINE
  5
12F6
330
1D
100
AcDbEntity
  8
0
100
AcDbLine
 10
354.8757
 20
365.61565
 30
0.0
 11
355.4434
 21
365.22565
 31
0.0
  0
LINE
  5
12F7
330
1D
100
AcDbEntity
  8
0
100
AcDbLine
 10
346.2866
 20
365.62165
 30
0.0
 11
346.4604
 21
365.05365
 31
0.0
  0
LINE
  5
12F8
330
1D
100
AcDbEntity
  8
0
100
AcDbLine
 10
345.6493
 20
365.94065
 30
0.0
 11
346.2866
 21
365.62165
 31
0.0
  0
LINE
  5
12F9
330
1D
100
AcDbEntity
  8
0
100
AcDbLine
 10
364.0391
 20
365.87365
 30
0.0
 11
364.7995
 21
365.84065
 31
0.0
  0
LINE
  5
12FA
330
1D
100
AcDbEntity
  8
0
100
AcDbLine
 10
364.7995
 20
365.84065
 30
0.0
 11
365.3546
 21
366.24065
 31
0.0
  0
LINE
  5
12FB
330
1D
100
AcDbEntity
  8
0
100
AcDbLine
 10
373.6374
 20
363.60165
 30
0.0
 11
374.3609
 21
363.41865
 31
0.0
  0
LINE
  5
12FC
330
1D
100
AcDbEntity
  8
0
100
AcDbLine
 10
374.3609
 20
363.41865
 30
0.0
 11
374.7207
 21
362.90465
 31
0.0
  0
LINE
  5
12FD
330
1D
100
AcDbEntity
  8
0
100
AcDbLine
 10
374.4829
 20
362.34965
 30
0.0
 11
374.7207
 21
362.90465
 31
0.0
  0
LINE
  5
12FE
330
1D
100
AcDbEntity
  8
0
100
AcDbLine
 10
373.8117
 20
362.07465
 30
0.0
 11
374.4829
 21
362.34965
 31
0.0
  0
LINE
  5
12FF
330
1D
100
AcDbEntity
  8
0
100
AcDbLine
 10
354.8517
 20
366.19865
 30
0.0
 11
355.3594
 21
366.63365
 31
0.0
  0
LINE
  5
1300
330
1D
100
AcDbEntity
  8
0
100
AcDbLine
 10
354.8517
 20
366.19865
 30
0.0
 11
354.8757
 21
365.61565
 31
0.0
  0
LINE
  5
1301
330
1D
100
AcDbEntity
  8
0
100
AcDbLine
 10
356.6883
 20
366.26265
 30
0.0
 11
356.7122
 21
365.67965
 31
0.0
  0
LINE
  5
1302
330
1D
100
AcDbEntity
  8
0
100
AcDbLine
 10
355.3594
 20
366.63365
 30
0.0
 11
356.1206
 21
366.65165
 31
0.0
  0
LINE
  5
1303
330
1D
100
AcDbEntity
  8
0
100
AcDbLine
 10
356.1206
 20
366.65165
 30
0.0
 11
356.6883
 21
366.26265
 31
0.0
  0
LINE
  5
1304
330
1D
100
AcDbEntity
  8
0
100
AcDbLine
 10
363.5177
 20
366.29965
 30
0.0
 11
363.5602
 21
366.88165
 31
0.0
  0
LINE
  5
1305
330
1D
100
AcDbEntity
  8
0
100
AcDbLine
 10
363.5177
 20
366.29965
 30
0.0
 11
364.0391
 21
365.87365
 31
0.0
  0
LINE
  5
1306
330
1D
100
AcDbEntity
  8
0
100
AcDbLine
 10
365.3546
 20
366.24065
 30
0.0
 11
365.3971
 21
366.82265
 31
0.0
  0
LINE
  5
1307
330
1D
100
AcDbEntity
  8
0
100
AcDbLine
 10
372.2923
 20
366.25265
 30
0.0
 11
373.0461
 21
366.16965
 31
0.0
  0
LINE
  5
1308
330
1D
100
AcDbEntity
  8
0
100
AcDbLine
 10
363.5602
 20
366.88165
 30
0.0
 11
364.1154
 21
367.28065
 31
0.0
  0
LINE
  5
1309
330
1D
100
AcDbEntity
  8
0
100
AcDbLine
 10
371.8214
 20
366.71165
 30
0.0
 11
371.93
 21
367.28865
 31
0.0
  0
LINE
  5
130A
330
1D
100
AcDbEntity
  8
0
100
AcDbLine
 10
371.8214
 20
366.71165
 30
0.0
 11
372.2923
 21
366.25265
 31
0.0
  0
LINE
  5
130B
330
1D
100
AcDbEntity
  8
0
100
AcDbLine
 10
373.6446
 20
366.53065
 30
0.0
 11
373.7532
 21
367.10765
 31
0.0
  0
LINE
  5
130C
330
1D
100
AcDbEntity
  8
0
100
AcDbLine
 10
373.0461
 20
366.16965
 30
0.0
 11
373.6446
 21
366.53065
 31
0.0
  0
LINE
  5
130D
330
1D
100
AcDbEntity
  8
0
100
AcDbLine
 10
380.3003
 20
366.05165
 30
0.0
 11
380.4742
 21
366.61965
 31
0.0
  0
LINE
  5
130E
330
1D
100
AcDbEntity
  8
0
100
AcDbLine
 10
380.3003
 20
366.05165
 30
0.0
 11
380.7173
 21
365.56365
 31
0.0
  0
LINE
  5
130F
330
1D
100
AcDbEntity
  8
0
100
AcDbLine
 10
381.1776
 20
361.53265
 30
0.0
 11
381.8776
 21
361.76265
 31
0.0
  0
LINE
  5
1310
330
1D
100
AcDbEntity
  8
0
100
AcDbLine
 10
380.7173
 20
365.56365
 30
0.0
 11
381.4588
 21
365.42965
 31
0.0
  0
LINE
  5
1311
330
1D
100
AcDbEntity
  8
0
100
AcDbLine
 10
380.4742
 20
366.61965
 30
0.0
 11
381.1115
 21
366.93865
 31
0.0
  0
LINE
  5
1312
330
1D
100
AcDbEntity
  8
0
100
AcDbLine
 10
351.963
 20
368.65765
 30
0.0
 11
352.6701
 21
368.87465
 31
0.0
  0
LINE
  5
1313
330
1D
100
AcDbEntity
  8
0
100
AcDbLine
 10
351.2559
 20
368.87465
 30
0.0
 11
351.963
 21
368.65765
 31
0.0
  0
LINE
  5
1314
330
1D
100
AcDbEntity
  8
0
100
AcDbLine
 10
350.973
 20
369.41565
 30
0.0
 11
351.2559
 21
369.95765
 31
0.0
  0
LINE
  5
1315
330
1D
100
AcDbEntity
  8
0
100
AcDbLine
 10
350.973
 20
369.41565
 30
0.0
 11
351.2559
 21
368.87465
 31
0.0
  0
LINE
  5
1316
330
1D
100
AcDbEntity
  8
0
100
AcDbLine
 10
351.2559
 20
369.95765
 30
0.0
 11
351.963
 21
370.17365
 31
0.0
  0
LINE
  5
1317
330
1D
100
AcDbEntity
  8
0
100
AcDbLine
 10
351.963
 20
370.17365
 30
0.0
 11
352.6701
 21
369.95765
 31
0.0
  0
LINE
  5
1318
330
1D
100
AcDbEntity
  8
0
100
AcDbLine
 10
352.6701
 20
369.95765
 30
0.0
 11
352.9529
 21
369.41565
 31
0.0
  0
LINE
  5
1319
330
1D
100
AcDbEntity
  8
0
100
AcDbLine
 10
352.6701
 20
368.87465
 30
0.0
 11
352.9529
 21
369.41565
 31
0.0
  0
LINE
  5
131A
330
1D
100
AcDbEntity
  8
0
100
AcDbLine
 10
364.1154
 20
367.28065
 30
0.0
 11
364.8758
 21
367.24865
 31
0.0
  0
LINE
  5
131B
330
1D
100
AcDbEntity
  8
0
100
AcDbLine
 10
364.8758
 20
367.24865
 30
0.0
 11
365.3971
 21
366.82265
 31
0.0
  0
LINE
  5
131C
330
1D
100
AcDbEntity
  8
0
100
AcDbLine
 10
370.6026
 20
370.08265
 30
0.0
 11
371.3638
 21
370.10065
 31
0.0
  0
LINE
  5
131D
330
1D
100
AcDbEntity
  8
0
100
AcDbLine
 10
370.0349
 20
370.47165
 30
0.0
 11
370.6026
 21
370.08265
 31
0.0
  0
LINE
  5
131E
330
1D
100
AcDbEntity
  8
0
100
AcDbLine
 10
371.93
 20
367.28865
 30
0.0
 11
372.5285
 21
367.64965
 31
0.0
  0
LINE
  5
131F
330
1D
100
AcDbEntity
  8
0
100
AcDbLine
 10
372.5285
 20
367.64965
 30
0.0
 11
373.2823
 21
367.56665
 31
0.0
  0
LINE
  5
1320
330
1D
100
AcDbEntity
  8
0
100
AcDbLine
 10
373.2823
 20
367.56665
 30
0.0
 11
373.7532
 21
367.10765
 31
0.0
  0
LINE
  5
1321
330
1D
100
AcDbEntity
  8
0
100
AcDbLine
 10
371.3638
 20
370.10065
 30
0.0
 11
371.8715
 21
370.53565
 31
0.0
  0
LINE
  5
1322
330
1D
100
AcDbEntity
  8
0
100
AcDbLine
 10
347.0088
 20
370.95565
 30
0.0
 11
347.5765
 21
371.34365
 31
0.0
  0
LINE
  5
1323
330
1D
100
AcDbEntity
  8
0
100
AcDbLine
 10
346.2476
 20
370.97265
 30
0.0
 11
347.0088
 21
370.95565
 31
0.0
  0
LINE
  5
1324
330
1D
100
AcDbEntity
  8
0
100
AcDbLine
 10
347.5765
 20
371.34365
 30
0.0
 11
347.6004
 21
371.92665
 31
0.0
  0
LINE
  5
1325
330
1D
100
AcDbEntity
  8
0
100
AcDbLine
 10
360.3834
 20
371.09665
 30
0.0
 11
361.1124
 21
371.26465
 31
0.0
  0
LINE
  5
1326
330
1D
100
AcDbEntity
  8
0
100
AcDbLine
 10
345.7399
 20
371.40765
 30
0.0
 11
345.7639
 21
371.99165
 31
0.0
  0
LINE
  5
1327
330
1D
100
AcDbEntity
  8
0
100
AcDbLine
 10
345.7399
 20
371.40765
 30
0.0
 11
346.2476
 21
370.97265
 31
0.0
  0
LINE
  5
1328
330
1D
100
AcDbEntity
  8
0
100
AcDbLine
 10
359.7036
 20
371.35965
 30
0.0
 11
360.3834
 21
371.09665
 31
0.0
  0
LINE
  5
1329
330
1D
100
AcDbEntity
  8
0
100
AcDbLine
 10
361.1124
 20
371.26465
 30
0.0
 11
361.4558
 21
371.78565
 31
0.0
  0
LINE
  5
132A
330
1D
100
AcDbEntity
  8
0
100
AcDbLine
 10
370.011
 20
371.05365
 30
0.0
 11
370.5186
 21
371.48965
 31
0.0
  0
LINE
  5
132B
330
1D
100
AcDbEntity
  8
0
100
AcDbLine
 10
370.011
 20
371.05365
 30
0.0
 11
370.0349
 21
370.47165
 31
0.0
  0
LINE
  5
132C
330
1D
100
AcDbEntity
  8
0
100
AcDbLine
 10
370.5186
 20
371.48965
 30
0.0
 11
371.2798
 21
371.50765
 31
0.0
  0
LINE
  5
132D
330
1D
100
AcDbEntity
  8
0
100
AcDbLine
 10
371.2798
 20
371.50765
 30
0.0
 11
371.8475
 21
371.11965
 31
0.0
  0
LINE
  5
132E
330
1D
100
AcDbEntity
  8
0
100
AcDbLine
 10
371.8475
 20
371.11965
 30
0.0
 11
371.8715
 21
370.53565
 31
0.0
  0
LINE
  5
132F
330
1D
100
AcDbEntity
  8
0
100
AcDbLine
 10
378.5859
 20
370.95265
 30
0.0
 11
378.6284
 21
371.53465
 31
0.0
  0
LINE
  5
1330
330
1D
100
AcDbEntity
  8
0
100
AcDbLine
 10
378.5859
 20
370.95265
 30
0.0
 11
379.1072
 21
370.52765
 31
0.0
  0
LINE
  5
1331
330
1D
100
AcDbEntity
  8
0
100
AcDbLine
 10
379.1072
 20
370.52765
 30
0.0
 11
379.8676
 21
370.49465
 31
0.0
  0
LINE
  5
1332
330
1D
100
AcDbEntity
  8
0
100
AcDbLine
 10
378.6284
 20
371.53465
 30
0.0
 11
379.1836
 21
371.93465
 31
0.0
  0
LINE
  5
1333
330
1D
100
AcDbEntity
  8
0
100
AcDbLine
 10
345.7639
 20
371.99165
 30
0.0
 11
346.3316
 21
372.38065
 31
0.0
  0
LINE
  5
1334
330
1D
100
AcDbEntity
  8
0
100
AcDbLine
 10
346.3316
 20
372.38065
 30
0.0
 11
347.0928
 21
372.36165
 31
0.0
  0
LINE
  5
1335
330
1D
100
AcDbEntity
  8
0
100
AcDbLine
 10
347.0928
 20
372.36165
 30
0.0
 11
347.6004
 21
371.92665
 31
0.0
  0
LINE
  5
1336
330
1D
100
AcDbEntity
  8
0
100
AcDbLine
 10
359.4835
 20
371.91765
 30
0.0
 11
359.8268
 21
372.43865
 31
0.0
  0
LINE
  5
1337
330
1D
100
AcDbEntity
  8
0
100
AcDbLine
 10
359.4835
 20
371.91765
 30
0.0
 11
359.7036
 21
371.35965
 31
0.0
  0
LINE
  5
1338
330
1D
100
AcDbEntity
  8
0
100
AcDbLine
 10
359.8268
 20
372.43865
 30
0.0
 11
360.5559
 21
372.60765
 31
0.0
  0
LINE
  5
1339
330
1D
100
AcDbEntity
  8
0
100
AcDbLine
 10
360.5559
 20
372.60765
 30
0.0
 11
361.2357
 21
372.34365
 31
0.0
  0
LINE
  5
133A
330
1D
100
AcDbEntity
  8
0
100
AcDbLine
 10
361.2357
 20
372.34365
 30
0.0
 11
361.4558
 21
371.78565
 31
0.0
  0
LINE
  5
133B
330
1D
100
AcDbEntity
  8
0
100
AcDbLine
 10
368.0706
 20
373.62865
 30
0.0
 11
368.816
 21
373.74765
 31
0.0
  0
LINE
  5
133C
330
1D
100
AcDbEntity
  8
0
100
AcDbLine
 10
367.4233
 20
373.93665
 30
0.0
 11
368.0706
 21
373.62865
 31
0.0
  0
LINE
  5
133D
330
1D
100
AcDbEntity
  8
0
100
AcDbLine
 10
354.6162
 20
375.04665
 30
0.0
 11
355.226
 21
375.39565
 31
0.0
  0
LINE
  5
133E
330
1D
100
AcDbEntity
  8
0
100
AcDbLine
 10
353.86
 20
375.11565
 30
0.0
 11
354.6162
 21
375.04665
 31
0.0
  0
LINE
  5
133F
330
1D
100
AcDbEntity
  8
0
100
AcDbLine
 10
367.2676
 20
374.50765
 30
0.0
 11
367.6689
 21
375.00365
 31
0.0
  0
LINE
  5
1340
330
1D
100
AcDbEntity
  8
0
100
AcDbLine
 10
367.2676
 20
374.50765
 30
0.0
 11
367.4233
 21
373.93665
 31
0.0
  0
LINE
  5
1341
330
1D
100
AcDbEntity
  8
0
100
AcDbLine
 10
367.6689
 20
375.00365
 30
0.0
 11
368.4144
 21
375.12265
 31
0.0
  0
LINE
  5
1342
330
1D
100
AcDbEntity
  8
0
100
AcDbLine
 10
353.4038
 20
375.58265
 30
0.0
 11
353.494
 21
376.16265
 31
0.0
  0
LINE
  5
1343
330
1D
100
AcDbEntity
  8
0
100
AcDbLine
 10
353.4038
 20
375.58265
 30
0.0
 11
353.86
 21
375.11565
 31
0.0
  0
LINE
  5
1344
330
1D
100
AcDbEntity
  8
0
100
AcDbLine
 10
355.226
 20
375.39565
 30
0.0
 11
355.3162
 21
375.97565
 31
0.0
  0
LINE
  5
1345
330
1D
100
AcDbEntity
  8
0
100
AcDbLine
 10
368.4144
 20
375.12265
 30
0.0
 11
369.0616
 21
374.81465
 31
0.0
  0
LINE
  5
1346
330
1D
100
AcDbEntity
  8
0
100
AcDbLine
 10
369.0616
 20
374.81465
 30
0.0
 11
369.2174
 21
374.24465
 31
0.0
  0
LINE
  5
1347
330
1D
100
AcDbEntity
  8
0
100
AcDbLine
 10
368.816
 20
373.74765
 30
0.0
 11
369.2174
 21
374.24465
 31
0.0
  0
LINE
  5
1348
330
1D
100
AcDbEntity
  8
0
100
AcDbLine
 10
375.7866
 20
375.55065
 30
0.0
 11
376.3964
 21
375.20265
 31
0.0
  0
LINE
  5
1349
330
1D
100
AcDbEntity
  8
0
100
AcDbLine
 10
353.494
 20
376.16265
 30
0.0
 11
354.1038
 21
376.51165
 31
0.0
  0
LINE
  5
134A
330
1D
100
AcDbEntity
  8
0
100
AcDbLine
 10
354.1038
 20
376.51165
 30
0.0
 11
354.86
 21
376.44265
 31
0.0
  0
LINE
  5
134B
330
1D
100
AcDbEntity
  8
0
100
AcDbLine
 10
354.86
 20
376.44265
 30
0.0
 11
355.3162
 21
375.97565
 31
0.0
  0
LINE
  5
134C
330
1D
100
AcDbEntity
  8
0
100
AcDbLine
 10
375.6964
 20
376.13065
 30
0.0
 11
376.1526
 21
376.59765
 31
0.0
  0
LINE
  5
134D
330
1D
100
AcDbEntity
  8
0
100
AcDbLine
 10
375.6964
 20
376.13065
 30
0.0
 11
375.7866
 21
375.55065
 31
0.0
  0
LINE
  5
134E
330
1D
100
AcDbEntity
  8
0
100
AcDbLine
 10
376.3964
 20
375.20265
 30
0.0
 11
377.1526
 21
375.27165
 31
0.0
  0
LINE
  5
134F
330
1D
100
AcDbEntity
  8
0
100
AcDbLine
 10
376.1526
 20
376.59765
 30
0.0
 11
376.9088
 21
376.66765
 31
0.0
  0
LINE
  5
1350
330
1D
100
AcDbEntity
  8
0
100
AcDbLine
 10
364.773
 20
376.78465
 30
0.0
 11
365.4801
 21
377.00165
 31
0.0
  0
LINE
  5
1351
330
1D
100
AcDbEntity
  8
0
100
AcDbLine
 10
364.0659
 20
377.00165
 30
0.0
 11
364.773
 21
376.78465
 31
0.0
  0
LINE
  5
1352
330
1D
100
AcDbEntity
  8
0
100
AcDbLine
 10
365.4801
 20
377.00165
 30
0.0
 11
365.763
 21
377.54365
 31
0.0
  0
LINE
  5
1353
330
1D
100
AcDbEntity
  8
0
100
AcDbLine
 10
347.4332
 20
377.24765
 30
0.0
 11
347.8502
 21
377.73565
 31
0.0
  0
LINE
  5
1354
330
1D
100
AcDbEntity
  8
0
100
AcDbLine
 10
346.6917
 20
377.11465
 30
0.0
 11
347.4332
 21
377.24765
 31
0.0
  0
LINE
  5
1355
330
1D
100
AcDbEntity
  8
0
100
AcDbLine
 10
346.0545
 20
377.43365
 30
0.0
 11
346.6917
 21
377.11465
 31
0.0
  0
LINE
  5
1356
330
1D
100
AcDbEntity
  8
0
100
AcDbLine
 10
345.8806
 20
378.00165
 30
0.0
 11
346.2976
 21
378.49065
 31
0.0
  0
LINE
  5
1357
330
1D
100
AcDbEntity
  8
0
100
AcDbLine
 10
345.8806
 20
378.00165
 30
0.0
 11
346.0545
 21
377.43365
 31
0.0
  0
LINE
  5
1358
330
1D
100
AcDbEntity
  8
0
100
AcDbLine
 10
363.7831
 20
377.54365
 30
0.0
 11
364.0659
 21
378.08465
 31
0.0
  0
LINE
  5
1359
330
1D
100
AcDbEntity
  8
0
100
AcDbLine
 10
363.7831
 20
377.54365
 30
0.0
 11
364.0659
 21
377.00165
 31
0.0
  0
LINE
  5
135A
330
1D
100
AcDbEntity
  8
0
100
AcDbLine
 10
364.0659
 20
378.08465
 30
0.0
 11
364.773
 21
378.30165
 31
0.0
  0
LINE
  5
135B
330
1D
100
AcDbEntity
  8
0
100
AcDbLine
 10
346.2976
 20
378.49065
 30
0.0
 11
347.039
 21
378.62365
 31
0.0
  0
LINE
  5
135C
330
1D
100
AcDbEntity
  8
0
100
AcDbLine
 10
347.6763
 20
378.30365
 30
0.0
 11
347.8502
 21
377.73565
 31
0.0
  0
LINE
  5
135D
330
1D
100
AcDbEntity
  8
0
100
AcDbLine
 10
364.773
 20
378.30165
 30
0.0
 11
365.4801
 21
378.08465
 31
0.0
  0
LINE
  5
135E
330
1D
100
AcDbEntity
  8
0
100
AcDbLine
 10
365.4801
 20
378.08465
 30
0.0
 11
365.763
 21
377.54365
 31
0.0
  0
LINE
  5
135F
330
1D
100
AcDbEntity
  8
0
100
AcDbLine
 10
376.9088
 20
376.66765
 30
0.0
 11
377.5186
 21
376.31765
 31
0.0
  0
LINE
  5
1360
330
1D
100
AcDbEntity
  8
0
100
AcDbLine
 10
377.5186
 20
376.31765
 30
0.0
 11
377.6088
 21
375.73765
 31
0.0
  0
LINE
  5
1361
330
1D
100
AcDbEntity
  8
0
100
AcDbLine
 10
377.1526
 20
375.27165
 30
0.0
 11
377.6088
 21
375.73765
 31
0.0
  0
LINE
  5
1362
330
1D
100
AcDbEntity
  8
0
100
AcDbLine
 10
379.1836
 20
371.93465
 30
0.0
 11
379.944
 21
371.90165
 31
0.0
  0
LINE
  5
1363
330
1D
100
AcDbEntity
  8
0
100
AcDbLine
 10
379.944
 20
371.90165
 30
0.0
 11
380.4653
 21
371.47765
 31
0.0
  0
LINE
  5
1364
330
1D
100
AcDbEntity
  8
0
100
AcDbLine
 10
380.4228
 20
370.89365
 30
0.0
 11
380.4653
 21
371.47765
 31
0.0
  0
LINE
  5
1365
330
1D
100
AcDbEntity
  8
0
100
AcDbLine
 10
379.8676
 20
370.49465
 30
0.0
 11
380.4228
 21
370.89365
 31
0.0
  0
LINE
  5
1366
330
1D
100
AcDbEntity
  8
0
100
AcDbLine
 10
381.1115
 20
366.93865
 30
0.0
 11
381.8529
 21
366.80565
 31
0.0
  0
LINE
  5
1367
330
1D
100
AcDbEntity
  8
0
100
AcDbLine
 10
381.8776
 20
361.76265
 30
0.0
 11
382.5776
 21
361.53265
 31
0.0
  0
LINE
  5
1368
330
1D
100
AcDbEntity
  8
0
100
AcDbLine
 10
382.5776
 20
361.53265
 30
0.0
 11
382.8776
 21
360.99665
 31
0.0
  0
LINE
  5
1369
330
1D
100
AcDbEntity
  8
0
100
AcDbLine
 10
391.0776
 20
377.95465
 30
0.0
 11
392.8776
 21
368.14865
 31
0.0
  0
LINE
  5
136A
330
1D
100
AcDbEntity
  8
0
100
AcDbLine
 10
381.8529
 20
366.80565
 30
0.0
 11
382.2699
 21
366.31765
 31
0.0
  0
LINE
  5
136B
330
1D
100
AcDbEntity
  8
0
100
AcDbLine
 10
382.096
 20
365.74965
 30
0.0
 11
382.2699
 21
366.31765
 31
0.0
  0
LINE
  5
136C
330
1D
100
AcDbEntity
  8
0
100
AcDbLine
 10
381.4588
 20
365.42965
 30
0.0
 11
382.096
 21
365.74965
 31
0.0
  0
LINE
  5
136D
330
1D
100
AcDbEntity
  8
0
100
AcDbLine
 10
342.8776
 20
360.87965
 30
0.0
 11
343.5776
 21
360.64965
 31
0.0
  0
LINE
  5
136E
330
1D
100
AcDbEntity
  8
0
100
AcDbLine
 10
342.1776
 20
359.57765
 30
0.0
 11
342.8776
 21
359.34765
 31
0.0
  0
LINE
  5
136F
330
1D
100
AcDbEntity
  8
0
100
AcDbLine
 10
334.3683
 20
383.02565
 30
0.0
 11
335.1221
 21
382.94265
 31
0.0
  0
LINE
  5
1370
330
1D
100
AcDbEntity
  8
0
100
AcDbLine
 10
335.1221
 20
382.94265
 30
0.0
 11
335.7206
 21
383.30365
 31
0.0
  0
LINE
  5
1371
330
1D
100
AcDbEntity
  8
0
100
AcDbLine
 10
335.7206
 20
383.30365
 30
0.0
 11
335.8293
 21
383.88065
 31
0.0
  0
LINE
  5
1372
330
1D
100
AcDbEntity
  8
0
100
AcDbLine
 10
333.8974
 20
383.48365
 30
0.0
 11
334.006
 21
384.06165
 31
0.0
  0
LINE
  5
1373
330
1D
100
AcDbEntity
  8
0
100
AcDbLine
 10
333.8974
 20
383.48365
 30
0.0
 11
334.3683
 21
383.02565
 31
0.0
  0
LINE
  5
1374
330
1D
100
AcDbEntity
  8
0
100
AcDbLine
 10
338.7162
 20
378.62365
 30
0.0
 11
339.4576
 21
378.49065
 31
0.0
  0
LINE
  5
1375
330
1D
100
AcDbEntity
  8
0
100
AcDbLine
 10
340.266
 20
383.63765
 30
0.0
 11
340.9372
 21
383.91265
 31
0.0
  0
LINE
  5
1376
330
1D
100
AcDbEntity
  8
0
100
AcDbLine
 10
334.006
 20
384.06165
 30
0.0
 11
334.6045
 21
384.42265
 31
0.0
  0
LINE
  5
1377
330
1D
100
AcDbEntity
  8
0
100
AcDbLine
 10
339.5425
 20
383.81965
 30
0.0
 11
340.266
 21
383.63765
 31
0.0
  0
LINE
  5
1378
330
1D
100
AcDbEntity
  8
0
100
AcDbLine
 10
340.9372
 20
383.91265
 30
0.0
 11
341.175
 21
384.46665
 31
0.0
  0
LINE
  5
1379
330
1D
100
AcDbEntity
  8
0
100
AcDbLine
 10
335.3583
 20
384.33865
 30
0.0
 11
335.8293
 21
383.88065
 31
0.0
  0
LINE
  5
137A
330
1D
100
AcDbEntity
  8
0
100
AcDbLine
 10
334.6045
 20
384.42265
 30
0.0
 11
335.3583
 21
384.33865
 31
0.0
  0
LINE
  5
137B
330
1D
100
AcDbEntity
  8
0
100
AcDbLine
 10
339.1826
 20
384.419503738318
 30
0.0
 11
339.1826
 21
384.33365
 31
0.0
  0
LINE
  5
137C
330
1D
100
AcDbEntity
  8
0
100
AcDbLine
 10
339.1826
 20
384.33365
 30
0.0
 11
339.4205
 21
384.88765
 31
0.0
  0
LINE
  5
137D
330
1D
100
AcDbEntity
  8
0
100
AcDbLine
 10
339.1826
 20
384.33365
 30
0.0
 11
339.5425
 21
383.81965
 31
0.0
  0
LINE
  5
137E
330
1D
100
AcDbEntity
  8
0
100
AcDbLine
 10
339.1826
 20
384.33365
 30
0.0
 11
339.1826
 21
384.419503738318
 31
0.0
  0
LINE
  5
137F
330
1D
100
AcDbEntity
  8
0
100
AcDbLine
 10
344.818
 20
383.91265
 30
0.0
 11
345.4892
 21
383.63765
 31
0.0
  0
LINE
  5
1380
330
1D
100
AcDbEntity
  8
0
100
AcDbLine
 10
345.4892
 20
383.63765
 30
0.0
 11
346.2127
 21
383.81965
 31
0.0
  0
LINE
  5
1381
330
1D
100
AcDbEntity
  8
0
100
AcDbLine
 10
347.039
 20
378.62365
 30
0.0
 11
347.6763
 21
378.30365
 31
0.0
  0
LINE
  5
1382
330
1D
100
AcDbEntity
  8
0
100
AcDbLine
 10
359.6634
 20
380.06865
 30
0.0
 11
359.8191
 21
380.64065
 31
0.0
  0
LINE
  5
1383
330
1D
100
AcDbEntity
  8
0
100
AcDbLine
 10
359.6634
 20
380.06865
 30
0.0
 11
360.0647
 21
379.57365
 31
0.0
  0
LINE
  5
1384
330
1D
100
AcDbEntity
  8
0
100
AcDbLine
 10
360.8102
 20
379.45465
 30
0.0
 11
361.4574
 21
379.76165
 31
0.0
  0
LINE
  5
1385
330
1D
100
AcDbEntity
  8
0
100
AcDbLine
 10
360.0647
 20
379.57365
 30
0.0
 11
360.8102
 21
379.45465
 31
0.0
  0
LINE
  5
1386
330
1D
100
AcDbEntity
  8
0
100
AcDbLine
 10
359.8191
 20
380.64065
 30
0.0
 11
360.4664
 21
380.94765
 31
0.0
  0
LINE
  5
1387
330
1D
100
AcDbEntity
  8
0
100
AcDbLine
 10
355.0336
 20
382.00965
 30
0.0
 11
355.0576
 21
382.59165
 31
0.0
  0
LINE
  5
1388
330
1D
100
AcDbEntity
  8
0
100
AcDbLine
 10
355.0336
 20
382.00965
 30
0.0
 11
355.5413
 21
381.57365
 31
0.0
  0
LINE
  5
1389
330
1D
100
AcDbEntity
  8
0
100
AcDbLine
 10
356.3025
 20
381.55565
 30
0.0
 11
356.8702
 21
381.94465
 31
0.0
  0
LINE
  5
138A
330
1D
100
AcDbEntity
  8
0
100
AcDbLine
 10
355.5413
 20
381.57365
 30
0.0
 11
356.3025
 21
381.55565
 31
0.0
  0
LINE
  5
138B
330
1D
100
AcDbEntity
  8
0
100
AcDbLine
 10
355.0576
 20
382.59165
 30
0.0
 11
355.6253
 21
382.98065
 31
0.0
  0
LINE
  5
138C
330
1D
100
AcDbEntity
  8
0
100
AcDbLine
 10
355.6253
 20
382.98065
 30
0.0
 11
356.3865
 21
382.96265
 31
0.0
  0
LINE
  5
138D
330
1D
100
AcDbEntity
  8
0
100
AcDbLine
 10
356.3865
 20
382.96265
 30
0.0
 11
356.8941
 21
382.52765
 31
0.0
  0
LINE
  5
138E
330
1D
100
AcDbEntity
  8
0
100
AcDbLine
 10
356.8702
 20
381.94465
 30
0.0
 11
356.8941
 21
382.52765
 31
0.0
  0
LINE
  5
138F
330
1D
100
AcDbEntity
  8
0
100
AcDbLine
 10
351.3869
 20
383.02565
 30
0.0
 11
351.8578
 21
383.48365
 31
0.0
  0
LINE
  5
1390
330
1D
100
AcDbEntity
  8
0
100
AcDbLine
 10
350.6331
 20
382.94265
 30
0.0
 11
351.3869
 21
383.02565
 31
0.0
  0
LINE
  5
1391
330
1D
100
AcDbEntity
  8
0
100
AcDbLine
 10
350.0346
 20
383.30365
 30
0.0
 11
350.6331
 21
382.94265
 31
0.0
  0
LINE
  5
1392
330
1D
100
AcDbEntity
  8
0
100
AcDbLine
 10
360.4664
 20
380.94765
 30
0.0
 11
361.2118
 21
380.82865
 31
0.0
  0
LINE
  5
1393
330
1D
100
AcDbEntity
  8
0
100
AcDbLine
 10
361.2118
 20
380.82865
 30
0.0
 11
361.6132
 21
380.33265
 31
0.0
  0
LINE
  5
1394
330
1D
100
AcDbEntity
  8
0
100
AcDbLine
 10
361.4574
 20
379.76165
 30
0.0
 11
361.6132
 21
380.33265
 31
0.0
  0
LINE
  5
1395
330
1D
100
AcDbEntity
  8
0
100
AcDbLine
 10
368.0326
 20
383.12765
 30
0.0
 11
368.7124
 21
383.39065
 31
0.0
  0
LINE
  5
1396
330
1D
100
AcDbEntity
  8
0
100
AcDbLine
 10
367.3035
 20
383.29565
 30
0.0
 11
368.0326
 21
383.12765
 31
0.0
  0
LINE
  5
1397
330
1D
100
AcDbEntity
  8
0
100
AcDbLine
 10
366.9601
 20
383.81665
 30
0.0
 11
367.1803
 21
384.37465
 31
0.0
  0
LINE
  5
1398
330
1D
100
AcDbEntity
  8
0
100
AcDbLine
 10
366.9601
 20
383.81665
 30
0.0
 11
367.3035
 21
383.29565
 31
0.0
  0
LINE
  5
1399
330
1D
100
AcDbEntity
  8
0
100
AcDbLine
 10
372.6671
 20
379.44565
 30
0.0
 11
373.3961
 21
379.61365
 31
0.0
  0
LINE
  5
139A
330
1D
100
AcDbEntity
  8
0
100
AcDbLine
 10
371.9873
 20
379.70865
 30
0.0
 11
372.6671
 21
379.44565
 31
0.0
  0
LINE
  5
139B
330
1D
100
AcDbEntity
  8
0
100
AcDbLine
 10
371.7671
 20
380.26665
 30
0.0
 11
372.1105
 21
380.78765
 31
0.0
  0
LINE
  5
139C
330
1D
100
AcDbEntity
  8
0
100
AcDbLine
 10
371.7671
 20
380.26665
 30
0.0
 11
371.9873
 21
379.70865
 31
0.0
  0
LINE
  5
139D
330
1D
100
AcDbEntity
  8
0
100
AcDbLine
 10
372.1105
 20
380.78765
 30
0.0
 11
372.8396
 21
380.95565
 31
0.0
  0
LINE
  5
139E
330
1D
100
AcDbEntity
  8
0
100
AcDbLine
 10
372.8396
 20
380.95565
 30
0.0
 11
373.5194
 21
380.69265
 31
0.0
  0
LINE
  5
139F
330
1D
100
AcDbEntity
  8
0
100
AcDbLine
 10
373.5194
 20
380.69265
 30
0.0
 11
373.7395
 21
380.13465
 31
0.0
  0
LINE
  5
13A0
330
1D
100
AcDbEntity
  8
0
100
AcDbLine
 10
373.3961
 20
379.61365
 30
0.0
 11
373.7395
 21
380.13465
 31
0.0
  0
LINE
  5
13A1
330
1D
100
AcDbEntity
  8
0
100
AcDbLine
 10
368.7124
 20
383.39065
 30
0.0
 11
368.9325
 21
383.94865
 31
0.0
  0
LINE
  5
13A2
330
1D
100
AcDbEntity
  8
0
100
AcDbLine
 10
346.5726
 20
384.419503738318
 30
0.0
 11
346.5726
 21
384.33365
 31
0.0
  0
LINE
  5
13A3
330
1D
100
AcDbEntity
  8
0
100
AcDbLine
 10
349.9259
 20
383.88065
 30
0.0
 11
350.3969
 21
384.33865
 31
0.0
  0
LINE
  5
13A4
330
1D
100
AcDbEntity
  8
0
100
AcDbLine
 10
349.9259
 20
383.88065
 30
0.0
 11
350.0346
 21
383.30365
 31
0.0
  0
LINE
  5
13A5
330
1D
100
AcDbEntity
  8
0
100
AcDbLine
 10
350.3969
 20
384.33865
 30
0.0
 11
351.1507
 21
384.42265
 31
0.0
  0
LINE
  5
13A6
330
1D
100
AcDbEntity
  8
0
100
AcDbLine
 10
351.7492
 20
384.06165
 30
0.0
 11
351.8578
 21
383.48365
 31
0.0
  0
LINE
  5
13A7
330
1D
100
AcDbEntity
  8
0
100
AcDbLine
 10
351.1507
 20
384.42265
 30
0.0
 11
351.7492
 21
384.06165
 31
0.0
  0
LINE
  5
13A8
330
1D
100
AcDbEntity
  8
0
100
AcDbLine
 10
367.1803
 20
384.37465
 30
0.0
 11
367.86
 21
384.63765
 31
0.0
  0
LINE
  5
13A9
330
1D
100
AcDbEntity
  8
0
100
AcDbLine
 10
346.5726
 20
384.33365
 30
0.0
 11
346.5726
 21
384.419503738318
 31
0.0
  0
LINE
  5
13AA
330
1D
100
AcDbEntity
  8
0
100
AcDbLine
 10
346.2127
 20
383.81965
 30
0.0
 11
346.5726
 21
384.33365
 31
0.0
  0
LINE
  5
13AB
330
1D
100
AcDbEntity
  8
0
100
AcDbLine
 10
340.8152
 20
384.98165
 30
0.0
 11
341.175
 21
384.46665
 31
0.0
  0
LINE
  5
13AC
330
1D
100
AcDbEntity
  8
0
100
AcDbLine
 10
340.0917
 20
385.16365
 30
0.0
 11
340.8152
 21
384.98165
 31
0.0
  0
LINE
  5
13AD
330
1D
100
AcDbEntity
  8
0
100
AcDbLine
 10
339.4205
 20
384.88765
 30
0.0
 11
340.0917
 21
385.16365
 31
0.0
  0
LINE
  5
13AE
330
1D
100
AcDbEntity
  8
0
100
AcDbLine
 10
367.86
 20
384.63765
 30
0.0
 11
368.5891
 21
384.46965
 31
0.0
  0
LINE
  5
13AF
330
1D
100
AcDbEntity
  8
0
100
AcDbLine
 10
368.5891
 20
384.46965
 30
0.0
 11
368.9325
 21
383.94865
 31
0.0
  0
LINE
  5
13B0
330
1D
100
AcDbEntity
  8
0
100
AcDbLine
 10
346.3347
 20
384.88765
 30
0.0
 11
346.5726
 21
384.33365
 31
0.0
  0
LINE
  5
13B1
330
1D
100
AcDbEntity
  8
0
100
AcDbLine
 10
362.6338
 20
386.13765
 30
0.0
 11
363.2436
 21
386.48665
 31
0.0
  0
LINE
  5
13B2
330
1D
100
AcDbEntity
  8
0
100
AcDbLine
 10
361.8776
 20
386.20565
 30
0.0
 11
362.6338
 21
386.13765
 31
0.0
  0
LINE
  5
13B3
330
1D
100
AcDbEntity
  8
0
100
AcDbLine
 10
361.4214
 20
386.67365
 30
0.0
 11
361.5116
 21
387.25265
 31
0.0
  0
LINE
  5
13B4
330
1D
100
AcDbEntity
  8
0
100
AcDbLine
 10
361.4214
 20
386.67365
 30
0.0
 11
361.8776
 21
386.20565
 31
0.0
  0
LINE
  5
13B5
330
1D
100
AcDbEntity
  8
0
100
AcDbLine
 10
361.5116
 20
387.25265
 30
0.0
 11
362.1214
 21
387.60265
 31
0.0
  0
LINE
  5
13B6
330
1D
100
AcDbEntity
  8
0
100
AcDbLine
 10
362.1214
 20
387.60265
 30
0.0
 11
362.8776
 21
387.53365
 31
0.0
  0
LINE
  5
13B7
330
1D
100
AcDbEntity
  8
0
100
AcDbLine
 10
362.8776
 20
387.53365
 30
0.0
 11
363.3338
 21
387.06565
 31
0.0
  0
LINE
  5
13B8
330
1D
100
AcDbEntity
  8
0
100
AcDbLine
 10
363.2436
 20
386.48665
 30
0.0
 11
363.3338
 21
387.06565
 31
0.0
  0
LINE
  5
13B9
330
1D
100
AcDbEntity
  8
0
100
AcDbLine
 10
386.1776
 20
387.22365
 30
0.0
 11
391.0776
 21
377.95465
 31
0.0
  0
LINE
  5
13BA
330
1D
100
AcDbEntity
  8
0
100
AcDbLine
 10
345.6635
 20
385.16365
 30
0.0
 11
346.3347
 21
384.88765
 31
0.0
  0
LINE
  5
13BB
330
1D
100
AcDbEntity
  8
0
100
AcDbLine
 10
344.94
 20
384.98165
 30
0.0
 11
345.6635
 21
385.16365
 31
0.0
  0
LINE
  5
13BC
330
1D
100
AcDbEntity
  8
0
100
AcDbLine
 10
344.5802
 20
384.46665
 30
0.0
 11
344.94
 21
384.98165
 31
0.0
  0
LINE
  5
13BD
330
1D
100
AcDbEntity
  8
0
100
AcDbLine
 10
344.5802
 20
384.46665
 30
0.0
 11
344.818
 21
383.91265
 31
0.0
  0
LINE
  5
13BE
330
1D
100
AcDbEntity
  8
0
100
AcDbLine
 10
386.1776
 20
387.86665
 30
0.0
 11
391.0776
 21
378.59665
 31
0.0
  0
LINE
  5
13BF
330
1D
100
AcDbEntity
  8
0
100
AcDbLine
 10
391.0776
 20
378.59665
 30
0.0
 11
392.8776
 21
368.79165
 31
0.0
  0
LINE
  5
13C0
330
1D
100
AcDbEntity
  8
0
100
AcDbLine
 10
392.8776
 20
366.54165
 30
0.0
 11
392.8776
 21
368.14865
 31
0.0
  0
LINE
  5
13C1
330
1D
100
AcDbEntity
  8
0
100
AcDbLine
 10
392.8776
 20
368.14865
 30
0.0
 11
392.8776
 21
366.54165
 31
0.0
  0
LINE
  5
13C2
330
1D
100
AcDbEntity
  8
0
100
AcDbLine
 10
392.818582101882
 20
368.470166393861
 30
0.0
 11
392.8776
 21
368.79165
 31
0.0
  0
LINE
  5
13C3
330
1D
100
AcDbEntity
  8
0
100
AcDbLine
 10
392.8776
 20
375.54165
 30
0.0
 11
392.8776
 21
368.79165
 31
0.0
  0
LINE
  5
13C4
330
1D
100
AcDbEntity
  8
0
100
AcDbLine
 10
392.8776
 20
368.79165
 30
0.0
 11
392.8776
 21
375.54165
 31
0.0
  0
LINE
  5
13C5
330
1D
100
AcDbEntity
  8
0
100
AcDbLine
 10
391.0776
 20
385.34565
 30
0.0
 11
392.8776
 21
375.54165
 31
0.0
  0
LINE
  5
13C6
330
1D
100
AcDbEntity
  8
0
100
AcDbLine
 10
354.8776
 20
327.51005
 30
0.0
 11
354.8776
 21
317.18885
 31
0.0
  0
LINE
  5
13C7
330
1D
100
AcDbEntity
  8
0
100
AcDbLine
 10
354.8776
 20
327.51005
 30
0.0
 11
354.9608651092
 21
327.837204294732
 31
0.0
  0
LINE
  5
13C8
330
1D
100
AcDbEntity
  8
0
100
AcDbLine
 10
330.980975699369
 20
202.986006405019
 30
0.0
 11
331.1656
 21
202.61445
 31
0.0
  0
LINE
  5
13C9
330
1D
100
AcDbEntity
  8
0
100
AcDbLine
 10
331.1656
 20
202.61445
 30
0.0
 11
331.546805167191
 21
201.923868602214
 31
0.0
  0
LINE
  5
13CA
330
1D
100
AcDbEntity
  8
0
100
AcDbLine
 10
330.8776
 20
207.44405
 30
0.0
 11
330.8776
 21
203.19405
 31
0.0
  0
LINE
  5
13CB
330
1D
100
AcDbEntity
  8
0
100
AcDbLine
 10
330.8776
 20
207.44405
 30
0.0
 11
330.8776
 21
223.63665
 31
0.0
  0
LINE
  5
13CC
330
1D
100
AcDbEntity
  8
0
100
AcDbLine
 10
329.1204
 20
388.38265
 30
0.0
 11
329.8808
 21
388.35065
 31
0.0
  0
LINE
  5
13CD
330
1D
100
AcDbEntity
  8
0
100
AcDbLine
 10
329.8808
 20
388.35065
 30
0.0
 11
330.436
 21
388.75065
 31
0.0
  0
LINE
  5
13CE
330
1D
100
AcDbEntity
  8
0
100
AcDbLine
 10
330.436
 20
388.75065
 30
0.0
 11
330.4785
 21
389.33265
 31
0.0
  0
LINE
  5
13CF
330
1D
100
AcDbEntity
  8
0
100
AcDbLine
 10
328.6416
 20
389.39165
 30
0.0
 11
329.1968
 21
389.79065
 31
0.0
  0
LINE
  5
13D0
330
1D
100
AcDbEntity
  8
0
100
AcDbLine
 10
328.5991
 20
388.80865
 30
0.0
 11
328.6416
 21
389.39165
 31
0.0
  0
LINE
  5
13D1
330
1D
100
AcDbEntity
  8
0
100
AcDbLine
 10
328.5991
 20
388.80865
 30
0.0
 11
329.1204
 21
388.38265
 31
0.0
  0
LINE
  5
13D2
330
1D
100
AcDbEntity
  8
0
100
AcDbLine
 10
329.9572
 20
389.75865
 30
0.0
 11
330.4785
 21
389.33265
 31
0.0
  0
LINE
  5
13D3
330
1D
100
AcDbEntity
  8
0
100
AcDbLine
 10
329.1968
 20
389.79065
 30
0.0
 11
329.9572
 21
389.75865
 31
0.0
  0
LINE
  5
13D4
330
1D
100
AcDbEntity
  8
0
100
AcDbLine
 10
335.5375
 20
389.79765
 30
0.0
 11
336.279
 21
389.66365
 31
0.0
  0
LINE
  5
13D5
330
1D
100
AcDbEntity
  8
0
100
AcDbLine
 10
336.279
 20
389.66365
 30
0.0
 11
336.9162
 21
389.98265
 31
0.0
  0
LINE
  5
13D6
330
1D
100
AcDbEntity
  8
0
100
AcDbLine
 10
336.9162
 20
389.98265
 30
0.0
 11
337.0901
 21
390.55165
 31
0.0
  0
LINE
  5
13D7
330
1D
100
AcDbEntity
  8
0
100
AcDbLine
 10
335.2944
 20
390.85365
 30
0.0
 11
335.9317
 21
391.17265
 31
0.0
  0
LINE
  5
13D8
330
1D
100
AcDbEntity
  8
0
100
AcDbLine
 10
335.1205
 20
390.28565
 30
0.0
 11
335.2944
 21
390.85365
 31
0.0
  0
LINE
  5
13D9
330
1D
100
AcDbEntity
  8
0
100
AcDbLine
 10
335.1205
 20
390.28565
 30
0.0
 11
335.5375
 21
389.79765
 31
0.0
  0
LINE
  5
13DA
330
1D
100
AcDbEntity
  8
0
100
AcDbLine
 10
342.1776
 20
390.33665
 30
0.0
 11
342.8776
 21
390.10565
 31
0.0
  0
LINE
  5
13DB
330
1D
100
AcDbEntity
  8
0
100
AcDbLine
 10
342.8776
 20
390.10565
 30
0.0
 11
343.5776
 21
390.33665
 31
0.0
  0
LINE
  5
13DC
330
1D
100
AcDbEntity
  8
0
100
AcDbLine
 10
355.8744
 20
388.35065
 30
0.0
 11
356.6348
 21
388.38265
 31
0.0
  0
LINE
  5
13DD
330
1D
100
AcDbEntity
  8
0
100
AcDbLine
 10
355.3192
 20
388.75065
 30
0.0
 11
355.8744
 21
388.35065
 31
0.0
  0
LINE
  5
13DE
330
1D
100
AcDbEntity
  8
0
100
AcDbLine
 10
349.4762
 20
389.66365
 30
0.0
 11
350.2177
 21
389.79765
 31
0.0
  0
LINE
  5
13DF
330
1D
100
AcDbEntity
  8
0
100
AcDbLine
 10
355.2767
 20
389.33265
 30
0.0
 11
355.798
 21
389.75865
 31
0.0
  0
LINE
  5
13E0
330
1D
100
AcDbEntity
  8
0
100
AcDbLine
 10
355.2767
 20
389.33265
 30
0.0
 11
355.3192
 21
388.75065
 31
0.0
  0
LINE
  5
13E1
330
1D
100
AcDbEntity
  8
0
100
AcDbLine
 10
356.6348
 20
388.38265
 30
0.0
 11
357.1561
 21
388.80865
 31
0.0
  0
LINE
  5
13E2
330
1D
100
AcDbEntity
  8
0
100
AcDbLine
 10
355.798
 20
389.75865
 30
0.0
 11
356.5584
 21
389.79065
 31
0.0
  0
LINE
  5
13E3
330
1D
100
AcDbEntity
  8
0
100
AcDbLine
 10
350.2177
 20
389.79765
 30
0.0
 11
350.6347
 21
390.28565
 31
0.0
  0
LINE
  5
13E4
330
1D
100
AcDbEntity
  8
0
100
AcDbLine
 10
348.839
 20
389.98265
 30
0.0
 11
349.4762
 21
389.66365
 31
0.0
  0
LINE
  5
13E5
330
1D
100
AcDbEntity
  8
0
100
AcDbLine
 10
356.5584
 20
389.79065
 30
0.0
 11
357.1136
 21
389.39165
 31
0.0
  0
LINE
  5
13E6
330
1D
100
AcDbEntity
  8
0
100
AcDbLine
 10
357.1136
 20
389.39165
 30
0.0
 11
357.1561
 21
388.80865
 31
0.0
  0
LINE
  5
13E7
330
1D
100
AcDbEntity
  8
0
100
AcDbLine
 10
348.6651
 20
390.55165
 30
0.0
 11
349.0821
 21
391.03965
 31
0.0
  0
LINE
  5
13E8
330
1D
100
AcDbEntity
  8
0
100
AcDbLine
 10
348.6651
 20
390.55165
 30
0.0
 11
348.839
 21
389.98265
 31
0.0
  0
LINE
  5
13E9
330
1D
100
AcDbEntity
  8
0
100
AcDbLine
 10
350.4608
 20
390.85365
 30
0.0
 11
350.6347
 21
390.28565
 31
0.0
  0
LINE
  5
13EA
330
1D
100
AcDbEntity
  8
0
100
AcDbLine
 10
343.5776
 20
390.33665
 30
0.0
 11
343.8776
 21
390.87265
 31
0.0
  0
LINE
  5
13EB
330
1D
100
AcDbEntity
  8
0
100
AcDbLine
 10
336.6731
 20
391.03965
 30
0.0
 11
337.0901
 21
390.55165
 31
0.0
  0
LINE
  5
13EC
330
1D
100
AcDbEntity
  8
0
100
AcDbLine
 10
335.9317
 20
391.17265
 30
0.0
 11
336.6731
 21
391.03965
 31
0.0
  0
LINE
  5
13ED
330
1D
100
AcDbEntity
  8
0
100
AcDbLine
 10
349.0821
 20
391.03965
 30
0.0
 11
349.8235
 21
391.17265
 31
0.0
  0
LINE
  5
13EE
330
1D
100
AcDbEntity
  8
0
100
AcDbLine
 10
349.8235
 20
391.17265
 30
0.0
 11
350.4608
 21
390.85365
 31
0.0
  0
LINE
  5
13EF
330
1D
100
AcDbEntity
  8
0
100
AcDbLine
 10
343.5776
 20
391.40865
 30
0.0
 11
343.8776
 21
390.87265
 31
0.0
  0
LINE
  5
13F0
330
1D
100
AcDbEntity
  8
0
100
AcDbLine
 10
342.8776
 20
391.63865
 30
0.0
 11
343.5776
 21
391.40865
 31
0.0
  0
LINE
  5
13F1
330
1D
100
AcDbEntity
  8
0
100
AcDbLine
 10
342.1776
 20
391.40865
 30
0.0
 11
342.8776
 21
391.63865
 31
0.0
  0
LINE
  5
13F2
330
1D
100
AcDbEntity
  8
0
100
AcDbLine
 10
341.8776
 20
390.87265
 30
0.0
 11
342.1776
 21
391.40865
 31
0.0
  0
LINE
  5
13F3
330
1D
100
AcDbEntity
  8
0
100
AcDbLine
 10
341.8776
 20
390.87265
 30
0.0
 11
342.1776
 21
390.33665
 31
0.0
  0
LINE
  5
13F4
330
1D
100
AcDbEntity
  8
0
100
AcDbLine
 10
386.1776
 20
394.61565
 30
0.0
 11
391.0776
 21
385.34565
 31
0.0
  0
LINE
  5
13F5
330
1D
100
AcDbEntity
  8
0
100
AcDbLine
 10
299.5776
 20
387.86665
 30
0.0
 11
307.5776
 21
395.83365
 31
0.0
  0
LINE
  5
13F6
330
1D
100
AcDbEntity
  8
0
100
AcDbLine
 10
294.6776
 20
385.34565
 30
0.0
 11
299.5776
 21
394.61565
 31
0.0
  0
LINE
  5
13F7
330
1D
100
AcDbEntity
  8
0
100
AcDbLine
 10
307.5776
 20
395.19065
 30
0.0
 11
317.9776
 21
401.31865
 31
0.0
  0
LINE
  5
13F8
330
1D
100
AcDbEntity
  8
0
100
AcDbLine
 10
317.9776
 20
401.31865
 30
0.0
 11
330.0776
 21
405.07265
 31
0.0
  0
LINE
  5
13F9
330
1D
100
AcDbEntity
  8
0
100
AcDbLine
 10
307.5776
 20
395.83365
 30
0.0
 11
317.9776
 21
401.96165
 31
0.0
  0
LINE
  5
13FA
330
1D
100
AcDbEntity
  8
0
100
AcDbLine
 10
317.9776
 20
401.96165
 30
0.0
 11
330.0776
 21
405.71565
 31
0.0
  0
LINE
  5
13FB
330
1D
100
AcDbEntity
  8
0
100
AcDbLine
 10
307.8776
 20
402.99565
 30
0.0
 11
318.2776
 21
409.04665
 31
0.0
  0
LINE
  5
13FC
330
1D
100
AcDbEntity
  8
0
100
AcDbLine
 10
355.6776
 20
405.07265
 30
0.0
 11
367.7776
 21
401.31865
 31
0.0
  0
LINE
  5
13FD
330
1D
100
AcDbEntity
  8
0
100
AcDbLine
 10
330.0776
 20
405.07265
 30
0.0
 11
342.8776
 21
406.45065
 31
0.0
  0
LINE
  5
13FE
330
1D
100
AcDbEntity
  8
0
100
AcDbLine
 10
378.1776
 20
395.19065
 30
0.0
 11
386.1776
 21
387.22365
 31
0.0
  0
LINE
  5
13FF
330
1D
100
AcDbEntity
  8
0
100
AcDbLine
 10
367.7776
 20
401.31865
 30
0.0
 11
378.1776
 21
395.19065
 31
0.0
  0
LINE
  5
1400
330
1D
100
AcDbEntity
  8
0
100
AcDbLine
 10
378.1776
 20
395.83365
 30
0.0
 11
386.1776
 21
387.86665
 31
0.0
  0
LINE
  5
1401
330
1D
100
AcDbEntity
  8
0
100
AcDbLine
 10
385.7776
 20
395.02865
 30
0.0
 11
386.1776
 21
394.61565
 31
0.0
  0
LINE
  5
1402
330
1D
100
AcDbEntity
  8
0
100
AcDbLine
 10
377.8776
 20
402.99565
 30
0.0
 11
385.7776
 21
395.02865
 31
0.0
  0
LINE
  5
1403
330
1D
100
AcDbEntity
  8
0
100
AcDbLine
 10
367.7776
 20
401.96165
 30
0.0
 11
378.1776
 21
395.83365
 31
0.0
  0
LINE
  5
1404
330
1D
100
AcDbEntity
  8
0
100
AcDbLine
 10
355.6776
 20
405.71565
 30
0.0
 11
367.7776
 21
401.96165
 31
0.0
  0
LINE
  5
1405
330
1D
100
AcDbEntity
  8
0
100
AcDbLine
 10
342.8776
 20
406.45065
 30
0.0
 11
355.6776
 21
405.07265
 31
0.0
  0
LINE
  5
1406
330
1D
100
AcDbEntity
  8
0
100
AcDbLine
 10
367.4776
 20
409.04665
 30
0.0
 11
377.8776
 21
402.99565
 31
0.0
  0
LINE
  5
1407
330
1D
100
AcDbEntity
  8
0
100
AcDbLine
 10
355.5776
 20
412.72365
 30
0.0
 11
367.4776
 21
409.04665
 31
0.0
  0
LINE
  5
1408
330
1D
100
AcDbEntity
  8
0
100
AcDbLine
 10
342.8776
 20
407.09365
 30
0.0
 11
355.6776
 21
405.71565
 31
0.0
  0
LINE
  5
1409
330
1D
100
AcDbEntity
  8
0
100
AcDbLine
 10
330.0776
 20
405.71565
 30
0.0
 11
342.8776
 21
407.09365
 31
0.0
  0
LINE
  5
140A
330
1D
100
AcDbEntity
  8
0
100
AcDbLine
 10
318.2776
 20
409.04665
 30
0.0
 11
330.1776
 21
412.72365
 31
0.0
  0
LINE
  5
140B
330
1D
100
AcDbEntity
  8
0
100
AcDbLine
 10
342.8776
 20
414.10365
 30
0.0
 11
355.5776
 21
412.72365
 31
0.0
  0
LINE
  5
140C
330
1D
100
AcDbEntity
  8
0
100
AcDbLine
 10
330.1776
 20
412.72365
 30
0.0
 11
342.8776
 21
414.10365
 31
0.0
  0
LINE
  5
140D
330
1D
100
AcDbEntity
  8
0
100
AcDbLine
 10
299.9776
 20
395.02865
 30
0.0
 11
307.8776
 21
402.99565
 31
0.0
  0
LINE
  5
140E
330
1D
100
AcDbEntity
  8
0
100
AcDbLine
 10
299.5776
 20
394.61565
 30
0.0
 11
299.9776
 21
395.02865
 31
0.0
  0
LINE
  5
140F
330
1D
100
AcDbEntity
  8
0
100
AcDbLine
 10
292.8776
 20
368.79165
 30
0.0
 11
292.936617898118
 21
368.470166393861
 31
0.0
  0
LINE
  5
1410
330
1D
100
AcDbEntity
  8
0
100
AcDbLine
 10
292.8776
 20
368.79165
 30
0.0
 11
292.8776
 21
375.54165
 31
0.0
  0
LINE
  5
1411
330
1D
100
AcDbEntity
  8
0
100
AcDbLine
 10
292.8776
 20
368.79165
 30
0.0
 11
292.936617898118
 21
368.470166393861
 31
0.0
  0
LINE
  5
1412
330
1D
100
AcDbEntity
  8
0
100
AcDbLine
 10
292.8776
 20
368.79165
 30
0.0
 11
294.6776
 21
378.59665
 31
0.0
  0
LINE
  5
1413
330
1D
100
AcDbEntity
  8
0
100
AcDbLine
 10
331.546805167191
 20
201.923868602214
 30
0.0
 11
332.2873
 21
201.54795
 31
0.0
  0
LINE
  5
1414
330
1D
100
AcDbEntity
  8
0
100
AcDbLine
 10
354.208433766212
 20
201.923939132956
 30
0.0
 11
353.4678
 21
201.54795
 31
0.0
  0
LINE
  5
1415
330
1D
100
AcDbEntity
  8
0
100
AcDbLine
 10
93.992073674601
 20
190.602518779824
 30
0.0
 11
94.0964
 21
190.74455
 31
0.0
  0
LINE
  5
1416
330
1D
100
AcDbEntity
  8
0
100
AcDbLine
 10
135.2973
 20
192.73055
 30
0.0
 11
134.967688666879
 21
193.047055514707
 31
0.0
  0
LINE
  5
1417
330
1D
100
AcDbEntity
  8
0
100
AcDbLine
 10
136.250623672558
 20
190.602771024036
 30
0.0
 11
136.125173325262
 21
190.755875969129
 31
0.0
  0
LINE
  5
1418
330
1D
100
AcDbEntity
  8
0
100
AcDbLine
 10
136.125173325262
 20
190.755875969129
 30
0.0
 11
135.8643
 21
191.31655
 31
0.0
  0
LINE
  5
1419
330
1D
100
AcDbEntity
  8
0
100
AcDbLine
 10
109.6333
 20
151.89335
 30
0.0
 11
120.6173
 21
151.89335
 31
0.0
  0
LINE
  5
141A
330
1D
100
AcDbEntity
  8
0
100
AcDbLine
 10
89.8323
 20
150.33455
 30
0.0
 11
90.1118
 21
150.33455
 31
0.0
  0
LINE
  5
141B
330
1D
100
AcDbEntity
  8
0
100
AcDbLine
 10
89.2761
 20
149.16755
 30
0.0
 11
89.7325
 21
149.36135
 31
0.0
  0
LINE
  5
141C
330
1D
100
AcDbEntity
  8
0
100
AcDbLine
 10
140.9743
 20
149.16755
 30
0.0
 11
140.737224827006
 21
149.298355181712
 31
0.0
  0
LINE
  5
141D
330
1D
100
AcDbEntity
  8
0
100
AcDbLine
 10
140.737224827006
 20
149.298355181712
 30
0.0
 11
140.4183
 21
149.33455
 31
0.0
  0
LINE
  5
141E
330
1D
100
AcDbEntity
  8
0
100
AcDbLine
 10
12.0178
 20
130.50465
 30
0.0
 11
89.0264
 21
130.816764725962
 31
0.0
  0
LINE
  5
141F
330
1D
100
AcDbEntity
  8
0
100
AcDbLine
 10
89.0264
 20
130.816764725962
 30
0.0
 11
141.2243
 21
130.816764725962
 31
0.0
  0
LINE
  5
1420
330
1D
100
AcDbEntity
  8
0
100
AcDbLine
 10
141.2243
 20
130.816764725962
 30
0.0
 11
218.2383
 21
130.50605
 31
0.0
  0
LINE
  5
1421
330
1D
100
AcDbEntity
  8
0
100
AcDbLine
 10
157.0713
 20
74.08975
 30
0.0
 11
155.180919111264
 21
74.415887962829
 31
0.0
  0
LINE
  5
1422
330
1D
100
AcDbEntity
  8
0
100
AcDbLine
 10
128.3613
 20
76.09095
 30
0.0
 11
125.28205
 21
76.09095
 31
0.0
  0
LINE
  5
1423
330
1D
100
AcDbEntity
  8
0
100
AcDbLine
 10
101.8893
 20
76.09095
 30
0.0
 11
104.96855
 21
76.09095
 31
0.0
  0
LINE
  5
1424
330
1D
100
AcDbEntity
  8
0
100
AcDbLine
 10
73.1795
 20
74.08935
 30
0.0
 11
75.078450130257
 21
74.417061318729
 31
0.0
  0
LINE
  5
1425
330
1D
100
AcDbEntity
  8
0
100
AcDbLine
 10
0.7957
 20
53.81485
 30
0.0
 11
48.9595
 21
53.81485
 31
0.0
  0
ENDSEC
  0
SECTION
  2
OBJECTS
  0
DICTIONARY
  5
C
330
0
100
AcDbDictionary
281
     1
  3
ACAD_GROUP
350
D
  3
ACAD_LAYOUT
350
1A
  3
ACAD_MLEADERSTYLE
350
1428
  3
ACAD_MLINESTYLE
350
17
  3
ACAD_PLOTSETTINGS
350
19
  3
ACAD_PLOTSTYLENAME
350
E
  3
ACAD_SCALELIST
350
AAE
  3
AcDbVariableDictionary
350
1426
  3
DWGPROPS
350
142B
  0
DICTIONARY
  5
D
102
{ACAD_REACTORS
330
C
102
}
330
C
100
AcDbDictionary
281
     1
  0
DICTIONARY
  5
1A
102
{ACAD_REACTORS
330
C
102
}
330
C
100
AcDbDictionary
281
     1
  3
Layout1
350
1C
  3
Model
350
1E
  0
DICTIONARY
  5
1428
102
{ACAD_REACTORS
330
C
102
}
330
C
100
AcDbDictionary
281
     1
  0
DICTIONARY
  5
17
102
{ACAD_REACTORS
330
C
102
}
330
C
100
AcDbDictionary
281
     1
  3
Standard
350
18
  0
DICTIONARY
  5
19
102
{ACAD_REACTORS
330
C
102
}
330
C
100
AcDbDictionary
281
     1
  0
ACDBDICTIONARYWDFLT
  5
E
102
{ACAD_REACTORS
330
C
102
}
330
C
100
AcDbDictionary
281
     1
  3
Normal
350
F
100
AcDbDictionaryWithDefault
340
F
  0
DICTIONARY
  5
AAE
102
{ACAD_REACTORS
330
C
102
}
330
C
100
AcDbDictionary
281
     1
  3
A0
350
AAF
  3
A1
350
AB0
  3
A2
350
AB1
  3
A3
350
AB2
  3
A4
350
AB3
  3
A5
350
AB4
  3
A6
350
AB5
  3
A7
350
AB6
  3
A8
350
AB7
  3
A9
350
AB8
  3
B0
350
AB9
  3
B1
350
ABA
  3
B2
350
ABB
  3
B3
350
ABC
  3
B4
350
ABD
  3
B5
350
ABE
  3
B6
350
ABF
  3
B7
350
AC0
  3
B8
350
AC1
  3
B9
350
AC2
  3
C0
350
AC3
  3
C1
350
AC4
  3
C2
350
AC5
  3
C3
350
AC6
  3
C4
350
AC7
  3
C5
350
AC8
  3
C6
350
AC9
  3
C7
350
ACA
  3
C8
350
ACB
  3
C9
350
ACC
  3
D0
350
ACD
  3
D1
350
ACE
  3
D2
350
ACF
  0
DICTIONARY
  5
1426
102
{ACAD_REACTORS
330
C
102
}
330
C
100
AcDbDictionary
281
     1
  3
CANNOSCALE
350
1429
  0
XRECORD
  5
142B
102
{ACAD_REACTORS
330
C
102
}
330
C
100
AcDbXrecord
280
     1
  1
DWGPROPS COOKIE
  2

  3

  4

  6

  7

  8
MARTIN
  9

300
=
301
=
302
=
303
=
304
=
305
=
306
=
307
=
308
=
309
=
 40
0.0
 41
2456647.724423819
 42
2456647.732800197
  1

 90
        0
  0
LAYOUT
  5
1C
102
{ACAD_REACTORS
330
1A
102
}
330
1A
100
AcDbPlotSettings
  1

  2
none_device
  4

  6

 40
0.0
 41
0.0
 42
0.0
 43
0.0
 44
0.0
 45
0.0
 46
0.0
 47
0.0
 48
0.0
 49
0.0
140
0.0
141
0.0
142
1.0
143
1.0
 70
   688
 72
     0
 73
     0
 74
     5
  7

 75
    16
147
1.0
148
0.0
149
0.0
100
AcDbLayout
  1
Layout1
 70
     1
 71
     1
 10
0.0
 20
0.0
 11
12.0
 21
9.0
 12
0.0
 22
0.0
 32
0.0
 14
1.000000000000E+20
 24
1.000000000000E+20
 34
1.000000000000E+20
 15
-1.000000000000E+20
 25
-1.000000000000E+20
 35
-1.000000000000E+20
146
0.0
 13
0.0
 23
0.0
 33
0.0
 16
1.0
 26
0.0
 36
0.0
 17
0.0
 27
1.0
 37
0.0
 76
     0
330
1B
  0
LAYOUT
  5
1E
102
{ACAD_REACTORS
330
1A
102
}
330
1A
100
AcDbPlotSettings
  1

  2
none_device
  4

  6

 40
0.0
 41
0.0
 42
0.0
 43
0.0
 44
0.0
 45
0.0
 46
0.0
 47
0.0
 48
0.0
 49
0.0
140
0.0
141
0.0
142
1.0
143
1.0
 70
  1712
 72
     0
 73
     0
 74
     0
  7

 75
     0
147
1.0
148
0.0
149
0.0
100
AcDbLayout
  1
Model
 70
     1
 71
     0
 10
0.0
 20
0.0
 11
12.0
 21
9.0
 12
0.0
 22
0.0
 32
0.0
 14
0.1217
 24
-0.10355
 34
0.0
 15
392.8776
 25
414.10365
 35
0.0
146
0.0
 13
0.0
 23
0.0
 33
0.0
 16
1.0
 26
0.0
 36
0.0
 17
0.0
 27
1.0
 37
0.0
 76
     0
330
1D
331
AA9
  0
MLINESTYLE
  5
18
102
{ACAD_REACTORS
330
17
102
}
330
17
100
AcDbMlineStyle
  2
Standard
 70
     0
  3

 62
   256
 51
90.0
 52
90.0
 71
     2
 49
0.5
 62
   256
  6
BYLAYER
 49
-0.5
 62
   256
  6
BYLAYER
  0
ACDBPLACEHOLDER
  5
F
102
{ACAD_REACTORS
330
E
102
}
330
E
  0
SCALE
  5
AAF
102
{ACAD_REACTORS
330
AAE
102
}
330
AAE
100
AcDbScale
 70
     0
300
1:1
140
1.0
141
1.0
290
     1
  0
SCALE
  5
AB0
102
{ACAD_REACTORS
330
AAE
102
}
330
AAE
100
AcDbScale
 70
     0
300
1:2
140
1.0
141
2.0
290
     0
  0
SCALE
  5
AB1
102
{ACAD_REACTORS
330
AAE
102
}
330
AAE
100
AcDbScale
 70
     0
300
1:4
140
1.0
141
4.0
290
     0
  0
SCALE
  5
AB2
102
{ACAD_REACTORS
330
AAE
102
}
330
AAE
100
AcDbScale
 70
     0
300
1:5
140
1.0
141
5.0
290
     0
  0
SCALE
  5
AB3
102
{ACAD_REACTORS
330
AAE
102
}
330
AAE
100
AcDbScale
 70
     0
300
1:8
140
1.0
141
8.0
290
     0
  0
SCALE
  5
AB4
102
{ACAD_REACTORS
330
AAE
102
}
330
AAE
100
AcDbScale
 70
     0
300
1:10
140
1.0
141
10.0
290
     0
  0
SCALE
  5
AB5
102
{ACAD_REACTORS
330
AAE
102
}
330
AAE
100
AcDbScale
 70
     0
300
1:16
140
1.0
141
16.0
290
     0
  0
SCALE
  5
AB6
102
{ACAD_REACTORS
330
AAE
102
}
330
AAE
100
AcDbScale
 70
     0
300
1:20
140
1.0
141
20.0
290
     0
  0
SCALE
  5
AB7
102
{ACAD_REACTORS
330
AAE
102
}
330
AAE
100
AcDbScale
 70
     0
300
1:30
140
1.0
141
30.0
290
     0
  0
SCALE
  5
AB8
102
{ACAD_REACTORS
330
AAE
102
}
330
AAE
100
AcDbScale
 70
     0
300
1:40
140
1.0
141
40.0
290
     0
  0
SCALE
  5
AB9
102
{ACAD_REACTORS
330
AAE
102
}
330
AAE
100
AcDbScale
 70
     0
300
1:50
140
1.0
141
50.0
290
     0
  0
SCALE
  5
ABA
102
{ACAD_REACTORS
330
AAE
102
}
330
AAE
100
AcDbScale
 70
     0
300
1:100
140
1.0
141
100.0
290
     0
  0
SCALE
  5
ABB
102
{ACAD_REACTORS
330
AAE
102
}
330
AAE
100
AcDbScale
 70
     0
300
2:1
140
2.0
141
1.0
290
     0
  0
SCALE
  5
ABC
102
{ACAD_REACTORS
330
AAE
102
}
330
AAE
100
AcDbScale
 70
     0
300
4:1
140
4.0
141
1.0
290
     0
  0
SCALE
  5
ABD
102
{ACAD_REACTORS
330
AAE
102
}
330
AAE
100
AcDbScale
 70
     0
300
8:1
140
8.0
141
1.0
290
     0
  0
SCALE
  5
ABE
102
{ACAD_REACTORS
330
AAE
102
}
330
AAE
100
AcDbScale
 70
     0
300
10:1
140
10.0
141
1.0
290
     0
  0
SCALE
  5
ABF
102
{ACAD_REACTORS
330
AAE
102
}
330
AAE
100
AcDbScale
 70
     0
300
100:1
140
100.0
141
1.0
290
     0
  0
SCALE
  5
AC0
102
{ACAD_REACTORS
330
AAE
102
}
330
AAE
100
AcDbScale
 70
     0
300
1/128" = 1'-0"
140
0.0078125
141
12.0
290
     0
  0
SCALE
  5
AC1
102
{ACAD_REACTORS
330
AAE
102
}
330
AAE
100
AcDbScale
 70
     0
300
1/64" = 1'-0"
140
0.015625
141
12.0
290
     0
  0
SCALE
  5
AC2
102
{ACAD_REACTORS
330
AAE
102
}
330
AAE
100
AcDbScale
 70
     0
300
1/32" = 1'-0"
140
0.03125
141
12.0
290
     0
  0
SCALE
  5
AC3
102
{ACAD_REACTORS
330
AAE
102
}
330
AAE
100
AcDbScale
 70
     0
300
1/16" = 1'-0"
140
0.0625
141
12.0
290
     0
  0
SCALE
  5
AC4
102
{ACAD_REACTORS
330
AAE
102
}
330
AAE
100
AcDbScale
 70
     0
300
3/32" = 1'-0"
140
0.09375
141
12.0
290
     0
  0
SCALE
  5
AC5
102
{ACAD_REACTORS
330
AAE
102
}
330
AAE
100
AcDbScale
 70
     0
300
1/8" = 1'-0"
140
0.125
141
12.0
290
     0
  0
SCALE
  5
AC6
102
{ACAD_REACTORS
330
AAE
102
}
330
AAE
100
AcDbScale
 70
     0
300
3/16" = 1'-0"
140
0.1875
141
12.0
290
     0
  0
SCALE
  5
AC7
102
{ACAD_REACTORS
330
AAE
102
}
330
AAE
100
AcDbScale
 70
     0
300
1/4" = 1'-0"
140
0.25
141
12.0
290
     0
  0
SCALE
  5
AC8
102
{ACAD_REACTORS
330
AAE
102
}
330
AAE
100
AcDbScale
 70
     0
300
3/8" = 1'-0"
140
0.375
141
12.0
290
     0
  0
SCALE
  5
AC9
102
{ACAD_REACTORS
330
AAE
102
}
330
AAE
100
AcDbScale
 70
     0
300
1/2" = 1'-0"
140
0.5
141
12.0
290
     0
  0
SCALE
  5
ACA
102
{ACAD_REACTORS
330
AAE
102
}
330
AAE
100
AcDbScale
 70
     0
300
3/4" = 1'-0"
140
0.75
141
12.0
290
     0
  0
SCALE
  5
ACB
102
{ACAD_REACTORS
330
AAE
102
}
330
AAE
100
AcDbScale
 70
     0
300
1" = 1'-0"
140
1.0
141
12.0
290
     0
  0
SCALE
  5
ACC
102
{ACAD_REACTORS
330
AAE
102
}
330
AAE
100
AcDbScale
 70
     0
300
1-1/2" = 1'-0"
140
1.5
141
12.0
290
     0
  0
SCALE
  5
ACD
102
{ACAD_REACTORS
330
AAE
102
}
330
AAE
100
AcDbScale
 70
     0
300
3" = 1'-0"
140
3.0
141
12.0
290
     0
  0
SCALE
  5
ACE
102
{ACAD_REACTORS
330
AAE
102
}
330
AAE
100
AcDbScale
 70
     0
300
6" = 1'-0"
140
6.0
141
12.0
290
     0
  0
SCALE
  5
ACF
102
{ACAD_REACTORS
330
AAE
102
}
330
AAE
100
AcDbScale
 70
     0
300
1'-0" = 1'-0"
140
12.0
141
12.0
290
     0
  0
DICTIONARYVAR
  5
1429
102
{ACAD_REACTORS
330
1426
102
}
330
1426
100
DictionaryVariables
280
     0
  1
1:1
  0
ENDSEC
  0
SECTION
  2
THUMBNAILIMAGE
 90
    16364
310
28000000B40000005500000001000800000000000000000000000000000000000000000000000000FFFFFF000000FF0000FFFF0000FF0000FFFF0000FF000000FF00FF000000000080808000C0C0C0000000FF007F7FFF000000A5005252A50000007F003F3F7F0000004C0026264C000000260013132600003FFF007F9FFF
310
000029A5005267A500001F7F003F4F7F0000134C00262F4C000009260013172600007FFF007FBFFF000052A500527CA500003F7F003F5F7F0000264C0026394C0000132600131C260000BFFF007FDFFF00007CA5005291A500005F7F003F6F7F0000394C0026424C00001C26001321260000FFFF007FFFFF0000A5A50052A5
310
A500007F7F003F7F7F00004C4C00264C4C00002626001326260000FFBF007FFFDF0000A57C0052A59100007F5F003F7F6F00004C3900264C420000261C001326210000FF7F007FFFBF0000A5520052A57C00007F3F003F7F5F00004C2600264C39000026130013261C0000FF3F007FFF9F0000A5290052A56700007F1F003F
310
7F4F00004C1300264C2F00002609001326170000FF00007FFF7F0000A5000052A55200007F00003F7F3F00004C0000264C260000260000132613003FFF00009FFF7F0029A5000067A552001F7F00004F7F3F00134C00002F4C260009260000172613007FFF0000BFFF7F0052A500007CA552003F7F00005F7F3F00264C0000
310
394C2600132600001C261300BFFF0000DFFF7F007CA5000091A552005F7F00006F7F3F00394C0000424C26001C26000021261300FFFF0000FFFF7F00A5A50000A5A552007F7F00007F7F3F004C4C00004C4C26002626000026261300FFBF0000FFDF7F00A57C0000A59152007F5F00007F6F3F004C3900004C422600261C00
310
0026211300FF7F0000FFBF7F00A5520000A57C52007F3F00007F5F3F004C2600004C39260026130000261C1300FF3F0000FF9F7F00A5290000A56752007F1F00007F4F3F004C1300004C2F26002609000026171300FF000000FF7F7F00A5000000A55252007F0000007F3F3F004C0000004C2626002600000026131300FF00
310
3F00FF7F9F00A5002900A55267007F001F007F3F4F004C0013004C262F002600090026131700FF007F00FF7FBF00A5005200A5527C007F003F007F3F5F004C0026004C2639002600130026131C00FF00BF00FF7FDF00A5007C00A55291007F005F007F3F6F004C0039004C26420026001C0026132100FF00FF00FF7FFF00A5
310
00A500A552A5007F007F007F3F7F004C004C004C264C002600260026132600BF00FF00DF7FFF007C00A5009152A5005F007F006F3F7F0039004C0042264C001C002600211326007F00FF00BF7FFF005200A5007C52A5003F007F005F3F7F0026004C0039264C00130026001C1326003F00FF009F7FFF002900A5006752A500
310
1F007F004F3F7F0013004C002F264C000900260017132600000000002D2D2D005B5B5B0089898900B7B7B700B3B3B30000000000000000000000000000000000000000000000000000000000000000000000000000000000000000000000000000000000000000000000000000000000000000000000000007070000000000
310
00000000000000000000000000000000000000000000000000000000000000000000000000000000000000000000000000000000000000000000000000000000000000000000000000000000000000000000000000000000000000000000000000000000000000000000000000000000000000000000000000000000000000
310
00000000000000000000000000000000000000000000000000000000000000000000000000000000000000000000070007070000000000000000000000000000000000000000000000000000000000000000000000000000000000000000000000000000000000000000000000000000000000000000000000000000000000
310
00000000000000000000000000000000000000000000000000000000000000000000000000000000000000000000000000000000000000000000000000000000000000000000000000000000000000000000000000000000000000000000000000000007000007000000000000000000000000000000000000000000000000
310
00000000000000000000000000000000000000000000000000000000000000000000000000000000000000000000000000000000000000000000000000000000000000000000000000000000000000000000000000000000000000000000000000000000000000000000000000000000000000000000000000000000000000
310
00000000000000000000000000000000000000000000000000070000070000000000000000000000000000000000000000000000000000000000000000000000000000000000000000000000000000000000000000000000000000000000000000000000000000000000000000000000000000000000000000000000000000
310
00000000000000000000000000000000000000000000000000000000000000000000000000000000000000000000000000000000000000000000000000000000000000000000000000000000000007000007000000000000000000000000000000000000000000000000000000000000000000000000000000000000000000
310
00000000000000000000000000000000000000000000000000000000000000000000000000000000000000000000000000000000000000000000000000000000000000000000000000000000000000000000000000000000000000000000000000000000000000000000000000000000000000000000000000000000000000
310
00000000070000070000000000000000000000000000000000000000000000000000000000000000000000000000000000000000000000000000000000000000000000000000000000000000000000000000000000000000000000000000000000000000000000000000000000000000000000000000000000000000000000
310
00000000000000000000000000000000000000000000000000000000000000000000000000000000000000000000000000000000000000000007000007000000000000000000000000000000000000000000000000000000000000000000000000000000000000000000000000000000000000000000000000000000000000
310
00000000000000000000000000000000000000000000000000000000000000000000000000000000000000000000000000000000000000000000000000000000000000000000000000000000000000000000000000000000000000000000000000000000000000000000000000000700000700000000000000000000000000
310
00000000000000000000000000000000000000000000000000000000000000000000000000000000000000000000000000000000000000000000000000000000000000000000000000000000000000000000000000000000000000000000000000000000000000000000000000000000000000000000000000000000000000
310
00000000000000000000000000000000000000000000000000000000000000000000000007000007000000000000000000000000000000000000000000000000000000000000000000000000000000000000000000000000000000000000000000000000000000000000000000000000000000000000000000000000000000
310
00000000000000000000000000000000000000000000000000000000000000000000000000000000000000000000000000000000000000000000000000000000000000000000000000000000000000000000000000000000000700000700000000000000000000000000000000000000000000000000000000000000000000
310
00000000000000000000000000000000000000000000000000000000000000000000000000000000000000000000000000000000000000000000000000000000000000000000000000000000000000000000000000000000000000000000000000000000000000000000000000000000000000000000000000000000000000
310
00000000000000000000000000000007000007000000000000000000000000000000000000000000000000000000000000000000000000000000000000000000000000000000000000000000000000000000000000000000000000000000000000000000000000000000000000000000000000000000000000000000000000
310
00000000000000000000000000000000000000000000000000000000000000000000000000000000000000000000000707070707070707070707000000000000000000000700000700000000000000000000000707070707070707070707000000000000000000000000000000000000000000000000000000000000000000
310
00000000000000000000000000000000000000000000000000000000000000000000000000000000000000000000000000000000000000000000000000000000000000000000000000000000000000000000000000000000000000000000000000000000070000000000000000000700000000000000000000070707070000
310
00000000000000000707000000000000000000070000000000000000000000000000000000000000000000000000000000000000000000000000000000000000000000000000000000000000000000000000000000000000000000000000000000000000000000000000000000000000000000000000000000000000000000
310
00000000000000000000000000000000000000000000000000000700000000000000000007070000000000000000000700000700000000000000000000070000000000000000000007000000000000000000000000000000000000000000000000000000000000000000000000000000000000000000000000000000000000
310
00000000000000000000000000000000000000000000000000000000000000000000000000000000000000000000000000000000000000000000000000000000000000000000000000000000000000070000000000000000000007070700000000000000070000070000000000000007070700000000000000000000000700
310
00000000000000000000000000000000000000000000000000000000000000000000000000000000000000000000000000000000000000000000000000000000000000000000000000000000000000000000000000000000000000000000000000000000000000000000000000000000000000000000000000000000000000
310
00000000000007000000000000000000000007070707070707070000000707070707070707070000000000000000000000000700000000000000000000000000000000000000000000000000000000000000000000000000000000000000000000000000000000000000000000000000000000000000000000000000000000
310
00000000000000000000000000000000000000000000000000000000000000000000000000000000000000000000000000000000000000000000000700000000000000000000000000000000000007000000000700000000000000000000000000000000000000070000000000000000000000000000000000000000000000
310
00000000000000000000000000000000000000000000000000000000000000000000000000000000000000000000000000000000000000000000000000000000000000000000000000000000000000000000000000000000000000000000000000000000000000000000000000000000070000000000000000000000000000
310
00000000070000000007000000000000000000000000000000000000000700000000000000000000000000000000000000000007070707000000000000000000000000000000000000000000000000000000000000000000000000000000000000000000000000000000000000000000000000000000000000000000000000
310
00000000000000000000000000000000000000000000000000000000000000000000000000000700000000000000000000000000000000000007070707070700000000000000000000000000000000000000070000000000000000000000000000000000000000000700000700000000000000000000000000000000000000
310
00000000000000000000000000000000000000000000000000000000000000000000000000000000000000000000000000000000000000000000000000000000000000000000000000000000000000000000000000000000000000070000000000000000000000000000000000000707070707070000000000000000000000
310
00000000000000000700000000000000000000000000000000000000000007000007000000000000000000000000000000000000000000000000000000000000000000000000000000000000000000000000000000000000000000000000000000000000000000000000000000000000000000000000000000000000000000
310
00000000000000000000000000000000000700000000000000000000000000000000000007070000070700000000000000000000000000000000000000070000000000000000000000000000000000000000000700000700000000000000000000000000000000000000000000000000000000000000000000000000000000
310
00000000000000000000000000000000000000000000000000000000000000000000000000000000000000000000000000000000000000000000000000000000000000000000070000000000000000000000000000000000000707070707070000000000000000000000000000000000000007000000000000000000000000
310
00000000000000000007000007000000000000000000000000000000000000000000000000000000000000000000000000000000000000000000000000000000000000000000000000000000000000000000000000000000000000000000000000000000000000000000000000000000000000000000000000000007000000
310
00000000000000000000000000000007070000070700000000000000000000000000000000000000070000000000000000000000000000000000000000000700000700000000000000000000000000000000000000000000000000000000000000000000000000000000000000000000000000000000000000000000000000
310
00000000000000000000000000000000000000000000000000000000000000000000000000000000000000000000000000000700000000000000000000000000000000000000070707000000000000000000000000000000000000000700000000000000000000000000000000000000000000070000070000000000000000
310
00000000000000000000000000000000000000000000000000000000000000000000000000000000000000000000000000000000000000000000000000000000000000000000000000000000000000000000000000000000000000000000000000000000000000070000000000000000000000000000000000000000000000
310
00000000000000000000000000000000000007000000000000000000000000000000000000000000000700000700000000000000000000000000000000000000000000000000000000000000000000000000000000000000000000000000000000000000000000000000000000000000000000000000000000000000000000
310
00000000000000000000000000000000000000000000000000000000000700000000000000000000000000000000000000000000000000000000000000000000000000000000000700000000000000000000000000000000000000000000070000070000000000000000000000000000000000000000000000000000000000
310
00000000000000000000000000000000000000000000000000000000000000000000000000000000000000000000000000000000000000000000000000000000000000000000000000000000000000000000070707070707070707070707070707070707070707070707070707070707070707070707070707070707070000
310
00000000000000000000000000000000000000000700000700000000000000000000000000000000000000000000000000000000000000000000000000000000000000000000000000000000000000000000000000000000000000000000000000000000000000000000000000000000000000000000000000000000000000
310
00000000000000000000000000000000000000000000000700000007070707000000070000000000000000000000000000000000000000000000000000000000000000000000000000070000070000000000000000000000000000000000000000000000000000000000000000000000000000000000000000000000000000
310
00000000000000000000000000000000000000000000000000000000000000000000000000000000000000000000000000000000000000000000000000000000000000000000000000000000070000000700000700000007000000000000000000000000000000000000000000000000000000000000000000000000000007
310
00000700000000000000000000000000000000000000000000000000000000000000000000000000000000000000000000000000000000000000000000000000000000000000000000000000000000000000000000000000000000000000000000000000000000000000000000000000000000000000000000000000000000
310
00000700000007000007000000070000000000000000000000000000000000000000000000000000000000000000000000000000070000070000000000000000000000000000000000000000000000000000000000000000000000000000000000000000000000000000000000000000000000000000000000000000000000
310
00000000000000000000000000000000000000000000000000000000000000000000000000000000000000000000000000000000000000070707070707070707070707000000000000000000000000000000000000000000000000000000000000000000000000000007000007000000000000000000000000000000000000
310
00000000000000000000000000000000000000000000000000000000000000000000000000000000000000000000000000000000000000000000000000000000000000000000000000000000000000000000000000000000000000000000000000000000000000000000000007070707070707070707070700000000000000
310
00000000000000000000000000000000000000000000000000000000000707070000070700000000000000000000000000000000000000000000000000000000000000000000000000000000000000000000000000000000000000000000000000000000000000000000000000000000000000000000000000000000000000
310
00000000000000000000000000000000000000000000000000000000000000000000070000000007070000000007000000000000000000000000000000000000000000000000000000000000000000000000070007000007070000000000000000000000000000000000000000000000000000000000000000000000000000
310
00000000000000000000000000000000000000000000000000000000000000000000000000000000000000000000000000000000000000000000000000000000000000000000000000000000000000000000000000000007000000000707000000000700000000000000000000000000000000000000000000000000000000
310
00000000000000000700070000070700000000000000000000000000000000000000000000000000000000000000000000000000000000000000000000000000000000000000000000000000000000000000000000000000000000000000000000000000000000000000000000000000000000000000000000000000000000
310
00000000000000000000000000070000000000000000000007000000000000000000000000000000000000000000000000000000000000000000000000070007070707070000000000000000000000000000000000000000000000000000000000000000000000000000000000000000000000000000000000000000000000
310
00000000000000000000000000000000000000000000000000000000000000000000000000000000000000000000000000000000000000000000000000000000000007000000000000000000000700000000000000000000000000000000000000000000000000000000000000000000000007000700000707000000000000
310
00000000000000000000000000000000000000000000000000000000000000000000000000000000000000000000000000000000000000000000000000000000000000000000000000000000000000000000000000000000000000000000000000000000000000000000000000000000000000000000000700000000000000
310
00000007000000000000000000000000000000000000000000000000000000000000000000000000070007000007070000000000000000000000000000000000000000000000000000000000000000000000000000000000000000000000000000000000000000000000000000000000000000000000000000000000000000
310
00000000000000000000000000000000000000000000000000000000000000000000000000000000000000000007000000000000000000000700000000000000000000000000000000000000000000000000000000000000000000000007000700000707000000000000000000000000000000000000000000000000000000
310
00000000000000000000000000000000000000000000000000000000000000000000000000000000000000000000000000000000000000000000000000000000000000000000000000000000000000000000000000000000000000000000000000000707000000000000000007070000000000000000000000000000000000
310
00000000000000000000000000000000000000070007070707070000000000000000000000000000000000000000000000000000000000000000000000000000000000000000000000000000000000000000000000000000000000000000000000000000000000000000000000000000000000000000000000000000000000
310
00000000000000000000000000000000000000000000000000000707070707070707070000000000000000000000000000000000000000000000000000000000000000000000000007000700000707000000000000000000000000000000000000000000000000000000000000000000000000000000000000000000000000
310
00000000000000000000000000000000000000000000000000000000000000000000000000000000000000000000000000000000000000000000000000000000000000000000000000000000000000000000000000000000000000000000000000000000000000000000000000000000000000000000000000000000000707
310
07070707070000000000000000000000000000000000000000000000000000000000000000000000000000000000000000000000000000000000000000000000000000000000000000000000000000000000000000000000000000000000000000000000000000000000000000000000000000000000000000000000000000
310
00000000000000000000000000000000000000000000000000000000000000000000000000000000000000000000000000000007070000000007000000000000000000000000000000000000000000000000000000000000000000000000000000000000000000000000000000000000000000000000000000000000000000
310
00000000000000000000000000000000000000000000000000000000000000000000000000000000000000000000000000000000000000000000000000000000000000000000000000000000000000000000000000000000000000000000000000000000000000000707000000000700000000000000000000000000000000
310
00000000000000000000000000000000000000000000000000000000000000000000000000000000000000000000000000000000000000000000000000000000000000000000000000000000000000000000000000000000000000000000000000000000000000000000000000000000000000000000000000000000000000
310
00000000000000000000000000000000000000000000000000000000000007070000000007000000000000000000000000000000000000000000000000000000000000000000000000000000000000000000000000000000000000000000000000000000000000000000000000000000000000000000000000000000000000
310
00000000000000000000000000000000000000000000000000000000000000000000000000000000000000000000000000000000000000000000000000000000000000000000000000000000000000000000000007000000000700000000000000000000000000000000000000000000000000000000000000000000000000
310
00000000000000000000000000000000000000000000000000000000000000000000000000000000000000000000000000000000000000000000000000000000000000000000000000000000000000000000000000000000000000000000000000000000000000000000000000000000000000000000000000000000000000
310
00000000000000000000070000000007000000000000000000000000000000000000000000000000000000000000000000000000000000000000000000000000000000000000000000000000000000000000000000000000000000000000000000000000000000000000000000000000000000000000000000000000000000
310
00000000000000000000000000000000000000000000000000000000000000000000000000000000000000000000000000000000000000000000000000000007000000000700000000000000000000000000000000000000000000000000000000000000000000000000000000000000000000000000000000000000000000
310
00000000000000000000000000000000000000000000000000000000000000000000000000000000000000000000000000000000000000000000000000000000000000000000000000000000000000000000000000000000000000000000000000000000000000000000000000000000000000000700000000070000000000
310
00000000000000000000000000000000000000000000000000000000000000000000000000000000000000000000000000000000000000000000000000000000000000000000000000000000000000000000000000000000000000000000000000000000000000000000000000000000000000000000000000000000000000
310
00000000000000000000000000000000000000000000000000000000000000000000000000000000000007000000000700000000000000000000000000000000000000000000000000000000000000000000000000000000000000000000000000000000000000000000000000000000000000000000000000000000000000
310
00000000000000000000000000000000000000000000000000000000000000000000000000000000000000000000000000000000000000000000000000000000000000000000000000000000000000000000000000000000000000000000000700000000070000000000000000000000000000000000000000000000000000
310
00000000000000000000000000000000000000000000000000000000000000000000000000000000000000000000000000000000000000000000000000000000000000000000000000000000000000000000000000000000000000000000000000000000000000000000000000000000000000000000000000000000000000
310
00000000000000000000000000000000000000000007000000000700000000000000000000000000000000000000000000000000000000000000000000000000000000000000000000000000000000000000000000000000000000000000000000000000000000000000000000000000000000000000000000000000000000
310
00000000000000000000000000000000000000000000000000000000000000000000000000000000000000000000000000000000000000000000000000000000000000000000000000000700000000070000000000000000000000000000000000000000000000000000000000000000000000000000000000000000000000
310
00000000000000000000000000000000000000000000000000000000000000000000000000000000000000000000000000000000000000000000000000000000000000000000000000000000000000000000000000000000000000000000000000000000000000000000000000000000000000000000000000000000000000
310
07000000000700000000000000000000000000000000000000000000000000000000000000000000000000000000000000000000000000000000000000000000000000000000000000000000000000000000000000000000000000000000000000000000000000000000000000000000000000000000000000000000000000
310
00000000000000000000000000000000000000000000000000000000000000000000000000000000000000000000000000000000000700000000070000000000000000000000000000000000000000000000000000000000000000000000000000000000000000000000000000000000000000000000000000000000000000
310
00000000000000000000000000000000000000000000000000000000000000000000000000000000000000000000000000000000000000000000000000000000000000000000000000000000000000000000000000000000000000000000000000000000000000000000070000000007000000000000000000000000000000
310
00000000000000000000000000000000000000000000000000000000000000000000000000000000000000000000000000000000000000000000000000000000000000000000000000000000000000000000000000000000000000000000000000000000000000000000000000000000000000000000000000000000000000
310
00000000000000000000000000000000000000000000000000000000000000000700000000070000000000000000000000000000000000000000000000000000000000000000000000000000000000000000000000000000000000000000000000000000000000000000000000000000000000000000000000000000000000
310
00000000000000000000000000000000000000000000000000000000000000000000000000000000000000000000000000000000000000000000000000000000000000000000000000000000000000000000000000070000000007000000000000000000000000000000000000000000000000000000000000000000000000
310
00000000000000000000000000000000000000000000000000000000000000000000000000000000000000000000000000000000000000000000000000000000000000000000000000000000000000000000000000000000000000000000000000000000000000000000000000000000000000000000000000000000000000
310
00000000000000000000000700000000070000000000000000000000000000000000000000000000000000000000000000000000000000000000000000000000000000000000000000000000000000000000000000000000000000000000000000000000000000000000000000000000000000000000000000000000000000
310
00000000000000000000000000000000000000000000000000000000000000000000000000000000000000000000000000000000000000000000000000000000070000000007000000000000000000000000000000000000000000000000000000000000000000000000000000000000000000000000000000000000000000
310
00000000000000000000000000000000000000000000000000000000000000000000000000000000000000000000000000000000000000000000000000000000000000000000000000000000000000000000000000000000000000000000000000000000000000000000000000000000000000000007000000000700000000
310
00000000000000000000000000000000000000000000000000000000000000000000000000000000000000000000000000000000000000000000000000000000000000000000000000000000000000000000000000000000000000000000000000000000000000000000000000000000000000000000000000000000000000
310
00000000000000000000000000000000000000000000000000000000000000000000000000000000000000070000000007000000000000000000000000000000000000000000000000000000000000000000000000000000000000000000000000000000000000000000000000000000000000000000000000000000000000
310
00000000000000000000000000000000000000000000000000000000000000000000000000000000000000000000000000000000000000000000000000000000000000000000000000000000000000000000000000000000000000000000000007000000000700000000000000000000000000000000000000000000000000
310
00000000000000000000000000000000000000000000000000000000000000000000000000000000000000000000000000000000000000000000000000000000000000000000000000000000000000000000000000000000000000000000000000000000000000000000000000000000000000000000000000000000000000
310
00000000000000000000000000000000000000000000070000000007000000000000000000000000000000000000000000000000000000000000000000000000000000000000000000000000000000000000000000000000000000000000000000000000000000000000000000000000000000000000000000000000000000
310
00000000000000000000000000000000000000000000000000000000000000000000000000000000000000000000000000000000000000000000000000000000000000000000000000000007000000000700000000000000000000000000000000000000000000000000000000000000000000000000000000000000000000
310
00000000000000000000000000000000000000000000000000000000000000000000000000000000000000000000000000000000000000000000000000000000000000000000000000000000000000000000000000000000000000000000000000000000000000000000000000000000000000000000000000000000000000
310
00070007070007000000000000000000000000000000000000000000000000000000000000000000000000000000000000000000000000000000000000000000000000000000000000000000000000000000000000000000000000000000000000000000000000000000000000000000000000000000000000000000000000
310
00000000000000000000000000000000000000000000000000000000000000000000000000000000000000000000000000000000000007000707000700000000000000000000000000000000000000000000000000000000000000000000000000000000000000000000000000000000000000000000000000000000000000
310
00000000000000000000000000000000000000000000000000000000000000000000000000000000000000000000000000000000000000000000000000000000000000000000000000000000000000000000000000000000000000000000000000000000000000000000000707070707070000000000000000000000000000
310
00000000000000000000000000000000000000000000000000000000000000000000000000000000000000000000000000000000000000000000000000000000000000000000000000000000000000000000000000000000000000000000000000000000000000000000000000000000000000000000000000000000000000
310
00000000000000000000000000000000000000000000000000000000000000070707070707070707070000000000000000000000000000000000000000000000000000000000000000000000000000000000000000000000000000000000000000000000000000000000000000000000000000000000000000000000000000
310
00000000000000000000000000000000000000000000000000000000000000000000000000000000000000000000000000000000000000000000000000000000000000000000000000000000000000000007070707070707070707070707070707000000000000000000000000000000000000000000000000000000000000
310
00000000000000000000000000000000000000000000000000000000000000000000000000000000000000000000000000000000000000000000000000000000000000000000000000000000000000000000000000000000000000000000000000000000000000000000000000000000000000000000000000000000000000
310
00000000000007070707070707070707000707070707000700000000000000000000000000000000000000000000000000000000000000000000000000000000000000000000000000000000000000000000000000000000000000000000000000000000000000000000000000000000000000000000000000000000000000
310
00000000000000000000000000000000000000000000000000000000000000000000000000000000000000000000000000000000000000000000070007070707070700070707000707070707070000000000000000000000000000000000000000000000000000000000000000000000000000000000000000000000000000
310
00000000000000000000000000000000000000000000000000000000000000000000000000000000000000000000000000000000000000000000000000000000000000000000000000000000000000000000000000000000000000000000000000000000000000000000000000000007000707070700070707070707000707
310
07070007000000000000000000000000000000000000000000000000000000000000000000000000000000000000000000000000000000000000000000000000000000000000000000000000000000000000000000000000000000000000000000000000000000000000000000000000000000000000000000000000000000
310
00000000000000000000000000000000000000000000000000000000000000000000000000070707070007070707070707070707070707000700000000000000000000000000000000000000000000000000000000000000000000000000000000000000000000000000000000000000000000000000000000000000000000
310
00000000000000000000000000000000000000000000000000000000000000000000000000000000000000000000000000000000000000000000000000000000000000000000000000000000000000000000000000000000000700070707000707070707070707000707070700070000000000000000000000000000000000
310
00000000000000000000000000000000000000000000000000000000000000000000000000000000000000000000000000000000000000000000000000000000000000000000000000000000000000000000000000000000000000000000000000000000000000000000000000000000000000000000000000000000000000
310
00000000000000000000000000000007000007070707000707070707070007070707000007000000000000000000000000000000000000000000000000000000000000000000000000000000000000000000000000000000000000000000000000000000000000000000000000000000000000000000000000000000000000
310
00000000000000000000000000000000000000000000000000000000000000000000000000000000000000000000000000000000000000000000000000000000000000000700000707070707070007070007070707070700070700000000000000000000000000000000000000000000000000000000000000000000000000
310
00000000000000000000000000000000000000000000000000000000000000000000000000000000000000000000000000000000000000000000000000000000000000000000000000000000000000000000000000000000000000000000000000000000000000000000000000000000000000000000000000070700070707
310
07070707070700070707070700000700000000000000000000000000000000000000000000000000000000000000000000000000000000000000000000000000000000000000000000000000000000000000000000000000000000000000000000000000000000000000000000000000000000000000000000000000000000
310
00000000000000000000000000000000000000000000000000000000000000000000000000000000000000000000000007000000070700070707070707000707000007070000000000000000000000000000000000000000000000000000000000000000000000000000000000000000000000000000000000000000000000
310
00000000000000000000000000000000000000000000000000000000000000000000000000000000000000000000000000000000000000000000000000000000000000000000000000000000000000000000000000000000000000000000000000000000000707000000070707070707070707070000000700000000000000
310
00000000000000000000000000000000000000000000000000000000000000000000000000000000000000000000000000000000000000000000000000000000000000000000000000000000000000000000000000000000000000000000000000000000000000000000000000000000000000000000000000000000000000
310
00000000000000000000000000000000000000000000000000000000070700000000000707070700000000000707000000000000000000000000000000000000000000000000000000000000000000000000000000000000000000000000000000000000000000000000000000000000000000000000000000000000000000
310
00000000000000000000000000000000000000000000000000000000000000000000000000000000000000000000000000000000000000000000000000000000000000000000000000000000000000000007000700000000000000000000000707070000000000000000000000000000000000000000000000000000000000
310
00000000000000000000000000000000000000000000000000000000000000000000000000000000000000000000000000000000000000000000000000000000000000000000000000000000000000000000000000000000000000000000000000000000000000000000000000000000000000000000000000000000000000
310
00000000000000000707070707070000000707070700070700000000000000000000000000000000000000000000000000000000000000000000000000000000000000000000000000000000000000000000000000000000000000000000000000000000000000000000000000000000000000000000000000000000000000
310
00000000000000000000000000000000000000000000000000000000000000000000000000000000000000000000000000000000000000000000000000000007070000070707000000070700000000000000000000000000000000000000000000000000000000000000000000000000000000000000000000000000000000
310
00000000000000000000000000000000000000000000000000000000000000000000000000000000000000000000000000000000000000000000000000000000000000000000000000000000000000000000000000000000000000000000000000000000000000000000000000000000000000000000070707070707070700
310
00000000000000000000000000000000000000000000000000000000000000000000000000000000000000000000000000000000000000000000000000000000000000000000000000000000000000000000000000000000000000000000000000000000000000000000000000000000000000000000000000000000000000
310
000000000000000000000000000000000000000000000000000000000000000000000000000000000000000000000000000000000000000000000000000000000000000000000000000000000000000000000000000000000000000000000000000000000000000000000000
  0
ENDSEC
  0
EOF
