  0
SECTION
  2
HEADER
  9
$ACADVER
  1
AC1015
  9
$ACADMAINTVER
 70
     6
  9
$DWGCODEPAGE
  3
ANSI_1252
  9
$INSBASE
 10
0.0
 20
0.0
 30
0.0
  9
$EXTMIN
 10
0.0
 20
0.0
 30
0.0
  9
$EXTMAX
 10
380.0
 20
610.0
 30
0.0
  9
$LIMMIN
 10
0.0
 20
0.0
  9
$LIMMAX
 10
12.0
 20
9.0
  9
$ORTHOMODE
 70
     0
  9
$REGENMODE
 70
     1
  9
$FILLMODE
 70
     1
  9
$QTEXTMODE
 70
     0
  9
$MIRRTEXT
 70
     1
  9
$LTSCALE
 40
1.0
  9
$ATTMODE
 70
     1
  9
$TEXTSIZE
 40
0.2
  9
$TRACEWID
 40
0.05
  9
$TEXTSTYLE
  7
Standard
  9
$CLAYER
  8
0
  9
$CELTYPE
  6
ByBlock
  9
$CECOLOR
 62
   256
  9
$CELTSCALE
 40
1.0
  9
$DISPSILH
 70
     0
  9
$DIMSCALE
 40
1.0
  9
$DIMASZ
 40
0.18
  9
$DIMEXO
 40
0.0625
  9
$DIMDLI
 40
0.38
  9
$DIMRND
 40
0.0
  9
$DIMDLE
 40
0.0
  9
$DIMEXE
 40
0.18
  9
$DIMTP
 40
0.0
  9
$DIMTM
 40
0.0
  9
$DIMTXT
 40
0.18
  9
$DIMCEN
 40
0.09
  9
$DIMTSZ
 40
0.0
  9
$DIMTOL
 70
     0
  9
$DIMLIM
 70
     0
  9
$DIMTIH
 70
     1
  9
$DIMTOH
 70
     1
  9
$DIMSE1
 70
     0
  9
$DIMSE2
 70
     0
  9
$DIMTAD
 70
     0
  9
$DIMZIN
 70
     0
  9
$DIMBLK
  1

  9
$DIMASO
 70
     1
  9
$DIMSHO
 70
     1
  9
$DIMPOST
  1

  9
$DIMAPOST
  1

  9
$DIMALT
 70
     0
  9
$DIMALTD
 70
     2
  9
$DIMALTF
 40
25.4
  9
$DIMLFAC
 40
1.0
  9
$DIMTOFL
 70
     0
  9
$DIMTVP
 40
0.0
  9
$DIMTIX
 70
     0
  9
$DIMSOXD
 70
     0
  9
$DIMSAH
 70
     0
  9
$DIMBLK1
  1

  9
$DIMBLK2
  1

  9
$DIMSTYLE
  2
Standard
  9
$DIMCLRD
 70
     0
  9
$DIMCLRE
 70
     0
  9
$DIMCLRT
 70
     0
  9
$DIMTFAC
 40
1.0
  9
$DIMGAP
 40
0.09
  9
$DIMJUST
 70
     0
  9
$DIMSD1
 70
     0
  9
$DIMSD2
 70
     0
  9
$DIMTOLJ
 70
     1
  9
$DIMTZIN
 70
     0
  9
$DIMALTZ
 70
     0
  9
$DIMALTTZ
 70
     0
  9
$DIMUPT
 70
     0
  9
$DIMDEC
 70
     4
  9
$DIMTDEC
 70
     4
  9
$DIMALTU
 70
     2
  9
$DIMALTTD
 70
     2
  9
$DIMTXSTY
  7
Standard
  9
$DIMAUNIT
 70
     0
  9
$DIMADEC
 70
     0
  9
$DIMALTRND
 40
0.0
  9
$DIMAZIN
 70
     0
  9
$DIMDSEP
 70
    46
  9
$DIMATFIT
 70
     3
  9
$DIMFRAC
 70
     0
  9
$DIMLDRBLK
  1

  9
$DIMLUNIT
 70
     2
  9
$DIMLWD
 70
    -2
  9
$DIMLWE
 70
    -2
  9
$DIMTMOVE
 70
     2
  9
$LUNITS
 70
     2
  9
$LUPREC
 70
     4
  9
$SKETCHINC
 40
0.1
  9
$FILLETRAD
 40
0.5
  9
$AUNITS
 70
     0
  9
$AUPREC
 70
     0
  9
$MENU
  1
.
  9
$ELEVATION
 40
0.0
  9
$PELEVATION
 40
0.0
  9
$THICKNESS
 40
0.0
  9
$LIMCHECK
 70
     0
  9
$CHAMFERA
 40
0.5
  9
$CHAMFERB
 40
0.5
  9
$CHAMFERC
 40
1.0
  9
$CHAMFERD
 40
0.0
  9
$SKPOLY
 70
     0
  9
$TDCREATE
 40
2456647.3646289
  9
$TDUCREATE
 40
2456647.322962234
  9
$TDUPDATE
 40
2456647.371710972
  9
$TDUUPDATE
 40
2456647.330044305
  9
$TDINDWG
 40
0.0070818981
  9
$TDUSRTIMER
 40
0.0070818981
  9
$USRTIMER
 70
     1
  9
$ANGBASE
 50
0.0
  9
$ANGDIR
 70
     0
  9
$PDMODE
 70
     0
  9
$PDSIZE
 40
0.0
  9
$PLINEWID
 40
0.0
  9
$SPLFRAME
 70
     0
  9
$SPLINETYPE
 70
     6
  9
$SPLINESEGS
 70
     8
  9
$HANDSEED
  5
E36
  9
$SURFTAB1
 70
     6
  9
$SURFTAB2
 70
     6
  9
$SURFTYPE
 70
     6
  9
$SURFU
 70
     6
  9
$SURFV
 70
     6
  9
$UCSBASE
  2

  9
$UCSNAME
  2

  9
$UCSORG
 10
0.0
 20
0.0
 30
0.0
  9
$UCSXDIR
 10
1.0
 20
0.0
 30
0.0
  9
$UCSYDIR
 10
0.0
 20
1.0
 30
0.0
  9
$UCSORTHOREF
  2

  9
$UCSORTHOVIEW
 70
     0
  9
$UCSORGTOP
 10
0.0
 20
0.0
 30
0.0
  9
$UCSORGBOTTOM
 10
0.0
 20
0.0
 30
0.0
  9
$UCSORGLEFT
 10
0.0
 20
0.0
 30
0.0
  9
$UCSORGRIGHT
 10
0.0
 20
0.0
 30
0.0
  9
$UCSORGFRONT
 10
0.0
 20
0.0
 30
0.0
  9
$UCSORGBACK
 10
0.0
 20
0.0
 30
0.0
  9
$PUCSBASE
  2

  9
$PUCSNAME
  2

  9
$PUCSORG
 10
0.0
 20
0.0
 30
0.0
  9
$PUCSXDIR
 10
1.0
 20
0.0
 30
0.0
  9
$PUCSYDIR
 10
0.0
 20
1.0
 30
0.0
  9
$PUCSORTHOREF
  2

  9
$PUCSORTHOVIEW
 70
     0
  9
$PUCSORGTOP
 10
0.0
 20
0.0
 30
0.0
  9
$PUCSORGBOTTOM
 10
0.0
 20
0.0
 30
0.0
  9
$PUCSORGLEFT
 10
0.0
 20
0.0
 30
0.0
  9
$PUCSORGRIGHT
 10
0.0
 20
0.0
 30
0.0
  9
$PUCSORGFRONT
 10
0.0
 20
0.0
 30
0.0
  9
$PUCSORGBACK
 10
0.0
 20
0.0
 30
0.0
  9
$USERI1
 70
     0
  9
$USERI2
 70
     0
  9
$USERI3
 70
     0
  9
$USERI4
 70
     0
  9
$USERI5
 70
     0
  9
$USERR1
 40
0.0
  9
$USERR2
 40
0.0
  9
$USERR3
 40
0.0
  9
$USERR4
 40
0.0
  9
$USERR5
 40
0.0
  9
$WORLDVIEW
 70
     1
  9
$SHADEDGE
 70
     3
  9
$SHADEDIF
 70
    70
  9
$TILEMODE
 70
     1
  9
$MAXACTVP
 70
    64
  9
$PINSBASE
 10
0.0
 20
0.0
 30
0.0
  9
$PLIMCHECK
 70
     0
  9
$PEXTMIN
 10
1.000000000000E+20
 20
1.000000000000E+20
 30
1.000000000000E+20
  9
$PEXTMAX
 10
-1.000000000000E+20
 20
-1.000000000000E+20
 30
-1.000000000000E+20
  9
$PLIMMIN
 10
0.0
 20
0.0
  9
$PLIMMAX
 10
12.0
 20
9.0
  9
$UNITMODE
 70
     0
  9
$VISRETAIN
 70
     1
  9
$PLINEGEN
 70
     0
  9
$PSLTSCALE
 70
     1
  9
$TREEDEPTH
 70
  3020
  9
$CMLSTYLE
  2
Standard
  9
$CMLJUST
 70
     0
  9
$CMLSCALE
 40
1.0
  9
$PROXYGRAPHICS
 70
     1
  9
$MEASUREMENT
 70
     0
  9
$CELWEIGHT
370
    -1
  9
$ENDCAPS
280
     0
  9
$JOINSTYLE
280
     0
  9
$LWDISPLAY
290
     0
  9
$INSUNITS
 70
     0
  9
$HYPERLINKBASE
  1

  9
$STYLESHEET
  1

  9
$XEDIT
290
     1
  9
$CEPSNTYPE
380
     0
  9
$PSTYLEMODE
290
     1
  9
$FINGERPRINTGUID
  2
{57C638DC-474E-44CF-A5FE-DDB5810A4519}
  9
$VERSIONGUID
  2
{FAEB1C32-E019-11D5-929B-00C0DF256EC4}
  9
$EXTNAMES
290
     1
  9
$PSVPSCALE
 40
0.0
  9
$OLESTARTUP
290
     0
  0
ENDSEC
  0
SECTION
  2
CLASSES
  0
CLASS
  1
ACDBDICTIONARYWDFLT
  2
AcDbDictionaryWithDefault
  3
ObjectDBX Classes
 90
        0
280
     0
281
     0
  0
CLASS
  1
SCALE
  2
AcDbScale
  3
ObjectDBX Classes
 90
     1153
280
     0
281
     0
  0
CLASS
  1
DICTIONARYVAR
  2
AcDbDictionaryVar
  3
ObjectDBX Classes
 90
        0
280
     0
281
     0
  0
CLASS
  1
ACDBPLACEHOLDER
  2
AcDbPlaceHolder
  3
ObjectDBX Classes
 90
        0
280
     0
281
     0
  0
CLASS
  1
LAYOUT
  2
AcDbLayout
  3
ObjectDBX Classes
 90
        0
280
     0
281
     0
  0
ENDSEC
  0
SECTION
  2
TABLES
  0
TABLE
  2
VPORT
  5
8
330
0
100
AcDbSymbolTable
 70
     1
  0
VPORT
  5
497
330
8
100
AcDbSymbolTableRecord
100
AcDbViewportTableRecord
  2
*Active
 70
     0
 10
0.0
 20
0.0
 11
1.0
 21
1.0
 12
190.0
 22
305.0
 13
0.0
 23
0.0
 14
0.5
 24
0.5
 15
0.5
 25
0.5
 16
0.0
 26
0.0
 36
1.0
 17
0.0
 27
0.0
 37
0.0
 40
622.2
 41
1.729542302358
 42
50.0
 43
0.0
 44
0.0
 50
0.0
 51
0.0
 71
    16
 72
   100
 73
     1
 74
     3
 75
     0
 76
     0
 77
     0
 78
     0
281
     0
 65
     1
110
0.0
120
0.0
130
0.0
111
1.0
121
0.0
131
0.0
112
0.0
122
1.0
132
0.0
 79
     0
146
0.0
  0
ENDTAB
  0
TABLE
  2
LTYPE
  5
5
330
0
100
AcDbSymbolTable
 70
     1
  0
LTYPE
  5
14
330
5
100
AcDbSymbolTableRecord
100
AcDbLinetypeTableRecord
  2
ByBlock
 70
     0
  3

 72
    65
 73
     0
 40
0.0
  0
LTYPE
  5
15
330
5
100
AcDbSymbolTableRecord
100
AcDbLinetypeTableRecord
  2
ByLayer
 70
     0
  3

 72
    65
 73
     0
 40
0.0
  0
LTYPE
  5
16
330
5
100
AcDbSymbolTableRecord
100
AcDbLinetypeTableRecord
  2
Continuous
 70
     0
  3
Solid line
 72
    65
 73
     0
 40
0.0
  0
ENDTAB
  0
TABLE
  2
LAYER
  5
2
330
0
100
AcDbSymbolTable
 70
     1
  0
LAYER
  5
10
330
2
100
AcDbSymbolTableRecord
100
AcDbLayerTableRecord
  2
0
 70
     0
 62
     7
  6
Continuous
370
    -3
390
F
  0
ENDTAB
  0
TABLE
  2
STYLE
  5
3
330
0
100
AcDbSymbolTable
 70
     1
  0
STYLE
  5
11
330
3
100
AcDbSymbolTableRecord
100
AcDbTextStyleTableRecord
  2
Standard
 70
     0
 40
0.0
 41
1.0
 50
0.0
 71
     0
 42
0.2
  3
txt
  4

  0
ENDTAB
  0
TABLE
  2
VIEW
  5
6
330
0
100
AcDbSymbolTable
 70
     0
  0
ENDTAB
  0
TABLE
  2
UCS
  5
7
330
0
100
AcDbSymbolTable
 70
     0
  0
ENDTAB
  0
TABLE
  2
APPID
  5
9
330
0
100
AcDbSymbolTable
 70
     1
  0
APPID
  5
12
330
9
100
AcDbSymbolTableRecord
100
AcDbRegAppTableRecord
  2
ACAD
 70
     0
  0
ENDTAB
  0
TABLE
  2
DIMSTYLE
  5
A
330
0
100
AcDbSymbolTable
 70
     1
100
AcDbDimStyleTable
  0
DIMSTYLE
105
20
330
A
100
AcDbSymbolTableRecord
100
AcDbDimStyleTableRecord
  2
Standard
 70
     0
340
11
  0
ENDTAB
  0
TABLE
  2
BLOCK_RECORD
  5
1
330
0
100
AcDbSymbolTable
 70
     2
  0
BLOCK_RECORD
  5
1D
330
1
100
AcDbSymbolTableRecord
100
AcDbBlockTableRecord
  2
*Model_Space
340
1E
  0
BLOCK_RECORD
  5
1B
330
1
100
AcDbSymbolTableRecord
100
AcDbBlockTableRecord
  2
*Paper_Space
340
1C
  0
ENDTAB
  0
ENDSEC
  0
SECTION
  2
BLOCKS
  0
BLOCK
  5
49A
330
1D
100
AcDbEntity
  8
0
100
AcDbBlockBegin
  2
*Model_Space
 70
     0
 10
0.0
 20
0.0
 30
0.0
  3
*Model_Space
  1
*Model_Space
  0
ENDBLK
  5
49B
330
1D
100
AcDbEntity
  8
0
100
AcDbBlockEnd
  0
BLOCK
  5
498
330
1B
100
AcDbEntity
 67
     1
  8
0
100
AcDbBlockBegin
  2
*Paper_Space
 70
     0
 10
0.0
 20
0.0
 30
0.0
  3
*Paper_Space
  1
*Paper_Space
  0
ENDBLK
  5
499
330
1B
100
AcDbEntity
 67
     1
  8
0
100
AcDbBlockEnd
  0
ENDSEC
  0
SECTION
  2
ENTITIES
  0
LINE
  5
181
330
1D
100
AcDbEntity
  8
0
100
AcDbLine
 10
43.0
 20
610.0
 30
0.0
 11
44.2
 21
610.0
 31
0.0
  0
LINE
  5
185
330
1D
100
AcDbEntity
  8
0
100
AcDbLine
 10
44.2
 20
610.0
 30
0.0
 11
47.6
 21
610.0
 31
0.0
  0
LINE
  5
1B9
330
1D
100
AcDbEntity
  8
0
100
AcDbLine
 10
47.6
 20
610.0
 30
0.0
 11
53.0
 21
610.0
 31
0.0
  0
LINE
  5
1BD
330
1D
100
AcDbEntity
  8
0
100
AcDbLine
 10
60.1
 20
610.0
 30
0.0
 11
68.3
 21
610.0
 31
0.0
  0
LINE
  5
1BE
330
1D
100
AcDbEntity
  8
0
100
AcDbLine
 10
53.0
 20
610.0
 30
0.0
 11
60.1
 21
610.0
 31
0.0
  0
LINE
  5
281
330
1D
100
AcDbEntity
  8
0
100
AcDbLine
 10
77.0
 20
610.0
 30
0.0
 11
85.7
 21
610.0
 31
0.0
  0
LINE
  5
282
330
1D
100
AcDbEntity
  8
0
100
AcDbLine
 10
85.7
 20
610.0
 30
0.0
 11
93.9
 21
610.0
 31
0.0
  0
LINE
  5
283
330
1D
100
AcDbEntity
  8
0
100
AcDbLine
 10
93.9
 20
610.0
 30
0.0
 11
101.0
 21
610.0
 31
0.0
  0
LINE
  5
284
330
1D
100
AcDbEntity
  8
0
100
AcDbLine
 10
68.3
 20
610.0
 30
0.0
 11
77.0
 21
610.0
 31
0.0
  0
LINE
  5
28E
330
1D
100
AcDbEntity
  8
0
100
AcDbLine
 10
109.8
 20
610.0
 30
0.0
 11
111.0
 21
610.0
 31
0.0
  0
LINE
  5
2C5
330
1D
100
AcDbEntity
  8
0
100
AcDbLine
 10
106.4
 20
610.0
 30
0.0
 11
109.8
 21
610.0
 31
0.0
  0
LINE
  5
2C6
330
1D
100
AcDbEntity
  8
0
100
AcDbLine
 10
101.0
 20
610.0
 30
0.0
 11
106.4
 21
610.0
 31
0.0
  0
LINE
  5
8FF
330
1D
100
AcDbEntity
  8
0
100
AcDbLine
 10
3.25
 20
150.0
 30
0.0
 11
4.75
 21
130.5
 31
0.0
  0
LINE
  5
900
330
1D
100
AcDbEntity
  8
0
100
AcDbLine
 10
3.25
 20
150.0
 30
0.0
 11
4.75
 21
169.5
 31
0.0
  0
LINE
  5
901
330
1D
100
AcDbEntity
  8
0
100
AcDbLine
 10
47.0
 20
45.0
 30
0.0
 11
61.625
 21
32.25
 31
0.0
  0
LINE
  5
902
330
1D
100
AcDbEntity
  8
0
100
AcDbLine
 10
46.125
 20
44.125
 30
0.0
 11
60.875
 21
31.25
 31
0.0
  0
LINE
  5
903
330
1D
100
AcDbEntity
  8
0
100
AcDbLine
 10
61.625
 20
32.25
 30
0.0
 11
78.0
 21
21.125
 31
0.0
  0
LINE
  5
904
330
1D
100
AcDbEntity
  8
0
100
AcDbLine
 10
78.0
 20
21.125
 30
0.0
 11
95.125
 21
12.875
 31
0.0
  0
LINE
  5
905
330
1D
100
AcDbEntity
  8
0
100
AcDbLine
 10
60.875
 20
31.25
 30
0.0
 11
77.375
 21
20.125
 31
0.0
  0
LINE
  5
906
330
1D
100
AcDbEntity
  8
0
100
AcDbLine
 10
77.375
 20
20.125
 30
0.0
 11
94.75
 21
11.75
 31
0.0
  0
LINE
  5
907
330
1D
100
AcDbEntity
  8
0
100
AcDbLine
 10
95.125
 20
12.875
 30
0.0
 11
113.625
 21
6.625
 31
0.0
  0
LINE
  5
908
330
1D
100
AcDbEntity
  8
0
100
AcDbLine
 10
94.75
 20
11.75
 30
0.0
 11
113.25
 21
5.375
 31
0.0
  0
LINE
  5
909
330
1D
100
AcDbEntity
  8
0
100
AcDbLine
 10
34.25
 20
59.625
 30
0.0
 11
47.0
 21
45.0
 31
0.0
  0
LINE
  5
90A
330
1D
100
AcDbEntity
  8
0
100
AcDbLine
 10
33.25
 20
58.875
 30
0.0
 11
46.125
 21
44.125
 31
0.0
  0
LINE
  5
90B
330
1D
100
AcDbEntity
  8
0
100
AcDbLine
 10
23.125
 20
76.0
 30
0.0
 11
34.25
 21
59.625
 31
0.0
  0
LINE
  5
90C
330
1D
100
AcDbEntity
  8
0
100
AcDbLine
 10
14.875
 20
93.125
 30
0.0
 11
23.125
 21
76.0
 31
0.0
  0
LINE
  5
90D
330
1D
100
AcDbEntity
  8
0
100
AcDbLine
 10
22.125
 20
75.375
 30
0.0
 11
33.25
 21
58.875
 31
0.0
  0
LINE
  5
90E
330
1D
100
AcDbEntity
  8
0
100
AcDbLine
 10
13.75
 20
92.75
 30
0.0
 11
22.125
 21
75.375
 31
0.0
  0
LINE
  5
90F
330
1D
100
AcDbEntity
  8
0
100
AcDbLine
 10
8.625
 20
111.625
 30
0.0
 11
14.875
 21
93.125
 31
0.0
  0
LINE
  5
910
330
1D
100
AcDbEntity
  8
0
100
AcDbLine
 10
4.75
 20
130.5
 30
0.0
 11
8.625
 21
111.625
 31
0.0
  0
LINE
  5
911
330
1D
100
AcDbEntity
  8
0
100
AcDbLine
 10
7.375
 20
111.25
 30
0.0
 11
13.75
 21
92.75
 31
0.0
  0
LINE
  5
912
330
1D
100
AcDbEntity
  8
0
100
AcDbLine
 10
3.5
 20
130.5
 30
0.0
 11
7.375
 21
111.25
 31
0.0
  0
LINE
  5
913
330
1D
100
AcDbEntity
  8
0
100
AcDbLine
 10
4.75
 20
169.5
 30
0.0
 11
8.625
 21
188.375
 31
0.0
  0
LINE
  5
914
330
1D
100
AcDbEntity
  8
0
100
AcDbLine
 10
8.625
 20
188.375
 30
0.0
 11
14.875
 21
206.875
 31
0.0
  0
LINE
  5
915
330
1D
100
AcDbEntity
  8
0
100
AcDbLine
 10
7.375
 20
188.75
 30
0.0
 11
13.75
 21
207.25
 31
0.0
  0
LINE
  5
916
330
1D
100
AcDbEntity
  8
0
100
AcDbLine
 10
3.5
 20
169.5
 30
0.0
 11
7.375
 21
188.75
 31
0.0
  0
LINE
  5
917
330
1D
100
AcDbEntity
  8
0
100
AcDbLine
 10
34.25
 20
240.375
 30
0.0
 11
47.0
 21
255.0
 31
0.0
  0
LINE
  5
918
330
1D
100
AcDbEntity
  8
0
100
AcDbLine
 10
23.125
 20
224.0
 30
0.0
 11
34.25
 21
240.375
 31
0.0
  0
LINE
  5
919
330
1D
100
AcDbEntity
  8
0
100
AcDbLine
 10
33.25
 20
241.125
 30
0.0
 11
46.125
 21
255.875
 31
0.0
  0
LINE
  5
91A
330
1D
100
AcDbEntity
  8
0
100
AcDbLine
 10
22.125
 20
224.625
 30
0.0
 11
33.25
 21
241.125
 31
0.0
  0
LINE
  5
91B
330
1D
100
AcDbEntity
  8
0
100
AcDbLine
 10
14.875
 20
206.875
 30
0.0
 11
23.125
 21
224.0
 31
0.0
  0
LINE
  5
91C
330
1D
100
AcDbEntity
  8
0
100
AcDbLine
 10
13.75
 20
207.25
 30
0.0
 11
22.125
 21
224.625
 31
0.0
  0
LINE
  5
91D
330
1D
100
AcDbEntity
  8
0
100
AcDbLine
 10
46.125
 20
255.875
 30
0.0
 11
60.875
 21
268.75
 31
0.0
  0
LINE
  5
91E
330
1D
100
AcDbEntity
  8
0
100
AcDbLine
 10
47.0
 20
255.0
 30
0.0
 11
61.625
 21
267.75
 31
0.0
  0
LINE
  5
91F
330
1D
100
AcDbEntity
  8
0
100
AcDbLine
 10
61.625
 20
267.75
 30
0.0
 11
78.0
 21
278.875
 31
0.0
  0
LINE
  5
920
330
1D
100
AcDbEntity
  8
0
100
AcDbLine
 10
44.4759
 20
515.086
 30
0.0
 11
45.492
 21
515.479
 31
0.0
  0
LINE
  5
921
330
1D
100
AcDbEntity
  8
0
100
AcDbLine
 10
23.0
 20
515.086
 30
0.0
 11
44.4759
 21
515.086
 31
0.0
  0
LINE
  5
922
330
1D
100
AcDbEntity
  8
0
100
AcDbLine
 10
1.5241
 20
515.086
 30
0.0
 11
23.0
 21
515.086
 31
0.0
  0
LINE
  5
923
330
1D
100
AcDbEntity
  8
0
100
AcDbLine
 10
0.0
 20
521.911
 30
0.0
 11
0.0
 21
518.903
 31
0.0
  0
LINE
  5
924
330
1D
100
AcDbEntity
  8
0
100
AcDbLine
 10
0.0
 20
521.911
 30
0.0
 11
0.0
 21
525.766
 31
0.0
  0
LINE
  5
925
330
1D
100
AcDbEntity
  8
0
100
AcDbLine
 10
0.0
 20
548.156
 30
0.0
 11
0.0
 21
544.293
 31
0.0
  0
LINE
  5
926
330
1D
100
AcDbEntity
  8
0
100
AcDbLine
 10
0.0
 20
548.156
 30
0.0
 11
0.0
 21
551.062
 31
0.0
  0
LINE
  5
927
330
1D
100
AcDbEntity
  8
0
100
AcDbLine
 10
0.0
 20
551.062
 30
0.0
 11
0.0
 21
548.156
 31
0.0
  0
LINE
  5
928
330
1D
100
AcDbEntity
  8
0
100
AcDbLine
 10
0.0
 20
551.062
 30
0.0
 11
0.0
 21
552.939
 31
0.0
  0
LINE
  5
929
330
1D
100
AcDbEntity
  8
0
100
AcDbLine
 10
0.0
 20
544.293
 30
0.0
 11
0.0
 21
539.758
 31
0.0
  0
LINE
  5
92A
330
1D
100
AcDbEntity
  8
0
100
AcDbLine
 10
0.0
 20
544.293
 30
0.0
 11
0.0
 21
548.156
 31
0.0
  0
LINE
  5
92B
330
1D
100
AcDbEntity
  8
0
100
AcDbLine
 10
0.0
 20
539.758
 30
0.0
 11
0.0
 21
534.966
 31
0.0
  0
LINE
  5
92C
330
1D
100
AcDbEntity
  8
0
100
AcDbLine
 10
0.0
 20
539.758
 30
0.0
 11
0.0
 21
544.293
 31
0.0
  0
LINE
  5
92D
330
1D
100
AcDbEntity
  8
0
100
AcDbLine
 10
0.0
 20
534.966
 30
0.0
 11
0.0
 21
530.193
 31
0.0
  0
LINE
  5
92E
330
1D
100
AcDbEntity
  8
0
100
AcDbLine
 10
0.0
 20
534.966
 30
0.0
 11
0.0
 21
539.758
 31
0.0
  0
LINE
  5
92F
330
1D
100
AcDbEntity
  8
0
100
AcDbLine
 10
0.0
 20
525.766
 30
0.0
 11
0.0
 21
521.911
 31
0.0
  0
LINE
  5
930
330
1D
100
AcDbEntity
  8
0
100
AcDbLine
 10
0.0
 20
525.766
 30
0.0
 11
0.0
 21
530.193
 31
0.0
  0
LINE
  5
931
330
1D
100
AcDbEntity
  8
0
100
AcDbLine
 10
0.0
 20
530.193
 30
0.0
 11
0.0
 21
525.766
 31
0.0
  0
LINE
  5
932
330
1D
100
AcDbEntity
  8
0
100
AcDbLine
 10
0.0
 20
530.193
 30
0.0
 11
0.0
 21
534.966
 31
0.0
  0
LINE
  5
933
330
1D
100
AcDbEntity
  8
0
100
AcDbLine
 10
0.0
 20
518.903
 30
0.0
 11
0.0
 21
517.062
 31
0.0
  0
LINE
  5
934
330
1D
100
AcDbEntity
  8
0
100
AcDbLine
 10
0.0
 20
518.903
 30
0.0
 11
0.0
 21
521.911
 31
0.0
  0
LINE
  5
935
330
1D
100
AcDbEntity
  8
0
100
AcDbLine
 10
0.0
 20
517.062
 30
0.0
 11
0.0
 21
516.473
 31
0.0
  0
LINE
  5
936
330
1D
100
AcDbEntity
  8
0
100
AcDbLine
 10
0.0
 20
517.062
 30
0.0
 11
0.0
 21
518.903
 31
0.0
  0
LINE
  5
937
330
1D
100
AcDbEntity
  8
0
100
AcDbLine
 10
0.0
 20
516.473
 30
0.0
 11
0.508
 21
515.479
 31
0.0
  0
LINE
  5
938
330
1D
100
AcDbEntity
  8
0
100
AcDbLine
 10
0.0
 20
516.473
 30
0.0
 11
0.0
 21
517.062
 31
0.0
  0
LINE
  5
939
330
1D
100
AcDbEntity
  8
0
100
AcDbLine
 10
0.1
 20
526.049
 30
0.0
 11
0.1
 21
525.597
 31
0.0
  0
LINE
  5
93A
330
1D
100
AcDbEntity
  8
0
100
AcDbLine
 10
0.1
 20
526.049
 30
0.0
 11
0.1
 21
526.627
 31
0.0
  0
LINE
  5
93B
330
1D
100
AcDbEntity
  8
0
100
AcDbLine
 10
0.1
 20
526.627
 30
0.0
 11
0.1
 21
526.049
 31
0.0
  0
LINE
  5
93C
330
1D
100
AcDbEntity
  8
0
100
AcDbLine
 10
0.1
 20
526.627
 30
0.0
 11
0.1
 21
527.291
 31
0.0
  0
LINE
  5
93D
330
1D
100
AcDbEntity
  8
0
100
AcDbLine
 10
0.1
 20
528.726
 30
0.0
 11
0.1
 21
528.007
 31
0.0
  0
LINE
  5
93E
330
1D
100
AcDbEntity
  8
0
100
AcDbLine
 10
0.1
 20
528.726
 30
0.0
 11
0.1
 21
529.406
 31
0.0
  0
LINE
  5
93F
330
1D
100
AcDbEntity
  8
0
100
AcDbLine
 10
0.1
 20
528.007
 30
0.0
 11
0.1
 21
527.291
 31
0.0
  0
LINE
  5
940
330
1D
100
AcDbEntity
  8
0
100
AcDbLine
 10
0.1
 20
528.007
 30
0.0
 11
0.1
 21
528.726
 31
0.0
  0
LINE
  5
941
330
1D
100
AcDbEntity
  8
0
100
AcDbLine
 10
0.1
 20
529.406
 30
0.0
 11
0.1
 21
529.985
 31
0.0
  0
LINE
  5
942
330
1D
100
AcDbEntity
  8
0
100
AcDbLine
 10
0.1
 20
529.406
 30
0.0
 11
0.1
 21
528.726
 31
0.0
  0
LINE
  5
943
330
1D
100
AcDbEntity
  8
0
100
AcDbLine
 10
0.1
 20
529.985
 30
0.0
 11
0.1
 21
529.406
 31
0.0
  0
LINE
  5
944
330
1D
100
AcDbEntity
  8
0
100
AcDbLine
 10
0.1
 20
529.985
 30
0.0
 11
0.1
 21
530.421
 31
0.0
  0
LINE
  5
945
330
1D
100
AcDbEntity
  8
0
100
AcDbLine
 10
0.1
 20
530.421
 30
0.0
 11
0.1
 21
529.985
 31
0.0
  0
LINE
  5
946
330
1D
100
AcDbEntity
  8
0
100
AcDbLine
 10
0.1
 20
530.421
 30
0.0
 11
0.1
 21
530.703
 31
0.0
  0
LINE
  5
947
330
1D
100
AcDbEntity
  8
0
100
AcDbLine
 10
0.1
 20
533.032
 30
0.0
 11
0.1
 21
530.703
 31
0.0
  0
LINE
  5
948
330
1D
100
AcDbEntity
  8
0
100
AcDbLine
 10
0.1
 20
530.703
 30
0.0
 11
0.1
 21
533.032
 31
0.0
  0
LINE
  5
949
330
1D
100
AcDbEntity
  8
0
100
AcDbLine
 10
0.1
 20
530.703
 30
0.0
 11
0.1
 21
530.421
 31
0.0
  0
LINE
  5
94A
330
1D
100
AcDbEntity
  8
0
100
AcDbLine
 10
0.1
 20
527.65
 30
0.0
 11
0.1
 21
525.321
 31
0.0
  0
LINE
  5
94B
330
1D
100
AcDbEntity
  8
0
100
AcDbLine
 10
0.1
 20
527.291
 30
0.0
 11
0.1
 21
526.627
 31
0.0
  0
LINE
  5
94C
330
1D
100
AcDbEntity
  8
0
100
AcDbLine
 10
0.1
 20
527.291
 30
0.0
 11
0.1
 21
528.007
 31
0.0
  0
LINE
  5
94D
330
1D
100
AcDbEntity
  8
0
100
AcDbLine
 10
0.1
 20
525.597
 30
0.0
 11
0.1
 21
525.321
 31
0.0
  0
LINE
  5
94E
330
1D
100
AcDbEntity
  8
0
100
AcDbLine
 10
0.1
 20
525.597
 30
0.0
 11
0.1
 21
526.049
 31
0.0
  0
LINE
  5
94F
330
1D
100
AcDbEntity
  8
0
100
AcDbLine
 10
0.1
 20
525.321
 30
0.0
 11
0.1
 21
525.233
 31
0.0
  0
LINE
  5
950
330
1D
100
AcDbEntity
  8
0
100
AcDbLine
 10
0.1
 20
525.321
 30
0.0
 11
0.1
 21
525.597
 31
0.0
  0
LINE
  5
951
330
1D
100
AcDbEntity
  8
0
100
AcDbLine
 10
0.1
 20
525.321
 30
0.0
 11
0.1
 21
527.65
 31
0.0
  0
LINE
  5
952
330
1D
100
AcDbEntity
  8
0
100
AcDbLine
 10
0.1
 20
525.233
 30
0.0
 11
0.354
 21
525.084
 31
0.0
  0
LINE
  5
953
330
1D
100
AcDbEntity
  8
0
100
AcDbLine
 10
0.1
 20
525.233
 30
0.0
 11
0.1
 21
525.321
 31
0.0
  0
LINE
  5
954
330
1D
100
AcDbEntity
  8
0
100
AcDbLine
 10
0.354
 20
525.084
 30
0.0
 11
0.862
 21
525.025
 31
0.0
  0
LINE
  5
955
330
1D
100
AcDbEntity
  8
0
100
AcDbLine
 10
0.508
 20
533.190917322835
 30
0.0
 11
0.508
 21
534.995
 31
0.0
  0
LINE
  5
956
330
1D
100
AcDbEntity
  8
0
100
AcDbLine
 10
0.508
 20
548.861
 30
0.0
 11
0.508
 21
544.765
 31
0.0
  0
LINE
  5
957
330
1D
100
AcDbEntity
  8
0
100
AcDbLine
 10
0.508
 20
548.861
 30
0.0
 11
0.508
 21
551.908
 31
0.0
  0
LINE
  5
958
330
1D
100
AcDbEntity
  8
0
100
AcDbLine
 10
0.508
 20
551.908
 30
0.0
 11
0.508
 21
548.861
 31
0.0
  0
LINE
  5
959
330
1D
100
AcDbEntity
  8
0
100
AcDbLine
 10
0.508
 20
551.908
 30
0.0
 11
0.508
 21
553.859
 31
0.0
  0
LINE
  5
95A
330
1D
100
AcDbEntity
  8
0
100
AcDbLine
 10
0.508
 20
544.765
 30
0.0
 11
0.508
 21
539.996
 31
0.0
  0
LINE
  5
95B
330
1D
100
AcDbEntity
  8
0
100
AcDbLine
 10
0.508
 20
544.765
 30
0.0
 11
0.508
 21
548.861
 31
0.0
  0
LINE
  5
95C
330
1D
100
AcDbEntity
  8
0
100
AcDbLine
 10
0.508
 20
539.996
 30
0.0
 11
0.508
 21
534.995
 31
0.0
  0
LINE
  5
95D
330
1D
100
AcDbEntity
  8
0
100
AcDbLine
 10
0.508
 20
539.996
 30
0.0
 11
0.508
 21
544.765
 31
0.0
  0
LINE
  5
95E
330
1D
100
AcDbEntity
  8
0
100
AcDbLine
 10
0.508
 20
534.995
 30
0.0
 11
0.508
 21
533.190917322835
 31
0.0
  0
LINE
  5
95F
330
1D
100
AcDbEntity
  8
0
100
AcDbLine
 10
0.508
 20
534.995
 30
0.0
 11
0.508
 21
539.996
 31
0.0
  0
LINE
  5
960
330
1D
100
AcDbEntity
  8
0
100
AcDbLine
 10
0.508
 20
521.229
 30
0.0
 11
0.508
 21
518.087
 31
0.0
  0
LINE
  5
961
330
1D
100
AcDbEntity
  8
0
100
AcDbLine
 10
0.508
 20
521.229
 30
0.0
 11
0.508
 21
525.066114173228
 31
0.0
  0
LINE
  5
962
330
1D
100
AcDbEntity
  8
0
100
AcDbLine
 10
0.508
 20
525.066114173228
 30
0.0
 11
0.508
 21
521.229
 31
0.0
  0
LINE
  5
963
330
1D
100
AcDbEntity
  8
0
100
AcDbLine
 10
0.508
 20
518.087
 30
0.0
 11
0.508
 21
516.111
 31
0.0
  0
LINE
  5
964
330
1D
100
AcDbEntity
  8
0
100
AcDbLine
 10
0.508
 20
518.087
 30
0.0
 11
0.508
 21
521.229
 31
0.0
  0
LINE
  5
965
330
1D
100
AcDbEntity
  8
0
100
AcDbLine
 10
0.508
 20
516.111
 30
0.0
 11
0.508
 21
515.479
 31
0.0
  0
LINE
  5
966
330
1D
100
AcDbEntity
  8
0
100
AcDbLine
 10
0.508
 20
516.111
 30
0.0
 11
0.508
 21
518.087
 31
0.0
  0
LINE
  5
967
330
1D
100
AcDbEntity
  8
0
100
AcDbLine
 10
0.508
 20
515.479
 30
0.0
 11
1.5241
 21
515.086
 31
0.0
  0
LINE
  5
968
330
1D
100
AcDbEntity
  8
0
100
AcDbLine
 10
0.508
 20
515.479
 30
0.0
 11
0.508
 21
516.111
 31
0.0
  0
LINE
  5
969
330
1D
100
AcDbEntity
  8
0
100
AcDbLine
 10
0.0
 20
552.939
 30
0.0
 11
0.0
 21
553.527
 31
0.0
  0
LINE
  5
96A
330
1D
100
AcDbEntity
  8
0
100
AcDbLine
 10
0.0
 20
552.939
 30
0.0
 11
0.0
 21
551.062
 31
0.0
  0
LINE
  5
96B
330
1D
100
AcDbEntity
  8
0
100
AcDbLine
 10
0.508
 20
553.859
 30
0.0
 11
0.508
 21
554.521
 31
0.0
  0
LINE
  5
96C
330
1D
100
AcDbEntity
  8
0
100
AcDbLine
 10
0.508
 20
553.859
 30
0.0
 11
0.508
 21
551.908
 31
0.0
  0
LINE
  5
96D
330
1D
100
AcDbEntity
  8
0
100
AcDbLine
 10
0.0
 20
553.527
 30
0.0
 11
0.0
 21
552.939
 31
0.0
  0
LINE
  5
96E
330
1D
100
AcDbEntity
  8
0
100
AcDbLine
 10
0.0
 20
553.527
 30
0.0
 11
0.508
 21
554.521
 31
0.0
  0
LINE
  5
96F
330
1D
100
AcDbEntity
  8
0
100
AcDbLine
 10
19.338
 20
525.025
 30
0.0
 11
19.846
 21
525.084
 31
0.0
  0
LINE
  5
970
330
1D
100
AcDbEntity
  8
0
100
AcDbLine
 10
10.1
 20
525.025
 30
0.0
 11
19.338
 21
525.025
 31
0.0
  0
LINE
  5
971
330
1D
100
AcDbEntity
  8
0
100
AcDbLine
 10
20.1
 20
526.049
 30
0.0
 11
20.1
 21
526.627
 31
0.0
  0
LINE
  5
972
330
1D
100
AcDbEntity
  8
0
100
AcDbLine
 10
20.1
 20
526.049
 30
0.0
 11
20.1
 21
525.597
 31
0.0
  0
LINE
  5
973
330
1D
100
AcDbEntity
  8
0
100
AcDbLine
 10
20.1
 20
526.627
 30
0.0
 11
20.1
 21
527.291
 31
0.0
  0
LINE
  5
974
330
1D
100
AcDbEntity
  8
0
100
AcDbLine
 10
20.1
 20
526.627
 30
0.0
 11
20.1
 21
526.049
 31
0.0
  0
LINE
  5
975
330
1D
100
AcDbEntity
  8
0
100
AcDbLine
 10
20.1
 20
525.597
 30
0.0
 11
20.1
 21
525.321
 31
0.0
  0
LINE
  5
976
330
1D
100
AcDbEntity
  8
0
100
AcDbLine
 10
20.1
 20
525.597
 30
0.0
 11
20.1
 21
526.049
 31
0.0
  0
LINE
  5
977
330
1D
100
AcDbEntity
  8
0
100
AcDbLine
 10
20.1
 20
525.321
 30
0.0
 11
20.1
 21
525.597
 31
0.0
  0
LINE
  5
978
330
1D
100
AcDbEntity
  8
0
100
AcDbLine
 10
20.1
 20
525.321
 30
0.0
 11
20.1
 21
525.233
 31
0.0
  0
LINE
  5
979
330
1D
100
AcDbEntity
  8
0
100
AcDbLine
 10
20.1
 20
525.233
 30
0.0
 11
20.1
 21
525.321
 31
0.0
  0
LINE
  5
97A
330
1D
100
AcDbEntity
  8
0
100
AcDbLine
 10
19.846
 20
525.084
 30
0.0
 11
20.1
 21
525.233
 31
0.0
  0
LINE
  5
97B
330
1D
100
AcDbEntity
  8
0
100
AcDbLine
 10
20.1
 20
528.726
 30
0.0
 11
20.1
 21
529.406
 31
0.0
  0
LINE
  5
97C
330
1D
100
AcDbEntity
  8
0
100
AcDbLine
 10
20.1
 20
528.726
 30
0.0
 11
20.1
 21
528.007
 31
0.0
  0
LINE
  5
97D
330
1D
100
AcDbEntity
  8
0
100
AcDbLine
 10
20.1
 20
528.007
 30
0.0
 11
20.1
 21
528.726
 31
0.0
  0
LINE
  5
97E
330
1D
100
AcDbEntity
  8
0
100
AcDbLine
 10
20.1
 20
528.007
 30
0.0
 11
20.1
 21
527.291
 31
0.0
  0
LINE
  5
97F
330
1D
100
AcDbEntity
  8
0
100
AcDbLine
 10
20.1
 20
527.291
 30
0.0
 11
20.1
 21
528.007
 31
0.0
  0
LINE
  5
980
330
1D
100
AcDbEntity
  8
0
100
AcDbLine
 10
20.1
 20
527.291
 30
0.0
 11
20.1
 21
526.627
 31
0.0
  0
LINE
  5
981
330
1D
100
AcDbEntity
  8
0
100
AcDbLine
 10
20.1
 20
529.406
 30
0.0
 11
20.1
 21
529.985
 31
0.0
  0
LINE
  5
982
330
1D
100
AcDbEntity
  8
0
100
AcDbLine
 10
20.1
 20
529.406
 30
0.0
 11
20.1
 21
528.726
 31
0.0
  0
LINE
  5
983
330
1D
100
AcDbEntity
  8
0
100
AcDbLine
 10
20.1
 20
529.985
 30
0.0
 11
20.1
 21
530.421
 31
0.0
  0
LINE
  5
984
330
1D
100
AcDbEntity
  8
0
100
AcDbLine
 10
20.1
 20
529.985
 30
0.0
 11
20.1
 21
529.406
 31
0.0
  0
LINE
  5
985
330
1D
100
AcDbEntity
  8
0
100
AcDbLine
 10
20.1
 20
530.421
 30
0.0
 11
20.1
 21
530.703
 31
0.0
  0
LINE
  5
986
330
1D
100
AcDbEntity
  8
0
100
AcDbLine
 10
20.1
 20
530.421
 30
0.0
 11
20.1
 21
529.985
 31
0.0
  0
LINE
  5
987
330
1D
100
AcDbEntity
  8
0
100
AcDbLine
 10
20.1
 20
530.703
 30
0.0
 11
20.1
 21
533.032
 31
0.0
  0
LINE
  5
988
330
1D
100
AcDbEntity
  8
0
100
AcDbLine
 10
20.1
 20
530.703
 30
0.0
 11
20.1
 21
530.421
 31
0.0
  0
LINE
  5
989
330
1D
100
AcDbEntity
  8
0
100
AcDbLine
 10
20.1
 20
533.032
 30
0.0
 11
20.1
 21
530.703
 31
0.0
  0
LINE
  5
98A
330
1D
100
AcDbEntity
  8
0
100
AcDbLine
 10
0.862
 20
525.025
 30
0.0
 11
10.1
 21
525.025
 31
0.0
  0
LINE
  5
98B
330
1D
100
AcDbEntity
  8
0
100
AcDbLine
 10
45.492
 20
521.229
 30
0.0
 11
45.492
 21
525.244
 31
0.0
  0
LINE
  5
98C
330
1D
100
AcDbEntity
  8
0
100
AcDbLine
 10
45.492
 20
521.229
 30
0.0
 11
45.492
 21
518.087
 31
0.0
  0
LINE
  5
98D
330
1D
100
AcDbEntity
  8
0
100
AcDbLine
 10
45.492
 20
548.861
 30
0.0
 11
45.492
 21
551.908
 31
0.0
  0
LINE
  5
98E
330
1D
100
AcDbEntity
  8
0
100
AcDbLine
 10
45.492
 20
548.861
 30
0.0
 11
45.492
 21
544.765
 31
0.0
  0
LINE
  5
98F
330
1D
100
AcDbEntity
  8
0
100
AcDbLine
 10
45.492
 20
551.908
 30
0.0
 11
45.492
 21
553.859
 31
0.0
  0
LINE
  5
990
330
1D
100
AcDbEntity
  8
0
100
AcDbLine
 10
45.492
 20
551.908
 30
0.0
 11
45.492
 21
548.861
 31
0.0
  0
LINE
  5
991
330
1D
100
AcDbEntity
  8
0
100
AcDbLine
 10
45.492
 20
544.765
 30
0.0
 11
45.492
 21
539.996
 31
0.0
  0
LINE
  5
992
330
1D
100
AcDbEntity
  8
0
100
AcDbLine
 10
45.492
 20
544.765
 30
0.0
 11
45.492
 21
548.861
 31
0.0
  0
LINE
  5
993
330
1D
100
AcDbEntity
  8
0
100
AcDbLine
 10
45.492
 20
539.996
 30
0.0
 11
45.492
 21
544.765
 31
0.0
  0
LINE
  5
994
330
1D
100
AcDbEntity
  8
0
100
AcDbLine
 10
45.492
 20
539.996
 30
0.0
 11
45.492
 21
534.995
 31
0.0
  0
LINE
  5
995
330
1D
100
AcDbEntity
  8
0
100
AcDbLine
 10
45.492
 20
534.995
 30
0.0
 11
45.492
 21
539.996
 31
0.0
  0
LINE
  5
996
330
1D
100
AcDbEntity
  8
0
100
AcDbLine
 10
45.492
 20
534.995
 30
0.0
 11
45.492
 21
529.947
 31
0.0
  0
LINE
  5
997
330
1D
100
AcDbEntity
  8
0
100
AcDbLine
 10
45.492
 20
529.947
 30
0.0
 11
45.492
 21
525.244
 31
0.0
  0
LINE
  5
998
330
1D
100
AcDbEntity
  8
0
100
AcDbLine
 10
45.492
 20
529.947
 30
0.0
 11
45.492
 21
534.995
 31
0.0
  0
LINE
  5
999
330
1D
100
AcDbEntity
  8
0
100
AcDbLine
 10
45.492
 20
525.244
 30
0.0
 11
45.492
 21
529.947
 31
0.0
  0
LINE
  5
99A
330
1D
100
AcDbEntity
  8
0
100
AcDbLine
 10
45.492
 20
525.244
 30
0.0
 11
45.492
 21
521.229
 31
0.0
  0
LINE
  5
99B
330
1D
100
AcDbEntity
  8
0
100
AcDbLine
 10
45.492
 20
518.087
 30
0.0
 11
45.492
 21
516.111
 31
0.0
  0
LINE
  5
99C
330
1D
100
AcDbEntity
  8
0
100
AcDbLine
 10
45.492
 20
518.087
 30
0.0
 11
45.492
 21
521.229
 31
0.0
  0
LINE
  5
99D
330
1D
100
AcDbEntity
  8
0
100
AcDbLine
 10
45.492
 20
516.111
 30
0.0
 11
45.492
 21
518.087
 31
0.0
  0
LINE
  5
99E
330
1D
100
AcDbEntity
  8
0
100
AcDbLine
 10
45.492
 20
516.111
 30
0.0
 11
45.492
 21
515.479
 31
0.0
  0
LINE
  5
99F
330
1D
100
AcDbEntity
  8
0
100
AcDbLine
 10
45.758265593561
 20
516.0
 30
0.0
 11
57.228679958027
 21
516.0
 31
0.0
  0
LINE
  5
9A0
330
1D
100
AcDbEntity
  8
0
100
AcDbLine
 10
45.758265593561
 20
516.0
 30
0.0
 11
57.228679958027
 21
516.0
 31
0.0
  0
LINE
  5
9A1
330
1D
100
AcDbEntity
  8
0
100
AcDbLine
 10
45.492
 20
515.479
 30
0.0
 11
45.492
 21
516.111
 31
0.0
  0
LINE
  5
9A2
330
1D
100
AcDbEntity
  8
0
100
AcDbLine
 10
45.492
 20
515.479
 30
0.0
 11
45.758265593561
 21
516.0
 31
0.0
  0
LINE
  5
9A3
330
1D
100
AcDbEntity
  8
0
100
AcDbLine
 10
45.758265593561
 20
554.0
 30
0.0
 11
57.228679958027
 21
554.0
 31
0.0
  0
LINE
  5
9A4
330
1D
100
AcDbEntity
  8
0
100
AcDbLine
 10
45.492
 20
554.521
 30
0.0
 11
45.492
 21
553.859
 31
0.0
  0
LINE
  5
9A5
330
1D
100
AcDbEntity
  8
0
100
AcDbLine
 10
45.492
 20
554.521
 30
0.0
 11
45.780479979303
 21
553.956533268845
 31
0.0
  0
LINE
  5
9A6
330
1D
100
AcDbEntity
  8
0
100
AcDbLine
 10
45.492
 20
553.859
 30
0.0
 11
45.492
 21
554.521
 31
0.0
  0
LINE
  5
9A7
330
1D
100
AcDbEntity
  8
0
100
AcDbLine
 10
45.492
 20
553.859
 30
0.0
 11
45.492
 21
551.908
 31
0.0
  0
LINE
  5
9A8
330
1D
100
AcDbEntity
  8
0
100
AcDbLine
 10
44.4759
 20
554.914
 30
0.0
 11
45.492
 21
554.521
 31
0.0
  0
LINE
  5
9A9
330
1D
100
AcDbEntity
  8
0
100
AcDbLine
 10
23.0
 20
554.914
 30
0.0
 11
44.4759
 21
554.914
 31
0.0
  0
LINE
  5
9AA
330
1D
100
AcDbEntity
  8
0
100
AcDbLine
 10
0.508
 20
554.521
 30
0.0
 11
0.508
 21
553.859
 31
0.0
  0
LINE
  5
9AB
330
1D
100
AcDbEntity
  8
0
100
AcDbLine
 10
0.508
 20
554.521
 30
0.0
 11
1.5241
 21
554.914
 31
0.0
  0
LINE
  5
9AC
330
1D
100
AcDbEntity
  8
0
100
AcDbLine
 10
1.5241
 20
554.914
 30
0.0
 11
23.0
 21
554.914
 31
0.0
  0
LINE
  5
9AD
330
1D
100
AcDbEntity
  8
0
100
AcDbLine
 10
57.508
 20
525.286
 30
0.0
 11
57.508
 21
521.19
 31
0.0
  0
LINE
  5
9AE
330
1D
100
AcDbEntity
  8
0
100
AcDbLine
 10
57.508
 20
525.286
 30
0.0
 11
57.508
 21
529.952
 31
0.0
  0
LINE
  5
9AF
330
1D
100
AcDbEntity
  8
0
100
AcDbLine
 10
57.508
 20
529.952
 30
0.0
 11
57.508
 21
525.286
 31
0.0
  0
LINE
  5
9B0
330
1D
100
AcDbEntity
  8
0
100
AcDbLine
 10
57.508
 20
529.952
 30
0.0
 11
57.508
 21
535.0
 31
0.0
  0
LINE
  5
9B1
330
1D
100
AcDbEntity
  8
0
100
AcDbLine
 10
57.508
 20
551.952
 30
0.0
 11
57.508
 21
548.81
 31
0.0
  0
LINE
  5
9B2
330
1D
100
AcDbEntity
  8
0
100
AcDbLine
 10
57.508
 20
551.952
 30
0.0
 11
57.508
 21
553.857
 31
0.0
  0
LINE
  5
9B3
330
1D
100
AcDbEntity
  8
0
100
AcDbLine
 10
57.508
 20
553.857
 30
0.0
 11
57.508
 21
551.952
 31
0.0
  0
LINE
  5
9B4
330
1D
100
AcDbEntity
  8
0
100
AcDbLine
 10
57.508
 20
553.857
 30
0.0
 11
57.508
 21
554.524
 31
0.0
  0
LINE
  5
9B5
330
1D
100
AcDbEntity
  8
0
100
AcDbLine
 10
57.508
 20
548.81
 30
0.0
 11
57.508
 21
544.714
 31
0.0
  0
LINE
  5
9B6
330
1D
100
AcDbEntity
  8
0
100
AcDbLine
 10
57.508
 20
548.81
 30
0.0
 11
57.508
 21
551.952
 31
0.0
  0
LINE
  5
9B7
330
1D
100
AcDbEntity
  8
0
100
AcDbLine
 10
57.508
 20
544.714
 30
0.0
 11
57.508
 21
540.048
 31
0.0
  0
LINE
  5
9B8
330
1D
100
AcDbEntity
  8
0
100
AcDbLine
 10
57.508
 20
544.714
 30
0.0
 11
57.508
 21
548.81
 31
0.0
  0
LINE
  5
9B9
330
1D
100
AcDbEntity
  8
0
100
AcDbLine
 10
57.508
 20
540.048
 30
0.0
 11
57.508
 21
535.0
 31
0.0
  0
LINE
  5
9BA
330
1D
100
AcDbEntity
  8
0
100
AcDbLine
 10
57.508
 20
540.048
 30
0.0
 11
57.508
 21
544.714
 31
0.0
  0
LINE
  5
9BB
330
1D
100
AcDbEntity
  8
0
100
AcDbLine
 10
57.508
 20
535.0
 30
0.0
 11
57.508
 21
529.952
 31
0.0
  0
LINE
  5
9BC
330
1D
100
AcDbEntity
  8
0
100
AcDbLine
 10
57.508
 20
535.0
 30
0.0
 11
57.508
 21
540.048
 31
0.0
  0
LINE
  5
9BD
330
1D
100
AcDbEntity
  8
0
100
AcDbLine
 10
57.508
 20
521.19
 30
0.0
 11
57.508
 21
518.048
 31
0.0
  0
LINE
  5
9BE
330
1D
100
AcDbEntity
  8
0
100
AcDbLine
 10
57.508
 20
521.19
 30
0.0
 11
57.508
 21
525.286
 31
0.0
  0
LINE
  5
9BF
330
1D
100
AcDbEntity
  8
0
100
AcDbLine
 10
57.508
 20
518.048
 30
0.0
 11
57.508
 21
516.143
 31
0.0
  0
LINE
  5
9C0
330
1D
100
AcDbEntity
  8
0
100
AcDbLine
 10
57.508
 20
518.048
 30
0.0
 11
57.508
 21
521.19
 31
0.0
  0
LINE
  5
9C1
330
1D
100
AcDbEntity
  8
0
100
AcDbLine
 10
57.508
 20
516.143
 30
0.0
 11
57.508
 21
515.476
 31
0.0
  0
LINE
  5
9C2
330
1D
100
AcDbEntity
  8
0
100
AcDbLine
 10
57.508
 20
516.143
 30
0.0
 11
57.508
 21
518.048
 31
0.0
  0
LINE
  5
9C3
330
1D
100
AcDbEntity
  8
0
100
AcDbLine
 10
57.228679958027
 20
554.0
 30
0.0
 11
57.508
 21
554.524
 31
0.0
  0
LINE
  5
9C4
330
1D
100
AcDbEntity
  8
0
100
AcDbLine
 10
57.508
 20
554.524
 30
0.0
 11
58.5241
 21
555.0
 31
0.0
  0
LINE
  5
9C5
330
1D
100
AcDbEntity
  8
0
100
AcDbLine
 10
57.508
 20
554.524
 30
0.0
 11
57.508
 21
553.857
 31
0.0
  0
LINE
  5
9C6
330
1D
100
AcDbEntity
  8
0
100
AcDbLine
 10
58.5241
 20
555.0
 30
0.0
 11
60.0
 21
555.0
 31
0.0
  0
LINE
  5
9C7
330
1D
100
AcDbEntity
  8
0
100
AcDbLine
 10
57.205081219791
 20
516.044270861298
 30
0.0
 11
57.508
 21
515.476
 31
0.0
  0
LINE
  5
9C8
330
1D
100
AcDbEntity
  8
0
100
AcDbLine
 10
57.508
 20
515.476
 30
0.0
 11
58.5241
 21
515.0
 31
0.0
  0
LINE
  5
9C9
330
1D
100
AcDbEntity
  8
0
100
AcDbLine
 10
57.508
 20
515.476
 30
0.0
 11
57.508
 21
516.143
 31
0.0
  0
LINE
  5
9CA
330
1D
100
AcDbEntity
  8
0
100
AcDbLine
 10
58.5241
 20
515.0
 30
0.0
 11
139.5
 21
515.0
 31
0.0
  0
LINE
  5
9CB
330
1D
100
AcDbEntity
  8
0
100
AcDbLine
 10
58.5241
 20
515.0
 30
0.0
 11
139.5
 21
515.0
 31
0.0
  0
LINE
  5
9CC
330
1D
100
AcDbEntity
  8
0
100
AcDbLine
 10
60.0
 20
567.4
 30
0.0
 11
60.408
 21
568.0
 31
0.0
  0
LINE
  5
9CD
330
1D
100
AcDbEntity
  8
0
100
AcDbLine
 10
60.0
 20
567.4
 30
0.0
 11
60.0
 21
555.0
 31
0.0
  0
LINE
  5
9CE
330
1D
100
AcDbEntity
  8
0
100
AcDbLine
 10
60.408
 20
568.0
 30
0.0
 11
61.02
 21
568.0
 31
0.0
  0
LINE
  5
9CF
330
1D
100
AcDbEntity
  8
0
100
AcDbLine
 10
61.02
 20
568.0
 30
0.0
 11
62.652
 21
568.0
 31
0.0
  0
LINE
  5
9D0
330
1D
100
AcDbEntity
  8
0
100
AcDbLine
 10
60.0
 20
555.0
 30
0.0
 11
60.0
 21
567.4
 31
0.0
  0
LINE
  5
9D1
330
1D
100
AcDbEntity
  8
0
100
AcDbLine
 10
61.4211
 20
570.0
 30
0.0
 11
62.0105
 21
570.0
 31
0.0
  0
LINE
  5
9D2
330
1D
100
AcDbEntity
  8
0
100
AcDbLine
 10
62.652
 20
568.0
 30
0.0
 11
65.304
 21
568.0
 31
0.0
  0
LINE
  5
9D3
330
1D
100
AcDbEntity
  8
0
100
AcDbLine
 10
63.0
 20
570.0
 30
0.0
 11
63.0
 21
568.0
 31
0.0
  0
LINE
  5
9D4
330
1D
100
AcDbEntity
  8
0
100
AcDbLine
 10
65.304
 20
568.0
 30
0.0
 11
68.772
 21
568.0
 31
0.0
  0
LINE
  5
9D5
330
1D
100
AcDbEntity
  8
0
100
AcDbLine
 10
68.772
 20
568.0
 30
0.0
 11
72.716
 21
568.0
 31
0.0
  0
LINE
  5
9D6
330
1D
100
AcDbEntity
  8
0
100
AcDbLine
 10
72.716
 20
568.0
 30
0.0
 11
77.0
 21
568.0
 31
0.0
  0
LINE
  5
9D7
330
1D
100
AcDbEntity
  8
0
100
AcDbLine
 10
77.0
 20
568.0
 30
0.0
 11
81.284
 21
568.0
 31
0.0
  0
LINE
  5
9D8
330
1D
100
AcDbEntity
  8
0
100
AcDbLine
 10
63.0
 20
568.0
 30
0.0
 11
63.0
 21
570.0
 31
0.0
  0
LINE
  5
9D9
330
1D
100
AcDbEntity
  8
0
100
AcDbLine
 10
62.0105
 20
570.0
 30
0.0
 11
63.0
 21
570.0
 31
0.0
  0
LINE
  5
9DA
330
1D
100
AcDbEntity
  8
0
100
AcDbLine
 10
43.5
 20
584.5
 30
0.0
 11
44.5
 21
584.0
 31
0.0
  0
LINE
  5
9DB
330
1D
100
AcDbEntity
  8
0
100
AcDbLine
 10
43.5
 20
584.5
 30
0.0
 11
44.7
 21
584.5
 31
0.0
  0
LINE
  5
9DC
330
1D
100
AcDbEntity
  8
0
100
AcDbLine
 10
54.0
 20
584.0
 30
0.0
 11
60.8
 21
584.0
 31
0.0
  0
LINE
  5
9DD
330
1D
100
AcDbEntity
  8
0
100
AcDbLine
 10
60.8
 20
584.0
 30
0.0
 11
61.4211
 21
584.0
 31
0.0
  0
LINE
  5
9DE
330
1D
100
AcDbEntity
  8
0
100
AcDbLine
 10
48.9
 20
584.0
 30
0.0
 11
54.0
 21
584.0
 31
0.0
  0
LINE
  5
9DF
330
1D
100
AcDbEntity
  8
0
100
AcDbLine
 10
48.0
 20
584.5
 30
0.0
 11
53.3
 21
584.5
 31
0.0
  0
LINE
  5
9E0
330
1D
100
AcDbEntity
  8
0
100
AcDbLine
 10
44.7
 20
584.5
 30
0.0
 11
48.0
 21
584.5
 31
0.0
  0
LINE
  5
9E1
330
1D
100
AcDbEntity
  8
0
100
AcDbLine
 10
53.3
 20
584.5
 30
0.0
 11
60.3
 21
584.5
 31
0.0
  0
LINE
  5
9E2
330
1D
100
AcDbEntity
  8
0
100
AcDbLine
 10
60.3
 20
584.5
 30
0.0
 11
68.4
 21
584.5
 31
0.0
  0
LINE
  5
9E3
330
1D
100
AcDbEntity
  8
0
100
AcDbLine
 10
45.7
 20
584.0
 30
0.0
 11
48.9
 21
584.0
 31
0.0
  0
LINE
  5
9E4
330
1D
100
AcDbEntity
  8
0
100
AcDbLine
 10
44.5
 20
584.0
 30
0.0
 11
45.7
 21
584.0
 31
0.0
  0
LINE
  5
9E5
330
1D
100
AcDbEntity
  8
0
100
AcDbLine
 10
43.0
 20
585.5
 30
0.0
 11
43.5
 21
584.5
 31
0.0
  0
LINE
  5
9E6
330
1D
100
AcDbEntity
  8
0
100
AcDbLine
 10
43.0
 20
585.5
 30
0.0
 11
43.0
 21
610.0
 31
0.0
  0
LINE
  5
9E7
330
1D
100
AcDbEntity
  8
0
100
AcDbLine
 10
61.0
 20
583.9
 30
0.0
 11
61.0
 21
583.76
 31
0.0
  0
LINE
  5
9E8
330
1D
100
AcDbEntity
  8
0
100
AcDbLine
 10
61.0
 20
583.9
 30
0.0
 11
61.4211
 21
584.0
 31
0.0
  0
LINE
  5
9E9
330
1D
100
AcDbEntity
  8
0
100
AcDbLine
 10
61.0
 20
572.0
 30
0.0
 11
61.0
 21
582.0
 31
0.0
  0
LINE
  5
9EA
330
1D
100
AcDbEntity
  8
0
100
AcDbLine
 10
61.0
 20
572.0
 30
0.0
 11
61.0
 21
571.0
 31
0.0
  0
LINE
  5
9EB
330
1D
100
AcDbEntity
  8
0
100
AcDbLine
 10
61.0
 20
582.0
 30
0.0
 11
61.0
 21
583.0
 31
0.0
  0
LINE
  5
9EC
330
1D
100
AcDbEntity
  8
0
100
AcDbLine
 10
61.0
 20
582.0
 30
0.0
 11
61.0
 21
572.0
 31
0.0
  0
LINE
  5
9ED
330
1D
100
AcDbEntity
  8
0
100
AcDbLine
 10
61.0
 20
582.0
 30
0.0
 11
62.3713
 21
583.0
 31
0.0
  0
LINE
  5
9EE
330
1D
100
AcDbEntity
  8
0
100
AcDbLine
 10
61.0
 20
571.0
 30
0.0
 11
61.0
 21
572.0
 31
0.0
  0
LINE
  5
9EF
330
1D
100
AcDbEntity
  8
0
100
AcDbLine
 10
61.0
 20
571.0
 30
0.0
 11
61.3368
 21
571.0
 31
0.0
  0
LINE
  5
9F0
330
1D
100
AcDbEntity
  8
0
100
AcDbLine
 10
61.0
 20
571.0
 30
0.0
 11
61.0
 21
570.24
 31
0.0
  0
LINE
  5
9F1
330
1D
100
AcDbEntity
  8
0
100
AcDbLine
 10
61.0
 20
583.0
 30
0.0
 11
61.0
 21
583.76
 31
0.0
  0
LINE
  5
9F2
330
1D
100
AcDbEntity
  8
0
100
AcDbLine
 10
61.0
 20
583.0
 30
0.0
 11
61.0
 21
582.0
 31
0.0
  0
LINE
  5
9F3
330
1D
100
AcDbEntity
  8
0
100
AcDbLine
 10
61.0
 20
570.24
 30
0.0
 11
61.0
 21
571.0
 31
0.0
  0
LINE
  5
9F4
330
1D
100
AcDbEntity
  8
0
100
AcDbLine
 10
61.0
 20
570.24
 30
0.0
 11
61.0
 21
570.1
 31
0.0
  0
LINE
  5
9F5
330
1D
100
AcDbEntity
  8
0
100
AcDbLine
 10
61.3368
 20
571.0
 30
0.0
 11
62.3713
 21
571.0
 31
0.0
  0
LINE
  5
9F6
330
1D
100
AcDbEntity
  8
0
100
AcDbLine
 10
65.0421
 20
570.364
 30
0.0
 11
68.8555
 21
570.202
 31
0.0
  0
LINE
  5
9F7
330
1D
100
AcDbEntity
  8
0
100
AcDbLine
 10
62.3713
 20
571.0
 30
0.0
 11
65.0421
 21
570.364
 31
0.0
  0
LINE
  5
9F8
330
1D
100
AcDbEntity
  8
0
100
AcDbLine
 10
65.0421
 20
583.636
 30
0.0
 11
68.8555
 21
583.798
 31
0.0
  0
LINE
  5
9F9
330
1D
100
AcDbEntity
  8
0
100
AcDbLine
 10
62.3713
 20
583.0
 30
0.0
 11
65.0421
 21
583.636
 31
0.0
  0
LINE
  5
9FA
330
1D
100
AcDbEntity
  8
0
100
AcDbLine
 10
68.8555
 20
570.202
 30
0.0
 11
72.6481
 21
570.419
 31
0.0
  0
LINE
  5
9FB
330
1D
100
AcDbEntity
  8
0
100
AcDbLine
 10
62.0105
 20
584.0
 30
0.0
 11
63.5263
 21
584.0
 31
0.0
  0
LINE
  5
9FC
330
1D
100
AcDbEntity
  8
0
100
AcDbLine
 10
63.5263
 20
584.0
 30
0.0
 11
65.9684
 21
584.0
 31
0.0
  0
LINE
  5
9FD
330
1D
100
AcDbEntity
  8
0
100
AcDbLine
 10
65.9684
 20
584.0
 30
0.0
 11
69.2526
 21
584.0
 31
0.0
  0
LINE
  5
9FE
330
1D
100
AcDbEntity
  8
0
100
AcDbLine
 10
68.8555
 20
583.798
 30
0.0
 11
72.6481
 21
583.581
 31
0.0
  0
LINE
  5
9FF
330
1D
100
AcDbEntity
  8
0
100
AcDbLine
 10
75.0225
 20
583.0
 30
0.0
 11
77.0
 21
583.0
 31
0.0
  0
LINE
  5
A00
330
1D
100
AcDbEntity
  8
0
100
AcDbLine
 10
77.0
 20
571.0
 30
0.0
 11
78.9775
 21
571.0
 31
0.0
  0
LINE
  5
A01
330
1D
100
AcDbEntity
  8
0
100
AcDbLine
 10
77.0
 20
583.0
 30
0.0
 11
78.9775
 21
583.0
 31
0.0
  0
LINE
  5
A02
330
1D
100
AcDbEntity
  8
0
100
AcDbLine
 10
75.0225
 20
571.0
 30
0.0
 11
77.0
 21
571.0
 31
0.0
  0
LINE
  5
A03
330
1D
100
AcDbEntity
  8
0
100
AcDbLine
 10
72.6481
 20
570.419
 30
0.0
 11
75.0225
 21
571.0
 31
0.0
  0
LINE
  5
A04
330
1D
100
AcDbEntity
  8
0
100
AcDbLine
 10
77.0
 20
584.0
 30
0.0
 11
81.0421
 21
584.0
 31
0.0
  0
LINE
  5
A05
330
1D
100
AcDbEntity
  8
0
100
AcDbLine
 10
72.9579
 20
584.0
 30
0.0
 11
77.0
 21
584.0
 31
0.0
  0
LINE
  5
A06
330
1D
100
AcDbEntity
  8
0
100
AcDbLine
 10
72.6481
 20
583.581
 30
0.0
 11
75.0225
 21
583.0
 31
0.0
  0
LINE
  5
A07
330
1D
100
AcDbEntity
  8
0
100
AcDbLine
 10
69.2526
 20
584.0
 30
0.0
 11
72.9579
 21
584.0
 31
0.0
  0
LINE
  5
A08
330
1D
100
AcDbEntity
  8
0
100
AcDbLine
 10
68.4
 20
584.5
 30
0.0
 11
77.0
 21
584.5
 31
0.0
  0
LINE
  5
A09
330
1D
100
AcDbEntity
  8
0
100
AcDbLine
 10
77.0
 20
584.5
 30
0.0
 11
85.6
 21
584.5
 31
0.0
  0
LINE
  5
A0A
330
1D
100
AcDbEntity
  8
0
100
AcDbLine
 10
61.4211
 20
584.0
 30
0.0
 11
62.0105
 21
584.0
 31
0.0
  0
LINE
  5
A0B
330
1D
100
AcDbEntity
  8
0
100
AcDbLine
 10
61.0
 20
583.76
 30
0.0
 11
61.0
 21
583.9
 31
0.0
  0
LINE
  5
A0C
330
1D
100
AcDbEntity
  8
0
100
AcDbLine
 10
61.0
 20
583.76
 30
0.0
 11
61.0
 21
583.0
 31
0.0
  0
LINE
  5
A0D
330
1D
100
AcDbEntity
  8
0
100
AcDbLine
 10
61.0
 20
570.1
 30
0.0
 11
61.0
 21
570.24
 31
0.0
  0
LINE
  5
A0E
330
1D
100
AcDbEntity
  8
0
100
AcDbLine
 10
61.0
 20
570.1
 30
0.0
 11
61.4211
 21
570.0
 31
0.0
  0
LINE
  5
A0F
330
1D
100
AcDbEntity
  8
0
100
AcDbLine
 10
81.284
 20
568.0
 30
0.0
 11
85.228
 21
568.0
 31
0.0
  0
LINE
  5
A10
330
1D
100
AcDbEntity
  8
0
100
AcDbLine
 10
85.228
 20
568.0
 30
0.0
 11
88.696
 21
568.0
 31
0.0
  0
LINE
  5
A11
330
1D
100
AcDbEntity
  8
0
100
AcDbLine
 10
88.696
 20
568.0
 30
0.0
 11
91.348
 21
568.0
 31
0.0
  0
LINE
  5
A12
330
1D
100
AcDbEntity
  8
0
100
AcDbLine
 10
91.0
 20
568.0
 30
0.0
 11
91.0
 21
570.0
 31
0.0
  0
LINE
  5
A13
330
1D
100
AcDbEntity
  8
0
100
AcDbLine
 10
91.348
 20
568.0
 30
0.0
 11
92.98
 21
568.0
 31
0.0
  0
LINE
  5
A14
330
1D
100
AcDbEntity
  8
0
100
AcDbLine
 10
91.0
 20
570.0
 30
0.0
 11
91.9895
 21
570.0
 31
0.0
  0
LINE
  5
A15
330
1D
100
AcDbEntity
  8
0
100
AcDbLine
 10
91.0
 20
570.0
 30
0.0
 11
91.0
 21
568.0
 31
0.0
  0
LINE
  5
A16
330
1D
100
AcDbEntity
  8
0
100
AcDbLine
 10
85.1445
 20
570.202
 30
0.0
 11
88.9579
 21
570.364
 31
0.0
  0
LINE
  5
A17
330
1D
100
AcDbEntity
  8
0
100
AcDbLine
 10
78.9775
 20
583.0
 30
0.0
 11
81.3519
 21
583.581
 31
0.0
  0
LINE
  5
A18
330
1D
100
AcDbEntity
  8
0
100
AcDbLine
 10
78.9775
 20
571.0
 30
0.0
 11
81.3519
 21
570.419
 31
0.0
  0
LINE
  5
A19
330
1D
100
AcDbEntity
  8
0
100
AcDbLine
 10
81.3519
 20
583.581
 30
0.0
 11
85.1445
 21
583.798
 31
0.0
  0
LINE
  5
A1A
330
1D
100
AcDbEntity
  8
0
100
AcDbLine
 10
81.3519
 20
570.419
 30
0.0
 11
85.1445
 21
570.202
 31
0.0
  0
LINE
  5
A1B
330
1D
100
AcDbEntity
  8
0
100
AcDbLine
 10
84.7473
 20
584.0
 30
0.0
 11
88.0315
 21
584.0
 31
0.0
  0
LINE
  5
A1C
330
1D
100
AcDbEntity
  8
0
100
AcDbLine
 10
85.6
 20
584.5
 30
0.0
 11
93.7
 21
584.5
 31
0.0
  0
LINE
  5
A1D
330
1D
100
AcDbEntity
  8
0
100
AcDbLine
 10
88.0315
 20
584.0
 30
0.0
 11
90.4737
 21
584.0
 31
0.0
  0
LINE
  5
A1E
330
1D
100
AcDbEntity
  8
0
100
AcDbLine
 10
81.0421
 20
584.0
 30
0.0
 11
84.7473
 21
584.0
 31
0.0
  0
LINE
  5
A1F
330
1D
100
AcDbEntity
  8
0
100
AcDbLine
 10
85.1445
 20
583.798
 30
0.0
 11
88.9579
 21
583.636
 31
0.0
  0
LINE
  5
A20
330
1D
100
AcDbEntity
  8
0
100
AcDbLine
 10
91.6287
 20
571.0
 30
0.0
 11
92.6632
 21
571.0
 31
0.0
  0
LINE
  5
A21
330
1D
100
AcDbEntity
  8
0
100
AcDbLine
 10
90.4737
 20
584.0
 30
0.0
 11
91.9895
 21
584.0
 31
0.0
  0
LINE
  5
A22
330
1D
100
AcDbEntity
  8
0
100
AcDbLine
 10
88.9579
 20
583.636
 30
0.0
 11
91.6287
 21
583.0
 31
0.0
  0
LINE
  5
A23
330
1D
100
AcDbEntity
  8
0
100
AcDbLine
 10
88.9579
 20
570.364
 30
0.0
 11
91.6287
 21
571.0
 31
0.0
  0
LINE
  5
A24
330
1D
100
AcDbEntity
  8
0
100
AcDbLine
 10
92.98
 20
568.0
 30
0.0
 11
93.592
 21
568.0
 31
0.0
  0
LINE
  5
A25
330
1D
100
AcDbEntity
  8
0
100
AcDbLine
 10
94.0
 20
555.0
 30
0.0
 11
94.0
 21
567.4
 31
0.0
  0
LINE
  5
A26
330
1D
100
AcDbEntity
  8
0
100
AcDbLine
 10
94.0
 20
555.0
 30
0.0
 11
136.6712
 21
555.0
 31
0.0
  0
LINE
  5
A27
330
1D
100
AcDbEntity
  8
0
100
AcDbLine
 10
93.592
 20
568.0
 30
0.0
 11
94.0
 21
567.4
 31
0.0
  0
LINE
  5
A28
330
1D
100
AcDbEntity
  8
0
100
AcDbLine
 10
94.0
 20
567.4
 30
0.0
 11
94.0
 21
555.0
 31
0.0
  0
LINE
  5
A29
330
1D
100
AcDbEntity
  8
0
100
AcDbLine
 10
93.0
 20
570.1
 30
0.0
 11
93.0
 21
570.24
 31
0.0
  0
LINE
  5
A2A
330
1D
100
AcDbEntity
  8
0
100
AcDbLine
 10
92.579
 20
570.0
 30
0.0
 11
93.0
 21
570.1
 31
0.0
  0
LINE
  5
A2B
330
1D
100
AcDbEntity
  8
0
100
AcDbLine
 10
91.9895
 20
570.0
 30
0.0
 11
92.579
 21
570.0
 31
0.0
  0
LINE
  5
A2C
330
1D
100
AcDbEntity
  8
0
100
AcDbLine
 10
92.6632
 20
571.0
 30
0.0
 11
93.0
 21
571.0
 31
0.0
  0
LINE
  5
A2D
330
1D
100
AcDbEntity
  8
0
100
AcDbLine
 10
92.5882
 20
582.0
 30
0.0
 11
93.0
 21
582.0
 31
0.0
  0
LINE
  5
A2E
330
1D
100
AcDbEntity
  8
0
100
AcDbLine
 10
92.579
 20
584.0
 30
0.0
 11
93.0
 21
583.9
 31
0.0
  0
LINE
  5
A2F
330
1D
100
AcDbEntity
  8
0
100
AcDbLine
 10
92.579
 20
584.0
 30
0.0
 11
93.2
 21
584.0
 31
0.0
  0
LINE
  5
A30
330
1D
100
AcDbEntity
  8
0
100
AcDbLine
 10
91.9895
 20
584.0
 30
0.0
 11
92.579
 21
584.0
 31
0.0
  0
LINE
  5
A31
330
1D
100
AcDbEntity
  8
0
100
AcDbLine
 10
93.0
 20
583.0
 30
0.0
 11
93.0
 21
582.0
 31
0.0
  0
LINE
  5
A32
330
1D
100
AcDbEntity
  8
0
100
AcDbLine
 10
93.0
 20
583.0
 30
0.0
 11
93.0
 21
583.76
 31
0.0
  0
LINE
  5
A33
330
1D
100
AcDbEntity
  8
0
100
AcDbLine
 10
93.0
 20
582.0
 30
0.0
 11
93.0
 21
572.0
 31
0.0
  0
LINE
  5
A34
330
1D
100
AcDbEntity
  8
0
100
AcDbLine
 10
93.0
 20
582.0
 30
0.0
 11
93.0
 21
583.0
 31
0.0
  0
LINE
  5
A35
330
1D
100
AcDbEntity
  8
0
100
AcDbLine
 10
93.0
 20
572.0
 30
0.0
 11
93.0
 21
571.0
 31
0.0
  0
LINE
  5
A36
330
1D
100
AcDbEntity
  8
0
100
AcDbLine
 10
93.0
 20
572.0
 30
0.0
 11
93.0
 21
582.0
 31
0.0
  0
LINE
  5
A37
330
1D
100
AcDbEntity
  8
0
100
AcDbLine
 10
93.0
 20
583.76
 30
0.0
 11
93.0
 21
583.0
 31
0.0
  0
LINE
  5
A38
330
1D
100
AcDbEntity
  8
0
100
AcDbLine
 10
93.0
 20
571.0
 30
0.0
 11
93.0
 21
570.24
 31
0.0
  0
LINE
  5
A39
330
1D
100
AcDbEntity
  8
0
100
AcDbLine
 10
93.0
 20
571.0
 30
0.0
 11
93.0
 21
572.0
 31
0.0
  0
LINE
  5
A3A
330
1D
100
AcDbEntity
  8
0
100
AcDbLine
 10
93.7
 20
584.5
 30
0.0
 11
100.7
 21
584.5
 31
0.0
  0
LINE
  5
A3B
330
1D
100
AcDbEntity
  8
0
100
AcDbLine
 10
93.2
 20
584.0
 30
0.0
 11
100.0
 21
584.0
 31
0.0
  0
LINE
  5
A3C
330
1D
100
AcDbEntity
  8
0
100
AcDbLine
 10
93.0
 20
583.9
 30
0.0
 11
93.0
 21
583.76
 31
0.0
  0
LINE
  5
A3D
330
1D
100
AcDbEntity
  8
0
100
AcDbLine
 10
93.0
 20
570.24
 30
0.0
 11
93.0
 21
570.1
 31
0.0
  0
LINE
  5
A3E
330
1D
100
AcDbEntity
  8
0
100
AcDbLine
 10
93.0
 20
570.24
 30
0.0
 11
93.0
 21
571.0
 31
0.0
  0
LINE
  5
A3F
330
1D
100
AcDbEntity
  8
0
100
AcDbLine
 10
91.6287
 20
583.0
 30
0.0
 11
92.5882
 21
582.0
 31
0.0
  0
LINE
  5
A40
330
1D
100
AcDbEntity
  8
0
100
AcDbLine
 10
78.0
 20
278.875
 30
0.0
 11
95.125
 21
287.125
 31
0.0
  0
LINE
  5
A41
330
1D
100
AcDbEntity
  8
0
100
AcDbLine
 10
77.375
 20
279.875
 30
0.0
 11
94.75
 21
288.25
 31
0.0
  0
LINE
  5
A42
330
1D
100
AcDbEntity
  8
0
100
AcDbLine
 10
60.875
 20
268.75
 30
0.0
 11
77.375
 21
279.875
 31
0.0
  0
LINE
  5
A43
330
1D
100
AcDbEntity
  8
0
100
AcDbLine
 10
100.7
 20
584.5
 30
0.0
 11
106.0
 21
584.5
 31
0.0
  0
LINE
  5
A44
330
1D
100
AcDbEntity
  8
0
100
AcDbLine
 10
100.0
 20
584.0
 30
0.0
 11
105.1
 21
584.0
 31
0.0
  0
LINE
  5
A45
330
1D
100
AcDbEntity
  8
0
100
AcDbLine
 10
95.125
 20
287.125
 30
0.0
 11
113.625
 21
293.375
 31
0.0
  0
LINE
  5
A46
330
1D
100
AcDbEntity
  8
0
100
AcDbLine
 10
94.75
 20
288.25
 30
0.0
 11
113.25
 21
294.625
 31
0.0
  0
LINE
  5
A47
330
1D
100
AcDbEntity
  8
0
100
AcDbLine
 10
2.0
 20
150.0
 30
0.0
 11
3.5
 21
130.5
 31
0.0
  0
LINE
  5
A48
330
1D
100
AcDbEntity
  8
0
100
AcDbLine
 10
2.0
 20
150.0
 30
0.0
 11
3.5
 21
169.5
 31
0.0
  0
LINE
  5
A49
330
1D
100
AcDbEntity
  8
0
100
AcDbLine
 10
113.625
 20
6.625
 30
0.0
 11
132.5
 21
2.75
 31
0.0
  0
LINE
  5
A4A
330
1D
100
AcDbEntity
  8
0
100
AcDbLine
 10
113.25
 20
5.375
 30
0.0
 11
132.5
 21
1.5
 31
0.0
  0
LINE
  5
A4B
330
1D
100
AcDbEntity
  8
0
100
AcDbLine
 10
112.4
 20
119.6
 30
0.0
 11
116.7
 21
114.7
 31
0.0
  0
LINE
  5
A4C
330
1D
100
AcDbEntity
  8
0
100
AcDbLine
 10
108.7
 20
125.1
 30
0.0
 11
112.4
 21
119.6
 31
0.0
  0
LINE
  5
A4D
330
1D
100
AcDbEntity
  8
0
100
AcDbLine
 10
105.9
 20
130.9
 30
0.0
 11
108.7
 21
125.1
 31
0.0
  0
LINE
  5
A4E
330
1D
100
AcDbEntity
  8
0
100
AcDbLine
 10
103.8
 20
137.1
 30
0.0
 11
105.9
 21
130.9
 31
0.0
  0
LINE
  5
A4F
330
1D
100
AcDbEntity
  8
0
100
AcDbLine
 10
105.1
 20
584.0
 30
0.0
 11
108.3
 21
584.0
 31
0.0
  0
LINE
  5
A50
330
1D
100
AcDbEntity
  8
0
100
AcDbLine
 10
108.3
 20
584.0
 30
0.0
 11
109.5
 21
584.0
 31
0.0
  0
LINE
  5
A51
330
1D
100
AcDbEntity
  8
0
100
AcDbLine
 10
106.0
 20
584.5
 30
0.0
 11
109.3
 21
584.5
 31
0.0
  0
LINE
  5
A52
330
1D
100
AcDbEntity
  8
0
100
AcDbLine
 10
109.3
 20
584.5
 30
0.0
 11
110.5
 21
584.5
 31
0.0
  0
LINE
  5
A53
330
1D
100
AcDbEntity
  8
0
100
AcDbLine
 10
109.5
 20
584.0
 30
0.0
 11
110.5
 21
584.5
 31
0.0
  0
LINE
  5
A54
330
1D
100
AcDbEntity
  8
0
100
AcDbLine
 10
110.5
 20
584.5
 30
0.0
 11
111.0
 21
585.5
 31
0.0
  0
LINE
  5
A55
330
1D
100
AcDbEntity
  8
0
100
AcDbLine
 10
111.0
 20
585.5
 30
0.0
 11
111.0
 21
610.0
 31
0.0
  0
LINE
  5
A56
330
1D
100
AcDbEntity
  8
0
100
AcDbLine
 10
113.625
 20
293.375
 30
0.0
 11
132.5
 21
297.25
 31
0.0
  0
LINE
  5
A64
330
1D
100
AcDbEntity
  8
0
100
AcDbLine
 10
113.25
 20
294.625
 30
0.0
 11
132.5
 21
298.5
 31
0.0
  0
LINE
  5
A65
330
1D
100
AcDbEntity
  8
0
100
AcDbLine
 10
112.4
 20
180.4
 30
0.0
 11
116.7
 21
185.3
 31
0.0
  0
LINE
  5
A66
330
1D
100
AcDbEntity
  8
0
100
AcDbLine
 10
108.7
 20
174.9
 30
0.0
 11
112.4
 21
180.4
 31
0.0
  0
LINE
  5
A67
330
1D
100
AcDbEntity
  8
0
100
AcDbLine
 10
105.9
 20
169.1
 30
0.0
 11
108.7
 21
174.9
 31
0.0
  0
LINE
  5
A68
330
1D
100
AcDbEntity
  8
0
100
AcDbLine
 10
103.8
 20
162.9
 30
0.0
 11
105.9
 21
169.1
 31
0.0
  0
LINE
  5
A69
330
1D
100
AcDbEntity
  8
0
100
AcDbLine
 10
102.5
 20
156.5
 30
0.0
 11
103.8
 21
162.9
 31
0.0
  0
LINE
  5
A6A
330
1D
100
AcDbEntity
  8
0
100
AcDbLine
 10
102.5
 20
143.5
 30
0.0
 11
103.8
 21
137.1
 31
0.0
  0
LINE
  5
A6B
330
1D
100
AcDbEntity
  8
0
100
AcDbLine
 10
102.0
 20
150.0
 30
0.0
 11
102.5
 21
143.5
 31
0.0
  0
LINE
  5
A6C
330
1D
100
AcDbEntity
  8
0
100
AcDbLine
 10
102.0
 20
150.0
 30
0.0
 11
102.5
 21
156.5
 31
0.0
  0
LINE
  5
A6D
330
1D
100
AcDbEntity
  8
0
100
AcDbLine
 10
112.96
 20
602.0
 30
0.0
 11
114.4
 21
602.0
 31
0.0
  0
LINE
  5
A71
330
1D
100
AcDbEntity
  8
0
100
AcDbLine
 10
116.7
 20
185.3
 30
0.0
 11
121.6
 21
189.6
 31
0.0
  0
LINE
  5
A7D
330
1D
100
AcDbEntity
  8
0
100
AcDbLine
 10
121.6
 20
189.6
 30
0.0
 11
127.1
 21
193.3
 31
0.0
  0
LINE
  5
A7E
330
1D
100
AcDbEntity
  8
0
100
AcDbLine
 10
116.7
 20
114.7
 30
0.0
 11
121.6
 21
110.4
 31
0.0
  0
LINE
  5
A7F
330
1D
100
AcDbEntity
  8
0
100
AcDbLine
 10
121.6
 20
110.4
 30
0.0
 11
127.1
 21
106.7
 31
0.0
  0
LINE
  5
A80
330
1D
100
AcDbEntity
  8
0
100
AcDbLine
 10
114.4
 20
602.0
 30
0.0
 11
118.24
 21
602.0
 31
0.0
  0
LINE
  5
A81
330
1D
100
AcDbEntity
  8
0
100
AcDbLine
 10
118.24
 20
602.0
 30
0.0
 11
124.48
 21
602.0
 31
0.0
  0
LINE
  5
A82
330
1D
100
AcDbEntity
  8
0
100
AcDbLine
 10
132.5
 20
2.75
 30
0.0
 11
152.0
 21
1.25
 31
0.0
  0
LINE
  5
A83
330
1D
100
AcDbEntity
  8
0
100
AcDbLine
 10
132.5
 20
1.5
 30
0.0
 11
152.0
 21
0.0
 31
0.0
  0
LINE
  5
A8D
330
1D
100
AcDbEntity
  8
0
100
AcDbLine
 10
132.5
 20
297.25
 30
0.0
 11
139.5
 21
297.788461538462
 31
0.0
  0
LINE
  5
A8F
330
1D
100
AcDbEntity
  8
0
100
AcDbLine
 10
132.5
 20
298.5
 30
0.0
 11
139.5
 21
299.038461538462
 31
0.0
  0
LINE
  5
A90
330
1D
100
AcDbEntity
  8
0
100
AcDbLine
 10
127.1
 20
193.3
 30
0.0
 11
132.9
 21
196.1
 31
0.0
  0
LINE
  5
A91
330
1D
100
AcDbEntity
  8
0
100
AcDbLine
 10
132.9
 20
196.1
 30
0.0
 11
139.1
 21
198.2
 31
0.0
  0
LINE
  5
A92
330
1D
100
AcDbEntity
  8
0
100
AcDbLine
 10
127.1
 20
106.7
 30
0.0
 11
132.9
 21
103.9
 31
0.0
  0
LINE
  5
A97
330
1D
100
AcDbEntity
  8
0
100
AcDbLine
 10
132.9
 20
103.9
 30
0.0
 11
139.1
 21
101.8
 31
0.0
  0
LINE
  5
A98
330
1D
100
AcDbEntity
  8
0
100
AcDbLine
 10
136.02
 20
552.284
 30
0.0
 11
137.652
 21
556.228
 31
0.0
  0
LINE
  5
A99
330
1D
100
AcDbEntity
  8
0
100
AcDbLine
 10
135.408
 20
548.0
 30
0.0
 11
136.02
 21
543.716
 31
0.0
  0
LINE
  5
A9A
330
1D
100
AcDbEntity
  8
0
100
AcDbLine
 10
135.408
 20
548.0
 30
0.0
 11
136.02
 21
552.284
 31
0.0
  0
LINE
  5
A9B
330
1D
100
AcDbEntity
  8
0
100
AcDbLine
 10
136.02
 20
543.716
 30
0.0
 11
137.652
 21
539.772
 31
0.0
  0
LINE
  5
A9C
330
1D
100
AcDbEntity
  8
0
100
AcDbLine
 10
139.1
 20
198.2
 30
0.0
 11
139.5
 21
198.28125
 31
0.0
  0
LINE
  5
A9D
330
1D
100
AcDbEntity
  8
0
100
AcDbLine
 10
139.5
 20
119.309
 30
0.0
 11
139.8
 21
118.5
 31
0.0
  0
LINE
  5
A9E
330
1D
100
AcDbEntity
  8
0
100
AcDbLine
 10
139.5
 20
119.309
 30
0.0
 11
139.5
 21
495.185
 31
0.0
  0
LINE
  5
A9F
330
1D
100
AcDbEntity
  8
0
100
AcDbLine
 10
139.8
 20
118.5
 30
0.0
 11
140.25
 21
118.5
 31
0.0
  0
LINE
  5
AA0
330
1D
100
AcDbEntity
  8
0
100
AcDbLine
 10
139.5
 20
522.691
 30
0.0
 11
139.8
 21
523.5
 31
0.0
  0
LINE
  5
AA1
330
1D
100
AcDbEntity
  8
0
100
AcDbLine
 10
139.5
 20
522.691
 30
0.0
 11
139.5
 21
495.185
 31
0.0
  0
LINE
  5
AA2
330
1D
100
AcDbEntity
  8
0
100
AcDbLine
 10
139.5
 20
495.185
 30
0.0
 11
139.5
 21
119.309
 31
0.0
  0
LINE
  5
AA3
330
1D
100
AcDbEntity
  8
0
100
AcDbLine
 10
139.5
 20
495.185
 30
0.0
 11
139.5
 21
522.691
 31
0.0
  0
LINE
  5
AA4
330
1D
100
AcDbEntity
  8
0
100
AcDbLine
 10
141.45
 20
118.5
 30
0.0
 11
143.4
 21
118.5
 31
0.0
  0
LINE
  5
AA5
330
1D
100
AcDbEntity
  8
0
100
AcDbLine
 10
140.25
 20
118.5
 30
0.0
 11
141.45
 21
118.5
 31
0.0
  0
LINE
  5
AA6
330
1D
100
AcDbEntity
  8
0
100
AcDbLine
 10
141.45
 20
523.5
 30
0.0
 11
143.4
 21
523.5
 31
0.0
  0
LINE
  5
AA7
330
1D
100
AcDbEntity
  8
0
100
AcDbLine
 10
140.25
 20
523.5
 30
0.0
 11
141.45
 21
523.5
 31
0.0
  0
LINE
  5
AA8
330
1D
100
AcDbEntity
  8
0
100
AcDbLine
 10
139.8
 20
523.5
 30
0.0
 11
140.25
 21
523.5
 31
0.0
  0
LINE
  5
AA9
330
1D
100
AcDbEntity
  8
0
100
AcDbLine
 10
139.5
 20
524.357
 30
0.0
 11
139.5
 21
548.0
 31
0.0
  0
LINE
  5
AAA
330
1D
100
AcDbEntity
  8
0
100
AcDbLine
 10
139.5
 20
524.357
 30
0.0
 11
139.8
 21
523.5
 31
0.0
  0
LINE
  5
AAB
330
1D
100
AcDbEntity
  8
0
100
AcDbLine
 10
139.1
 20
101.8
 30
0.0
 11
145.5
 21
100.5
 31
0.0
  0
LINE
  5
AAC
330
1D
100
AcDbEntity
  8
0
100
AcDbLine
 10
141.15
 20
554.2
 30
0.0
 11
141.5
 21
554.66375
 31
0.0
  0
LINE
  5
AAD
330
1D
100
AcDbEntity
  8
0
100
AcDbLine
 10
141.15
 20
554.2
 30
0.0
 11
143.15
 21
556.85
 31
0.0
  0
LINE
  5
AAE
330
1D
100
AcDbEntity
  8
0
100
AcDbLine
 10
139.95
 20
551.2
 30
0.0
 11
141.15
 21
554.2
 31
0.0
  0
LINE
  5
AAF
330
1D
100
AcDbEntity
  8
0
100
AcDbLine
 10
139.5
 20
548.0
 30
0.0
 11
139.95
 21
551.2
 31
0.0
  0
LINE
  5
AB0
330
1D
100
AcDbEntity
  8
0
100
AcDbLine
 10
139.5
 20
548.0
 30
0.0
 11
139.5
 21
524.357
 31
0.0
  0
LINE
  5
AB1
330
1D
100
AcDbEntity
  8
0
100
AcDbLine
 10
137.652
 20
539.772
 30
0.0
 11
139.5
 21
537.355384615385
 31
0.0
  0
LINE
  5
AB2
330
1D
100
AcDbEntity
  8
0
100
AcDbLine
 10
137.652
 20
556.228
 30
0.0
 11
140.304
 21
559.696
 31
0.0
  0
LINE
  5
AB3
330
1D
100
AcDbEntity
  8
0
100
AcDbLine
 10
140.304
 20
559.696
 30
0.0
 11
141.5
 21
560.610588235294
 31
0.0
  0
LINE
  5
AB4
330
1D
100
AcDbEntity
  8
0
100
AcDbLine
 10
141.5
 20
554.66375
 30
0.0
 11
141.5
 21
602.0
 31
0.0
  0
LINE
  5
AB5
330
1D
100
AcDbEntity
  8
0
100
AcDbLine
 10
141.5
 20
602.0
 30
0.0
 11
141.5
 21
554.66375
 31
0.0
  0
LINE
  5
AB6
330
1D
100
AcDbEntity
  8
0
100
AcDbLine
 10
141.5
 20
602.0
 30
0.0
 11
141.878
 21
602.0
 31
0.0
  0
LINE
  5
AB7
330
1D
100
AcDbEntity
  8
0
100
AcDbLine
 10
141.878
 20
602.0
 30
0.0
 11
142.886
 21
602.0
 31
0.0
  0
LINE
  5
AB8
330
1D
100
AcDbEntity
  8
0
100
AcDbLine
 10
143.4
 20
118.5
 30
0.0
 11
145.95
 21
118.5
 31
0.0
  0
LINE
  5
AB9
330
1D
100
AcDbEntity
  8
0
100
AcDbLine
 10
145.95
 20
118.5
 30
0.0
 11
148.85
 21
118.5
 31
0.0
  0
LINE
  5
ABA
330
1D
100
AcDbEntity
  8
0
100
AcDbLine
 10
145.95
 20
523.5
 30
0.0
 11
148.85
 21
523.5
 31
0.0
  0
LINE
  5
ABB
330
1D
100
AcDbEntity
  8
0
100
AcDbLine
 10
143.4
 20
523.5
 30
0.0
 11
145.95
 21
523.5
 31
0.0
  0
LINE
  5
ABC
330
1D
100
AcDbEntity
  8
0
100
AcDbLine
 10
145.8
 20
558.85
 30
0.0
 11
148.8
 21
560.05
 31
0.0
  0
LINE
  5
ABD
330
1D
100
AcDbEntity
  8
0
100
AcDbLine
 10
143.15
 20
556.85
 30
0.0
 11
145.8
 21
558.85
 31
0.0
  0
LINE
  5
ABE
330
1D
100
AcDbEntity
  8
0
100
AcDbLine
 10
145.5
 20
100.5
 30
0.0
 11
152.0
 21
100.0
 31
0.0
  0
LINE
  5
ABF
330
1D
100
AcDbEntity
  8
0
100
AcDbLine
 10
142.886
 20
602.0
 30
0.0
 11
144.566
 21
602.0
 31
0.0
  0
LINE
  5
AC0
330
1D
100
AcDbEntity
  8
0
100
AcDbLine
 10
144.566
 20
602.0
 30
0.0
 11
146.792
 21
602.0
 31
0.0
  0
LINE
  5
AC1
330
1D
100
AcDbEntity
  8
0
100
AcDbLine
 10
152.0
 20
1.25
 30
0.0
 11
171.5
 21
2.75
 31
0.0
  0
LINE
  5
AC2
330
1D
100
AcDbEntity
  8
0
100
AcDbLine
 10
152.0
 20
0.0
 30
0.0
 11
171.5
 21
1.5
 31
0.0
  0
LINE
  5
AC3
330
1D
100
AcDbEntity
  8
0
100
AcDbLine
 10
148.85
 20
118.5
 30
0.0
 11
152.0
 21
118.5
 31
0.0
  0
LINE
  5
AC4
330
1D
100
AcDbEntity
  8
0
100
AcDbLine
 10
152.0
 20
118.5
 30
0.0
 11
155.15
 21
118.5
 31
0.0
  0
LINE
  5
AC5
330
1D
100
AcDbEntity
  8
0
100
AcDbLine
 10
152.0
 20
523.5
 30
0.0
 11
155.15
 21
523.5
 31
0.0
  0
LINE
  5
AC6
330
1D
100
AcDbEntity
  8
0
100
AcDbLine
 10
148.85
 20
523.5
 30
0.0
 11
152.0
 21
523.5
 31
0.0
  0
LINE
  5
AC7
330
1D
100
AcDbEntity
  8
0
100
AcDbLine
 10
152.0
 20
560.5
 30
0.0
 11
155.2
 21
560.05
 31
0.0
  0
LINE
  5
AC8
330
1D
100
AcDbEntity
  8
0
100
AcDbLine
 10
148.8
 20
560.05
 30
0.0
 11
152.0
 21
560.5
 31
0.0
  0
LINE
  5
AC9
330
1D
100
AcDbEntity
  8
0
100
AcDbLine
 10
152.0
 20
100.0
 30
0.0
 11
158.5
 21
100.5
 31
0.0
  0
LINE
  5
ACA
330
1D
100
AcDbEntity
  8
0
100
AcDbLine
 10
146.792
 20
602.0
 30
0.0
 11
149.312
 21
602.0
 31
0.0
  0
LINE
  5
ACB
330
1D
100
AcDbEntity
  8
0
100
AcDbLine
 10
149.312
 20
602.0
 30
0.0
 11
152.0
 21
602.0
 31
0.0
  0
LINE
  5
ACC
330
1D
100
AcDbEntity
  8
0
100
AcDbLine
 10
155.15
 20
118.5
 30
0.0
 11
158.05
 21
118.5
 31
0.0
  0
LINE
  5
ACD
330
1D
100
AcDbEntity
  8
0
100
AcDbLine
 10
158.05
 20
118.5
 30
0.0
 11
160.6
 21
118.5
 31
0.0
  0
LINE
  5
ACE
330
1D
100
AcDbEntity
  8
0
100
AcDbLine
 10
155.15
 20
523.5
 30
0.0
 11
158.05
 21
523.5
 31
0.0
  0
LINE
  5
ACF
330
1D
100
AcDbEntity
  8
0
100
AcDbLine
 10
158.05
 20
523.5
 30
0.0
 11
160.6
 21
523.5
 31
0.0
  0
LINE
  5
AD0
330
1D
100
AcDbEntity
  8
0
100
AcDbLine
 10
155.2
 20
560.05
 30
0.0
 11
158.2
 21
558.85
 31
0.0
  0
LINE
  5
AD1
330
1D
100
AcDbEntity
  8
0
100
AcDbLine
 10
158.2
 20
558.85
 30
0.0
 11
160.85
 21
556.85
 31
0.0
  0
LINE
  5
AD2
330
1D
100
AcDbEntity
  8
0
100
AcDbLine
 10
158.5
 20
100.5
 30
0.0
 11
164.9
 21
101.8
 31
0.0
  0
LINE
  5
AD3
330
1D
100
AcDbEntity
  8
0
100
AcDbLine
 10
160.6
 20
118.5
 30
0.0
 11
162.55
 21
118.5
 31
0.0
  0
LINE
  5
AD4
330
1D
100
AcDbEntity
  8
0
100
AcDbLine
 10
160.6
 20
523.5
 30
0.0
 11
162.55
 21
523.5
 31
0.0
  0
LINE
  5
AD5
330
1D
100
AcDbEntity
  8
0
100
AcDbLine
 10
160.85
 20
556.85
 30
0.0
 11
162.85
 21
554.2
 31
0.0
  0
LINE
  5
AD6
330
1D
100
AcDbEntity
  8
0
100
AcDbLine
 10
162.5
 20
560.610588235294
 30
0.0
 11
163.696
 21
559.696
 31
0.0
  0
LINE
  5
AD7
330
1D
100
AcDbEntity
  8
0
100
AcDbLine
 10
162.5
 20
563.016
 30
0.0
 11
174.5
 21
563.016
 31
0.0
  0
LINE
  5
AD8
330
1D
100
AcDbEntity
  8
0
100
AcDbLine
 10
162.122
 20
602.0
 30
0.0
 11
162.5
 21
602.0
 31
0.0
  0
LINE
  5
AD9
330
1D
100
AcDbEntity
  8
0
100
AcDbLine
 10
162.55
 20
118.5
 30
0.0
 11
163.75
 21
118.5
 31
0.0
  0
LINE
  5
ADA
330
1D
100
AcDbEntity
  8
0
100
AcDbLine
 10
163.75
 20
118.5
 30
0.0
 11
164.2
 21
118.5
 31
0.0
  0
LINE
  5
ADB
330
1D
100
AcDbEntity
  8
0
100
AcDbLine
 10
164.2
 20
118.5
 30
0.0
 11
164.5
 21
119.309
 31
0.0
  0
LINE
  5
ADC
330
1D
100
AcDbEntity
  8
0
100
AcDbLine
 10
164.5
 20
119.309
 30
0.0
 11
164.5
 21
495.185
 31
0.0
  0
LINE
  5
ADD
330
1D
100
AcDbEntity
  8
0
100
AcDbLine
 10
164.9
 20
198.2
 30
0.0
 11
171.1
 21
196.1
 31
0.0
  0
LINE
  5
ADE
330
1D
100
AcDbEntity
  8
0
100
AcDbLine
 10
162.55
 20
523.5
 30
0.0
 11
163.75
 21
523.5
 31
0.0
  0
LINE
  5
ADF
330
1D
100
AcDbEntity
  8
0
100
AcDbLine
 10
163.75
 20
523.5
 30
0.0
 11
164.2
 21
523.5
 31
0.0
  0
LINE
  5
AE0
330
1D
100
AcDbEntity
  8
0
100
AcDbLine
 10
164.5
 20
366.492635822511
 30
0.0
 11
164.895
 21
366.377
 31
0.0
  0
LINE
  5
AE1
330
1D
100
AcDbEntity
  8
0
100
AcDbLine
 10
164.5
 20
366.494789387607
 30
0.0
 11
164.895
 21
366.377
 31
0.0
  0
LINE
  5
AE2
330
1D
100
AcDbEntity
  8
0
100
AcDbLine
 10
164.5
 20
366.464644827586
 30
0.0
 11
164.861
 21
366.357
 31
0.0
  0
LINE
  5
AE3
330
1D
100
AcDbEntity
  8
0
100
AcDbLine
 10
164.5
 20
515.0
 30
0.0
 11
170.819536139332
 21
515.0
 31
0.0
  0
LINE
  5
AE5
330
1D
100
AcDbEntity
  8
0
100
AcDbLine
 10
164.5
 20
522.691
 30
0.0
 11
164.5
 21
495.185
 31
0.0
  0
LINE
  5
AE6
330
1D
100
AcDbEntity
  8
0
100
AcDbLine
 10
164.5
 20
495.185
 30
0.0
 11
164.5
 21
119.309
 31
0.0
  0
LINE
  5
AE7
330
1D
100
AcDbEntity
  8
0
100
AcDbLine
 10
164.5
 20
495.185
 30
0.0
 11
164.5
 21
522.691
 31
0.0
  0
LINE
  5
AE8
330
1D
100
AcDbEntity
  8
0
100
AcDbLine
 10
164.5
 20
524.357
 30
0.0
 11
164.5
 21
548.0
 31
0.0
  0
LINE
  5
AE9
330
1D
100
AcDbEntity
  8
0
100
AcDbLine
 10
164.2
 20
523.5
 30
0.0
 11
164.5
 21
524.357
 31
0.0
  0
LINE
  5
AEA
330
1D
100
AcDbEntity
  8
0
100
AcDbLine
 10
164.2
 20
523.5
 30
0.0
 11
164.5
 21
522.691
 31
0.0
  0
LINE
  5
AEB
330
1D
100
AcDbEntity
  8
0
100
AcDbLine
 10
164.5
 20
297.788461538462
 30
0.0
 11
171.5
 21
297.25
 31
0.0
  0
LINE
  5
AED
330
1D
100
AcDbEntity
  8
0
100
AcDbLine
 10
164.5
 20
299.038461538462
 30
0.0
 11
171.5
 21
298.5
 31
0.0
  0
LINE
  5
AEE
330
1D
100
AcDbEntity
  8
0
100
AcDbLine
 10
164.5
 20
198.28125
 30
0.0
 11
164.9
 21
198.2
 31
0.0
  0
LINE
  5
AFF
330
1D
100
AcDbEntity
  8
0
100
AcDbLine
 10
171.1
 20
196.1
 30
0.0
 11
176.9
 21
193.3
 31
0.0
  0
LINE
  5
B00
330
1D
100
AcDbEntity
  8
0
100
AcDbLine
 10
171.1
 20
103.9
 30
0.0
 11
176.9
 21
106.7
 31
0.0
  0
LINE
  5
B01
330
1D
100
AcDbEntity
  8
0
100
AcDbLine
 10
164.9
 20
101.8
 30
0.0
 11
171.1
 21
103.9
 31
0.0
  0
LINE
  5
B02
330
1D
100
AcDbEntity
  8
0
100
AcDbLine
 10
162.85
 20
554.2
 30
0.0
 11
164.05
 21
551.2
 31
0.0
  0
LINE
  5
B03
330
1D
100
AcDbEntity
  8
0
100
AcDbLine
 10
164.5
 20
548.0
 30
0.0
 11
164.5
 21
524.357
 31
0.0
  0
LINE
  5
B04
330
1D
100
AcDbEntity
  8
0
100
AcDbLine
 10
164.05
 20
551.2
 30
0.0
 11
164.5
 21
548.0
 31
0.0
  0
LINE
  5
B05
330
1D
100
AcDbEntity
  8
0
100
AcDbLine
 10
163.696
 20
559.696
 30
0.0
 11
166.348
 21
556.228
 31
0.0
  0
LINE
  5
B06
330
1D
100
AcDbEntity
  8
0
100
AcDbLine
 10
167.98
 20
552.284
 30
0.0
 11
168.592
 21
548.0
 31
0.0
  0
LINE
  5
B07
330
1D
100
AcDbEntity
  8
0
100
AcDbLine
 10
166.348
 20
556.228
 30
0.0
 11
167.98
 21
552.284
 31
0.0
  0
LINE
  5
B08
330
1D
100
AcDbEntity
  8
0
100
AcDbLine
 10
167.98
 20
543.716
 30
0.0
 11
168.592
 21
548.0
 31
0.0
  0
LINE
  5
B09
330
1D
100
AcDbEntity
  8
0
100
AcDbLine
 10
166.348
 20
539.772
 30
0.0
 11
167.98
 21
543.716
 31
0.0
  0
LINE
  5
B0A
330
1D
100
AcDbEntity
  8
0
100
AcDbLine
 10
164.5
 20
537.355384615385
 30
0.0
 11
166.348
 21
539.772
 31
0.0
  0
LINE
  5
B0C
330
1D
100
AcDbEntity
  8
0
100
AcDbLine
 10
162.5
 20
554.66375
 30
0.0
 11
162.5
 21
602.0
 31
0.0
  0
LINE
  5
B0D
330
1D
100
AcDbEntity
  8
0
100
AcDbLine
 10
162.5
 20
554.66375
 30
0.0
 11
162.85
 21
554.2
 31
0.0
  0
LINE
  5
B0E
330
1D
100
AcDbEntity
  8
0
100
AcDbLine
 10
161.114
 20
602.0
 30
0.0
 11
162.122
 21
602.0
 31
0.0
  0
LINE
  5
B0F
330
1D
100
AcDbEntity
  8
0
100
AcDbLine
 10
159.434
 20
602.0
 30
0.0
 11
161.114
 21
602.0
 31
0.0
  0
LINE
  5
B10
330
1D
100
AcDbEntity
  8
0
100
AcDbLine
 10
157.208
 20
602.0
 30
0.0
 11
159.434
 21
602.0
 31
0.0
  0
LINE
  5
B11
330
1D
100
AcDbEntity
  8
0
100
AcDbLine
 10
154.688
 20
602.0
 30
0.0
 11
157.208
 21
602.0
 31
0.0
  0
LINE
  5
B12
330
1D
100
AcDbEntity
  8
0
100
AcDbLine
 10
152.0
 20
602.0
 30
0.0
 11
154.688
 21
602.0
 31
0.0
  0
LINE
  5
B13
330
1D
100
AcDbEntity
  8
0
100
AcDbLine
 10
124.48
 20
602.0
 30
0.0
 11
132.64
 21
602.0
 31
0.0
  0
LINE
  5
B14
330
1D
100
AcDbEntity
  8
0
100
AcDbLine
 10
132.64
 20
602.0
 30
0.0
 11
141.5
 21
602.0
 31
0.0
  0
LINE
  5
B15
330
1D
100
AcDbEntity
  8
0
100
AcDbLine
 10
171.5
 20
297.25
 30
0.0
 11
190.375
 21
293.375
 31
0.0
  0
LINE
  5
B16
330
1D
100
AcDbEntity
  8
0
100
AcDbLine
 10
171.5
 20
298.5
 30
0.0
 11
190.75
 21
294.625
 31
0.0
  0
LINE
  5
B17
330
1D
100
AcDbEntity
  8
0
100
AcDbLine
 10
171.5
 20
2.75
 30
0.0
 11
190.375
 21
6.625
 31
0.0
  0
LINE
  5
B1F
330
1D
100
AcDbEntity
  8
0
100
AcDbLine
 10
171.5
 20
1.5
 30
0.0
 11
190.75
 21
5.375
 31
0.0
  0
LINE
  5
B21
330
1D
100
AcDbEntity
  8
0
100
AcDbLine
 10
182.4
 20
189.6
 30
0.0
 11
187.3
 21
185.3
 31
0.0
  0
LINE
  5
B2A
330
1D
100
AcDbEntity
  8
0
100
AcDbLine
 10
176.9
 20
193.3
 30
0.0
 11
182.4
 21
189.6
 31
0.0
  0
LINE
  5
B2C
330
1D
100
AcDbEntity
  8
0
100
AcDbLine
 10
182.4
 20
110.4
 30
0.0
 11
187.3
 21
114.7
 31
0.0
  0
LINE
  5
B2D
330
1D
100
AcDbEntity
  8
0
100
AcDbLine
 10
176.9
 20
106.7
 30
0.0
 11
182.4
 21
110.4
 31
0.0
  0
LINE
  5
B2F
330
1D
100
AcDbEntity
  8
0
100
AcDbLine
 10
177.5
 20
555.0
 30
0.0
 11
177.946088071826
 21
555.0
 31
0.0
  0
LINE
  5
B30
330
1D
100
AcDbEntity
  8
0
100
AcDbLine
 10
177.5
 20
555.0
 30
0.0
 11
177.946088071826
 21
555.0
 31
0.0
  0
LINE
  5
B31
330
1D
100
AcDbEntity
  8
0
100
AcDbLine
 10
177.5
 20
554.503142857143
 30
0.0
 11
177.5
 21
555.016
 31
0.0
  0
LINE
  5
B32
330
1D
100
AcDbEntity
  8
0
100
AcDbLine
 10
177.5
 20
555.016
 30
0.0
 11
177.5
 21
558.265
 31
0.0
  0
LINE
  5
B33
330
1D
100
AcDbEntity
  8
0
100
AcDbLine
 10
177.5
 20
558.265
 30
0.0
 11
177.5
 21
560.835
 31
0.0
  0
LINE
  5
B34
330
1D
100
AcDbEntity
  8
0
100
AcDbLine
 10
174.5
 20
563.016
 30
0.0
 11
177.5
 21
563.016
 31
0.0
  0
LINE
  5
B35
330
1D
100
AcDbEntity
  8
0
100
AcDbLine
 10
177.5
 20
562.365
 30
0.0
 11
177.5
 21
563.016
 31
0.0
  0
LINE
  5
B36
330
1D
100
AcDbEntity
  8
0
100
AcDbLine
 10
177.5
 20
560.835
 30
0.0
 11
177.5
 21
562.365
 31
0.0
  0
LINE
  5
B3A
330
1D
100
AcDbEntity
  8
0
100
AcDbLine
 10
180.788
 20
594.918
 30
0.0
 11
180.788
 21
599.014
 31
0.0
  0
LINE
  5
B3B
330
1D
100
AcDbEntity
  8
0
100
AcDbLine
 10
180.788
 20
599.014
 30
0.0
 11
180.788
 21
594.918
 31
0.0
  0
LINE
  5
B3C
330
1D
100
AcDbEntity
  8
0
100
AcDbLine
 10
180.788
 20
599.014
 30
0.0
 11
182.954351719663
 21
602.0
 31
0.0
  0
LINE
  5
B3D
330
1D
100
AcDbEntity
  8
0
100
AcDbLine
 10
180.56
 20
591.913
 30
0.0
 11
180.788
 21
594.918
 31
0.0
  0
LINE
  5
B3E
330
1D
100
AcDbEntity
  8
0
100
AcDbLine
 10
180.532
 20
586.723
 30
0.0
 11
180.56
 21
591.913
 31
0.0
  0
LINE
  5
B3F
330
1D
100
AcDbEntity
  8
0
100
AcDbLine
 10
180.49
 20
579.79
 30
0.0
 11
180.532
 21
586.723
 31
0.0
  0
LINE
  5
B40
330
1D
100
AcDbEntity
  8
0
100
AcDbLine
 10
180.436
 20
571.338
 30
0.0
 11
180.49
 21
579.79
 31
0.0
  0
LINE
  5
B41
330
1D
100
AcDbEntity
  8
0
100
AcDbLine
 10
180.366
 20
561.255
 30
0.0
 11
180.496667593767
 21
557.314199390023
 31
0.0
  0
LINE
  5
B42
330
1D
100
AcDbEntity
  8
0
100
AcDbLine
 10
180.366
 20
561.255
 30
0.0
 11
180.436
 21
571.338
 31
0.0
  0
LINE
  5
B48
330
1D
100
AcDbEntity
  8
0
100
AcDbLine
 10
187.3
 20
185.3
 30
0.0
 11
191.6
 21
180.4
 31
0.0
  0
LINE
  5
B49
330
1D
100
AcDbEntity
  8
0
100
AcDbLine
 10
187.3
 20
114.7
 30
0.0
 11
191.6
 21
119.6
 31
0.0
  0
LINE
  5
B4C
330
1D
100
AcDbEntity
  8
0
100
AcDbLine
 10
190.375
 20
293.375
 30
0.0
 11
208.875
 21
287.125
 31
0.0
  0
LINE
  5
B4D
330
1D
100
AcDbEntity
  8
0
100
AcDbLine
 10
190.75
 20
294.625
 30
0.0
 11
209.25
 21
288.25
 31
0.0
  0
LINE
  5
B4E
330
1D
100
AcDbEntity
  8
0
100
AcDbLine
 10
190.375
 20
6.625
 30
0.0
 11
208.875
 21
12.875
 31
0.0
  0
LINE
  5
B4F
330
1D
100
AcDbEntity
  8
0
100
AcDbLine
 10
190.75
 20
5.375
 30
0.0
 11
209.25
 21
11.75
 31
0.0
  0
LINE
  5
B53
330
1D
100
AcDbEntity
  8
0
100
AcDbLine
 10
191.6
 20
180.4
 30
0.0
 11
195.3
 21
174.9
 31
0.0
  0
LINE
  5
B54
330
1D
100
AcDbEntity
  8
0
100
AcDbLine
 10
191.6
 20
119.6
 30
0.0
 11
195.3
 21
125.1
 31
0.0
  0
LINE
  5
B57
330
1D
100
AcDbEntity
  8
0
100
AcDbLine
 10
191.04
 20
602.0
 30
0.0
 11
192.0
 21
602.48
 31
0.0
  0
LINE
  5
B58
330
1D
100
AcDbEntity
  8
0
100
AcDbLine
 10
189.6
 20
602.0
 30
0.0
 11
191.04
 21
602.0
 31
0.0
  0
LINE
  5
B59
330
1D
100
AcDbEntity
  8
0
100
AcDbLine
 10
185.76
 20
602.0
 30
0.0
 11
189.6
 21
602.0
 31
0.0
  0
LINE
  5
B5A
330
1D
100
AcDbEntity
  8
0
100
AcDbLine
 10
179.52
 20
602.0
 30
0.0
 11
185.76
 21
602.0
 31
0.0
  0
LINE
  5
B5B
330
1D
100
AcDbEntity
  8
0
100
AcDbLine
 10
171.36
 20
602.0
 30
0.0
 11
179.52
 21
602.0
 31
0.0
  0
LINE
  5
B5C
330
1D
100
AcDbEntity
  8
0
100
AcDbLine
 10
112.0
 20
602.48
 30
0.0
 11
113.44
 21
602.48
 31
0.0
  0
LINE
  5
B5D
330
1D
100
AcDbEntity
  8
0
100
AcDbLine
 10
112.0
 20
602.48
 30
0.0
 11
112.96
 21
602.0
 31
0.0
  0
LINE
  5
B5E
330
1D
100
AcDbEntity
  8
0
100
AcDbLine
 10
112.0
 20
602.48
 30
0.0
 11
112.0
 21
610.0
 31
0.0
  0
LINE
  5
B5F
330
1D
100
AcDbEntity
  8
0
100
AcDbLine
 10
113.44
 20
602.48
 30
0.0
 11
117.28
 21
602.48
 31
0.0
  0
LINE
  5
B60
330
1D
100
AcDbEntity
  8
0
100
AcDbLine
 10
117.28
 20
602.48
 30
0.0
 11
123.68
 21
602.48
 31
0.0
  0
LINE
  5
B61
330
1D
100
AcDbEntity
  8
0
100
AcDbLine
 10
123.68
 20
602.48
 30
0.0
 11
132.16
 21
602.48
 31
0.0
  0
LINE
  5
B62
330
1D
100
AcDbEntity
  8
0
100
AcDbLine
 10
132.16
 20
602.48
 30
0.0
 11
141.76
 21
602.48
 31
0.0
  0
LINE
  5
B63
330
1D
100
AcDbEntity
  8
0
100
AcDbLine
 10
141.76
 20
602.48
 30
0.0
 11
152.0
 21
602.48
 31
0.0
  0
LINE
  5
B64
330
1D
100
AcDbEntity
  8
0
100
AcDbLine
 10
47.6
 20
610.0
 30
0.0
 11
53.0
 21
610.0
 31
0.0
  0
LINE
  5
B65
330
1D
100
AcDbEntity
  8
0
100
AcDbLine
 10
44.2
 20
610.0
 30
0.0
 11
47.6
 21
610.0
 31
0.0
  0
LINE
  5
B66
330
1D
100
AcDbEntity
  8
0
100
AcDbLine
 10
53.0
 20
610.0
 30
0.0
 11
60.1
 21
610.0
 31
0.0
  0
LINE
  5
B67
330
1D
100
AcDbEntity
  8
0
100
AcDbLine
 10
60.1
 20
610.0
 30
0.0
 11
68.3
 21
610.0
 31
0.0
  0
LINE
  5
B68
330
1D
100
AcDbEntity
  8
0
100
AcDbLine
 10
68.3
 20
610.0
 30
0.0
 11
77.0
 21
610.0
 31
0.0
  0
LINE
  5
B69
330
1D
100
AcDbEntity
  8
0
100
AcDbLine
 10
101.0
 20
610.0
 30
0.0
 11
106.4
 21
610.0
 31
0.0
  0
LINE
  5
B6A
330
1D
100
AcDbEntity
  8
0
100
AcDbLine
 10
106.4
 20
610.0
 30
0.0
 11
109.8
 21
610.0
 31
0.0
  0
LINE
  5
B6B
330
1D
100
AcDbEntity
  8
0
100
AcDbLine
 10
111.0
 20
610.0
 30
0.0
 11
111.0
 21
585.5
 31
0.0
  0
LINE
  5
B6C
330
1D
100
AcDbEntity
  8
0
100
AcDbLine
 10
109.8
 20
610.0
 30
0.0
 11
111.0
 21
610.0
 31
0.0
  0
LINE
  5
B6D
330
1D
100
AcDbEntity
  8
0
100
AcDbLine
 10
93.9
 20
610.0
 30
0.0
 11
101.0
 21
610.0
 31
0.0
  0
LINE
  5
B6E
330
1D
100
AcDbEntity
  8
0
100
AcDbLine
 10
85.7
 20
610.0
 30
0.0
 11
93.9
 21
610.0
 31
0.0
  0
LINE
  5
B6F
330
1D
100
AcDbEntity
  8
0
100
AcDbLine
 10
77.0
 20
610.0
 30
0.0
 11
85.7
 21
610.0
 31
0.0
  0
LINE
  5
B70
330
1D
100
AcDbEntity
  8
0
100
AcDbLine
 10
43.0
 20
610.0
 30
0.0
 11
43.0
 21
585.5
 31
0.0
  0
LINE
  5
B71
330
1D
100
AcDbEntity
  8
0
100
AcDbLine
 10
43.0
 20
610.0
 30
0.0
 11
44.2
 21
610.0
 31
0.0
  0
LINE
  5
B72
330
1D
100
AcDbEntity
  8
0
100
AcDbLine
 10
112.0
 20
610.0
 30
0.0
 11
113.44
 21
610.0
 31
0.0
  0
LINE
  5
B73
330
1D
100
AcDbEntity
  8
0
100
AcDbLine
 10
112.0
 20
610.0
 30
0.0
 11
112.0
 21
602.48
 31
0.0
  0
LINE
  5
B74
330
1D
100
AcDbEntity
  8
0
100
AcDbLine
 10
113.44
 20
610.0
 30
0.0
 11
117.28
 21
610.0
 31
0.0
  0
LINE
  5
B75
330
1D
100
AcDbEntity
  8
0
100
AcDbLine
 10
117.28
 20
610.0
 30
0.0
 11
123.68
 21
610.0
 31
0.0
  0
LINE
  5
B76
330
1D
100
AcDbEntity
  8
0
100
AcDbLine
 10
123.68
 20
610.0
 30
0.0
 11
132.16
 21
610.0
 31
0.0
  0
LINE
  5
B77
330
1D
100
AcDbEntity
  8
0
100
AcDbLine
 10
132.16
 20
610.0
 30
0.0
 11
141.76
 21
610.0
 31
0.0
  0
LINE
  5
B78
330
1D
100
AcDbEntity
  8
0
100
AcDbLine
 10
141.76
 20
610.0
 30
0.0
 11
152.0
 21
610.0
 31
0.0
  0
LINE
  5
B79
330
1D
100
AcDbEntity
  8
0
100
AcDbLine
 10
152.0
 20
602.48
 30
0.0
 11
162.24
 21
602.48
 31
0.0
  0
LINE
  5
B7A
330
1D
100
AcDbEntity
  8
0
100
AcDbLine
 10
171.84
 20
602.48
 30
0.0
 11
180.32
 21
602.48
 31
0.0
  0
LINE
  5
B7B
330
1D
100
AcDbEntity
  8
0
100
AcDbLine
 10
162.24
 20
602.48
 30
0.0
 11
171.84
 21
602.48
 31
0.0
  0
LINE
  5
B7C
330
1D
100
AcDbEntity
  8
0
100
AcDbLine
 10
186.72
 20
602.48
 30
0.0
 11
190.56
 21
602.48
 31
0.0
  0
LINE
  5
B7D
330
1D
100
AcDbEntity
  8
0
100
AcDbLine
 10
180.32
 20
602.48
 30
0.0
 11
186.72
 21
602.48
 31
0.0
  0
LINE
  5
B7E
330
1D
100
AcDbEntity
  8
0
100
AcDbLine
 10
192.0
 20
603.624398550725
 30
0.0
 11
194.223
 21
602.001
 31
0.0
  0
LINE
  5
B7F
330
1D
100
AcDbEntity
  8
0
100
AcDbLine
 10
190.56
 20
602.48
 30
0.0
 11
192.0
 21
602.48
 31
0.0
  0
LINE
  5
B80
330
1D
100
AcDbEntity
  8
0
100
AcDbLine
 10
192.0
 20
602.48
 30
0.0
 11
192.0
 21
610.0
 31
0.0
  0
LINE
  5
B81
330
1D
100
AcDbEntity
  8
0
100
AcDbLine
 10
190.56
 20
610.0
 30
0.0
 11
192.0
 21
610.0
 31
0.0
  0
LINE
  5
B82
330
1D
100
AcDbEntity
  8
0
100
AcDbLine
 10
186.72
 20
610.0
 30
0.0
 11
190.56
 21
610.0
 31
0.0
  0
LINE
  5
B83
330
1D
100
AcDbEntity
  8
0
100
AcDbLine
 10
180.32
 20
610.0
 30
0.0
 11
186.72
 21
610.0
 31
0.0
  0
LINE
  5
B84
330
1D
100
AcDbEntity
  8
0
100
AcDbLine
 10
171.84
 20
610.0
 30
0.0
 11
180.32
 21
610.0
 31
0.0
  0
LINE
  5
B85
330
1D
100
AcDbEntity
  8
0
100
AcDbLine
 10
162.24
 20
610.0
 30
0.0
 11
171.84
 21
610.0
 31
0.0
  0
LINE
  5
B86
330
1D
100
AcDbEntity
  8
0
100
AcDbLine
 10
152.0
 20
610.0
 30
0.0
 11
162.24
 21
610.0
 31
0.0
  0
LINE
  5
B87
330
1D
100
AcDbEntity
  8
0
100
AcDbLine
 10
162.5
 20
602.0
 30
0.0
 11
171.36
 21
602.0
 31
0.0
  0
LINE
  5
B88
330
1D
100
AcDbEntity
  8
0
100
AcDbLine
 10
162.5
 20
602.0
 30
0.0
 11
162.5
 21
554.66375
 31
0.0
  0
LINE
  5
B8C
330
1D
100
AcDbEntity
  8
0
100
AcDbLine
 10
195.3
 20
174.9
 30
0.0
 11
198.1
 21
169.1
 31
0.0
  0
LINE
  5
B8D
330
1D
100
AcDbEntity
  8
0
100
AcDbLine
 10
195.3
 20
125.1
 30
0.0
 11
198.1
 21
130.9
 31
0.0
  0
LINE
  5
B8E
330
1D
100
AcDbEntity
  8
0
100
AcDbLine
 10
198.1
 20
130.9
 30
0.0
 11
200.2
 21
137.1
 31
0.0
  0
LINE
  5
B90
330
1D
100
AcDbEntity
  8
0
100
AcDbLine
 10
198.1
 20
169.1
 30
0.0
 11
200.2
 21
162.9
 31
0.0
  0
LINE
  5
B91
330
1D
100
AcDbEntity
  8
0
100
AcDbLine
 10
200.2
 20
162.9
 30
0.0
 11
201.5
 21
156.5
 31
0.0
  0
LINE
  5
B92
330
1D
100
AcDbEntity
  8
0
100
AcDbLine
 10
201.5
 20
156.5
 30
0.0
 11
202.0
 21
150.0
 31
0.0
  0
LINE
  5
B93
330
1D
100
AcDbEntity
  8
0
100
AcDbLine
 10
200.2
 20
137.1
 30
0.0
 11
201.5
 21
143.5
 31
0.0
  0
LINE
  5
B94
330
1D
100
AcDbEntity
  8
0
100
AcDbLine
 10
208.875
 20
12.875
 30
0.0
 11
226.0
 21
21.125
 31
0.0
  0
LINE
  5
B95
330
1D
100
AcDbEntity
  8
0
100
AcDbLine
 10
209.25
 20
11.75
 30
0.0
 11
226.625
 21
20.125
 31
0.0
  0
LINE
  5
B96
330
1D
100
AcDbEntity
  8
0
100
AcDbLine
 10
226.0
 20
21.125
 30
0.0
 11
242.375
 21
32.25
 31
0.0
  0
LINE
  5
B97
330
1D
100
AcDbEntity
  8
0
100
AcDbLine
 10
226.625
 20
20.125
 30
0.0
 11
243.125
 21
31.25
 31
0.0
  0
LINE
  5
B9A
330
1D
100
AcDbEntity
  8
0
100
AcDbLine
 10
206.180463860668
 20
515.0
 30
0.0
 11
245.476
 21
515.0
 31
0.0
  0
LINE
  5
BA7
330
1D
100
AcDbEntity
  8
0
100
AcDbLine
 10
208.875
 20
287.125
 30
0.0
 11
226.0
 21
278.875
 31
0.0
  0
LINE
  5
BA8
330
1D
100
AcDbEntity
  8
0
100
AcDbLine
 10
242.375
 20
267.75
 30
0.0
 11
257.0
 21
255.0
 31
0.0
  0
LINE
  5
BA9
330
1D
100
AcDbEntity
  8
0
100
AcDbLine
 10
226.0
 20
278.875
 30
0.0
 11
242.375
 21
267.75
 31
0.0
  0
LINE
  5
BAA
330
1D
100
AcDbEntity
  8
0
100
AcDbLine
 10
243.125
 20
268.75
 30
0.0
 11
257.875
 21
255.875
 31
0.0
  0
LINE
  5
BC2
330
1D
100
AcDbEntity
  8
0
100
AcDbLine
 10
226.625
 20
279.875
 30
0.0
 11
243.125
 21
268.75
 31
0.0
  0
LINE
  5
BC3
330
1D
100
AcDbEntity
  8
0
100
AcDbLine
 10
209.25
 20
288.25
 30
0.0
 11
226.625
 21
279.875
 31
0.0
  0
LINE
  5
BC4
330
1D
100
AcDbEntity
  8
0
100
AcDbLine
 10
242.375
 20
32.25
 30
0.0
 11
257.0
 21
45.0
 31
0.0
  0
LINE
  5
BC5
330
1D
100
AcDbEntity
  8
0
100
AcDbLine
 10
257.0
 20
45.0
 30
0.0
 11
269.75
 21
59.625
 31
0.0
  0
LINE
  5
BC6
330
1D
100
AcDbEntity
  8
0
100
AcDbLine
 10
257.875
 20
44.125
 30
0.0
 11
270.75
 21
58.875
 31
0.0
  0
LINE
  5
BC7
330
1D
100
AcDbEntity
  8
0
100
AcDbLine
 10
269.75
 20
59.625
 30
0.0
 11
280.875
 21
76.0
 31
0.0
  0
LINE
  5
BC8
330
1D
100
AcDbEntity
  8
0
100
AcDbLine
 10
270.75
 20
58.875
 30
0.0
 11
281.875
 21
75.375
 31
0.0
  0
LINE
  5
BC9
330
1D
100
AcDbEntity
  8
0
100
AcDbLine
 10
280.875
 20
76.0
 30
0.0
 11
289.125
 21
93.125
 31
0.0
  0
LINE
  5
BCA
330
1D
100
AcDbEntity
  8
0
100
AcDbLine
 10
281.875
 20
75.375
 30
0.0
 11
290.25
 21
92.75
 31
0.0
  0
LINE
  5
BCB
330
1D
100
AcDbEntity
  8
0
100
AcDbLine
 10
289.125
 20
93.125
 30
0.0
 11
295.375
 21
111.625
 31
0.0
  0
LINE
  5
BCC
330
1D
100
AcDbEntity
  8
0
100
AcDbLine
 10
290.25
 20
92.75
 30
0.0
 11
296.625
 21
111.25
 31
0.0
  0
LINE
  5
BCD
330
1D
100
AcDbEntity
  8
0
100
AcDbLine
 10
289.125
 20
206.875
 30
0.0
 11
295.375
 21
188.375
 31
0.0
  0
LINE
  5
BCE
330
1D
100
AcDbEntity
  8
0
100
AcDbLine
 10
295.375
 20
188.375
 30
0.0
 11
299.25
 21
169.5
 31
0.0
  0
LINE
  5
BCF
330
1D
100
AcDbEntity
  8
0
100
AcDbLine
 10
269.75
 20
240.375
 30
0.0
 11
280.875
 21
224.0
 31
0.0
  0
LINE
  5
BD0
330
1D
100
AcDbEntity
  8
0
100
AcDbLine
 10
280.875
 20
224.0
 30
0.0
 11
289.125
 21
206.875
 31
0.0
  0
LINE
  5
BD7
330
1D
100
AcDbEntity
  8
0
100
AcDbLine
 10
246.492
 20
521.19
 30
0.0
 11
246.492
 21
518.048
 31
0.0
  0
LINE
  5
BD8
330
1D
100
AcDbEntity
  8
0
100
AcDbLine
 10
246.492
 20
521.19
 30
0.0
 11
246.492
 21
525.286
 31
0.0
  0
LINE
  5
BD9
330
1D
100
AcDbEntity
  8
0
100
AcDbLine
 10
246.492
 20
518.048
 30
0.0
 11
246.492
 21
521.19
 31
0.0
  0
LINE
  5
BDA
330
1D
100
AcDbEntity
  8
0
100
AcDbLine
 10
246.492
 20
518.048
 30
0.0
 11
246.492
 21
516.143
 31
0.0
  0
LINE
  5
BDB
330
1D
100
AcDbEntity
  8
0
100
AcDbLine
 10
246.771320041973
 20
516.0
 30
0.0
 11
258.241734406439
 21
516.0
 31
0.0
  0
LINE
  5
BDC
330
1D
100
AcDbEntity
  8
0
100
AcDbLine
 10
246.771320041973
 20
516.0
 30
0.0
 11
258.241734406439
 21
516.0
 31
0.0
  0
LINE
  5
BDD
330
1D
100
AcDbEntity
  8
0
100
AcDbLine
 10
246.492
 20
516.143
 30
0.0
 11
246.492
 21
518.048
 31
0.0
  0
LINE
  5
BDE
330
1D
100
AcDbEntity
  8
0
100
AcDbLine
 10
246.492
 20
516.143
 30
0.0
 11
246.492
 21
515.476
 31
0.0
  0
LINE
  5
BDF
330
1D
100
AcDbEntity
  8
0
100
AcDbLine
 10
246.492
 20
515.476
 30
0.0
 11
246.794918780209
 21
516.044270861298
 31
0.0
  0
LINE
  5
BE0
330
1D
100
AcDbEntity
  8
0
100
AcDbLine
 10
246.492
 20
515.476
 30
0.0
 11
246.492
 21
516.143
 31
0.0
  0
LINE
  5
BE1
330
1D
100
AcDbEntity
  8
0
100
AcDbLine
 10
245.476
 20
515.0
 30
0.0
 11
246.492
 21
515.476
 31
0.0
  0
LINE
  5
BEE
330
1D
100
AcDbEntity
  8
0
100
AcDbLine
 10
257.0
 20
255.0
 30
0.0
 11
269.75
 21
240.375
 31
0.0
  0
LINE
  5
BF2
330
1D
100
AcDbEntity
  8
0
100
AcDbLine
 10
258.241734406439
 20
516.0
 30
0.0
 11
258.508
 21
515.479
 31
0.0
  0
LINE
  5
BF3
330
1D
100
AcDbEntity
  8
0
100
AcDbLine
 10
258.508
 20
521.229
 30
0.0
 11
258.508
 21
518.087
 31
0.0
  0
LINE
  5
BF4
330
1D
100
AcDbEntity
  8
0
100
AcDbLine
 10
258.508
 20
521.229
 30
0.0
 11
258.508
 21
525.244
 31
0.0
  0
LINE
  5
BF5
330
1D
100
AcDbEntity
  8
0
100
AcDbLine
 10
258.508
 20
518.087
 30
0.0
 11
258.508
 21
516.111
 31
0.0
  0
LINE
  5
BF6
330
1D
100
AcDbEntity
  8
0
100
AcDbLine
 10
258.508
 20
518.087
 30
0.0
 11
258.508
 21
521.229
 31
0.0
  0
LINE
  5
BF7
330
1D
100
AcDbEntity
  8
0
100
AcDbLine
 10
258.508
 20
516.111
 30
0.0
 11
258.508
 21
515.479
 31
0.0
  0
LINE
  5
BF8
330
1D
100
AcDbEntity
  8
0
100
AcDbLine
 10
258.508
 20
516.111
 30
0.0
 11
258.508
 21
518.087
 31
0.0
  0
LINE
  5
BF9
330
1D
100
AcDbEntity
  8
0
100
AcDbLine
 10
258.508
 20
515.479
 30
0.0
 11
259.524
 21
515.086
 31
0.0
  0
LINE
  5
BFA
330
1D
100
AcDbEntity
  8
0
100
AcDbLine
 10
258.508
 20
515.479
 30
0.0
 11
258.508
 21
516.111
 31
0.0
  0
LINE
  5
BFD
330
1D
100
AcDbEntity
  8
0
100
AcDbLine
 10
259.524
 20
515.086
 30
0.0
 11
281.0
 21
515.086
 31
0.0
  0
LINE
  5
C07
330
1D
100
AcDbEntity
  8
0
100
AcDbLine
 10
281.0
 20
515.086
 30
0.0
 11
302.476
 21
515.086
 31
0.0
  0
LINE
  5
C0B
330
1D
100
AcDbEntity
  8
0
100
AcDbLine
 10
257.875
 20
255.875
 30
0.0
 11
270.75
 21
241.125
 31
0.0
  0
LINE
  5
C0C
330
1D
100
AcDbEntity
  8
0
100
AcDbLine
 10
270.75
 20
241.125
 30
0.0
 11
281.875
 21
224.625
 31
0.0
  0
LINE
  5
C0D
330
1D
100
AcDbEntity
  8
0
100
AcDbLine
 10
281.875
 20
224.625
 30
0.0
 11
290.25
 21
207.25
 31
0.0
  0
LINE
  5
C0E
330
1D
100
AcDbEntity
  8
0
100
AcDbLine
 10
290.25
 20
207.25
 30
0.0
 11
296.625
 21
188.75
 31
0.0
  0
LINE
  5
C0F
330
1D
100
AcDbEntity
  8
0
100
AcDbLine
 10
299.25
 20
169.5
 30
0.0
 11
300.75
 21
150.0
 31
0.0
  0
LINE
  5
C10
330
1D
100
AcDbEntity
  8
0
100
AcDbLine
 10
296.625
 20
188.75
 30
0.0
 11
300.5
 21
169.5
 31
0.0
  0
LINE
  5
C11
330
1D
100
AcDbEntity
  8
0
100
AcDbLine
 10
295.375
 20
111.625
 30
0.0
 11
299.25
 21
130.5
 31
0.0
  0
LINE
  5
C12
330
1D
100
AcDbEntity
  8
0
100
AcDbLine
 10
300.5
 20
169.5
 30
0.0
 11
302.0
 21
150.0
 31
0.0
  0
LINE
  5
C13
330
1D
100
AcDbEntity
  8
0
100
AcDbLine
 10
299.25
 20
130.5
 30
0.0
 11
300.75
 21
150.0
 31
0.0
  0
LINE
  5
C14
330
1D
100
AcDbEntity
  8
0
100
AcDbLine
 10
296.625
 20
111.25
 30
0.0
 11
300.5
 21
130.5
 31
0.0
  0
LINE
  5
C15
330
1D
100
AcDbEntity
  8
0
100
AcDbLine
 10
303.492
 20
521.229
 30
0.0
 11
303.492
 21
525.066114173228
 31
0.0
  0
LINE
  5
C16
330
1D
100
AcDbEntity
  8
0
100
AcDbLine
 10
303.492
 20
521.229
 30
0.0
 11
303.492
 21
518.087
 31
0.0
  0
LINE
  5
C17
330
1D
100
AcDbEntity
  8
0
100
AcDbLine
 10
303.492
 20
518.087
 30
0.0
 11
303.492
 21
516.111
 31
0.0
  0
LINE
  5
C18
330
1D
100
AcDbEntity
  8
0
100
AcDbLine
 10
303.492
 20
518.087
 30
0.0
 11
303.492
 21
521.229
 31
0.0
  0
LINE
  5
C19
330
1D
100
AcDbEntity
  8
0
100
AcDbLine
 10
303.492
 20
516.111
 30
0.0
 11
303.492
 21
518.087
 31
0.0
  0
LINE
  5
C1A
330
1D
100
AcDbEntity
  8
0
100
AcDbLine
 10
303.492
 20
516.111
 30
0.0
 11
303.492
 21
515.479
 31
0.0
  0
LINE
  5
C1B
330
1D
100
AcDbEntity
  8
0
100
AcDbLine
 10
304.0
 20
539.758
 30
0.0
 11
304.0
 21
518.903
 31
0.0
  0
LINE
  5
C1C
330
1D
100
AcDbEntity
  8
0
100
AcDbLine
 10
304.0
 20
518.903
 30
0.0
 11
304.0
 21
517.062
 31
0.0
  0
LINE
  5
C1D
330
1D
100
AcDbEntity
  8
0
100
AcDbLine
 10
304.0
 20
518.903
 30
0.0
 11
304.0
 21
539.758
 31
0.0
  0
LINE
  5
C1E
330
1D
100
AcDbEntity
  8
0
100
AcDbLine
 10
304.0
 20
517.062
 30
0.0
 11
304.0
 21
518.903
 31
0.0
  0
LINE
  5
C1F
330
1D
100
AcDbEntity
  8
0
100
AcDbLine
 10
304.0
 20
517.062
 30
0.0
 11
304.0
 21
516.473
 31
0.0
  0
LINE
  5
C20
330
1D
100
AcDbEntity
  8
0
100
AcDbLine
 10
304.0
 20
516.473
 30
0.0
 11
304.0
 21
517.062
 31
0.0
  0
LINE
  5
C21
330
1D
100
AcDbEntity
  8
0
100
AcDbLine
 10
303.492
 20
515.479
 30
0.0
 11
303.492
 21
516.111
 31
0.0
  0
LINE
  5
C22
330
1D
100
AcDbEntity
  8
0
100
AcDbLine
 10
303.492
 20
515.479
 30
0.0
 11
304.0
 21
516.473
 31
0.0
  0
LINE
  5
C23
330
1D
100
AcDbEntity
  8
0
100
AcDbLine
 10
302.476
 20
515.086
 30
0.0
 11
303.492
 21
515.479
 31
0.0
  0
LINE
  5
C24
330
1D
100
AcDbEntity
  8
0
100
AcDbLine
 10
300.5
 20
130.5
 30
0.0
 11
302.0
 21
150.0
 31
0.0
  0
LINE
  5
C25
330
1D
100
AcDbEntity
  8
0
100
AcDbLine
 10
243.125
 20
31.25
 30
0.0
 11
257.875
 21
44.125
 31
0.0
  0
LINE
  5
C26
330
1D
100
AcDbEntity
  8
0
100
AcDbLine
 10
201.5
 20
143.5
 30
0.0
 11
202.0
 21
150.0
 31
0.0
  0
LINE
  5
C27
330
1D
100
AcDbEntity
  8
0
100
AcDbLine
 10
303.138
 20
525.025
 30
0.0
 11
303.646
 21
525.084
 31
0.0
  0
LINE
  5
C28
330
1D
100
AcDbEntity
  8
0
100
AcDbLine
 10
293.9
 20
525.025
 30
0.0
 11
303.138
 21
525.025
 31
0.0
  0
LINE
  5
C29
330
1D
100
AcDbEntity
  8
0
100
AcDbLine
 10
284.154
 20
525.084
 30
0.0
 11
284.662
 21
525.025
 31
0.0
  0
LINE
  5
C2A
330
1D
100
AcDbEntity
  8
0
100
AcDbLine
 10
284.662
 20
525.025
 30
0.0
 11
293.9
 21
525.025
 31
0.0
  0
LINE
  5
C2B
330
1D
100
AcDbEntity
  8
0
100
AcDbLine
 10
303.646
 20
525.084
 30
0.0
 11
303.9
 21
525.233
 31
0.0
  0
LINE
  5
C2C
330
1D
100
AcDbEntity
  8
0
100
AcDbLine
 10
303.492
 20
525.066114173228
 30
0.0
 11
303.492
 21
521.229
 31
0.0
  0
LINE
  5
C2D
330
1D
100
AcDbEntity
  8
0
100
AcDbLine
 10
304.0
 20
524.700392293578
 30
0.0
 11
304.095
 21
524.703
 31
0.0
  0
LINE
  5
C2E
330
1D
100
AcDbEntity
  8
0
100
AcDbLine
 10
304.095
 20
524.703
 30
0.0
 11
317.0
 21
525.217
 31
0.0
  0
LINE
  5
C2F
330
1D
100
AcDbEntity
  8
0
100
AcDbLine
 10
303.9
 20
525.233
 30
0.0
 11
303.9
 21
525.321
 31
0.0
  0
LINE
  5
C30
330
1D
100
AcDbEntity
  8
0
100
AcDbLine
 10
283.9
 20
525.233
 30
0.0
 11
284.154
 21
525.084
 31
0.0
  0
LINE
  5
C31
330
1D
100
AcDbEntity
  8
0
100
AcDbLine
 10
283.9
 20
525.233
 30
0.0
 11
283.9
 21
525.321
 31
0.0
  0
LINE
  5
C32
330
1D
100
AcDbEntity
  8
0
100
AcDbLine
 10
258.508
 20
525.244
 30
0.0
 11
258.508
 21
521.229
 31
0.0
  0
LINE
  5
C33
330
1D
100
AcDbEntity
  8
0
100
AcDbLine
 10
258.508
 20
525.244
 30
0.0
 11
258.508
 21
529.947
 31
0.0
  0
LINE
  5
C34
330
1D
100
AcDbEntity
  8
0
100
AcDbLine
 10
303.9
 20
525.321
 30
0.0
 11
303.9
 21
525.233
 31
0.0
  0
LINE
  5
C35
330
1D
100
AcDbEntity
  8
0
100
AcDbLine
 10
303.9
 20
525.321
 30
0.0
 11
303.9
 21
525.597
 31
0.0
  0
LINE
  5
C36
330
1D
100
AcDbEntity
  8
0
100
AcDbLine
 10
283.9
 20
526.049
 30
0.0
 11
283.9
 21
526.627
 31
0.0
  0
LINE
  5
C37
330
1D
100
AcDbEntity
  8
0
100
AcDbLine
 10
283.9
 20
526.049
 30
0.0
 11
283.9
 21
525.597
 31
0.0
  0
LINE
  5
C38
330
1D
100
AcDbEntity
  8
0
100
AcDbLine
 10
283.9
 20
526.627
 30
0.0
 11
283.9
 21
527.291
 31
0.0
  0
LINE
  5
C39
330
1D
100
AcDbEntity
  8
0
100
AcDbLine
 10
283.9
 20
526.627
 30
0.0
 11
283.9
 21
526.049
 31
0.0
  0
LINE
  5
C3A
330
1D
100
AcDbEntity
  8
0
100
AcDbLine
 10
303.9
 20
526.049
 30
0.0
 11
303.9
 21
525.597
 31
0.0
  0
LINE
  5
C3B
330
1D
100
AcDbEntity
  8
0
100
AcDbLine
 10
303.9
 20
526.049
 30
0.0
 11
303.9
 21
526.627
 31
0.0
  0
LINE
  5
C3C
330
1D
100
AcDbEntity
  8
0
100
AcDbLine
 10
303.9
 20
526.627
 30
0.0
 11
303.9
 21
526.049
 31
0.0
  0
LINE
  5
C3D
330
1D
100
AcDbEntity
  8
0
100
AcDbLine
 10
303.9
 20
526.627
 30
0.0
 11
303.9
 21
527.291
 31
0.0
  0
LINE
  5
C3E
330
1D
100
AcDbEntity
  8
0
100
AcDbLine
 10
303.9
 20
525.597
 30
0.0
 11
303.9
 21
525.321
 31
0.0
  0
LINE
  5
C3F
330
1D
100
AcDbEntity
  8
0
100
AcDbLine
 10
303.9
 20
525.597
 30
0.0
 11
303.9
 21
526.049
 31
0.0
  0
LINE
  5
C40
330
1D
100
AcDbEntity
  8
0
100
AcDbLine
 10
283.9
 20
525.597
 30
0.0
 11
283.9
 21
525.321
 31
0.0
  0
LINE
  5
C41
330
1D
100
AcDbEntity
  8
0
100
AcDbLine
 10
283.9
 20
525.597
 30
0.0
 11
283.9
 21
526.049
 31
0.0
  0
LINE
  5
C42
330
1D
100
AcDbEntity
  8
0
100
AcDbLine
 10
283.9
 20
525.321
 30
0.0
 11
283.9
 21
527.65
 31
0.0
  0
LINE
  5
C43
330
1D
100
AcDbEntity
  8
0
100
AcDbLine
 10
283.9
 20
525.321
 30
0.0
 11
283.9
 21
525.233
 31
0.0
  0
LINE
  5
C44
330
1D
100
AcDbEntity
  8
0
100
AcDbLine
 10
283.9
 20
525.321
 30
0.0
 11
283.9
 21
525.597
 31
0.0
  0
LINE
  5
C45
330
1D
100
AcDbEntity
  8
0
100
AcDbLine
 10
304.0
 20
525.766
 30
0.0
 11
304.0
 21
530.193
 31
0.0
  0
LINE
  5
C46
330
1D
100
AcDbEntity
  8
0
100
AcDbLine
 10
246.492
 20
525.286
 30
0.0
 11
246.492
 21
529.952
 31
0.0
  0
LINE
  5
C47
330
1D
100
AcDbEntity
  8
0
100
AcDbLine
 10
246.492
 20
525.286
 30
0.0
 11
246.492
 21
521.19
 31
0.0
  0
LINE
  5
C49
330
1D
100
AcDbEntity
  8
0
100
AcDbLine
 10
317.0
 20
525.217
 30
0.0
 11
328.964
 21
525.863
 31
0.0
  0
LINE
  5
C4A
330
1D
100
AcDbEntity
  8
0
100
AcDbLine
 10
328.964
 20
525.863
 30
0.0
 11
339.782
 21
526.629
 31
0.0
  0
LINE
  5
C4B
330
1D
100
AcDbEntity
  8
0
100
AcDbLine
 10
246.492
 20
535.0
 30
0.0
 11
246.492
 21
529.952
 31
0.0
  0
LINE
  5
C4C
330
1D
100
AcDbEntity
  8
0
100
AcDbLine
 10
246.492
 20
535.0
 30
0.0
 11
246.492
 21
540.048
 31
0.0
  0
LINE
  5
C4D
330
1D
100
AcDbEntity
  8
0
100
AcDbLine
 10
283.9
 20
528.726
 30
0.0
 11
283.9
 21
529.406
 31
0.0
  0
LINE
  5
C4E
330
1D
100
AcDbEntity
  8
0
100
AcDbLine
 10
283.9
 20
528.726
 30
0.0
 11
283.9
 21
528.007
 31
0.0
  0
LINE
  5
C4F
330
1D
100
AcDbEntity
  8
0
100
AcDbLine
 10
283.9
 20
528.007
 30
0.0
 11
283.9
 21
528.726
 31
0.0
  0
LINE
  5
C50
330
1D
100
AcDbEntity
  8
0
100
AcDbLine
 10
283.9
 20
528.007
 30
0.0
 11
283.9
 21
527.291
 31
0.0
  0
LINE
  5
C51
330
1D
100
AcDbEntity
  8
0
100
AcDbLine
 10
283.9
 20
527.291
 30
0.0
 11
283.9
 21
528.007
 31
0.0
  0
LINE
  5
C52
330
1D
100
AcDbEntity
  8
0
100
AcDbLine
 10
283.9
 20
527.291
 30
0.0
 11
283.9
 21
526.627
 31
0.0
  0
LINE
  5
C53
330
1D
100
AcDbEntity
  8
0
100
AcDbLine
 10
283.9
 20
529.406
 30
0.0
 11
283.9
 21
529.985
 31
0.0
  0
LINE
  5
C54
330
1D
100
AcDbEntity
  8
0
100
AcDbLine
 10
283.9
 20
529.406
 30
0.0
 11
283.9
 21
528.726
 31
0.0
  0
LINE
  5
C55
330
1D
100
AcDbEntity
  8
0
100
AcDbLine
 10
303.9
 20
528.726
 30
0.0
 11
303.9
 21
528.007
 31
0.0
  0
LINE
  5
C56
330
1D
100
AcDbEntity
  8
0
100
AcDbLine
 10
303.9
 20
528.726
 30
0.0
 11
303.9
 21
529.406
 31
0.0
  0
LINE
  5
C57
330
1D
100
AcDbEntity
  8
0
100
AcDbLine
 10
303.9
 20
528.007
 30
0.0
 11
303.9
 21
527.291
 31
0.0
  0
LINE
  5
C58
330
1D
100
AcDbEntity
  8
0
100
AcDbLine
 10
303.9
 20
528.007
 30
0.0
 11
303.9
 21
528.726
 31
0.0
  0
LINE
  5
C59
330
1D
100
AcDbEntity
  8
0
100
AcDbLine
 10
303.9
 20
529.406
 30
0.0
 11
303.9
 21
529.985
 31
0.0
  0
LINE
  5
C5A
330
1D
100
AcDbEntity
  8
0
100
AcDbLine
 10
303.9
 20
529.406
 30
0.0
 11
303.9
 21
528.726
 31
0.0
  0
LINE
  5
C5B
330
1D
100
AcDbEntity
  8
0
100
AcDbLine
 10
303.9
 20
527.291
 30
0.0
 11
303.9
 21
526.627
 31
0.0
  0
LINE
  5
C5C
330
1D
100
AcDbEntity
  8
0
100
AcDbLine
 10
303.9
 20
527.291
 30
0.0
 11
303.9
 21
528.007
 31
0.0
  0
LINE
  5
C5D
330
1D
100
AcDbEntity
  8
0
100
AcDbLine
 10
283.9
 20
527.65
 30
0.0
 11
283.9
 21
525.321
 31
0.0
  0
LINE
  5
C5E
330
1D
100
AcDbEntity
  8
0
100
AcDbLine
 10
303.9
 20
529.985
 30
0.0
 11
303.9
 21
529.406
 31
0.0
  0
LINE
  5
C5F
330
1D
100
AcDbEntity
  8
0
100
AcDbLine
 10
303.9
 20
529.985
 30
0.0
 11
303.9
 21
530.421
 31
0.0
  0
LINE
  5
C60
330
1D
100
AcDbEntity
  8
0
100
AcDbLine
 10
283.9
 20
529.985
 30
0.0
 11
283.9
 21
530.421
 31
0.0
  0
LINE
  5
C61
330
1D
100
AcDbEntity
  8
0
100
AcDbLine
 10
283.9
 20
529.985
 30
0.0
 11
283.9
 21
529.406
 31
0.0
  0
LINE
  5
C62
330
1D
100
AcDbEntity
  8
0
100
AcDbLine
 10
283.9
 20
530.421
 30
0.0
 11
283.9
 21
530.703
 31
0.0
  0
LINE
  5
C63
330
1D
100
AcDbEntity
  8
0
100
AcDbLine
 10
283.9
 20
530.421
 30
0.0
 11
283.9
 21
529.985
 31
0.0
  0
LINE
  5
C64
330
1D
100
AcDbEntity
  8
0
100
AcDbLine
 10
283.9
 20
530.703
 30
0.0
 11
283.9
 21
533.032
 31
0.0
  0
LINE
  5
C65
330
1D
100
AcDbEntity
  8
0
100
AcDbLine
 10
283.9
 20
530.703
 30
0.0
 11
283.9
 21
530.421
 31
0.0
  0
LINE
  5
C66
330
1D
100
AcDbEntity
  8
0
100
AcDbLine
 10
283.9
 20
533.032
 30
0.0
 11
283.9
 21
530.703
 31
0.0
  0
LINE
  5
C67
330
1D
100
AcDbEntity
  8
0
100
AcDbLine
 10
303.492
 20
534.995
 30
0.0
 11
303.492
 21
539.996
 31
0.0
  0
LINE
  5
C68
330
1D
100
AcDbEntity
  8
0
100
AcDbLine
 10
303.492
 20
534.995
 30
0.0
 11
303.492
 21
533.190917322835
 31
0.0
  0
LINE
  5
C69
330
1D
100
AcDbEntity
  8
0
100
AcDbLine
 10
303.9
 20
533.032
 30
0.0
 11
303.9
 21
530.703
 31
0.0
  0
LINE
  5
C6A
330
1D
100
AcDbEntity
  8
0
100
AcDbLine
 10
303.9
 20
530.421
 30
0.0
 11
303.9
 21
529.985
 31
0.0
  0
LINE
  5
C6B
330
1D
100
AcDbEntity
  8
0
100
AcDbLine
 10
303.9
 20
530.421
 30
0.0
 11
303.9
 21
530.703
 31
0.0
  0
LINE
  5
C6C
330
1D
100
AcDbEntity
  8
0
100
AcDbLine
 10
303.9
 20
530.703
 30
0.0
 11
303.9
 21
530.421
 31
0.0
  0
LINE
  5
C6D
330
1D
100
AcDbEntity
  8
0
100
AcDbLine
 10
303.9
 20
530.703
 30
0.0
 11
303.9
 21
533.032
 31
0.0
  0
LINE
  5
C6E
330
1D
100
AcDbEntity
  8
0
100
AcDbLine
 10
304.0
 20
534.966
 30
0.0
 11
304.0
 21
530.193
 31
0.0
  0
LINE
  5
C6F
330
1D
100
AcDbEntity
  8
0
100
AcDbLine
 10
303.492
 20
524.086161891243
 30
0.0
 11
303.492
 21
534.995
 31
0.0
  0
LINE
  5
C70
330
1D
100
AcDbEntity
  8
0
100
AcDbLine
 10
304.0
 20
530.193
 30
0.0
 11
304.0
 21
525.766
 31
0.0
  0
LINE
  5
C71
330
1D
100
AcDbEntity
  8
0
100
AcDbLine
 10
304.0
 20
530.193
 30
0.0
 11
304.0
 21
534.966
 31
0.0
  0
LINE
  5
C72
330
1D
100
AcDbEntity
  8
0
100
AcDbLine
 10
258.508
 20
534.995
 30
0.0
 11
258.508
 21
529.947
 31
0.0
  0
LINE
  5
C73
330
1D
100
AcDbEntity
  8
0
100
AcDbLine
 10
258.508
 20
534.995
 30
0.0
 11
258.508
 21
539.996
 31
0.0
  0
LINE
  5
C74
330
1D
100
AcDbEntity
  8
0
100
AcDbLine
 10
258.508
 20
529.947
 30
0.0
 11
258.508
 21
525.244
 31
0.0
  0
LINE
  5
C75
330
1D
100
AcDbEntity
  8
0
100
AcDbLine
 10
258.508
 20
529.947
 30
0.0
 11
258.508
 21
534.995
 31
0.0
  0
LINE
  5
C76
330
1D
100
AcDbEntity
  8
0
100
AcDbLine
 10
246.492
 20
529.952
 30
0.0
 11
246.492
 21
535.0
 31
0.0
  0
LINE
  5
C77
330
1D
100
AcDbEntity
  8
0
100
AcDbLine
 10
246.492
 20
529.952
 30
0.0
 11
246.492
 21
525.286
 31
0.0
  0
LINE
  5
C78
330
1D
100
AcDbEntity
  8
0
100
AcDbLine
 10
304.0
 20
539.758
 30
0.0
 11
304.0
 21
544.293
 31
0.0
  0
LINE
  5
C79
330
1D
100
AcDbEntity
  8
0
100
AcDbLine
 10
303.492
 20
539.996
 30
0.0
 11
303.492
 21
544.765
 31
0.0
  0
LINE
  5
C7A
330
1D
100
AcDbEntity
  8
0
100
AcDbLine
 10
303.492
 20
539.996
 30
0.0
 11
303.492
 21
534.995
 31
0.0
  0
LINE
  5
C7B
330
1D
100
AcDbEntity
  8
0
100
AcDbLine
 10
258.508
 20
539.996
 30
0.0
 11
258.508
 21
534.995
 31
0.0
  0
LINE
  5
C7C
330
1D
100
AcDbEntity
  8
0
100
AcDbLine
 10
258.508
 20
539.996
 30
0.0
 11
258.508
 21
544.765
 31
0.0
  0
LINE
  5
C7D
330
1D
100
AcDbEntity
  8
0
100
AcDbLine
 10
246.492
 20
540.048
 30
0.0
 11
246.492
 21
544.714
 31
0.0
  0
LINE
  5
C7E
330
1D
100
AcDbEntity
  8
0
100
AcDbLine
 10
246.492
 20
540.048
 30
0.0
 11
246.492
 21
535.0
 31
0.0
  0
LINE
  5
C82
330
1D
100
AcDbEntity
  8
0
100
AcDbLine
 10
304.0
 20
540.647399266055
 30
0.0
 11
304.095
 21
540.65
 31
0.0
  0
LINE
  5
C88
330
1D
100
AcDbEntity
  8
0
100
AcDbLine
 10
304.0
 20
544.293
 30
0.0
 11
304.0
 21
539.758
 31
0.0
  0
LINE
  5
C89
330
1D
100
AcDbEntity
  8
0
100
AcDbLine
 10
304.0
 20
544.293
 30
0.0
 11
304.0
 21
548.156
 31
0.0
  0
LINE
  5
C8A
330
1D
100
AcDbEntity
  8
0
100
AcDbLine
 10
304.0
 20
548.156
 30
0.0
 11
304.0
 21
551.062
 31
0.0
  0
LINE
  5
C8B
330
1D
100
AcDbEntity
  8
0
100
AcDbLine
 10
304.0
 20
548.156
 30
0.0
 11
304.0
 21
544.293
 31
0.0
  0
LINE
  5
C8C
330
1D
100
AcDbEntity
  8
0
100
AcDbLine
 10
303.492
 20
544.765
 30
0.0
 11
303.492
 21
539.996
 31
0.0
  0
LINE
  5
C8D
330
1D
100
AcDbEntity
  8
0
100
AcDbLine
 10
303.492
 20
544.765
 30
0.0
 11
303.492
 21
548.861
 31
0.0
  0
LINE
  5
C8E
330
1D
100
AcDbEntity
  8
0
100
AcDbLine
 10
258.508
 20
544.765
 30
0.0
 11
258.508
 21
539.996
 31
0.0
  0
LINE
  5
C8F
330
1D
100
AcDbEntity
  8
0
100
AcDbLine
 10
258.508
 20
544.765
 30
0.0
 11
258.508
 21
548.861
 31
0.0
  0
LINE
  5
C90
330
1D
100
AcDbEntity
  8
0
100
AcDbLine
 10
246.492
 20
544.714
 30
0.0
 11
246.492
 21
548.81
 31
0.0
  0
LINE
  5
C91
330
1D
100
AcDbEntity
  8
0
100
AcDbLine
 10
246.492
 20
544.714
 30
0.0
 11
246.492
 21
540.048
 31
0.0
  0
LINE
  5
C96
330
1D
100
AcDbEntity
  8
0
100
AcDbLine
 10
246.492
 20
551.952
 30
0.0
 11
246.492
 21
553.857
 31
0.0
  0
LINE
  5
C97
330
1D
100
AcDbEntity
  8
0
100
AcDbLine
 10
246.492
 20
551.952
 30
0.0
 11
246.492
 21
548.81
 31
0.0
  0
LINE
  5
C98
330
1D
100
AcDbEntity
  8
0
100
AcDbLine
 10
246.492
 20
553.857
 30
0.0
 11
246.492
 21
554.524
 31
0.0
  0
LINE
  5
C99
330
1D
100
AcDbEntity
  8
0
100
AcDbLine
 10
246.492
 20
553.857
 30
0.0
 11
246.492
 21
551.952
 31
0.0
  0
LINE
  5
C9A
330
1D
100
AcDbEntity
  8
0
100
AcDbLine
 10
246.771320041973
 20
554.0
 30
0.0
 11
258.241734406439
 21
554.0
 31
0.0
  0
LINE
  5
C9B
330
1D
100
AcDbEntity
  8
0
100
AcDbLine
 10
258.508
 20
548.861
 30
0.0
 11
258.508
 21
544.765
 31
0.0
  0
LINE
  5
C9C
330
1D
100
AcDbEntity
  8
0
100
AcDbLine
 10
258.508
 20
548.861
 30
0.0
 11
258.508
 21
551.908
 31
0.0
  0
LINE
  5
C9D
330
1D
100
AcDbEntity
  8
0
100
AcDbLine
 10
303.492
 20
548.861
 30
0.0
 11
303.492
 21
551.908
 31
0.0
  0
LINE
  5
C9E
330
1D
100
AcDbEntity
  8
0
100
AcDbLine
 10
303.492
 20
548.861
 30
0.0
 11
303.492
 21
544.765
 31
0.0
  0
LINE
  5
C9F
330
1D
100
AcDbEntity
  8
0
100
AcDbLine
 10
304.0
 20
551.062
 30
0.0
 11
304.0
 21
552.939
 31
0.0
  0
LINE
  5
CA0
330
1D
100
AcDbEntity
  8
0
100
AcDbLine
 10
304.0
 20
551.062
 30
0.0
 11
304.0
 21
548.156
 31
0.0
  0
LINE
  5
CA1
330
1D
100
AcDbEntity
  8
0
100
AcDbLine
 10
303.492
 20
551.908
 30
0.0
 11
303.492
 21
553.859
 31
0.0
  0
LINE
  5
CA2
330
1D
100
AcDbEntity
  8
0
100
AcDbLine
 10
303.492
 20
551.908
 30
0.0
 11
303.492
 21
548.861
 31
0.0
  0
LINE
  5
CA3
330
1D
100
AcDbEntity
  8
0
100
AcDbLine
 10
304.0
 20
553.527
 30
0.0
 11
304.0
 21
552.939
 31
0.0
  0
LINE
  5
CA4
330
1D
100
AcDbEntity
  8
0
100
AcDbLine
 10
304.0
 20
552.939
 30
0.0
 11
304.0
 21
553.527
 31
0.0
  0
LINE
  5
CA5
330
1D
100
AcDbEntity
  8
0
100
AcDbLine
 10
304.0
 20
552.939
 30
0.0
 11
304.0
 21
551.062
 31
0.0
  0
LINE
  5
CA6
330
1D
100
AcDbEntity
  8
0
100
AcDbLine
 10
303.492
 20
553.859
 30
0.0
 11
303.492
 21
554.521
 31
0.0
  0
LINE
  5
CA7
330
1D
100
AcDbEntity
  8
0
100
AcDbLine
 10
303.492
 20
553.859
 30
0.0
 11
303.492
 21
551.908
 31
0.0
  0
LINE
  5
CA8
330
1D
100
AcDbEntity
  8
0
100
AcDbLine
 10
258.508
 20
551.908
 30
0.0
 11
258.508
 21
548.861
 31
0.0
  0
LINE
  5
CA9
330
1D
100
AcDbEntity
  8
0
100
AcDbLine
 10
258.508
 20
551.908
 30
0.0
 11
258.508
 21
553.859
 31
0.0
  0
LINE
  5
CAA
330
1D
100
AcDbEntity
  8
0
100
AcDbLine
 10
303.492
 20
554.521
 30
0.0
 11
303.492
 21
553.859
 31
0.0
  0
LINE
  5
CAB
330
1D
100
AcDbEntity
  8
0
100
AcDbLine
 10
303.492
 20
554.521
 30
0.0
 11
304.0
 21
553.527
 31
0.0
  0
LINE
  5
CAC
330
1D
100
AcDbEntity
  8
0
100
AcDbLine
 10
258.508
 20
553.859
 30
0.0
 11
258.508
 21
554.521
 31
0.0
  0
LINE
  5
CAD
330
1D
100
AcDbEntity
  8
0
100
AcDbLine
 10
258.508
 20
553.859
 30
0.0
 11
258.508
 21
551.908
 31
0.0
  0
LINE
  5
CAE
330
1D
100
AcDbEntity
  8
0
100
AcDbLine
 10
258.219520020697
 20
553.956533268845
 30
0.0
 11
258.508
 21
554.521
 31
0.0
  0
LINE
  5
CAF
330
1D
100
AcDbEntity
  8
0
100
AcDbLine
 10
258.508
 20
554.521
 30
0.0
 11
258.508
 21
553.859
 31
0.0
  0
LINE
  5
CB0
330
1D
100
AcDbEntity
  8
0
100
AcDbLine
 10
258.508
 20
554.521
 30
0.0
 11
259.524
 21
554.914
 31
0.0
  0
LINE
  5
CB1
330
1D
100
AcDbEntity
  8
0
100
AcDbLine
 10
246.492
 20
548.81
 30
0.0
 11
246.492
 21
544.714
 31
0.0
  0
LINE
  5
CB2
330
1D
100
AcDbEntity
  8
0
100
AcDbLine
 10
246.492
 20
548.81
 30
0.0
 11
246.492
 21
551.952
 31
0.0
  0
LINE
  5
CB3
330
1D
100
AcDbEntity
  8
0
100
AcDbLine
 10
246.492
 20
554.524
 30
0.0
 11
246.771320041973
 21
554.0
 31
0.0
  0
LINE
  5
CB4
330
1D
100
AcDbEntity
  8
0
100
AcDbLine
 10
246.492
 20
554.524
 30
0.0
 11
246.492
 21
553.857
 31
0.0
  0
LINE
  5
CB7
330
1D
100
AcDbEntity
  8
0
100
AcDbLine
 10
328.964
 20
541.81
 30
0.0
 11
339.782
 21
542.577
 31
0.0
  0
LINE
  5
CB8
330
1D
100
AcDbEntity
  8
0
100
AcDbLine
 10
334.118
 20
548.354
 30
0.0
 11
350.99
 21
543.512
 31
0.0
  0
LINE
  5
CB9
330
1D
100
AcDbEntity
  8
0
100
AcDbLine
 10
347.644
 20
543.264
 30
0.0
 11
350.605736477003
 21
543.622277618442
 31
0.0
  0
LINE
  5
CBA
330
1D
100
AcDbEntity
  8
0
100
AcDbLine
 10
339.782
 20
542.577
 30
0.0
 11
348.937052913559
 21
543.420419020391
 31
0.0
  0
LINE
  5
CBB
330
1D
100
AcDbEntity
  8
0
100
AcDbLine
 10
317.0
 20
541.164
 30
0.0
 11
328.964
 21
541.81
 31
0.0
  0
LINE
  5
CBC
330
1D
100
AcDbEntity
  8
0
100
AcDbLine
 10
304.095
 20
540.65
 30
0.0
 11
317.0
 21
541.164
 31
0.0
  0
LINE
  5
CBD
330
1D
100
AcDbEntity
  8
0
100
AcDbLine
 10
350.99
 20
543.512
 30
0.0
 11
364.425
 21
538.691
 31
0.0
  0
LINE
  5
CBE
330
1D
100
AcDbEntity
  8
0
100
AcDbLine
 10
361.968980634279
 20
539.572315173959
 30
0.0
 11
366.336
 21
535.241
 31
0.0
  0
LINE
  5
CBF
330
1D
100
AcDbEntity
  8
0
100
AcDbLine
 10
359.036
 20
528.674
 30
0.0
 11
365.519
 21
529.736
 31
0.0
  0
LINE
  5
CC0
330
1D
100
AcDbEntity
  8
0
100
AcDbLine
 10
365.519
 20
529.736
 30
0.0
 11
370.23
 21
530.857
 31
0.0
  0
LINE
  5
CC1
330
1D
100
AcDbEntity
  8
0
100
AcDbLine
 10
370.23
 20
530.857
 30
0.0
 11
372.085
 21
531.582
 31
0.0
  0
LINE
  5
CC2
330
1D
100
AcDbEntity
  8
0
100
AcDbLine
 10
372.085
 20
531.582
 30
0.0
 11
374.993
 21
532.764
 31
0.0
  0
LINE
  5
CC3
330
1D
100
AcDbEntity
  8
0
100
AcDbLine
 10
374.993
 20
532.764
 30
0.0
 11
376.674
 21
534.022
 31
0.0
  0
LINE
  5
CC4
330
1D
100
AcDbEntity
  8
0
100
AcDbLine
 10
377.664
 20
535.241
 30
0.0
 11
378.944
 21
536.932
 31
0.0
  0
LINE
  5
CC5
330
1D
100
AcDbEntity
  8
0
100
AcDbLine
 10
376.674
 20
534.022
 30
0.0
 11
377.664
 21
535.241
 31
0.0
  0
LINE
  5
CC6
330
1D
100
AcDbEntity
  8
0
100
AcDbLine
 10
378.944
 20
536.932
 30
0.0
 11
379.712
 21
538.845
 31
0.0
  0
LINE
  5
CC7
330
1D
100
AcDbEntity
  8
0
100
AcDbLine
 10
372.089
 20
552.093
 30
0.0
 11
377.664
 21
546.532
 31
0.0
  0
LINE
  5
CC8
330
1D
100
AcDbEntity
  8
0
100
AcDbLine
 10
368.496
 20
554.101
 30
0.0
 11
370.404
 21
553.353
 31
0.0
  0
LINE
  5
CC9
330
1D
100
AcDbEntity
  8
0
100
AcDbLine
 10
370.404
 20
553.353
 30
0.0
 11
372.089
 21
552.093
 31
0.0
  0
LINE
  5
CCA
330
1D
100
AcDbEntity
  8
0
100
AcDbLine
 10
377.664
 20
546.532
 30
0.0
 11
378.944
 21
544.842
 31
0.0
  0
LINE
  5
CCB
330
1D
100
AcDbEntity
  8
0
100
AcDbLine
 10
378.944
 20
544.842
 30
0.0
 11
379.712
 21
542.928
 31
0.0
  0
LINE
  5
CCC
330
1D
100
AcDbEntity
  8
0
100
AcDbLine
 10
379.712
 20
542.928
 30
0.0
 11
380.0
 21
540.887
 31
0.0
  0
LINE
  5
CCD
330
1D
100
AcDbEntity
  8
0
100
AcDbLine
 10
379.712
 20
538.845
 30
0.0
 11
380.0
 21
540.887
 31
0.0
  0
LINE
  5
CCE
330
1D
100
AcDbEntity
  8
0
100
AcDbLine
 10
350.894
 20
527.689
 30
0.0
 11
359.036
 21
528.674
 31
0.0
  0
LINE
  5
CCF
330
1D
100
AcDbEntity
  8
0
100
AcDbLine
 10
349.269
 20
527.503
 30
0.0
 11
350.894
 21
527.689
 31
0.0
  0
LINE
  5
CD0
330
1D
100
AcDbEntity
  8
0
100
AcDbLine
 10
339.782
 20
526.629
 30
0.0
 11
349.269
 21
527.503
 31
0.0
  0
LINE
  5
CD1
330
1D
100
AcDbEntity
  8
0
100
AcDbLine
 10
193.0
 20
602.894124798712
 30
0.0
 11
193.0
 21
610.0
 31
0.0
  0
LINE
  5
CD2
330
1D
100
AcDbEntity
  8
0
100
AcDbLine
 10
194.2
 20
610.0
 30
0.0
 11
197.6
 21
610.0
 31
0.0
  0
LINE
  5
CD3
330
1D
100
AcDbEntity
  8
0
100
AcDbLine
 10
193.0
 20
610.0
 30
0.0
 11
194.2
 21
610.0
 31
0.0
  0
LINE
  5
CD4
330
1D
100
AcDbEntity
  8
0
100
AcDbLine
 10
193.0
 20
610.0
 30
0.0
 11
193.0
 21
602.894124798712
 31
0.0
  0
LINE
  5
CD6
330
1D
100
AcDbEntity
  8
0
100
AcDbLine
 10
194.223
 20
602.001
 30
0.0
 11
198.729
 21
600.168
 31
0.0
  0
LINE
  5
CD8
330
1D
100
AcDbEntity
  8
0
100
AcDbLine
 10
244.0
 20
555.0
 30
0.0
 11
245.476
 21
555.0
 31
0.0
  0
LINE
  5
CD9
330
1D
100
AcDbEntity
  8
0
100
AcDbLine
 10
199.053911928174
 20
555.0
 30
0.0
 11
210.0
 21
555.0
 31
0.0
  0
LINE
  5
CDA
330
1D
100
AcDbEntity
  8
0
100
AcDbLine
 10
210.0
 20
555.0
 30
0.0
 11
210.0
 21
567.4
 31
0.0
  0
LINE
  5
CDB
330
1D
100
AcDbEntity
  8
0
100
AcDbLine
 10
302.476
 20
554.914
 30
0.0
 11
303.492
 21
554.521
 31
0.0
  0
LINE
  5
CDC
330
1D
100
AcDbEntity
  8
0
100
AcDbLine
 10
281.0
 20
554.914
 30
0.0
 11
302.476
 21
554.914
 31
0.0
  0
LINE
  5
CDD
330
1D
100
AcDbEntity
  8
0
100
AcDbLine
 10
259.524
 20
554.914
 30
0.0
 11
281.0
 21
554.914
 31
0.0
  0
LINE
  5
CDE
330
1D
100
AcDbEntity
  8
0
100
AcDbLine
 10
245.476
 20
555.0
 30
0.0
 11
246.492
 21
554.524
 31
0.0
  0
LINE
  5
CDF
330
1D
100
AcDbEntity
  8
0
100
AcDbLine
 10
244.0
 20
554.987967906201
 30
0.0
 11
244.0
 21
567.062381845914
 31
0.0
  0
LINE
  5
CE1
330
1D
100
AcDbEntity
  8
0
100
AcDbLine
 10
355.02
 20
558.944
 30
0.0
 11
368.496
 21
554.101
 31
0.0
  0
LINE
  5
CE2
330
1D
100
AcDbEntity
  8
0
100
AcDbLine
 10
303.068
 20
554.863
 30
0.0
 11
334.118
 21
548.354
 31
0.0
  0
LINE
  5
CE3
330
1D
100
AcDbEntity
  8
0
100
AcDbLine
 10
210.408
 20
568.0
 30
0.0
 11
211.02
 21
568.0
 31
0.0
  0
LINE
  5
CE4
330
1D
100
AcDbEntity
  8
0
100
AcDbLine
 10
211.02
 20
568.0
 30
0.0
 11
212.652
 21
568.0
 31
0.0
  0
LINE
  5
CE5
330
1D
100
AcDbEntity
  8
0
100
AcDbLine
 10
212.652
 20
568.0
 30
0.0
 11
215.304
 21
568.0
 31
0.0
  0
LINE
  5
CE6
330
1D
100
AcDbEntity
  8
0
100
AcDbLine
 10
210.0
 20
567.4
 30
0.0
 11
210.0
 21
555.0
 31
0.0
  0
LINE
  5
CE7
330
1D
100
AcDbEntity
  8
0
100
AcDbLine
 10
210.0
 20
567.4
 30
0.0
 11
210.408
 21
568.0
 31
0.0
  0
LINE
  5
CE8
330
1D
100
AcDbEntity
  8
0
100
AcDbLine
 10
244.0
 20
567.062381845914
 30
0.0
 11
244.0
 21
554.987967906201
 31
0.0
  0
LINE
  5
CE9
330
1D
100
AcDbEntity
  8
0
100
AcDbLine
 10
241.756
 20
567.4
 30
0.0
 11
242.497532596685
 21
567.4
 31
0.0
  0
LINE
  5
CEA
330
1D
100
AcDbEntity
  8
0
100
AcDbLine
 10
215.304
 20
568.0
 30
0.0
 11
218.772
 21
568.0
 31
0.0
  0
LINE
  5
CEB
330
1D
100
AcDbEntity
  8
0
100
AcDbLine
 10
218.772
 20
568.0
 30
0.0
 11
222.716
 21
568.0
 31
0.0
  0
LINE
  5
CEC
330
1D
100
AcDbEntity
  8
0
100
AcDbLine
 10
238.696
 20
568.0
 30
0.0
 11
239.827414206788
 21
568.0
 31
0.0
  0
LINE
  5
CED
330
1D
100
AcDbEntity
  8
0
100
AcDbLine
 10
235.228
 20
568.0
 30
0.0
 11
238.696
 21
568.0
 31
0.0
  0
LINE
  5
CEE
330
1D
100
AcDbEntity
  8
0
100
AcDbLine
 10
231.284
 20
568.0
 30
0.0
 11
235.228
 21
568.0
 31
0.0
  0
LINE
  5
CEF
330
1D
100
AcDbEntity
  8
0
100
AcDbLine
 10
227.0
 20
568.0
 30
0.0
 11
231.284
 21
568.0
 31
0.0
  0
LINE
  5
CF0
330
1D
100
AcDbEntity
  8
0
100
AcDbLine
 10
222.716
 20
568.0
 30
0.0
 11
227.0
 21
568.0
 31
0.0
  0
LINE
  5
CF1
330
1D
100
AcDbEntity
  8
0
100
AcDbLine
 10
213.0
 20
568.0
 30
0.0
 11
213.0
 21
570.0
 31
0.0
  0
LINE
  5
CF2
330
1D
100
AcDbEntity
  8
0
100
AcDbLine
 10
211.0
 20
570.24
 30
0.0
 11
211.0
 21
571.0
 31
0.0
  0
LINE
  5
CF3
330
1D
100
AcDbEntity
  8
0
100
AcDbLine
 10
211.0
 20
570.24
 30
0.0
 11
211.0
 21
570.1
 31
0.0
  0
LINE
  5
CF4
330
1D
100
AcDbEntity
  8
0
100
AcDbLine
 10
211.0
 20
570.1
 30
0.0
 11
211.0
 21
570.24
 31
0.0
  0
LINE
  5
CF5
330
1D
100
AcDbEntity
  8
0
100
AcDbLine
 10
211.0
 20
570.1
 30
0.0
 11
211.421
 21
570.0
 31
0.0
  0
LINE
  5
CF6
330
1D
100
AcDbEntity
  8
0
100
AcDbLine
 10
212.01
 20
570.0
 30
0.0
 11
213.0
 21
570.0
 31
0.0
  0
LINE
  5
CF7
330
1D
100
AcDbEntity
  8
0
100
AcDbLine
 10
211.421
 20
570.0
 30
0.0
 11
212.01
 21
570.0
 31
0.0
  0
LINE
  5
CF8
330
1D
100
AcDbEntity
  8
0
100
AcDbLine
 10
211.0
 20
571.0
 30
0.0
 11
211.0
 21
570.24
 31
0.0
  0
LINE
  5
CF9
330
1D
100
AcDbEntity
  8
0
100
AcDbLine
 10
211.0
 20
571.0
 30
0.0
 11
211.0
 21
572.0
 31
0.0
  0
LINE
  5
CFA
330
1D
100
AcDbEntity
  8
0
100
AcDbLine
 10
211.0
 20
576.646659709023
 30
0.0
 11
211.0
 21
572.0
 31
0.0
  0
LINE
  5
CFB
330
1D
100
AcDbEntity
  8
0
100
AcDbLine
 10
211.0
 20
572.0
 30
0.0
 11
211.0
 21
576.646659709023
 31
0.0
  0
LINE
  5
CFC
330
1D
100
AcDbEntity
  8
0
100
AcDbLine
 10
211.0
 20
572.0
 30
0.0
 11
211.0
 21
571.0
 31
0.0
  0
LINE
  5
CFD
330
1D
100
AcDbEntity
  8
0
100
AcDbLine
 10
231.352
 20
570.419
 30
0.0
 11
231.78698375639
 21
570.394114296036
 31
0.0
  0
LINE
  5
CFE
330
1D
100
AcDbEntity
  8
0
100
AcDbLine
 10
213.0
 20
570.0
 30
0.0
 11
213.0
 21
568.0
 31
0.0
  0
LINE
  5
CFF
330
1D
100
AcDbEntity
  8
0
100
AcDbLine
 10
210.57
 20
576.776
 30
0.0
 11
239.507
 21
568.072
 31
0.0
  0
LINE
  5
D00
330
1D
100
AcDbEntity
  8
0
100
AcDbLine
 10
208.671
 20
577.518
 30
0.0
 11
210.57
 21
576.776
 31
0.0
  0
LINE
  5
D01
330
1D
100
AcDbEntity
  8
0
100
AcDbLine
 10
239.507
 20
568.072
 30
0.0
 11
267.699
 21
561.737
 31
0.0
  0
LINE
  5
D02
330
1D
100
AcDbEntity
  8
0
100
AcDbLine
 10
338.024
 20
563.827
 30
0.0
 11
355.02
 21
558.944
 31
0.0
  0
LINE
  5
D03
330
1D
100
AcDbEntity
  8
0
100
AcDbLine
 10
306.974
 20
570.336
 30
0.0
 11
338.024
 21
563.827
 31
0.0
  0
LINE
  5
D04
330
1D
100
AcDbEntity
  8
0
100
AcDbLine
 10
271.605
 20
577.21
 30
0.0
 11
306.974
 21
570.336
 31
0.0
  0
LINE
  5
D05
330
1D
100
AcDbEntity
  8
0
100
AcDbLine
 10
267.699
 20
561.737
 30
0.0
 11
303.068
 21
554.863
 31
0.0
  0
LINE
  5
D06
330
1D
100
AcDbEntity
  8
0
100
AcDbLine
 10
196.512681071288
 20
583.489313835043
 30
0.0
 11
208.671
 21
577.518
 31
0.0
  0
LINE
  5
D07
330
1D
100
AcDbEntity
  8
0
100
AcDbLine
 10
240.23602764977
 20
584.5
 30
0.0
 11
243.7
 21
584.5
 31
0.0
  0
LINE
  5
D08
330
1D
100
AcDbEntity
  8
0
100
AcDbLine
 10
241.899622119816
 20
584.0
 30
0.0
 11
241.989
 21
584.0
 31
0.0
  0
LINE
  5
D09
330
1D
100
AcDbEntity
  8
0
100
AcDbLine
 10
242.735079352885
 20
583.748899972886
 30
0.0
 11
243.0
 21
583.76
 31
0.0
  0
LINE
  5
D0A
330
1D
100
AcDbEntity
  8
0
100
AcDbLine
 10
242.558616098725
 20
583.80193671271
 30
0.0
 11
243.0
 21
583.76
 31
0.0
  0
LINE
  5
D0B
330
1D
100
AcDbEntity
  8
0
100
AcDbLine
 10
242.579
 20
584.0
 30
0.0
 11
243.0
 21
583.9
 31
0.0
  0
LINE
  5
D0C
330
1D
100
AcDbEntity
  8
0
100
AcDbLine
 10
242.579
 20
584.0
 30
0.0
 11
243.2
 21
584.0
 31
0.0
  0
LINE
  5
D0D
330
1D
100
AcDbEntity
  8
0
100
AcDbLine
 10
243.0
 20
583.9
 30
0.0
 11
243.0
 21
583.76
 31
0.0
  0
LINE
  5
D0E
330
1D
100
AcDbEntity
  8
0
100
AcDbLine
 10
241.989
 20
584.0
 30
0.0
 11
243.0
 21
583.76
 31
0.0
  0
LINE
  5
D0F
330
1D
100
AcDbEntity
  8
0
100
AcDbLine
 10
241.989
 20
584.0
 30
0.0
 11
242.579
 21
584.0
 31
0.0
  0
LINE
  5
D10
330
1D
100
AcDbEntity
  8
0
100
AcDbLine
 10
243.0
 20
583.66927700831
 30
0.0
 11
243.0
 21
583.76
 31
0.0
  0
LINE
  5
D11
330
1D
100
AcDbEntity
  8
0
100
AcDbLine
 10
243.2
 20
584.0
 30
0.0
 11
250.0
 21
584.0
 31
0.0
  0
LINE
  5
D12
330
1D
100
AcDbEntity
  8
0
100
AcDbLine
 10
243.0
 20
583.76
 30
0.0
 11
243.0
 21
583.9
 31
0.0
  0
LINE
  5
D13
330
1D
100
AcDbEntity
  8
0
100
AcDbLine
 10
243.0
 20
583.76
 30
0.0
 11
243.0
 21
583.66927700831
 31
0.0
  0
LINE
  5
D14
330
1D
100
AcDbEntity
  8
0
100
AcDbLine
 10
250.0
 20
584.0
 30
0.0
 11
255.1
 21
584.0
 31
0.0
  0
LINE
  5
D15
330
1D
100
AcDbEntity
  8
0
100
AcDbLine
 10
243.7
 20
584.5
 30
0.0
 11
250.7
 21
584.5
 31
0.0
  0
LINE
  5
D16
330
1D
100
AcDbEntity
  8
0
100
AcDbLine
 10
250.7
 20
584.5
 30
0.0
 11
256.0
 21
584.5
 31
0.0
  0
LINE
  5
D17
330
1D
100
AcDbEntity
  8
0
100
AcDbLine
 10
256.0
 20
584.5
 30
0.0
 11
259.3
 21
584.5
 31
0.0
  0
LINE
  5
D18
330
1D
100
AcDbEntity
  8
0
100
AcDbLine
 10
255.1
 20
584.0
 30
0.0
 11
258.3
 21
584.0
 31
0.0
  0
LINE
  5
D19
330
1D
100
AcDbEntity
  8
0
100
AcDbLine
 10
259.3
 20
584.5
 30
0.0
 11
260.5
 21
584.5
 31
0.0
  0
LINE
  5
D1A
330
1D
100
AcDbEntity
  8
0
100
AcDbLine
 10
259.5
 20
584.0
 30
0.0
 11
260.5
 21
584.5
 31
0.0
  0
LINE
  5
D1B
330
1D
100
AcDbEntity
  8
0
100
AcDbLine
 10
258.3
 20
584.0
 30
0.0
 11
259.5
 21
584.0
 31
0.0
  0
LINE
  5
D1C
330
1D
100
AcDbEntity
  8
0
100
AcDbLine
 10
261.0
 20
585.5
 30
0.0
 11
261.0
 21
610.0
 31
0.0
  0
LINE
  5
D1D
330
1D
100
AcDbEntity
  8
0
100
AcDbLine
 10
260.5
 20
584.5
 30
0.0
 11
261.0
 21
585.5
 31
0.0
  0
LINE
  5
D1E
330
1D
100
AcDbEntity
  8
0
100
AcDbLine
 10
243.5
 20
583.519
 30
0.0
 11
271.605
 21
577.21
 31
0.0
  0
LINE
  5
D1F
330
1D
100
AcDbEntity
  8
0
100
AcDbLine
 10
197.6
 20
610.0
 30
0.0
 11
203.0
 21
610.0
 31
0.0
  0
LINE
  5
D20
330
1D
100
AcDbEntity
  8
0
100
AcDbLine
 10
215.61096296656
 20
591.901162100078
 30
0.0
 11
243.5
 21
583.519
 31
0.0
  0
LINE
  5
D21
330
1D
100
AcDbEntity
  8
0
100
AcDbLine
 10
203.0
 20
610.0
 30
0.0
 11
210.1
 21
610.0
 31
0.0
  0
LINE
  5
D22
330
1D
100
AcDbEntity
  8
0
100
AcDbLine
 10
210.1
 20
610.0
 30
0.0
 11
218.3
 21
610.0
 31
0.0
  0
LINE
  5
D23
330
1D
100
AcDbEntity
  8
0
100
AcDbLine
 10
243.9
 20
610.0
 30
0.0
 11
251.0
 21
610.0
 31
0.0
  0
LINE
  5
D24
330
1D
100
AcDbEntity
  8
0
100
AcDbLine
 10
235.7
 20
610.0
 30
0.0
 11
243.9
 21
610.0
 31
0.0
  0
LINE
  5
D25
330
1D
100
AcDbEntity
  8
0
100
AcDbLine
 10
227.0
 20
610.0
 30
0.0
 11
235.7
 21
610.0
 31
0.0
  0
LINE
  5
D26
330
1D
100
AcDbEntity
  8
0
100
AcDbLine
 10
251.0
 20
610.0
 30
0.0
 11
256.4
 21
610.0
 31
0.0
  0
LINE
  5
D27
330
1D
100
AcDbEntity
  8
0
100
AcDbLine
 10
256.4
 20
610.0
 30
0.0
 11
259.8
 21
610.0
 31
0.0
  0
LINE
  5
D28
330
1D
100
AcDbEntity
  8
0
100
AcDbLine
 10
259.8
 20
610.0
 30
0.0
 11
261.0
 21
610.0
 31
0.0
  0
LINE
  5
D29
330
1D
100
AcDbEntity
  8
0
100
AcDbLine
 10
261.0
 20
610.0
 30
0.0
 11
261.0
 21
585.5
 31
0.0
  0
LINE
  5
D2A
330
1D
100
AcDbEntity
  8
0
100
AcDbLine
 10
218.3
 20
610.0
 30
0.0
 11
227.0
 21
610.0
 31
0.0
  0
LINE
  5
D2B
330
1D
100
AcDbEntity
  8
0
100
AcDbLine
 10
215.61096296656
 20
591.901162100078
 30
0.0
 11
243.5
 21
583.519
 31
0.0
  0
LINE
  5
D2C
330
1D
100
AcDbEntity
  8
0
100
AcDbLine
 10
198.729
 20
600.168
 30
0.0
 11
216.518
 21
591.457
 31
0.0
  0
LINE
  5
D2D
330
1D
100
AcDbEntity
  8
0
100
AcDbLine
 10
196.56
 20
591.777
 30
0.0
 11
196.576
 21
596.4
 31
0.0
  0
LINE
  5
D2E
330
1D
100
AcDbEntity
  8
0
100
AcDbLine
 10
196.531
 20
586.587
 30
0.0
 11
196.56
 21
591.777
 31
0.0
  0
LINE
  5
D2F
330
1D
100
AcDbEntity
  8
0
100
AcDbLine
 10
196.49
 20
579.654
 30
0.0
 11
196.531
 21
586.587
 31
0.0
  0
LINE
  5
D30
330
1D
100
AcDbEntity
  8
0
100
AcDbLine
 10
196.435
 20
571.201
 30
0.0
 11
196.49
 21
579.654
 31
0.0
  0
LINE
  5
D31
330
1D
100
AcDbEntity
  8
0
100
AcDbLine
 10
196.365
 20
561.12
 30
0.0
 11
196.491563356099
 21
557.322128242687
 31
0.0
  0
LINE
  5
D32
330
1D
100
AcDbEntity
  8
0
100
AcDbLine
 10
196.365
 20
561.12
 30
0.0
 11
196.435
 21
571.201
 31
0.0
  0
LINE
  5
D35
330
1D
100
AcDbEntity
  8
0
100
AcDbLine
 10
192.0
 20
610.0
 30
0.0
 11
192.0
 21
602.48
 31
0.0
  0
LINE
  5
D36
330
1D
100
AcDbEntity
  8
0
100
AcDbLine
 10
213.0
 20
570.0
 30
0.0
 11
233.097241727941
 21
570.0
 31
0.0
  0
LINE
  5
D3A
330
1D
100
AcDbEntity
  8
0
100
AcDbLine
 10
20.1
 20
533.032
 30
0.0
 11
0.1
 21
533.032
 31
0.0
  0
LINE
  5
D3B
330
1D
100
AcDbEntity
  8
0
100
AcDbLine
 10
91.0
 20
570.0
 30
0.0
 11
63.0
 21
570.0
 31
0.0
  0
LINE
  5
D3C
330
1D
100
AcDbEntity
  8
0
100
AcDbLine
 10
283.9
 20
533.032
 30
0.0
 11
303.9
 21
533.032
 31
0.0
  0
LINE
  5
DB8
330
1D
100
AcDbEntity
  8
0
100
AcDbLine
 10
169.990798321815
 20
409.421075973072
 30
0.0
 11
175.771098321815
 21
408.353005973072
 31
0.0
  0
LINE
  5
DB9
330
1D
100
AcDbEntity
  8
0
100
AcDbLine
 10
164.145698321815
 20
410.957575973072
 30
0.0
 11
169.990798321815
 21
409.421075973072
 31
0.0
  0
LINE
  5
DBD
330
1D
100
AcDbEntity
  8
0
100
AcDbLine
 10
175.771098321815
 20
408.353005973072
 30
0.0
 11
182.196998321815
 21
407.636063973072
 31
0.0
  0
LINE
  5
DBE
330
1D
100
AcDbEntity
  8
0
100
AcDbLine
 10
175.771098321815
 20
408.353005973072
 30
0.0
 11
182.196998321815
 21
407.636063973072
 31
0.0
  0
LINE
  5
DBF
330
1D
100
AcDbEntity
  8
0
100
AcDbLine
 10
182.196998321815
 20
407.636063973072
 30
0.0
 11
188.691298321815
 21
407.411169973072
 31
0.0
  0
LINE
  5
DC0
330
1D
100
AcDbEntity
  8
0
100
AcDbLine
 10
194.697198321815
 20
407.636063973072
 30
0.0
 11
200.867498321815
 21
408.309635973072
 31
0.0
  0
LINE
  5
DC1
330
1D
100
AcDbEntity
  8
0
100
AcDbLine
 10
194.697198321815
 20
407.636063973072
 30
0.0
 11
200.867498321815
 21
408.309635973072
 31
0.0
  0
LINE
  5
DC2
330
1D
100
AcDbEntity
  8
0
100
AcDbLine
 10
188.691298321815
 20
407.411169973072
 30
0.0
 11
194.697198321815
 21
407.636063973072
 31
0.0
  0
LINE
  5
DC3
330
1D
100
AcDbEntity
  8
0
100
AcDbLine
 10
200.867498321815
 20
408.309635973072
 30
0.0
 11
206.589198321815
 21
409.352445973072
 31
0.0
  0
LINE
  5
DC4
330
1D
100
AcDbEntity
  8
0
100
AcDbLine
 10
212.748498321815
 20
410.957575973072
 30
0.0
 11
218.351198321815
 21
412.901295973072
 31
0.0
  0
LINE
  5
DC5
330
1D
100
AcDbEntity
  8
0
100
AcDbLine
 10
206.589198321815
 20
409.352445973072
 30
0.0
 11
212.748498321815
 21
410.957575973072
 31
0.0
  0
LINE
  5
DC6
330
1D
100
AcDbEntity
  8
0
100
AcDbLine
 10
218.351198321815
 20
412.901295973072
 30
0.0
 11
223.659898321815
 21
415.233805973072
 31
0.0
  0
LINE
  5
DC7
330
1D
100
AcDbEntity
  8
0
100
AcDbLine
 10
223.659898321815
 20
415.233805973072
 30
0.0
 11
227.583098321815
 21
417.320345973072
 31
0.0
  0
LINE
  5
DC8
330
1D
100
AcDbEntity
  8
0
100
AcDbLine
 10
227.583098321815
 20
417.320345973072
 30
0.0
 11
228.717098321815
 21
418.014145973072
 31
0.0
  0
LINE
  5
DC9
330
1D
100
AcDbEntity
  8
0
100
AcDbLine
 10
228.717098321815
 20
418.014145973072
 30
0.0
 11
233.038098321815
 21
420.836445973072
 31
0.0
  0
LINE
  5
DCA
330
1D
100
AcDbEntity
  8
0
100
AcDbLine
 10
131.666698321815
 20
432.943645973072
 30
0.0
 11
136.215298321815
 21
427.415545973072
 31
0.0
  0
LINE
  5
DCB
330
1D
100
AcDbEntity
  8
0
100
AcDbLine
 10
136.215298321815
 20
427.415545973072
 30
0.0
 11
139.864898321815
 21
423.964645973072
 31
0.0
  0
LINE
  5
DCF
330
1D
100
AcDbEntity
  8
0
100
AcDbLine
 10
127.295798321815
 20
440.951045973072
 30
0.0
 11
129.220398321815
 21
436.886045973072
 31
0.0
  0
LINE
  5
DD0
330
1D
100
AcDbEntity
  8
0
100
AcDbLine
 10
129.220398321815
 20
436.886045973072
 30
0.0
 11
131.666698321815
 21
432.943645973072
 31
0.0
  0
LINE
  5
DD1
330
1D
100
AcDbEntity
  8
0
100
AcDbLine
 10
124.929098321815
 20
450.019045973072
 30
0.0
 11
125.232498321815
 21
448.454945973072
 31
0.0
  0
LINE
  5
DD2
330
1D
100
AcDbEntity
  8
0
100
AcDbLine
 10
125.232498321815
 20
448.454945973072
 30
0.0
 11
125.932198321815
 21
444.967845973072
 31
0.0
  0
LINE
  5
DD3
330
1D
100
AcDbEntity
  8
0
100
AcDbLine
 10
125.932198321815
 20
444.967845973072
 30
0.0
 11
127.295798321815
 21
440.951045973072
 31
0.0
  0
LINE
  5
DD4
330
1D
100
AcDbEntity
  8
0
100
AcDbLine
 10
125.127698321815
 20
468.102845973072
 30
0.0
 11
126.089098321815
 21
473.123845973072
 31
0.0
  0
LINE
  5
DD5
330
1D
100
AcDbEntity
  8
0
100
AcDbLine
 10
124.940898321815
 20
464.263545973072
 30
0.0
 11
125.127698321815
 21
468.102845973072
 31
0.0
  0
LINE
  5
DD6
330
1D
100
AcDbEntity
  8
0
100
AcDbLine
 10
126.089098321815
 20
473.123845973072
 30
0.0
 11
127.730098321815
 21
477.897745973072
 31
0.0
  0
LINE
  5
DD7
330
1D
100
AcDbEntity
  8
0
100
AcDbLine
 10
129.730198321815
 20
481.950645973072
 30
0.0
 11
132.435998321815
 21
486.146145973072
 31
0.0
  0
LINE
  5
DD9
330
1D
100
AcDbEntity
  8
0
100
AcDbLine
 10
135.895471193231
 20
490.312060139523
 30
0.0
 11
139.5
 21
493.813991392372
 31
0.0
  0
LINE
  5
DDA
330
1D
100
AcDbEntity
  8
0
100
AcDbLine
 10
135.731798321815
 20
490.153045973072
 30
0.0
 11
135.895471193231
 21
490.312060139523
 31
0.0
  0
LINE
  5
DDB
330
1D
100
AcDbEntity
  8
0
100
AcDbLine
 10
135.731798321815
 20
490.153045973072
 30
0.0
 11
135.895471193231
 21
490.312060139523
 31
0.0
  0
LINE
  5
DDD
330
1D
100
AcDbEntity
  8
0
100
AcDbLine
 10
132.435998321815
 20
486.146145973072
 30
0.0
 11
135.731798321815
 21
490.153045973072
 31
0.0
  0
LINE
  5
DDE
330
1D
100
AcDbEntity
  8
0
100
AcDbLine
 10
127.730098321815
 20
477.897745973072
 30
0.0
 11
129.730198321815
 21
481.950645973072
 31
0.0
  0
LINE
  5
DDF
330
1D
100
AcDbEntity
  8
0
100
AcDbLine
 10
124.677898321815
 20
454.157945973072
 30
0.0
 11
124.929098321815
 21
450.019045973072
 31
0.0
  0
LINE
  5
DE0
330
1D
100
AcDbEntity
  8
0
100
AcDbLine
 10
124.677898321815
 20
454.157945973072
 30
0.0
 11
124.940898321815
 21
464.263545973072
 31
0.0
  0
LINE
  5
DE4
330
1D
100
AcDbEntity
  8
0
100
AcDbLine
 10
164.5
 20
507.361954623479
 30
0.0
 11
167.247798321815
 21
508.184545973072
 31
0.0
  0
LINE
  5
DE6
330
1D
100
AcDbEntity
  8
0
100
AcDbLine
 10
167.247798321815
 20
508.184545973072
 30
0.0
 11
173.379598321815
 21
509.521545973072
 31
0.0
  0
LINE
  5
DE7
330
1D
100
AcDbEntity
  8
0
100
AcDbLine
 10
173.379598321815
 20
509.521545973072
 30
0.0
 11
178.265198321815
 21
510.221545973072
 31
0.0
  0
LINE
  5
DE8
330
1D
100
AcDbEntity
  8
0
100
AcDbLine
 10
209.467098321815
 20
508.239545973072
 30
0.0
 11
216.692198321815
 21
506.007545973072
 31
0.0
  0
LINE
  5
DE9
330
1D
100
AcDbEntity
  8
0
100
AcDbLine
 10
175.019098321815
 20
546.027545973072
 30
0.0
 11
175.271498321815
 21
547.299545973072
 31
0.0
  0
LINE
  5
DEA
330
1D
100
AcDbEntity
  8
0
100
AcDbLine
 10
175.271498321815
 20
547.299545973072
 30
0.0
 11
175.689098321815
 21
548.538545973072
 31
0.0
  0
LINE
  5
DEB
330
1D
100
AcDbEntity
  8
0
100
AcDbLine
 10
174.934798321815
 20
544.739545973072
 30
0.0
 11
175.019098321815
 21
546.027545973072
 31
0.0
  0
LINE
  5
DEC
330
1D
100
AcDbEntity
  8
0
100
AcDbLine
 10
175.689098321815
 20
548.538545973072
 30
0.0
 11
176.040598321815
 21
549.307545973072
 31
0.0
  0
LINE
  5
DED
330
1D
100
AcDbEntity
  8
0
100
AcDbLine
 10
178.265198321815
 20
510.221545973072
 30
0.0
 11
182.600798321815
 21
510.526545973072
 31
0.0
  0
LINE
  5
DEE
330
1D
100
AcDbEntity
  8
0
100
AcDbLine
 10
198.643298321815
 20
510.222545973072
 30
0.0
 11
202.769298321815
 21
509.653545973072
 31
0.0
  0
LINE
  5
DEF
330
1D
100
AcDbEntity
  8
0
100
AcDbLine
 10
176.040598321815
 20
549.307545973072
 30
0.0
 11
176.265098321815
 21
549.727545973072
 31
0.0
  0
LINE
  5
DF0
330
1D
100
AcDbEntity
  8
0
100
AcDbLine
 10
176.265098321815
 20
549.727545973072
 30
0.0
 11
176.991298321815
 21
550.850545973072
 31
0.0
  0
LINE
  5
DF1
330
1D
100
AcDbEntity
  8
0
100
AcDbLine
 10
201.874998321815
 20
546.027545973072
 30
0.0
 11
201.959398321815
 21
544.739545973072
 31
0.0
  0
LINE
  5
DF2
330
1D
100
AcDbEntity
  8
0
100
AcDbLine
 10
201.622698321815
 20
547.299545973072
 30
0.0
 11
201.874998321815
 21
546.027545973072
 31
0.0
  0
LINE
  5
DF3
330
1D
100
AcDbEntity
  8
0
100
AcDbLine
 10
201.205198321815
 20
548.538545973072
 30
0.0
 11
201.622698321815
 21
547.299545973072
 31
0.0
  0
LINE
  5
DF4
330
1D
100
AcDbEntity
  8
0
100
AcDbLine
 10
176.563221877073
 20
550.188566012393
 30
0.0
 11
176.879098321815
 21
552.133545973072
 31
0.0
  0
LINE
  5
DF5
330
1D
100
AcDbEntity
  8
0
100
AcDbLine
 10
176.991298321815
 20
550.850545973072
 30
0.0
 11
177.357198321815
 21
551.342545973072
 31
0.0
  0
LINE
  5
DF6
330
1D
100
AcDbEntity
  8
0
100
AcDbLine
 10
176.879098321815
 20
552.133545973072
 30
0.0
 11
178.031098321815
 21
554.628545973072
 31
0.0
  0
LINE
  5
DF7
330
1D
100
AcDbEntity
  8
0
100
AcDbLine
 10
177.357198321815
 20
551.342545973072
 30
0.0
 11
177.857298321815
 21
551.895545973072
 31
0.0
  0
LINE
  5
DF8
330
1D
100
AcDbEntity
  8
0
100
AcDbLine
 10
199.588498321815
 20
551.298545973072
 30
0.0
 11
199.902898321815
 21
550.850545973072
 31
0.0
  0
LINE
  5
DF9
330
1D
100
AcDbEntity
  8
0
100
AcDbLine
 10
178.851098321815
 20
552.850545973072
 30
0.0
 11
179.049798321815
 21
553.036545973072
 31
0.0
  0
LINE
  5
DFA
330
1D
100
AcDbEntity
  8
0
100
AcDbLine
 10
199.036798321815
 20
551.896545973072
 30
0.0
 11
199.588498321815
 21
551.298545973072
 31
0.0
  0
LINE
  5
DFB
330
1D
100
AcDbEntity
  8
0
100
AcDbLine
 10
177.857298321815
 20
551.895545973072
 30
0.0
 11
178.851098321815
 21
552.850545973072
 31
0.0
  0
LINE
  5
DFC
330
1D
100
AcDbEntity
  8
0
100
AcDbLine
 10
179.959698321815
 20
553.702545973072
 30
0.0
 11
181.040098321815
 21
554.439545973072
 31
0.0
  0
LINE
  5
DFD
330
1D
100
AcDbEntity
  8
0
100
AcDbLine
 10
181.040098321815
 20
554.439545973072
 30
0.0
 11
182.462698321815
 21
555.062545973072
 31
0.0
  0
LINE
  5
DFE
330
1D
100
AcDbEntity
  8
0
100
AcDbLine
 10
179.049798321815
 20
553.036545973072
 30
0.0
 11
179.959698321815
 21
553.702545973072
 31
0.0
  0
LINE
  5
DFF
330
1D
100
AcDbEntity
  8
0
100
AcDbLine
 10
195.894698321815
 20
554.420545973072
 30
0.0
 11
196.531697473574
 21
553.949111137848
 31
0.0
  0
LINE
  5
E00
330
1D
100
AcDbEntity
  8
0
100
AcDbLine
 10
196.531697473571
 20
553.94911113785
 30
0.0
 11
196.934498321815
 21
553.702545973072
 31
0.0
  0
LINE
  5
E01
330
1D
100
AcDbEntity
  8
0
100
AcDbLine
 10
178.031098321815
 20
554.628545973072
 30
0.0
 11
179.951098321815
 21
556.831545973072
 31
0.0
  0
LINE
  5
E02
330
1D
100
AcDbEntity
  8
0
100
AcDbLine
 10
184.667898321815
 20
555.926545973072
 30
0.0
 11
186.902498321815
 21
556.174545973072
 31
0.0
  0
LINE
  5
E03
330
1D
100
AcDbEntity
  8
0
100
AcDbLine
 10
182.462698321815
 20
555.062545973072
 30
0.0
 11
184.667898321815
 21
555.926545973072
 31
0.0
  0
LINE
  5
E04
330
1D
100
AcDbEntity
  8
0
100
AcDbLine
 10
193.537998321815
 20
555.479545973072
 30
0.0
 11
195.894698321815
 21
554.420545973072
 31
0.0
  0
LINE
  5
E05
330
1D
100
AcDbEntity
  8
0
100
AcDbLine
 10
198.863098321815
 20
554.628545973072
 30
0.0
 11
200.015098321815
 21
552.133545973072
 31
0.0
  0
LINE
  5
E06
330
1D
100
AcDbEntity
  8
0
100
AcDbLine
 10
196.934498321815
 20
553.702545973072
 30
0.0
 11
198.042998321815
 21
552.850545973072
 31
0.0
  0
LINE
  5
E07
330
1D
100
AcDbEntity
  8
0
100
AcDbLine
 10
198.042998321815
 20
552.850545973072
 30
0.0
 11
199.036798321815
 21
551.896545973072
 31
0.0
  0
LINE
  5
E08
330
1D
100
AcDbEntity
  8
0
100
AcDbLine
 10
200.015098321815
 20
552.133545973072
 30
0.0
 11
200.330974766557
 21
550.188566012393
 31
0.0
  0
LINE
  5
E09
330
1D
100
AcDbEntity
  8
0
100
AcDbLine
 10
199.902898321815
 20
550.850545973072
 30
0.0
 11
200.629098321815
 21
549.727545973072
 31
0.0
  0
LINE
  5
E0A
330
1D
100
AcDbEntity
  8
0
100
AcDbLine
 10
200.629098321815
 20
549.727545973072
 30
0.0
 11
201.205198321815
 21
548.538545973072
 31
0.0
  0
LINE
  5
E0B
330
1D
100
AcDbEntity
  8
0
100
AcDbLine
 10
188.447098321815
 20
559.916545973072
 30
0.0
 11
191.471098321815
 21
559.542545973072
 31
0.0
  0
LINE
  5
E0C
330
1D
100
AcDbEntity
  8
0
100
AcDbLine
 10
185.423098321815
 20
559.542545973072
 30
0.0
 11
188.447098321815
 21
559.916545973072
 31
0.0
  0
LINE
  5
E0D
330
1D
100
AcDbEntity
  8
0
100
AcDbLine
 10
179.951098321815
 20
556.831545973072
 30
0.0
 11
182.495098321815
 21
558.494545973072
 31
0.0
  0
LINE
  5
E0E
330
1D
100
AcDbEntity
  8
0
100
AcDbLine
 10
186.902498321815
 20
556.174545973072
 30
0.0
 11
188.503798321815
 21
556.333545973072
 31
0.0
  0
LINE
  5
E0F
330
1D
100
AcDbEntity
  8
0
100
AcDbLine
 10
194.399098321815
 20
558.494545973072
 30
0.0
 11
196.943098321815
 21
556.831545973072
 31
0.0
  0
LINE
  5
E10
330
1D
100
AcDbEntity
  8
0
100
AcDbLine
 10
196.943098321815
 20
556.831545973072
 30
0.0
 11
198.863098321815
 21
554.628545973072
 31
0.0
  0
LINE
  5
E11
330
1D
100
AcDbEntity
  8
0
100
AcDbLine
 10
188.503798321815
 20
556.333545973072
 30
0.0
 11
191.023898321815
 21
556.103545973072
 31
0.0
  0
LINE
  5
E12
330
1D
100
AcDbEntity
  8
0
100
AcDbLine
 10
191.023898321815
 20
556.103545973072
 30
0.0
 11
193.537998321815
 21
555.479545973072
 31
0.0
  0
LINE
  5
E13
330
1D
100
AcDbEntity
  8
0
100
AcDbLine
 10
202.769298321815
 20
509.653545973072
 30
0.0
 11
209.467098321815
 21
508.239545973072
 31
0.0
  0
LINE
  5
E14
330
1D
100
AcDbEntity
  8
0
100
AcDbLine
 10
201.959398321815
 20
544.739545973072
 30
0.0
 11
203.214106046658
 21
509.559640791829
 31
0.0
  0
LINE
  5
E15
330
1D
100
AcDbEntity
  8
0
100
AcDbLine
 10
173.680271659923
 20
509.564625909349
 30
0.0
 11
174.934798321815
 21
544.739545973072
 31
0.0
  0
LINE
  5
E16
330
1D
100
AcDbEntity
  8
0
100
AcDbLine
 10
216.692198321815
 20
506.007545973072
 30
0.0
 11
222.601298321815
 21
503.504845973072
 31
0.0
  0
LINE
  5
E17
330
1D
100
AcDbEntity
  8
0
100
AcDbLine
 10
222.601298321815
 20
503.504845973072
 30
0.0
 11
226.364098321815
 21
501.610045973072
 31
0.0
  0
LINE
  5
E18
330
1D
100
AcDbEntity
  8
0
100
AcDbLine
 10
226.364098321815
 20
501.610045973072
 30
0.0
 11
229.786098321815
 21
499.573845973072
 31
0.0
  0
LINE
  5
E19
330
1D
100
AcDbEntity
  8
0
100
AcDbLine
 10
229.786098321815
 20
499.573845973072
 30
0.0
 11
233.147098321815
 21
497.308245973072
 31
0.0
  0
LINE
  5
E1A
330
1D
100
AcDbEntity
  8
0
100
AcDbLine
 10
233.038098321815
 20
420.836445973072
 30
0.0
 11
237.030098321815
 21
423.965745973072
 31
0.0
  0
LINE
  5
E1B
330
1D
100
AcDbEntity
  8
0
100
AcDbLine
 10
237.030098321815
 20
423.965745973072
 30
0.0
 11
240.676098321815
 21
427.412345973072
 31
0.0
  0
LINE
  5
E1C
330
1D
100
AcDbEntity
  8
0
100
AcDbLine
 10
245.229098321815
 20
432.945445973072
 30
0.0
 11
247.694098321815
 21
436.922845973072
 31
0.0
  0
LINE
  5
E1D
330
1D
100
AcDbEntity
  8
0
100
AcDbLine
 10
240.676098321815
 20
427.412345973072
 30
0.0
 11
245.229098321815
 21
432.945445973072
 31
0.0
  0
LINE
  5
E1E
330
1D
100
AcDbEntity
  8
0
100
AcDbLine
 10
247.694098321815
 20
436.922845973072
 30
0.0
 11
249.561098321815
 21
440.861545973072
 31
0.0
  0
LINE
  5
E1F
330
1D
100
AcDbEntity
  8
0
100
AcDbLine
 10
250.971098321815
 20
445.005945973072
 30
0.0
 11
251.662098321815
 21
448.454945973072
 31
0.0
  0
LINE
  5
E20
330
1D
100
AcDbEntity
  8
0
100
AcDbLine
 10
251.969098321815
 20
450.053245973072
 30
0.0
 11
252.217098321815
 21
454.213645973072
 31
0.0
  0
LINE
  5
E21
330
1D
100
AcDbEntity
  8
0
100
AcDbLine
 10
251.662098321815
 20
448.454945973072
 30
0.0
 11
251.969098321815
 21
450.053245973072
 31
0.0
  0
LINE
  5
E22
330
1D
100
AcDbEntity
  8
0
100
AcDbLine
 10
249.561098321815
 20
440.861545973072
 30
0.0
 11
250.971098321815
 21
445.005945973072
 31
0.0
  0
LINE
  5
E23
330
1D
100
AcDbEntity
  8
0
100
AcDbLine
 10
250.821098321815
 20
473.073545973072
 30
0.0
 11
251.757098321815
 21
468.178145973072
 31
0.0
  0
LINE
  5
E24
330
1D
100
AcDbEntity
  8
0
100
AcDbLine
 10
251.757098321815
 20
468.178145973072
 30
0.0
 11
251.953098321815
 21
464.269345973072
 31
0.0
  0
LINE
  5
E25
330
1D
100
AcDbEntity
  8
0
100
AcDbLine
 10
251.953098321815
 20
464.269345973072
 30
0.0
 11
252.217098321815
 21
454.213645973072
 31
0.0
  0
LINE
  5
E26
330
1D
100
AcDbEntity
  8
0
100
AcDbLine
 10
237.297098321815
 20
493.961145973072
 30
0.0
 11
241.199098321815
 21
490.116745973072
 31
0.0
  0
LINE
  5
E27
330
1D
100
AcDbEntity
  8
0
100
AcDbLine
 10
233.147098321815
 20
497.308245973072
 30
0.0
 11
237.297098321815
 21
493.961145973072
 31
0.0
  0
LINE
  5
E28
330
1D
100
AcDbEntity
  8
0
100
AcDbLine
 10
241.199098321815
 20
490.116745973072
 30
0.0
 11
244.099098321815
 21
486.619145973072
 31
0.0
  0
LINE
  5
E29
330
1D
100
AcDbEntity
  8
0
100
AcDbLine
 10
244.099098321815
 20
486.619145973072
 30
0.0
 11
247.023098321815
 21
482.200245973072
 31
0.0
  0
LINE
  5
E2A
330
1D
100
AcDbEntity
  8
0
100
AcDbLine
 10
247.023098321815
 20
482.200245973072
 30
0.0
 11
249.198098321815
 21
477.813745973072
 31
0.0
  0
LINE
  5
E2B
330
1D
100
AcDbEntity
  8
0
100
AcDbLine
 10
249.198098321815
 20
477.813745973072
 30
0.0
 11
250.821098321815
 21
473.073545973072
 31
0.0
  0
LINE
  5
E2C
330
1D
100
AcDbEntity
  8
0
100
AcDbLine
 10
182.600798321815
 20
510.526545973072
 30
0.0
 11
188.980823911802
 21
510.526545973072
 31
0.0
  0
LINE
  5
E2D
330
1D
100
AcDbEntity
  8
0
100
AcDbLine
 10
188.980823911802
 20
510.526545973072
 30
0.0
 11
198.643298321815
 21
510.222545973072
 31
0.0
  0
LINE
  5
E2E
330
1D
100
AcDbEntity
  8
0
100
AcDbLine
 10
182.495098321815
 20
558.494545973072
 30
0.0
 11
185.423098321815
 21
559.542545973072
 31
0.0
  0
LINE
  5
E2F
330
1D
100
AcDbEntity
  8
0
100
AcDbLine
 10
191.471098321815
 20
559.542545973072
 30
0.0
 11
194.399098321815
 21
558.494545973072
 31
0.0
  0
ENDSEC
  0
SECTION
  2
OBJECTS
  0
DICTIONARY
  5
C
330
0
100
AcDbDictionary
281
     1
  3
ACAD_GROUP
350
D
  3
ACAD_LAYOUT
350
1A
  3
ACAD_MLEADERSTYLE
350
E32
  3
ACAD_MLINESTYLE
350
17
  3
ACAD_PLOTSETTINGS
350
19
  3
ACAD_PLOTSTYLENAME
350
E
  3
ACAD_SCALELIST
350
49C
  3
AcDbVariableDictionary
350
E30
  3
DWGPROPS
350
E35
  0
DICTIONARY
  5
D
102
{ACAD_REACTORS
330
C
102
}
330
C
100
AcDbDictionary
281
     1
  0
DICTIONARY
  5
1A
102
{ACAD_REACTORS
330
C
102
}
330
C
100
AcDbDictionary
281
     1
  3
Layout1
350
1C
  3
Model
350
1E
  0
DICTIONARY
  5
E32
102
{ACAD_REACTORS
330
C
102
}
330
C
100
AcDbDictionary
281
     1
  0
DICTIONARY
  5
17
102
{ACAD_REACTORS
330
C
102
}
330
C
100
AcDbDictionary
281
     1
  3
Standard
350
18
  0
DICTIONARY
  5
19
102
{ACAD_REACTORS
330
C
102
}
330
C
100
AcDbDictionary
281
     1
  0
ACDBDICTIONARYWDFLT
  5
E
102
{ACAD_REACTORS
330
C
102
}
330
C
100
AcDbDictionary
281
     1
  3
Normal
350
F
100
AcDbDictionaryWithDefault
340
F
  0
DICTIONARY
  5
49C
102
{ACAD_REACTORS
330
C
102
}
330
C
100
AcDbDictionary
281
     1
  3
A0
350
49D
  3
A1
350
49E
  3
A2
350
49F
  3
A3
350
4A0
  3
A4
350
4A1
  3
A5
350
4A2
  3
A6
350
4A3
  3
A7
350
4A4
  3
A8
350
4A5
  3
A9
350
4A6
  3
B0
350
4A7
  3
B1
350
4A8
  3
B2
350
4A9
  3
B3
350
4AA
  3
B4
350
4AB
  3
B5
350
4AC
  3
B6
350
4AD
  3
B7
350
4AE
  3
B8
350
4AF
  3
B9
350
4B0
  3
C0
350
4B1
  3
C1
350
4B2
  3
C2
350
4B3
  3
C3
350
4B4
  3
C4
350
4B5
  3
C5
350
4B6
  3
C6
350
4B7
  3
C7
350
4B8
  3
C8
350
4B9
  3
C9
350
4BA
  3
D0
350
4BB
  3
D1
350
4BC
  3
D2
350
4BD
  0
DICTIONARY
  5
E30
102
{ACAD_REACTORS
330
C
102
}
330
C
100
AcDbDictionary
281
     1
  3
CANNOSCALE
350
E33
  0
XRECORD
  5
E35
102
{ACAD_REACTORS
330
C
102
}
330
C
100
AcDbXrecord
280
     1
  1
DWGPROPS COOKIE
  2

  3

  4

  6

  7

  8
MARTIN
  9

300
=
301
=
302
=
303
=
304
=
305
=
306
=
307
=
308
=
309
=
 40
0.0
 41
2456647.322962234
 42
2456647.330044305
  1

 90
        0
  0
LAYOUT
  5
1C
102
{ACAD_REACTORS
330
1A
102
}
330
1A
100
AcDbPlotSettings
  1

  2
none_device
  4

  6

 40
0.0
 41
0.0
 42
0.0
 43
0.0
 44
0.0
 45
0.0
 46
0.0
 47
0.0
 48
0.0
 49
0.0
140
0.0
141
0.0
142
1.0
143
1.0
 70
   688
 72
     0
 73
     0
 74
     5
  7

 75
    16
147
1.0
148
0.0
149
0.0
100
AcDbLayout
  1
Layout1
 70
     1
 71
     1
 10
0.0
 20
0.0
 11
12.0
 21
9.0
 12
0.0
 22
0.0
 32
0.0
 14
1.000000000000E+20
 24
1.000000000000E+20
 34
1.000000000000E+20
 15
-1.000000000000E+20
 25
-1.000000000000E+20
 35
-1.000000000000E+20
146
0.0
 13
0.0
 23
0.0
 33
0.0
 16
1.0
 26
0.0
 36
0.0
 17
0.0
 27
1.0
 37
0.0
 76
     0
330
1B
  0
LAYOUT
  5
1E
102
{ACAD_REACTORS
330
1A
102
}
330
1A
100
AcDbPlotSettings
  1

  2
none_device
  4

  6

 40
0.0
 41
0.0
 42
0.0
 43
0.0
 44
0.0
 45
0.0
 46
0.0
 47
0.0
 48
0.0
 49
0.0
140
0.0
141
0.0
142
1.0
143
1.0
 70
  1712
 72
     0
 73
     0
 74
     0
  7

 75
     0
147
1.0
148
0.0
149
0.0
100
AcDbLayout
  1
Model
 70
     1
 71
     0
 10
0.0
 20
0.0
 11
12.0
 21
9.0
 12
0.0
 22
0.0
 32
0.0
 14
0.0
 24
0.0
 34
0.0
 15
380.0
 25
610.0
 35
0.0
146
0.0
 13
0.0
 23
0.0
 33
0.0
 16
1.0
 26
0.0
 36
0.0
 17
0.0
 27
1.0
 37
0.0
 76
     0
330
1D
331
497
  0
MLINESTYLE
  5
18
102
{ACAD_REACTORS
330
17
102
}
330
17
100
AcDbMlineStyle
  2
Standard
 70
     0
  3

 62
   256
 51
90.0
 52
90.0
 71
     2
 49
0.5
 62
   256
  6
BYLAYER
 49
-0.5
 62
   256
  6
BYLAYER
  0
ACDBPLACEHOLDER
  5
F
102
{ACAD_REACTORS
330
E
102
}
330
E
  0
SCALE
  5
49D
102
{ACAD_REACTORS
330
49C
102
}
330
49C
100
AcDbScale
 70
     0
300
1:1
140
1.0
141
1.0
290
     1
  0
SCALE
  5
49E
102
{ACAD_REACTORS
330
49C
102
}
330
49C
100
AcDbScale
 70
     0
300
1:2
140
1.0
141
2.0
290
     0
  0
SCALE
  5
49F
102
{ACAD_REACTORS
330
49C
102
}
330
49C
100
AcDbScale
 70
     0
300
1:4
140
1.0
141
4.0
290
     0
  0
SCALE
  5
4A0
102
{ACAD_REACTORS
330
49C
102
}
330
49C
100
AcDbScale
 70
     0
300
1:5
140
1.0
141
5.0
290
     0
  0
SCALE
  5
4A1
102
{ACAD_REACTORS
330
49C
102
}
330
49C
100
AcDbScale
 70
     0
300
1:8
140
1.0
141
8.0
290
     0
  0
SCALE
  5
4A2
102
{ACAD_REACTORS
330
49C
102
}
330
49C
100
AcDbScale
 70
     0
300
1:10
140
1.0
141
10.0
290
     0
  0
SCALE
  5
4A3
102
{ACAD_REACTORS
330
49C
102
}
330
49C
100
AcDbScale
 70
     0
300
1:16
140
1.0
141
16.0
290
     0
  0
SCALE
  5
4A4
102
{ACAD_REACTORS
330
49C
102
}
330
49C
100
AcDbScale
 70
     0
300
1:20
140
1.0
141
20.0
290
     0
  0
SCALE
  5
4A5
102
{ACAD_REACTORS
330
49C
102
}
330
49C
100
AcDbScale
 70
     0
300
1:30
140
1.0
141
30.0
290
     0
  0
SCALE
  5
4A6
102
{ACAD_REACTORS
330
49C
102
}
330
49C
100
AcDbScale
 70
     0
300
1:40
140
1.0
141
40.0
290
     0
  0
SCALE
  5
4A7
102
{ACAD_REACTORS
330
49C
102
}
330
49C
100
AcDbScale
 70
     0
300
1:50
140
1.0
141
50.0
290
     0
  0
SCALE
  5
4A8
102
{ACAD_REACTORS
330
49C
102
}
330
49C
100
AcDbScale
 70
     0
300
1:100
140
1.0
141
100.0
290
     0
  0
SCALE
  5
4A9
102
{ACAD_REACTORS
330
49C
102
}
330
49C
100
AcDbScale
 70
     0
300
2:1
140
2.0
141
1.0
290
     0
  0
SCALE
  5
4AA
102
{ACAD_REACTORS
330
49C
102
}
330
49C
100
AcDbScale
 70
     0
300
4:1
140
4.0
141
1.0
290
     0
  0
SCALE
  5
4AB
102
{ACAD_REACTORS
330
49C
102
}
330
49C
100
AcDbScale
 70
     0
300
8:1
140
8.0
141
1.0
290
     0
  0
SCALE
  5
4AC
102
{ACAD_REACTORS
330
49C
102
}
330
49C
100
AcDbScale
 70
     0
300
10:1
140
10.0
141
1.0
290
     0
  0
SCALE
  5
4AD
102
{ACAD_REACTORS
330
49C
102
}
330
49C
100
AcDbScale
 70
     0
300
100:1
140
100.0
141
1.0
290
     0
  0
SCALE
  5
4AE
102
{ACAD_REACTORS
330
49C
102
}
330
49C
100
AcDbScale
 70
     0
300
1/128" = 1'-0"
140
0.0078125
141
12.0
290
     0
  0
SCALE
  5
4AF
102
{ACAD_REACTORS
330
49C
102
}
330
49C
100
AcDbScale
 70
     0
300
1/64" = 1'-0"
140
0.015625
141
12.0
290
     0
  0
SCALE
  5
4B0
102
{ACAD_REACTORS
330
49C
102
}
330
49C
100
AcDbScale
 70
     0
300
1/32" = 1'-0"
140
0.03125
141
12.0
290
     0
  0
SCALE
  5
4B1
102
{ACAD_REACTORS
330
49C
102
}
330
49C
100
AcDbScale
 70
     0
300
1/16" = 1'-0"
140
0.0625
141
12.0
290
     0
  0
SCALE
  5
4B2
102
{ACAD_REACTORS
330
49C
102
}
330
49C
100
AcDbScale
 70
     0
300
3/32" = 1'-0"
140
0.09375
141
12.0
290
     0
  0
SCALE
  5
4B3
102
{ACAD_REACTORS
330
49C
102
}
330
49C
100
AcDbScale
 70
     0
300
1/8" = 1'-0"
140
0.125
141
12.0
290
     0
  0
SCALE
  5
4B4
102
{ACAD_REACTORS
330
49C
102
}
330
49C
100
AcDbScale
 70
     0
300
3/16" = 1'-0"
140
0.1875
141
12.0
290
     0
  0
SCALE
  5
4B5
102
{ACAD_REACTORS
330
49C
102
}
330
49C
100
AcDbScale
 70
     0
300
1/4" = 1'-0"
140
0.25
141
12.0
290
     0
  0
SCALE
  5
4B6
102
{ACAD_REACTORS
330
49C
102
}
330
49C
100
AcDbScale
 70
     0
300
3/8" = 1'-0"
140
0.375
141
12.0
290
     0
  0
SCALE
  5
4B7
102
{ACAD_REACTORS
330
49C
102
}
330
49C
100
AcDbScale
 70
     0
300
1/2" = 1'-0"
140
0.5
141
12.0
290
     0
  0
SCALE
  5
4B8
102
{ACAD_REACTORS
330
49C
102
}
330
49C
100
AcDbScale
 70
     0
300
3/4" = 1'-0"
140
0.75
141
12.0
290
     0
  0
SCALE
  5
4B9
102
{ACAD_REACTORS
330
49C
102
}
330
49C
100
AcDbScale
 70
     0
300
1" = 1'-0"
140
1.0
141
12.0
290
     0
  0
SCALE
  5
4BA
102
{ACAD_REACTORS
330
49C
102
}
330
49C
100
AcDbScale
 70
     0
300
1-1/2" = 1'-0"
140
1.5
141
12.0
290
     0
  0
SCALE
  5
4BB
102
{ACAD_REACTORS
330
49C
102
}
330
49C
100
AcDbScale
 70
     0
300
3" = 1'-0"
140
3.0
141
12.0
290
     0
  0
SCALE
  5
4BC
102
{ACAD_REACTORS
330
49C
102
}
330
49C
100
AcDbScale
 70
     0
300
6" = 1'-0"
140
6.0
141
12.0
290
     0
  0
SCALE
  5
4BD
102
{ACAD_REACTORS
330
49C
102
}
330
49C
100
AcDbScale
 70
     0
300
1'-0" = 1'-0"
140
12.0
141
12.0
290
     0
  0
DICTIONARYVAR
  5
E33
102
{ACAD_REACTORS
330
E30
102
}
330
E30
100
DictionaryVariables
280
     0
  1
1:1
  0
ENDSEC
  0
SECTION
  2
THUMBNAILIMAGE
 90
    16364
310
28000000B40000005500000001000800000000000000000000000000000000000000000000000000FFFFFF000000FF0000FFFF0000FF0000FFFF0000FF000000FF00FF000000000080808000C0C0C0000000FF007F7FFF000000A5005252A50000007F003F3F7F0000004C0026264C000000260013132600003FFF007F9FFF
310
000029A5005267A500001F7F003F4F7F0000134C00262F4C000009260013172600007FFF007FBFFF000052A500527CA500003F7F003F5F7F0000264C0026394C0000132600131C260000BFFF007FDFFF00007CA5005291A500005F7F003F6F7F0000394C0026424C00001C26001321260000FFFF007FFFFF0000A5A50052A5
310
A500007F7F003F7F7F00004C4C00264C4C00002626001326260000FFBF007FFFDF0000A57C0052A59100007F5F003F7F6F00004C3900264C420000261C001326210000FF7F007FFFBF0000A5520052A57C00007F3F003F7F5F00004C2600264C39000026130013261C0000FF3F007FFF9F0000A5290052A56700007F1F003F
310
7F4F00004C1300264C2F00002609001326170000FF00007FFF7F0000A5000052A55200007F00003F7F3F00004C0000264C260000260000132613003FFF00009FFF7F0029A5000067A552001F7F00004F7F3F00134C00002F4C260009260000172613007FFF0000BFFF7F0052A500007CA552003F7F00005F7F3F00264C0000
310
394C2600132600001C261300BFFF0000DFFF7F007CA5000091A552005F7F00006F7F3F00394C0000424C26001C26000021261300FFFF0000FFFF7F00A5A50000A5A552007F7F00007F7F3F004C4C00004C4C26002626000026261300FFBF0000FFDF7F00A57C0000A59152007F5F00007F6F3F004C3900004C422600261C00
310
0026211300FF7F0000FFBF7F00A5520000A57C52007F3F00007F5F3F004C2600004C39260026130000261C1300FF3F0000FF9F7F00A5290000A56752007F1F00007F4F3F004C1300004C2F26002609000026171300FF000000FF7F7F00A5000000A55252007F0000007F3F3F004C0000004C2626002600000026131300FF00
310
3F00FF7F9F00A5002900A55267007F001F007F3F4F004C0013004C262F002600090026131700FF007F00FF7FBF00A5005200A5527C007F003F007F3F5F004C0026004C2639002600130026131C00FF00BF00FF7FDF00A5007C00A55291007F005F007F3F6F004C0039004C26420026001C0026132100FF00FF00FF7FFF00A5
310
00A500A552A5007F007F007F3F7F004C004C004C264C002600260026132600BF00FF00DF7FFF007C00A5009152A5005F007F006F3F7F0039004C0042264C001C002600211326007F00FF00BF7FFF005200A5007C52A5003F007F005F3F7F0026004C0039264C00130026001C1326003F00FF009F7FFF002900A5006752A500
310
1F007F004F3F7F0013004C002F264C000900260017132600000000002D2D2D005B5B5B0089898900B7B7B700B3B3B30000000000000000000000000000000000000000000000000000000000000000000000000000000000000000000000000000000000000000000000000000000000000000000000000000000000000000
310
00000007070707070707000000000000000000000000000000000000000000000000000000000000000000000000000000000000000000000000000000000000000000000000000000000000000000000000000000000000000000000000000000000000000000000000000000000000000000000000000000000000000000
310
00000000000000000000000000000000000000000000000000000000000000000000000000000000000000000000000000000007070707070000000000000007070707070000000000000000000000000000000000000000000000000000000000000000000000000000000000000000000000000000000000000000000000
310
00000000000000000000000000000000000000000000000000000000000000000000000000000000000000000000000000000000000000000000000000000000000000000000000000000000000000000000000000000000000000000000000000000000000000070707000000000000000000000000000707070000000000
310
00000000000000000000000000000000000000000000000000000000000000000000000000000000000000000000000000000000000000000000000000000000000000000000000000000000000000000000000000000000000000000000000000000000000000000000000000000000000000000000000000000000000000
310
00000000000000000000000000000000000000000000000000000007070700000000000000000000000000000000000707000000000000000000000000000000000000000000000000000000000000000000000000000000000000000000000000000000000000000000000000000000000000000000000000000000000000
310
00000000000000000000000000000000000000000000000000000000000000000000000000000000000000000000000000000000000000000000000000000000000000000000000000000000000007070000000000000000000000000000000000000000000007070000000000000000000000000000000000000000000000
310
00000000000000000000000000000000000000000000000000000000000000000000000000000000000000000000000000000000000000000000000000000000000000000000000000000000000000000000000000000000000000000000000000000000000000000000000000000000000000000000000000000000000000
310
00000007000000000000000000000000000000000000000000000000000007000000000000000000000000000000000000000000000000000000000000000000000000000000000000000000000000000000000000000000000000000000000000000000000000000000000000000000000000000000000000000000000000
310
00000000000000000000000000000000000000000000000000000000000000000000000000000000000000000000000000000000000000070000000000000000000000000000000000000000000000000000000007000000000000000000000000000000000000000000000000000000000000000000000000000000000000
310
00000000000000000000000000000000000000000000000000000000000000000000000000000000000000000000000000000000000000000000000000000000000000000000000000000000000000000000000000000000000000000000000000000000000000000000000700000000000000000000000000000000000000
310
00000000000000000000000700000000000000000000000000000000000000000000000000000000000000000000000000000000000000000000000000000000000000000000000000000000000000000000000000000000000000000000000000000000000000000000000000000000000000000000000000000000000000
310
00000000000000000000000000000000000000000000000000000000000000000007000000000000000000000000000000000000000000000000000000000000000700000000000000000000000000000000000000000000000000000000000000000000000000000000000000000000000000000000000000000000000000
310
00000000000000000000000000000000000000000000000000000000000000000000000000000000000000000000000000000000000000000000000000000000000000000000000000000000000000000000000000070000000000000000000000000000000000000000000000000000000000000000070700000000000000
310
00000000000000000000000000000000000000000000000000000000000000000000000000000000000000000000000000000000000000000000000000000000000000000000000000000000000000000000000000000000000000000000000000000000000000000000000000000000000000000000000000000000000000
310
00000000000000000000070000000000000000000000000000000000000000000000000000000000000000000007070000000000000000000000000000000000000000000000000000000000000000000000000000000000000000000000000000000000000000000000000000000000000000000000000000000000000000
310
00000000000000000000000000000000000000000000000000000000000000000000000000000000000000000000000000000000000000000000000000000007000000000000000000000000000000000000000000000000000000000000000000000007000000000000000000000000000000000000000000000000000000
310
00000000000000000000000000000000000000000000000000000000000000000000000000000000000000000000000000000000000000000000000000000000000000000000000000000000000000000000000000000000000000000000000000000000000000000000000000000000000000070000000000000000000000
310
00000000000000000000000000000000000000000000000000070700000000000000000000000000000000000000000000000000000000000000000000000000000000000000000000000000000000000000000000000000000000000000000000000000000000000000000000000000000000000000000000000000000000
310
00000000000000000000000000000000000000000000000000000000000000000000000000000000000700000000000000000000000000000000000007000000000000000000000000000000000000070000000000000000000000000000000000000000000000000000000000000000000000000000000000000000000000
310
00000000000000000000000000000000000000000000000000000000000000000000000000000000000000000000000000000000000000000000000000000000000000000000000000000000000000000000000000000000000000000007000000000000000000000000000000070707070007070700000000000000000000
310
00000000000700000000000000000000000000000000000000000000000000000000000000000000000000000000000000000000000000000000000000000000000000000000000000000000000000000000000000000000000000000000000000000000000000000000000000000000000000000000000000000000000000
310
00000000000000000000000000000000000000070000000000000000000000000000000700000000000000070000000000000000000000000000070700000000000000000000000000000000000000000000000000000000000000000000000000000000000000000000000000000000000000000000000000000000000000
310
00000000000000000000000000000000000000000000000000000000000000000000000000000000000000000000000000000000000000000000000000000000000000000000000007000000000000000000000000000707000007070707070000070000000000000000000000000007070000000000000000000000000000
310
00000000000000000000000000000000000000000000000000000000000000000000000000000000000000000000000000000000000000000000000000000000000000000000000000000000000000000000000000000000000000000000000000000000000000000000000000000000000000000000000000000000000700
310
00000000000000000000000007000000070000000700000007000000000000000000000000000700000000000000000000000000000000000000000000000000000000000000000000000000000000000000000000000000000000000000000000000000000000000000000000000000000000000000000000000000000000
310
00000000000000000000000000000000000000000000000000000000000000000000000000000000000000000000000000000007000000000000000000000000000700000007000000070000000700000000000000000000000000070000000000000000000000000000000000000000000000000000000000000000000000
310
00000000000000000000000000000000000000000000000000000000000000000000000000000000000000000000000000000000000000000000000000000000000000000000000000000000000000000000000000000000000000000000000000000000000000070000000000000000000000000007000000000700000007
310
00000007070000000000000000000000000700000000000000000000000000000000000000000000000000000000000000000000000000000000000000000000000000000000000000000000000000000000000000000000000000000000000000000000000000000000000000000000000000000000000000000000000000
310
00000000000000000000000000000000000000000000000000000000000700000000000000000000000000070000000007000000070000000000000000000000000000000000000000000000000000000000000000000000000000000000000000000000000000000000000000000000000000000000000000000000000000
310
00000000000000000000000000000000000000000000000000000000000000000000000000000000000000000000000000000000000000000000000000000000000000000000000000000000000000000000070000000000000000000000000007000000000700000007000000000700000000000000000000000007000000
310
00000000000000000000000000000000000000000000000000000000000000000000000000000000000000000000000000000000000000000000000000000000000000000000000000000000000000000000000000000000000000000000000000000000000000000000000000000000000000000000000000000000000000
310
00000000000000000007000000000000000000000000070000000007000000070000000700000000000000000000000000070000000000000000000000000000000000000000000000000000000000000000000000000000000000000000000000000000000000000000000000000000000000000000000000000000000000
310
00000000000000000000000000000000000000000000000000000000000000000000000000000000000000000000000000000000000000000000000000000700000000000000000000000000070000000700000007000000070000000000000000000000000007000000000000000000000000000000000000000000000000
310
00000000000000000000000000000000000000000000000000000000000000000000000000000000000000000000000000000000000000000000000000000000000000000000000000000000000000000000000000000000000000000000000000000000000000000000000000000000000000070000000000000000000000
310
00000700000007000000070000070700000000000000000000000000070000000000000000000000000000000000000000000000000000000000000000000000000000000000000000000000000000000000000000000000000000000000000000000000000000000000000000000000000000000000000000000000000000
310
00000000000000000000000000000000000000000000000000000000000000000000000000000000000700000000000000000000000000000700000700000007000007000000000000000000000000000707000000000000000000000000000000000000000000000000000000000000000000000000000000000000000000
310
00000000000000000000000000000000000000000000000000000000000000000000000000000000000000000000000000000000000000000000000000000000000000000000000000000000000000000000000000000000000000000000070000000000000000000000000000000700070000000707070000000000000000
310
00000000000007070000000000000000000000000000000000000000000000000000000000000000000000000000000000000000000000000000000000000000000000000000000000000000000000000000000000000000000000000000000000000000000000000000000000000000000000000000000000000000000000
310
00000000000000000000000000000000000000000700000000000000000000000000000000070700000007000000000000000000000000000000000700000000000000000000000000000000000000000000000000000000000000000000000000000000000000000000000000000000000000000000000000000000000000
310
00000000000000000000000000000000000000000000000000000000000000000000000000000000000000000000000000000000000000000000000000000000000000000000000000000700000000000000000000000000000000070000000700000000000000000000000000000000070000000000000000000000000000
310
00000000000000000000000000000000000000000000000000000000000000000000000000000000000000000000000000000000000000000000000000000000000000000000000000000000000000000000000000000000000000000000000000000000000000000000000000000000000000000000000000000000000000
310
07000000000000000000000000000000000700000007000000000000000000000000000000070700000000000000000000000000000000000000000000000000000000000000000000000000000000000000000000000000000000000000000000000000000000000000000000000000000000000000000000000000000000
310
00000000000000000000000000000000000000000000000000000000000000000000000000000000000000000000000000000000000007000000000000000000000000000000070000000700000000000000000000000000000707000000000000000000000000000000000000000000000000000000000000000000000000
310
00000000000000000000000000000000000000000000000000000000000000000000000000000000000000000000000000000000000000000000000000000000000000000000000000000000000000000000000000000000000000000000000000000000000000000000000707000000000000000000000000000007000000
310
07000000000000000000000000000007070000000000000000000000000000000000000000000000000000000000000000000000000000000000000000000000000000000000000000000000000000000000000000000000000000000000000000000000000000000000000000000000000000000000000000000000000000
310
00000000000000000000000000000000000000000000000000000000000000000000070000000000000000000000000000070000000700000000000000000000000000070700000000000000000000000000000000000000000000000000000000000000000000000000000000000000000000000000000000000000000000
310
00000000000000000000000000000000000000000000000000000000000000000000000000000000000000000000000000000000000000000000000000000000000000000000000000000000000000000000000000000000070000000000000000000000000007000000070000000000000000000000000007000000000000
310
00000000000000000000000000000000000000000000000000000000000000000000000000000000000000000000000000000000000000000000000000000000000000000000000000000000000000000000000000000000000000000000000000000000000000000000000000000000000000000000000000000000000000
310
00000000000000000000000000000700000000000000000000000000070000000700000000000000000000000007000000000000000000000000000000000000000000000000000000000000000000000000000000000000000000000000000000000000000000000000000000000000000000000000000000000000000000
310
00000000000000000000000000000000000000000000000000000000000000000000000000000000000000000000000000000000000000000000000000000000000000000700000000000000000000000007000000070000000000000000000000070000000000000000000000000000000000000000000000000000000000
310
00000000000000000000000000000000000000000000000000000000000000000000000000000000000000000000000000000000000000000000000000000000000000000000000000000000000000000000000000000000000000000000000000000000000000000000000000000000000000000000000000000707000000
310
00000000000000070000000700000000000000000007070000000000000000000000000000000000000000000000000000000000000000000000000000000000000000000000000000000000000000000000000000000000000000000000000000000000000000000000000000000000000000000000000000000000000000
310
00000000000000000000000000000000000000000000000000000000000000000000000000000000000000000000000000070707000000000000000007000000070000000000000000070700000000000000000000000000000000000000000000000000000000000000000000000000000000000000000000000000000000
310
00000000000000000000000000000000000000000000000000000000000000000000000000000000000000000000000000000000000000000000000000000000000000000000000000000000000000000000000000000000000000000000000000000000000000000707000000000000000700000007000000000000000707
310
00000000000000000000000000000000000000000000000000000000000000000000000000000000000000000000000000000000000000000000000000000000000000000000000000000000000000000000000000000000000000000000000000000000000000000000000000000000000000000000000000000000000000
310
00000000000000000000000000000000000000000000000000000000000000000707070000000007000000070000000007070700000000000000000000000000000000000000000000000000000000000000000000000000000000000000000000000000000000000000000000000000000000000000000000000000000000
310
00000000000000000000000000000000000000000000000000000000000000000000000000000000000000000000000000000000000000000000000000000000000000000000000000000000000000000000000000000000070707070700000007070707070000000000000000000000000000000000000000000000000000
310
00000000000000000000000000000000000000000000000000000000000000000000000000000000000000000000000000000000000000000000000000000000000000000000000000000000000000000000000000000000000000000000000000000000000000000000000000000000000000000000000000000000000000
310
00000000000000000000000000000000070707000000070700000000000000000000000000000000000000000000000000000000000000000000000000000000000000000000000000000000000000000000000000000000000000000000000000000000000000000000000000000000000000000000000000000000000000
310
00000000000000000000000000000000000000000000000000000000000000000000000000000000000000000000000000000000000000000000000000000000000000000000000700000007000000000000000000000000000000000000000000000000000000000000000000000000000000000000000000000000000000
310
00000000000000000000000000000000000000000000000000000000000000000000000000000000000000000000000000000000000000000000000000000000000000000000000000000000000000000000000000000000000000000000000000000000000000000000000000000000000000000000000000000000070000
310
00070000000000000000000000000000000000000000000000000000000000000000000000000000000000000000000000000000000000000000000000000000000000000000000000000000000000000000000000000000000000000000000000000000000000000000000000000000000000000000000000000000000000
310
00000000000000000000000000000000000000000000000000000000000000000000000000000000000000000000000000000700000007000000000000000000000000000000000000000000000000000000000000000000000000000000000000000000000000000000000000000000000000000000000000000000000000
310
00000000000000000000000000000000000000000000000000000000000000000000000000000000000000000000000000000000000000000000000000000000000000000000000000000000000000000000000000000000000000000000000000000000000000070000000700000000000000000000000000000000000000
310
00000000000000000000000000000000000000000000000000000000000000000000000000000000000000000000000000000000000000000000000000000000000000000000000000000000000000000000000000000000000000000000000000000000000000000000000000000000000000000000000000000000000000
310
00000000000000000000000000000000000000000000000000000000000700000007000000000000000000000000000000000000000000000000000000000000000000000000000000000000000000000000000000000000000000000000000000000000000000000000000000000000000000000000000000000000000000
310
00000000000000000000000000000000000000000000000000000000000000000000000000000000000000000000000000000000000000000000000000000000000000000000000000000000000000000000070000000700000000000000000000000000000000000000000000000000000000000000000000000000000000
310
00000000000000000000000000000000000000000000000000000000000000000000000000000000000000000000000000000000000000000000000000000000000000000000000000000000000000000000000000000000000000000000000000000000000000000000000000000000000000000000000000000000000000
310
00000000000000000700000007000000000000000000000000000000000000000000000000000000000000000000000000000000000000000000000000000000000000000000000000000000000000000000000000000000000000000000000000000000000000000000000000000000000000000000000000000000000000
310
00000000000000000000000000000000000000000000000000000000000000000000000000000000000000000000000000000000000000000000000000070000000700000000000000000000000000000000000000000000000000000000000000000000000000000000000000000000000000000000000000000000000000
310
00000000000000000000000000000000000000000000000000000000000000000000000000000000000000000000000000000000000000000000000000000000000000000000000000000000000000000000000000000000000000000000000000000000000000000000000000000000000007000000070000000000000000
310
00000000000000000000000000000000000000000000000000000000000000000000000000000000000000000000000000000000000000000000000000000000000000000000000000000000000000000000000000000000000000000000000000000000000000000000000000000000000000000000000000000000000000
310
00000000000000000000000000000000000000000000000000000000000000000000000000000000070000000700000000000000000000000000000000000000000000000000000000000000000000000000000000000000000000000000000000000000000000000000000000000000000000000000000000000000000000
310
00000000000000000000000000000000000000000000000000000000000000000000000000000000000000000000000000000000000000000000000000000000000000000000000000000000000000000000000000000000000000000007000000070000000000000000000000000000000000000000000000000000000000
310
00000000000000000000000000000000000000000000000000000000000000000000000000000000000000000000000000000000000000000000000000000000000000000000000000000000000000000000000000000000000000000000000000000000000000000000000000000000000000000000000000000000000000
310
00000000000000000000000000000000000000070000000700000000000000000000000000000000000000000000000000000000000000000000000000000000000000000000000000000000000000000000000000000000000000000000000000000000000000000000000000000000000000000000000000000000000000
310
00000000000000000000000000000000000000000000000000000000000000000000000000000000000000000000000000000000000000000000000000000000000000000000000007000000070000000000000000000000000000000000000000000000000000000000000000000000000000000000000000000000000000
310
00000000000000000000000000000000000000000000000000000000000000000000000000000000000000000000000000000000000000000000000000000000000000000000000000000000000000000000000000000000000000000000000000000000000000000000000000000000000000000000000000000000000700
310
00000700000700000000000000000000000000000000000000000000000000000000000000000000000000000000000000000000000000000000000000000000000000000000000000000000000000000000000000000000000000000000000000000000000000000000000000000000000000000000000000000000000000
310
00000000000000000000000000000000000000000000000000000000000000000000000000000000000000000000000000000007000007070707000707070700000000000000000000000000000000000000000000000000000000000000000000000000000000000000000000000000000000000000000000000000000000
310
00000000000000000000000000000000000000000000000000000000000000000000000000000000000000000000000000000000000000000000000000000000000000000000000000000000000000000000000000000000000000000000000000000000000000000700000007000000000000000707000000000000000000
310
00000000000000000000000000000000000000000000000000000000000000000000000000000000000000000000000000000000000000000000000000000000000000000000000000000000000000000000000000000000000000000000000000000000000000000000000000000000000000000000000000000000000000
310
00000000000000000000000000000000000000000000000000000000000007000000070000000000000000070700000000000000000000000000000000000000000000000000000000000000000000000000000000000000000000000000000000000000000000000000000000000000000000000000000000000000000000
310
00000000000000000000000000000000000000000000000000000000000000000000000000000000000000000000000000000000000000000000000000000000000000000000000000000000000000000000070700000007000000000000000000000700000000000000000000000000000000000000000000000000000000
310
00000000000000000000000000000000000000000000000000000000000000000000000000000000000000000000000000000000000000000000000000000000000000000000000000000000000000000000000000000000000000000000000000000000000000000000000000000000000000000000000000000000000000
310
00000000000000070707000000070000000000000000000007000000000000000000000000000000000000000000000000000000000000000000000000000000000000000000000000000000000000000000000000000000000000000000000000000000000000000000000000000000000000000000000000000000000000
310
00000000000000000000000000000000000000000000000000000000000000000000000000000000000000000000000000000000000000000000000007000700000007000000000000000000000700000000000000000000000000000000000000000000000000000000000000000000000000000000000000000000000000
310
00000000000000000000000000000000000000000000000000000000000000000000000000000000000000000000000000000000000000000000000000000000000000000000000000000000000000000000000000000000000000000000000000000000000000000000000000000000000700070000000700000000000000
310
00000000000000000000000000000000000000000000000000000000000000000000000000000000000000000000000000000000000000000000000000000000000000000000000000000000000000000000000000000000000000000000000000000000000000000000000000000000000000000000000000000000000000
310
00000000000000000000000000000000000000000000000000000000000000000000000000000007000700000007000000000000000000000700000000000000000000000000000000000000000000000000000000000000000000000000000000000000000000000000000000000000000000000000000000000000000000
310
00000000000000000000000000000000000000000000000000000000000000000000000000000000000000000000000000000000000000000000000000000000000000000000000000000000000000000000000000000000000000000700070000000700000000000000000000070000000000000000000000000000000000
310
00000000000000000000000000000000000000000000000000000000000000000000000000000000000000000000000000000000000000000000000000000000000000000000000000000000000000000000000000000000000000000000000000000000000000000000000000000000000000000000000000000000000000
310
00000000000000000000000000000000000007000700000007000000000000000000000700000000000000000000000000000000000000000000000000000000000000000000000000000000000000000000000000000000000000000000000000000000000000000000000000000000000000000000000000000000000000
310
00000000000000000000000000000000000000000000000000000000000000000000000000000000000000000000000000000000000000000000000000000000000000000000000007070000000700000000000000000007070000000000000000000000000000000000000000000000000000000000000000000000000000
310
00000000000000000000000000000000000000000000000000000000000000000000000000000000000000000000000000000000000000000000000000000000000000000000000000000000000000000000000000000000000000000000000000000000000000000000000000000000000000000000000000000000000007
310
00000007000000000000000007070000000000000000000000000000000000000000000000000000000000000000000000000000000000000000000000000000000000000000000000000000000000000000000000000000000000000000000000000000000000000000000000000000000000000000000000000000000000
310
00000000000000000000000000000000000000000000000000000000000000000000000000000000000000000000000000000000070000000700000000000000070700000000000000000000000000000000000000000000000000000000000000000000000000000000000000000000000000000000000000000000000000
310
00000000000000000000000000000000000000000000000000000000000000000000000000000000000000000000000000000000000000000000000000000000000000000000000000000000000000000000000000000000000000000000000000000000000000000007000000070700000007070700000000000000000000
310
00000000000000000000000000000000000000000000000000000000000000000000000000000000000000000000000000000000000000000000000000000000000000000000000000000000000000000000000000000000000000000000000000000000000000000000000000000000000000000000000000000000000000
310
00000000000000000000000007070707070707070707070707070707070707070000000707070707070707070707070707070707070707000000000000000000000000000000000000000000000000000000000000000000000000000000000000000000000000000000000000000000000000000000000000000000000000
310
00000000000000000000000000000000000000000000000000000000000000000000000000000000000000000000000000000000000000000000000000000000000700000000000700070000000000000000000007070707070700000007000000000007070000000000000700000000000000000000000000000000000000
310
00000000000000000000000000000000000000000000000000000000000000000000000000000000000000000000000000000000000000000000000000000000000000000000000000000000000000000000000000000000000000000000000000000000000000000000000000000000000000000000070707070000070007
310
00000000000000000000070000000707000000070000000000070700000007070707070707070707070707000000000000000000000000000000000000000000000000000000000000000000000000000000000000000000000000000000000000000000000000000000000000000000000000000000000000000000000000
310
00000000000000000000000000000000000000000000000000000000000000000000000000000000000000000707070700000700070000000000000000000007000000070700000007000000000007070000000707070700000000000000000707000000000000000000000000000000000000000000000000000000000000
310
00000000000000000000000000000000000000000000000000000000000000000000000000000000000000000000000000000000000000000000000000000000000000000000000000000000000000000000000000000000000000000000000000070000000000070007000000000000000000000700000007070000000700
310
00000000070700000000000007070707070707070000070000000000000000000000000000000000000000000000000000000000000000000000000000000000000000000000000000000000000000000000000000000000000000000000000000000000000000000000000000000000000000000000000000000000000000
310
00000000000000000000000000000000000000000000000700000000000700070000000000000000000007000007070707000707000000000007070000000000000700070707070000000700000000000000000000000000000000000000000000000000000000000000000000000000000000000000000000000000000000
310
00000000000000000000000000000000000000000000000000000000000000000000000000000000000000000000000000000000000000000000000000000000000000000000000000000000070707070707070707000000000707070707070707070707070707070707000000070707070707070707070700000000070707
310
00000000000000000000000000000000000000000000000000000000000000000000000000000000000000000000000000000000000000000000000000000000000000000000000000000000000000000000000000000000000000000000000000000000000000000000000000000000000000000000000000000000000000
310
00000000000000000000070707070707000000000007000007070707000700070707070707070707070700000000000707070000000000000000000000000000000000000000000000000000000000000000000000000000000000000000000000000000000000000000000000000000000000000000000000000000000000
310
00000000000000000000000000000000000000000000000000000000000000000000000000000000000000000000000000000000000000000000000000000007070707070700000000000700000700000700070007070707000000000000000707070707000000000000000000000000000000000000000000000000000000
310
00000000000000000000000000000000000000000000000000000000000000000000000000000000000000000000000000000000000000000000000000000000000000000000000000000000000000000000000000000000000000000000000000000000000000000000000000000000000000000707070700070000000000
310
07000007000007000700070700000000000707070700000000000000000000000000000000000000000000000000000000000000000000000000000000000000000000000000000000000000000000000000000000000000000000000000000000000000000000000000000000000000000000000000000000000000000000
310
00000000000000000000000000000000000000000000000000000000000000000000000000000000070707070707070707070000000700000700000700070700000007070707070000000000000000000000000000000000000000000000000000000000000000000000000000000000000000000000000000000000000000
310
00000000000000000000000000000000000000000000000000000000000000000000000000000000000000000000000000000000000000000000000000000000000000000000000000000000000000000000000000000000000000000007000000000000000007000000070000070000070007000707070000000007000000
310
00000000000000000000000000000000000000000000000000000000000000000000000000000000000000000000000000000000000000000000000000000000000000000000000000000000000000000000000000000000000000000000000000000000000000000000000000000000000000000000000000000000000000
310
00000000000000000000000000000000000000070000000000000000070707070707070707070707070700000000000000070000000000000000000000000000000000000000000000000000000000000000000000000000000000000000000000000000000000000000000000000000000000000000000000000000000000
310
00000000000000000000000000000000000000000000000000000000000000000000000000000000000000000000000000000000000000000000000000000000000000000000000007070707070707070707070707070707070707070707070707070707070707000000000000000000000000000000000000000000000000
310
00000000000000000000000000000000000000000000000000000000000000000000000000000000000000000000000000000000000000000000000000000000000000000000000000000000000000000000000000000000000000000000000000000000000000000000000000000000000000000000000000000000000000
310
000000000000000000000000000000000000000000000000000000000000000000000000000000000000000000000000000000000000000000000000000000000000000000000000000000000000000000000000000000000000000000000000000000000000000000000000
  0
ENDSEC
  0
EOF
