  0
SECTION
  2
HEADER
  9
$ACADVER
  1
AC1015
  9
$ACADMAINTVER
 70
     6
  9
$DWGCODEPAGE
  3
ANSI_1252
  9
$INSBASE
 10
0.0
 20
0.0
 30
0.0
  9
$EXTMIN
 10
-0.0355
 20
-0.0817
 30
0.0
  9
$EXTMAX
 10
200.0355
 20
116.0817
 30
0.0
  9
$LIMMIN
 10
0.0
 20
0.0
  9
$LIMMAX
 10
12.0
 20
9.0
  9
$ORTHOMODE
 70
     0
  9
$REGENMODE
 70
     1
  9
$FILLMODE
 70
     1
  9
$QTEXTMODE
 70
     0
  9
$MIRRTEXT
 70
     1
  9
$LTSCALE
 40
1.0
  9
$ATTMODE
 70
     1
  9
$TEXTSIZE
 40
0.2
  9
$TRACEWID
 40
0.05
  9
$TEXTSTYLE
  7
Standard
  9
$CLAYER
  8
0
  9
$CELTYPE
  6
ByBlock
  9
$CECOLOR
 62
   256
  9
$CELTSCALE
 40
1.0
  9
$DISPSILH
 70
     0
  9
$DIMSCALE
 40
1.0
  9
$DIMASZ
 40
0.18
  9
$DIMEXO
 40
0.0625
  9
$DIMDLI
 40
0.38
  9
$DIMRND
 40
0.0
  9
$DIMDLE
 40
0.0
  9
$DIMEXE
 40
0.18
  9
$DIMTP
 40
0.0
  9
$DIMTM
 40
0.0
  9
$DIMTXT
 40
0.18
  9
$DIMCEN
 40
0.09
  9
$DIMTSZ
 40
0.0
  9
$DIMTOL
 70
     0
  9
$DIMLIM
 70
     0
  9
$DIMTIH
 70
     1
  9
$DIMTOH
 70
     1
  9
$DIMSE1
 70
     0
  9
$DIMSE2
 70
     0
  9
$DIMTAD
 70
     0
  9
$DIMZIN
 70
     0
  9
$DIMBLK
  1

  9
$DIMASO
 70
     1
  9
$DIMSHO
 70
     1
  9
$DIMPOST
  1

  9
$DIMAPOST
  1

  9
$DIMALT
 70
     0
  9
$DIMALTD
 70
     2
  9
$DIMALTF
 40
25.4
  9
$DIMLFAC
 40
1.0
  9
$DIMTOFL
 70
     0
  9
$DIMTVP
 40
0.0
  9
$DIMTIX
 70
     0
  9
$DIMSOXD
 70
     0
  9
$DIMSAH
 70
     0
  9
$DIMBLK1
  1

  9
$DIMBLK2
  1

  9
$DIMSTYLE
  2
Standard
  9
$DIMCLRD
 70
     0
  9
$DIMCLRE
 70
     0
  9
$DIMCLRT
 70
     0
  9
$DIMTFAC
 40
1.0
  9
$DIMGAP
 40
0.09
  9
$DIMJUST
 70
     0
  9
$DIMSD1
 70
     0
  9
$DIMSD2
 70
     0
  9
$DIMTOLJ
 70
     1
  9
$DIMTZIN
 70
     0
  9
$DIMALTZ
 70
     0
  9
$DIMALTTZ
 70
     0
  9
$DIMUPT
 70
     0
  9
$DIMDEC
 70
     4
  9
$DIMTDEC
 70
     4
  9
$DIMALTU
 70
     2
  9
$DIMALTTD
 70
     2
  9
$DIMTXSTY
  7
Standard
  9
$DIMAUNIT
 70
     0
  9
$DIMADEC
 70
     0
  9
$DIMALTRND
 40
0.0
  9
$DIMAZIN
 70
     0
  9
$DIMDSEP
 70
    46
  9
$DIMATFIT
 70
     3
  9
$DIMFRAC
 70
     0
  9
$DIMLDRBLK
  1

  9
$DIMLUNIT
 70
     2
  9
$DIMLWD
 70
    -2
  9
$DIMLWE
 70
    -2
  9
$DIMTMOVE
 70
     2
  9
$LUNITS
 70
     2
  9
$LUPREC
 70
     4
  9
$SKETCHINC
 40
0.1
  9
$FILLETRAD
 40
0.5
  9
$AUNITS
 70
     0
  9
$AUPREC
 70
     0
  9
$MENU
  1
.
  9
$ELEVATION
 40
0.0
  9
$PELEVATION
 40
0.0
  9
$THICKNESS
 40
0.0
  9
$LIMCHECK
 70
     0
  9
$CHAMFERA
 40
0.5
  9
$CHAMFERB
 40
0.5
  9
$CHAMFERC
 40
1.0
  9
$CHAMFERD
 40
0.0
  9
$SKPOLY
 70
     0
  9
$TDCREATE
 40
2456646.770310868
  9
$TDUCREATE
 40
2456646.728644202
  9
$TDUPDATE
 40
2456646.781016157
  9
$TDUUPDATE
 40
2456646.739349491
  9
$TDINDWG
 40
0.0107051157
  9
$TDUSRTIMER
 40
0.0107051157
  9
$USRTIMER
 70
     1
  9
$ANGBASE
 50
0.0
  9
$ANGDIR
 70
     0
  9
$PDMODE
 70
     0
  9
$PDSIZE
 40
0.0
  9
$PLINEWID
 40
0.0
  9
$SPLFRAME
 70
     0
  9
$SPLINETYPE
 70
     6
  9
$SPLINESEGS
 70
     8
  9
$HANDSEED
  5
3E9
  9
$SURFTAB1
 70
     6
  9
$SURFTAB2
 70
     6
  9
$SURFTYPE
 70
     6
  9
$SURFU
 70
     6
  9
$SURFV
 70
     6
  9
$UCSBASE
  2

  9
$UCSNAME
  2

  9
$UCSORG
 10
0.0
 20
0.0
 30
0.0
  9
$UCSXDIR
 10
1.0
 20
0.0
 30
0.0
  9
$UCSYDIR
 10
0.0
 20
1.0
 30
0.0
  9
$UCSORTHOREF
  2

  9
$UCSORTHOVIEW
 70
     0
  9
$UCSORGTOP
 10
0.0
 20
0.0
 30
0.0
  9
$UCSORGBOTTOM
 10
0.0
 20
0.0
 30
0.0
  9
$UCSORGLEFT
 10
0.0
 20
0.0
 30
0.0
  9
$UCSORGRIGHT
 10
0.0
 20
0.0
 30
0.0
  9
$UCSORGFRONT
 10
0.0
 20
0.0
 30
0.0
  9
$UCSORGBACK
 10
0.0
 20
0.0
 30
0.0
  9
$PUCSBASE
  2

  9
$PUCSNAME
  2

  9
$PUCSORG
 10
0.0
 20
0.0
 30
0.0
  9
$PUCSXDIR
 10
1.0
 20
0.0
 30
0.0
  9
$PUCSYDIR
 10
0.0
 20
1.0
 30
0.0
  9
$PUCSORTHOREF
  2

  9
$PUCSORTHOVIEW
 70
     0
  9
$PUCSORGTOP
 10
0.0
 20
0.0
 30
0.0
  9
$PUCSORGBOTTOM
 10
0.0
 20
0.0
 30
0.0
  9
$PUCSORGLEFT
 10
0.0
 20
0.0
 30
0.0
  9
$PUCSORGRIGHT
 10
0.0
 20
0.0
 30
0.0
  9
$PUCSORGFRONT
 10
0.0
 20
0.0
 30
0.0
  9
$PUCSORGBACK
 10
0.0
 20
0.0
 30
0.0
  9
$USERI1
 70
     0
  9
$USERI2
 70
     0
  9
$USERI3
 70
     0
  9
$USERI4
 70
     0
  9
$USERI5
 70
     0
  9
$USERR1
 40
0.0
  9
$USERR2
 40
0.0
  9
$USERR3
 40
0.0
  9
$USERR4
 40
0.0
  9
$USERR5
 40
0.0
  9
$WORLDVIEW
 70
     1
  9
$SHADEDGE
 70
     3
  9
$SHADEDIF
 70
    70
  9
$TILEMODE
 70
     1
  9
$MAXACTVP
 70
    64
  9
$PINSBASE
 10
0.0
 20
0.0
 30
0.0
  9
$PLIMCHECK
 70
     0
  9
$PEXTMIN
 10
1.000000000000E+20
 20
1.000000000000E+20
 30
1.000000000000E+20
  9
$PEXTMAX
 10
-1.000000000000E+20
 20
-1.000000000000E+20
 30
-1.000000000000E+20
  9
$PLIMMIN
 10
0.0
 20
0.0
  9
$PLIMMAX
 10
12.0
 20
9.0
  9
$UNITMODE
 70
     0
  9
$VISRETAIN
 70
     1
  9
$PLINEGEN
 70
     0
  9
$PSLTSCALE
 70
     1
  9
$TREEDEPTH
 70
  3020
  9
$CMLSTYLE
  2
Standard
  9
$CMLJUST
 70
     0
  9
$CMLSCALE
 40
1.0
  9
$PROXYGRAPHICS
 70
     1
  9
$MEASUREMENT
 70
     0
  9
$CELWEIGHT
370
    -1
  9
$ENDCAPS
280
     0
  9
$JOINSTYLE
280
     0
  9
$LWDISPLAY
290
     0
  9
$INSUNITS
 70
     0
  9
$HYPERLINKBASE
  1

  9
$STYLESHEET
  1

  9
$XEDIT
290
     1
  9
$CEPSNTYPE
380
     0
  9
$PSTYLEMODE
290
     1
  9
$FINGERPRINTGUID
  2
{F7593ED3-BE2C-4201-AE79-D20A168220F3}
  9
$VERSIONGUID
  2
{FAEB1C32-E019-11D5-929B-00C0DF256EC4}
  9
$EXTNAMES
290
     1
  9
$PSVPSCALE
 40
0.0
  9
$OLESTARTUP
290
     0
  0
ENDSEC
  0
SECTION
  2
CLASSES
  0
CLASS
  1
ACDBDICTIONARYWDFLT
  2
AcDbDictionaryWithDefault
  3
ObjectDBX Classes
 90
        0
280
     0
281
     0
  0
CLASS
  1
SCALE
  2
AcDbScale
  3
ObjectDBX Classes
 90
     1153
280
     0
281
     0
  0
CLASS
  1
DICTIONARYVAR
  2
AcDbDictionaryVar
  3
ObjectDBX Classes
 90
        0
280
     0
281
     0
  0
CLASS
  1
ACDBPLACEHOLDER
  2
AcDbPlaceHolder
  3
ObjectDBX Classes
 90
        0
280
     0
281
     0
  0
CLASS
  1
LAYOUT
  2
AcDbLayout
  3
ObjectDBX Classes
 90
        0
280
     0
281
     0
  0
ENDSEC
  0
SECTION
  2
TABLES
  0
TABLE
  2
VPORT
  5
8
330
0
100
AcDbSymbolTable
 70
     1
  0
VPORT
  5
3AE
330
8
100
AcDbSymbolTableRecord
100
AcDbViewportTableRecord
  2
*Active
 70
     0
 10
0.0
 20
0.0
 11
1.0
 21
1.0
 12
100.0
 22
58.0
 13
0.0
 23
0.0
 14
0.5
 24
0.5
 15
0.5
 25
0.5
 16
0.0
 26
0.0
 36
1.0
 17
0.0
 27
0.0
 37
0.0
 40
118.486668
 41
1.729542302358
 42
50.0
 43
0.0
 44
0.0
 50
0.0
 51
0.0
 71
    16
 72
   100
 73
     1
 74
     3
 75
     0
 76
     0
 77
     0
 78
     0
281
     0
 65
     1
110
0.0
120
0.0
130
0.0
111
1.0
121
0.0
131
0.0
112
0.0
122
1.0
132
0.0
 79
     0
146
0.0
  0
ENDTAB
  0
TABLE
  2
LTYPE
  5
5
330
0
100
AcDbSymbolTable
 70
     1
  0
LTYPE
  5
14
330
5
100
AcDbSymbolTableRecord
100
AcDbLinetypeTableRecord
  2
ByBlock
 70
     0
  3

 72
    65
 73
     0
 40
0.0
  0
LTYPE
  5
15
330
5
100
AcDbSymbolTableRecord
100
AcDbLinetypeTableRecord
  2
ByLayer
 70
     0
  3

 72
    65
 73
     0
 40
0.0
  0
LTYPE
  5
16
330
5
100
AcDbSymbolTableRecord
100
AcDbLinetypeTableRecord
  2
Continuous
 70
     0
  3
Solid line
 72
    65
 73
     0
 40
0.0
  0
ENDTAB
  0
TABLE
  2
LAYER
  5
2
330
0
100
AcDbSymbolTable
 70
     1
  0
LAYER
  5
10
330
2
100
AcDbSymbolTableRecord
100
AcDbLayerTableRecord
  2
0
 70
     0
 62
     7
  6
Continuous
370
    -3
390
F
  0
ENDTAB
  0
TABLE
  2
STYLE
  5
3
330
0
100
AcDbSymbolTable
 70
     1
  0
STYLE
  5
11
330
3
100
AcDbSymbolTableRecord
100
AcDbTextStyleTableRecord
  2
Standard
 70
     0
 40
0.0
 41
1.0
 50
0.0
 71
     0
 42
0.2
  3
txt
  4

  0
ENDTAB
  0
TABLE
  2
VIEW
  5
6
330
0
100
AcDbSymbolTable
 70
     0
  0
ENDTAB
  0
TABLE
  2
UCS
  5
7
330
0
100
AcDbSymbolTable
 70
     0
  0
ENDTAB
  0
TABLE
  2
APPID
  5
9
330
0
100
AcDbSymbolTable
 70
     1
  0
APPID
  5
12
330
9
100
AcDbSymbolTableRecord
100
AcDbRegAppTableRecord
  2
ACAD
 70
     0
  0
ENDTAB
  0
TABLE
  2
DIMSTYLE
  5
A
330
0
100
AcDbSymbolTable
 70
     1
100
AcDbDimStyleTable
  0
DIMSTYLE
105
20
330
A
100
AcDbSymbolTableRecord
100
AcDbDimStyleTableRecord
  2
Standard
 70
     0
340
11
  0
ENDTAB
  0
TABLE
  2
BLOCK_RECORD
  5
1
330
0
100
AcDbSymbolTable
 70
     0
  0
BLOCK_RECORD
  5
1D
330
1
100
AcDbSymbolTableRecord
100
AcDbBlockTableRecord
  2
*Model_Space
340
1E
  0
BLOCK_RECORD
  5
1B
330
1
100
AcDbSymbolTableRecord
100
AcDbBlockTableRecord
  2
*Paper_Space
340
1C
  0
ENDTAB
  0
ENDSEC
  0
SECTION
  2
BLOCKS
  0
BLOCK
  5
3B1
330
1D
100
AcDbEntity
  8
0
100
AcDbBlockBegin
  2
*Model_Space
 70
     0
 10
0.0
 20
0.0
 30
0.0
  3
*Model_Space
  1
*Model_Space
  0
ENDBLK
  5
3B2
330
1D
100
AcDbEntity
  8
0
100
AcDbBlockEnd
  0
BLOCK
  5
3AF
330
1B
100
AcDbEntity
 67
     1
  8
0
100
AcDbBlockBegin
  2
*Paper_Space
 70
     0
 10
0.0
 20
0.0
 30
0.0
  3
*Paper_Space
  1
*Paper_Space
  0
ENDBLK
  5
3B0
330
1B
100
AcDbEntity
 67
     1
  8
0
100
AcDbBlockEnd
  0
ENDSEC
  0
SECTION
  2
ENTITIES
  0
LINE
  5
21
330
1D
100
AcDbEntity
  8
0
100
AcDbLine
 10
16.7565
 20
-0.0779
 30
0.0
 11
16.9515
 21
-0.0817
 31
0.0
  0
LINE
  5
22
330
1D
100
AcDbEntity
  8
0
100
AcDbLine
 10
16.9515
 20
-0.0817
 30
0.0
 11
17.1325
 21
-0.0106
 31
0.0
  0
LINE
  5
23
330
1D
100
AcDbEntity
  8
0
100
AcDbLine
 10
17.1325
 20
-0.0106
 30
0.0
 11
17.2735
 21
0.1246
 31
0.0
  0
LINE
  5
24
330
1D
100
AcDbEntity
  8
0
100
AcDbLine
 10
17.2735
 20
0.1246
 30
0.0
 11
22.6485
 21
7.836
 31
0.0
  0
LINE
  5
25
330
1D
100
AcDbEntity
  8
0
100
AcDbLine
 10
16.5695
 20
0.0056
 30
0.0
 11
16.7565
 21
-0.0779
 31
0.0
  0
LINE
  5
7B
330
1D
100
AcDbEntity
  8
0
100
AcDbLine
 10
-0.0355
 20
11.7589
 30
0.0
 11
-0.0315
 21
11.9539
 31
0.0
  0
LINE
  5
7C
330
1D
100
AcDbEntity
  8
0
100
AcDbLine
 10
-0.0355
 20
11.7589
 30
0.0
 11
0.0355
 21
11.5773
 31
0.0
  0
LINE
  5
7D
330
1D
100
AcDbEntity
  8
0
100
AcDbLine
 10
-0.0315
 20
11.9539
 30
0.0
 11
0.0465
 21
12.1327
 31
0.0
  0
LINE
  5
7E
330
1D
100
AcDbEntity
  8
0
100
AcDbLine
 10
0.0465
 20
12.1327
 30
0.0
 11
5.4215
 21
19.8441
 31
0.0
  0
LINE
  5
7F
330
1D
100
AcDbEntity
  8
0
100
AcDbLine
 10
0.0465
 20
12.1327
 30
0.0
 11
5.4215
 21
19.8441
 31
0.0
  0
LINE
  5
80
330
1D
100
AcDbEntity
  8
0
100
AcDbLine
 10
0.0355
 20
11.5773
 30
0.0
 11
0.1785
 21
11.4313
 31
0.0
  0
LINE
  5
8E
330
1D
100
AcDbEntity
  8
0
100
AcDbLine
 10
5.4505
 20
19.8239
 30
0.0
 11
11.6365
 21
28.6974
 31
0.0
  0
LINE
  5
E0
330
1D
100
AcDbEntity
  8
0
100
AcDbLine
 10
11.6365
 20
28.6974
 30
0.0
 11
13.8835
 21
31.67939
 31
0.0
  0
LINE
  5
E8
330
1D
100
AcDbEntity
  8
0
100
AcDbLine
 10
16.3445
 20
34.48707
 30
0.0
 11
19.0065
 21
37.10488
 31
0.0
  0
LINE
  5
E9
330
1D
100
AcDbEntity
  8
0
100
AcDbLine
 10
13.8835
 20
31.67939
 30
0.0
 11
16.3445
 21
34.48707
 31
0.0
  0
LINE
  5
F2
330
1D
100
AcDbEntity
  8
0
100
AcDbLine
 10
22.6195
 20
7.8563
 30
0.0
 11
28.8055
 21
16.7299
 31
0.0
  0
LINE
  5
123
330
1D
100
AcDbEntity
  8
0
100
AcDbLine
 10
33.1185
 20
21.6506
 30
0.0
 11
34.7865
 21
23.0636
 31
0.0
  0
LINE
  5
124
330
1D
100
AcDbEntity
  8
0
100
AcDbLine
 10
31.5605
 20
20.1184
 30
0.0
 11
33.1185
 21
21.6506
 31
0.0
  0
LINE
  5
125
330
1D
100
AcDbEntity
  8
0
100
AcDbLine
 10
30.1205
 20
18.4751
 30
0.0
 11
31.5605
 21
20.1184
 31
0.0
  0
LINE
  5
126
330
1D
100
AcDbEntity
  8
0
100
AcDbLine
 10
28.8055
 20
16.7299
 30
0.0
 11
30.1205
 21
18.4751
 31
0.0
  0
LINE
  5
127
330
1D
100
AcDbEntity
  8
0
100
AcDbLine
 10
34.7865
 20
23.0636
 30
0.0
 11
36.5535
 21
24.3493
 31
0.0
  0
LINE
  5
128
330
1D
100
AcDbEntity
  8
0
100
AcDbLine
 10
38.4105
 20
25.5007
 30
0.0
 11
40.3475
 21
26.5117
 31
0.0
  0
LINE
  5
129
330
1D
100
AcDbEntity
  8
0
100
AcDbLine
 10
40.3475
 20
26.5117
 30
0.0
 11
42.3535
 21
27.3771
 31
0.0
  0
LINE
  5
12A
330
1D
100
AcDbEntity
  8
0
100
AcDbLine
 10
44.4195
 20
28.0912
 30
0.0
 11
46.5315
 21
28.6512
 31
0.0
  0
LINE
  5
12B
330
1D
100
AcDbEntity
  8
0
100
AcDbLine
 10
46.5315
 20
28.6512
 30
0.0
 11
48.6795
 21
29.0532
 31
0.0
  0
LINE
  5
12C
330
1D
100
AcDbEntity
  8
0
100
AcDbLine
 10
48.6795
 20
29.0532
 30
0.0
 11
50.8515
 21
29.29511
 31
0.0
  0
LINE
  5
12D
330
1D
100
AcDbEntity
  8
0
100
AcDbLine
 10
50.8515
 20
29.29511
 30
0.0
 11
53.0355
 21
29.37592
 31
0.0
  0
LINE
  5
12E
330
1D
100
AcDbEntity
  8
0
100
AcDbLine
 10
42.3535
 20
27.3771
 30
0.0
 11
44.4195
 21
28.0912
 31
0.0
  0
LINE
  5
12F
330
1D
100
AcDbEntity
  8
0
100
AcDbLine
 10
36.5535
 20
24.3493
 30
0.0
 11
38.4105
 21
25.5007
 31
0.0
  0
LINE
  5
136
330
1D
100
AcDbEntity
  8
0
100
AcDbLine
 10
53.0355
 20
29.37592
 30
0.0
 11
74.4193
 21
29.34083
 31
0.0
  0
LINE
  5
139
330
1D
100
AcDbEntity
  8
0
100
AcDbLine
 10
21.8545
 20
39.518919
 30
0.0
 11
24.8735
 21
41.71572
 31
0.0
  0
LINE
  5
13A
330
1D
100
AcDbEntity
  8
0
100
AcDbLine
 10
19.0065
 20
37.10488
 30
0.0
 11
21.8545
 21
39.518919
 31
0.0
  0
LINE
  5
13B
330
1D
100
AcDbEntity
  8
0
100
AcDbLine
 10
28.0475
 20
43.68307
 30
0.0
 11
31.3565
 21
45.41088
 31
0.0
  0
LINE
  5
13C
330
1D
100
AcDbEntity
  8
0
100
AcDbLine
 10
31.3565
 20
45.41088
 30
0.0
 11
34.7855
 21
46.88902
 31
0.0
  0
LINE
  5
13D
330
1D
100
AcDbEntity
  8
0
100
AcDbLine
 10
34.7855
 20
46.88902
 30
0.0
 11
38.3145
 21
48.10952
 31
0.0
  0
LINE
  5
13E
330
1D
100
AcDbEntity
  8
0
100
AcDbLine
 10
41.9235
 20
49.06562
 30
0.0
 11
45.5935
 21
49.7523
 31
0.0
  0
LINE
  5
13F
330
1D
100
AcDbEntity
  8
0
100
AcDbLine
 10
45.5935
 20
49.7523
 30
0.0
 11
49.3045
 21
50.1661
 31
0.0
  0
LINE
  5
140
330
1D
100
AcDbEntity
  8
0
100
AcDbLine
 10
53.0355
 20
50.3042
 30
0.0
 11
88.0353
 21
50.3042
 31
0.0
  0
LINE
  5
141
330
1D
100
AcDbEntity
  8
0
100
AcDbLine
 10
49.3045
 20
50.1661
 30
0.0
 11
53.0355
 21
50.3042
 31
0.0
  0
LINE
  5
142
330
1D
100
AcDbEntity
  8
0
100
AcDbLine
 10
38.3145
 20
48.10952
 30
0.0
 11
41.9235
 21
49.06562
 31
0.0
  0
LINE
  5
143
330
1D
100
AcDbEntity
  8
0
100
AcDbLine
 10
24.8735
 20
41.71572
 30
0.0
 11
28.0475
 21
43.68307
 31
0.0
  0
LINE
  5
14F
330
1D
100
AcDbEntity
  8
0
100
AcDbLine
 10
89.0353
 20
29.343
 30
0.0
 11
89.0353
 21
29.41412
 31
0.0
  0
LINE
  5
150
330
1D
100
AcDbEntity
  8
0
100
AcDbLine
 10
88.3353
 20
29.343
 30
0.0
 11
89.0353
 21
29.343
 31
0.0
  0
LINE
  5
151
330
1D
100
AcDbEntity
  8
0
100
AcDbLine
 10
88.1853
 20
29.38329
 30
0.0
 11
88.3353
 21
29.343
 31
0.0
  0
LINE
  5
152
330
1D
100
AcDbEntity
  8
0
100
AcDbLine
 10
88.0353
 20
29.64303
 30
0.0
 11
88.0755
 21
29.49301
 31
0.0
  0
LINE
  5
153
330
1D
100
AcDbEntity
  8
0
100
AcDbLine
 10
88.0755
 20
29.49301
 30
0.0
 11
88.1853
 21
29.38329
 31
0.0
  0
LINE
  5
154
330
1D
100
AcDbEntity
  8
0
100
AcDbLine
 10
89.0353
 20
29.41412
 30
0.0
 11
89.0353
 21
29.57974
 31
0.0
  0
LINE
  5
155
330
1D
100
AcDbEntity
  8
0
100
AcDbLine
 10
89.0353
 20
29.41412
 30
0.0
 11
89.0353
 21
29.343
 31
0.0
  0
LINE
  5
156
330
1D
100
AcDbEntity
  8
0
100
AcDbLine
 10
89.0353
 20
29.57974
 30
0.0
 11
89.0353
 21
29.41412
 31
0.0
  0
LINE
  5
157
330
1D
100
AcDbEntity
  8
0
100
AcDbLine
 10
89.0353
 20
29.57974
 30
0.0
 11
89.0353
 21
29.83807
 31
0.0
  0
LINE
  5
158
330
1D
100
AcDbEntity
  8
0
100
AcDbLine
 10
88.0353
 20
29.37592
 30
0.0
 11
88.0353
 21
29.66143
 31
0.0
  0
LINE
  5
15A
330
1D
100
AcDbEntity
  8
0
100
AcDbLine
 10
88.0353
 20
29.66143
 30
0.0
 11
88.0353
 21
29.37592
 31
0.0
  0
LINE
  5
15B
330
1D
100
AcDbEntity
  8
0
100
AcDbLine
 10
88.0353
 20
29.66143
 30
0.0
 11
88.0353
 21
30.22444
 31
0.0
  0
LINE
  5
15E
330
1D
100
AcDbEntity
  8
0
100
AcDbLine
 10
88.0353
 20
30.22444
 30
0.0
 11
88.0353
 21
29.66143
 31
0.0
  0
LINE
  5
15F
330
1D
100
AcDbEntity
  8
0
100
AcDbLine
 10
88.0353
 20
30.22444
 30
0.0
 11
88.0353
 21
31.04994
 31
0.0
  0
LINE
  5
160
330
1D
100
AcDbEntity
  8
0
100
AcDbLine
 10
88.0353
 20
31.04994
 30
0.0
 11
88.0353
 21
30.22444
 31
0.0
  0
LINE
  5
161
330
1D
100
AcDbEntity
  8
0
100
AcDbLine
 10
88.0353
 20
31.04994
 30
0.0
 11
88.0353
 21
32.11496
 31
0.0
  0
LINE
  5
162
330
1D
100
AcDbEntity
  8
0
100
AcDbLine
 10
89.0353
 20
29.83807
 30
0.0
 11
89.0353
 21
29.57974
 31
0.0
  0
LINE
  5
163
330
1D
100
AcDbEntity
  8
0
100
AcDbLine
 10
89.0353
 20
29.83807
 30
0.0
 11
89.0353
 21
30.18712
 31
0.0
  0
LINE
  5
164
330
1D
100
AcDbEntity
  8
0
100
AcDbLine
 10
89.0353
 20
30.62344
 30
0.0
 11
89.0353
 21
30.18712
 31
0.0
  0
LINE
  5
165
330
1D
100
AcDbEntity
  8
0
100
AcDbLine
 10
89.0353
 20
30.62344
 30
0.0
 11
89.0353
 21
31.1434
 31
0.0
  0
LINE
  5
166
330
1D
100
AcDbEntity
  8
0
100
AcDbLine
 10
89.0353
 20
31.1434
 30
0.0
 11
89.0353
 21
30.62344
 31
0.0
  0
LINE
  5
167
330
1D
100
AcDbEntity
  8
0
100
AcDbLine
 10
89.0353
 20
31.1434
 30
0.0
 11
89.0353
 21
31.74203
 31
0.0
  0
LINE
  5
168
330
1D
100
AcDbEntity
  8
0
100
AcDbLine
 10
89.0353
 20
31.74203
 30
0.0
 11
89.0353
 21
31.1434
 31
0.0
  0
LINE
  5
169
330
1D
100
AcDbEntity
  8
0
100
AcDbLine
 10
89.0353
 20
31.74203
 30
0.0
 11
89.0353
 21
32.4139
 31
0.0
  0
LINE
  5
16A
330
1D
100
AcDbEntity
  8
0
100
AcDbLine
 10
89.0353
 20
30.18712
 30
0.0
 11
89.0353
 21
29.83807
 31
0.0
  0
LINE
  5
16B
330
1D
100
AcDbEntity
  8
0
100
AcDbLine
 10
89.0353
 20
30.18712
 30
0.0
 11
89.0353
 21
30.62344
 31
0.0
  0
LINE
  5
16C
330
1D
100
AcDbEntity
  8
0
100
AcDbLine
 10
88.0353
 20
32.11496
 30
0.0
 11
88.0353
 21
31.04994
 31
0.0
  0
LINE
  5
16D
330
1D
100
AcDbEntity
  8
0
100
AcDbLine
 10
88.0353
 20
32.11496
 30
0.0
 11
88.0353
 21
33.39074
 31
0.0
  0
LINE
  5
16E
330
1D
100
AcDbEntity
  8
0
100
AcDbLine
 10
89.0353
 20
29.80276
 30
0.0
 11
89.096
 21
29.56419
 31
0.0
  0
LINE
  5
16F
330
1D
100
AcDbEntity
  8
0
100
AcDbLine
 10
89.1684
 20
30.24262
 30
0.0
 11
89.1684
 21
29.76772
 31
0.0
  0
LINE
  5
170
330
1D
100
AcDbEntity
  8
0
100
AcDbLine
 10
89.1684
 20
30.24262
 30
0.0
 11
89.1684
 21
30.92522
 31
0.0
  0
LINE
  5
171
330
1D
100
AcDbEntity
  8
0
100
AcDbLine
 10
89.1684
 20
30.92522
 30
0.0
 11
89.1684
 21
30.24262
 31
0.0
  0
LINE
  5
172
330
1D
100
AcDbEntity
  8
0
100
AcDbLine
 10
89.1684
 20
30.92522
 30
0.0
 11
89.1684
 21
32.30619
 31
0.0
  0
LINE
  5
173
330
1D
100
AcDbEntity
  8
0
100
AcDbLine
 10
89.1684
 20
29.5105
 30
0.0
 11
89.1684
 21
29.76772
 31
0.0
  0
LINE
  5
174
330
1D
100
AcDbEntity
  8
0
100
AcDbLine
 10
89.096
 20
29.56419
 30
0.0
 11
89.2634
 21
29.38317
 31
0.0
  0
LINE
  5
175
330
1D
100
AcDbEntity
  8
0
100
AcDbLine
 10
89.0353
 20
33.1533
 30
0.0
 11
89.0353
 21
32.4139
 31
0.0
  0
LINE
  5
176
330
1D
100
AcDbEntity
  8
0
100
AcDbLine
 10
89.0353
 20
33.1533
 30
0.0
 11
89.0353
 21
33.9529
 31
0.0
  0
LINE
  5
177
330
1D
100
AcDbEntity
  8
0
100
AcDbLine
 10
89.0353
 20
33.9529
 30
0.0
 11
89.0353
 21
33.1533
 31
0.0
  0
LINE
  5
178
330
1D
100
AcDbEntity
  8
0
100
AcDbLine
 10
89.0353
 20
33.9529
 30
0.0
 11
89.0353
 21
34.80606
 31
0.0
  0
LINE
  5
179
330
1D
100
AcDbEntity
  8
0
100
AcDbLine
 10
89.0353
 20
32.4139
 30
0.0
 11
89.0353
 21
31.74203
 31
0.0
  0
LINE
  5
17A
330
1D
100
AcDbEntity
  8
0
100
AcDbLine
 10
89.0353
 20
32.4139
 30
0.0
 11
89.0353
 21
33.1533
 31
0.0
  0
LINE
  5
17B
330
1D
100
AcDbEntity
  8
0
100
AcDbLine
 10
88.0353
 20
33.39074
 30
0.0
 11
88.0353
 21
32.11496
 31
0.0
  0
LINE
  5
17C
330
1D
100
AcDbEntity
  8
0
100
AcDbLine
 10
88.0353
 20
33.39074
 30
0.0
 11
88.0353
 21
34.84249
 31
0.0
  0
LINE
  5
17D
330
1D
100
AcDbEntity
  8
0
100
AcDbLine
 10
88.0353
 20
36.43068
 30
0.0
 11
88.0353
 21
38.11191
 31
0.0
  0
LINE
  5
17E
330
1D
100
AcDbEntity
  8
0
100
AcDbLine
 10
88.0353
 20
36.43068
 30
0.0
 11
88.0353
 21
34.84249
 31
0.0
  0
LINE
  5
17F
330
1D
100
AcDbEntity
  8
0
100
AcDbLine
 10
88.0353
 20
39.840076
 30
0.0
 11
88.0353
 21
38.11191
 31
0.0
  0
LINE
  5
180
330
1D
100
AcDbEntity
  8
0
100
AcDbLine
 10
88.0353
 20
39.840076
 30
0.0
 11
88.0353
 21
41.56837
 31
0.0
  0
LINE
  5
181
330
1D
100
AcDbEntity
  8
0
100
AcDbLine
 10
88.0353
 20
34.84249
 30
0.0
 11
88.0353
 21
33.39074
 31
0.0
  0
LINE
  5
182
330
1D
100
AcDbEntity
  8
0
100
AcDbLine
 10
88.0353
 20
34.84249
 30
0.0
 11
88.0353
 21
36.43068
 31
0.0
  0
LINE
  5
183
330
1D
100
AcDbEntity
  8
0
100
AcDbLine
 10
89.0353
 20
34.80606
 30
0.0
 11
89.0353
 21
33.9529
 31
0.0
  0
LINE
  5
184
330
1D
100
AcDbEntity
  8
0
100
AcDbLine
 10
89.0353
 20
34.80606
 30
0.0
 11
89.0353
 21
35.70477
 31
0.0
  0
LINE
  5
185
330
1D
100
AcDbEntity
  8
0
100
AcDbLine
 10
89.0353
 20
36.6409
 30
0.0
 11
89.0353
 21
35.70477
 31
0.0
  0
LINE
  5
186
330
1D
100
AcDbEntity
  8
0
100
AcDbLine
 10
89.0353
 20
36.6409
 30
0.0
 11
89.0353
 21
37.60613
 31
0.0
  0
LINE
  5
187
330
1D
100
AcDbEntity
  8
0
100
AcDbLine
 10
89.0353
 20
35.70477
 30
0.0
 11
89.0353
 21
34.80606
 31
0.0
  0
LINE
  5
188
330
1D
100
AcDbEntity
  8
0
100
AcDbLine
 10
89.0353
 20
35.70477
 30
0.0
 11
89.0353
 21
36.6409
 31
0.0
  0
LINE
  5
189
330
1D
100
AcDbEntity
  8
0
100
AcDbLine
 10
89.1684
 20
35.38
 30
0.0
 11
89.1684
 21
34.05273
 31
0.0
  0
LINE
  5
18A
330
1D
100
AcDbEntity
  8
0
100
AcDbLine
 10
89.1684
 20
35.38
 30
0.0
 11
89.1684
 21
36.80372
 31
0.0
  0
LINE
  5
18B
330
1D
100
AcDbEntity
  8
0
100
AcDbLine
 10
89.0353
 20
40.58697
 30
0.0
 11
89.0353
 21
39.58812
 31
0.0
  0
LINE
  5
18C
330
1D
100
AcDbEntity
  8
0
100
AcDbLine
 10
89.0353
 20
40.58697
 30
0.0
 11
89.0353
 21
41.57924
 31
0.0
  0
LINE
  5
18D
330
1D
100
AcDbEntity
  8
0
100
AcDbLine
 10
89.0353
 20
39.58812
 30
0.0
 11
89.0353
 21
38.591526
 31
0.0
  0
LINE
  5
18E
330
1D
100
AcDbEntity
  8
0
100
AcDbLine
 10
89.0353
 20
39.58812
 30
0.0
 11
89.0353
 21
40.58697
 31
0.0
  0
LINE
  5
18F
330
1D
100
AcDbEntity
  8
0
100
AcDbLine
 10
89.0353
 20
38.591526
 30
0.0
 11
89.0353
 21
37.60613
 31
0.0
  0
LINE
  5
190
330
1D
100
AcDbEntity
  8
0
100
AcDbLine
 10
89.0353
 20
38.591526
 30
0.0
 11
89.0353
 21
39.58812
 31
0.0
  0
LINE
  5
191
330
1D
100
AcDbEntity
  8
0
100
AcDbLine
 10
89.0353
 20
37.60613
 30
0.0
 11
89.0353
 21
36.6409
 31
0.0
  0
LINE
  5
192
330
1D
100
AcDbEntity
  8
0
100
AcDbLine
 10
89.0353
 20
37.60613
 30
0.0
 11
89.0353
 21
38.591526
 31
0.0
  0
LINE
  5
193
330
1D
100
AcDbEntity
  8
0
100
AcDbLine
 10
89.1684
 20
36.80372
 30
0.0
 11
89.1684
 21
35.38
 31
0.0
  0
LINE
  5
194
330
1D
100
AcDbEntity
  8
0
100
AcDbLine
 10
89.1684
 20
36.80372
 30
0.0
 11
89.1684
 21
39.049277
 31
0.0
  0
LINE
  5
195
330
1D
100
AcDbEntity
  8
0
100
AcDbLine
 10
88.0353
 20
38.11191
 30
0.0
 11
88.0353
 21
39.840076
 31
0.0
  0
LINE
  5
196
330
1D
100
AcDbEntity
  8
0
100
AcDbLine
 10
88.0353
 20
38.11191
 30
0.0
 11
88.0353
 21
36.43068
 31
0.0
  0
LINE
  5
197
330
1D
100
AcDbEntity
  8
0
100
AcDbLine
 10
89.1684
 20
34.05273
 30
0.0
 11
89.1684
 21
32.30619
 31
0.0
  0
LINE
  5
198
330
1D
100
AcDbEntity
  8
0
100
AcDbLine
 10
89.1684
 20
34.05273
 30
0.0
 11
89.1684
 21
35.38
 31
0.0
  0
LINE
  5
199
330
1D
100
AcDbEntity
  8
0
100
AcDbLine
 10
89.1684
 20
39.049277
 30
0.0
 11
89.1684
 21
36.80372
 31
0.0
  0
LINE
  5
19A
330
1D
100
AcDbEntity
  8
0
100
AcDbLine
 10
89.1684
 20
39.049277
 30
0.0
 11
89.1684
 21
41.33245
 31
0.0
  0
LINE
  5
19B
330
1D
100
AcDbEntity
  8
0
100
AcDbLine
 10
88.0353
 20
41.56837
 30
0.0
 11
88.0353
 21
39.840076
 31
0.0
  0
LINE
  5
19C
330
1D
100
AcDbEntity
  8
0
100
AcDbLine
 10
88.0353
 20
41.56837
 30
0.0
 11
88.0353
 21
43.2494
 31
0.0
  0
LINE
  5
19D
330
1D
100
AcDbEntity
  8
0
100
AcDbLine
 10
88.0353
 20
43.2494
 30
0.0
 11
88.0353
 21
41.56837
 31
0.0
  0
LINE
  5
19E
330
1D
100
AcDbEntity
  8
0
100
AcDbLine
 10
88.0353
 20
43.2494
 30
0.0
 11
88.0353
 21
44.83751
 31
0.0
  0
LINE
  5
19F
330
1D
100
AcDbEntity
  8
0
100
AcDbLine
 10
88.0353
 20
44.83751
 30
0.0
 11
88.0353
 21
43.2494
 31
0.0
  0
LINE
  5
1A0
330
1D
100
AcDbEntity
  8
0
100
AcDbLine
 10
88.0353
 20
44.83751
 30
0.0
 11
88.0353
 21
46.28925
 31
0.0
  0
LINE
  5
1A1
330
1D
100
AcDbEntity
  8
0
100
AcDbLine
 10
88.0353
 20
46.28925
 30
0.0
 11
88.0353
 21
44.83751
 31
0.0
  0
LINE
  5
1A2
330
1D
100
AcDbEntity
  8
0
100
AcDbLine
 10
88.0353
 20
46.28925
 30
0.0
 11
88.0353
 21
47.56519
 31
0.0
  0
LINE
  5
1A3
330
1D
100
AcDbEntity
  8
0
100
AcDbLine
 10
88.0353
 20
47.56519
 30
0.0
 11
88.0353
 21
46.28925
 31
0.0
  0
LINE
  5
1A4
330
1D
100
AcDbEntity
  8
0
100
AcDbLine
 10
88.0353
 20
47.56519
 30
0.0
 11
88.0353
 21
48.63037
 31
0.0
  0
LINE
  5
1A5
330
1D
100
AcDbEntity
  8
0
100
AcDbLine
 10
88.0353
 20
48.63037
 30
0.0
 11
88.0353
 21
47.56519
 31
0.0
  0
LINE
  5
1A6
330
1D
100
AcDbEntity
  8
0
100
AcDbLine
 10
88.0353
 20
48.63037
 30
0.0
 11
88.0353
 21
49.4557
 31
0.0
  0
LINE
  5
1A7
330
1D
100
AcDbEntity
  8
0
100
AcDbLine
 10
89.0353
 20
42.55552
 30
0.0
 11
89.0353
 21
41.57924
 31
0.0
  0
LINE
  5
1A8
330
1D
100
AcDbEntity
  8
0
100
AcDbLine
 10
89.0353
 20
42.55552
 30
0.0
 11
89.0353
 21
43.5076
 31
0.0
  0
LINE
  5
1A9
330
1D
100
AcDbEntity
  8
0
100
AcDbLine
 10
89.0353
 20
41.57924
 30
0.0
 11
89.0353
 21
40.58697
 31
0.0
  0
LINE
  5
1AA
330
1D
100
AcDbEntity
  8
0
100
AcDbLine
 10
89.0353
 20
41.57924
 30
0.0
 11
89.0353
 21
42.55552
 31
0.0
  0
LINE
  5
1AB
330
1D
100
AcDbEntity
  8
0
100
AcDbLine
 10
89.0353
 20
45.30317
 30
0.0
 11
89.0353
 21
46.13095
 31
0.0
  0
LINE
  5
1AC
330
1D
100
AcDbEntity
  8
0
100
AcDbLine
 10
89.0353
 20
45.30317
 30
0.0
 11
89.0353
 21
44.42605
 31
0.0
  0
LINE
  5
1AD
330
1D
100
AcDbEntity
  8
0
100
AcDbLine
 10
89.0353
 20
44.42605
 30
0.0
 11
89.0353
 21
45.30317
 31
0.0
  0
LINE
  5
1AE
330
1D
100
AcDbEntity
  8
0
100
AcDbLine
 10
89.0353
 20
44.42605
 30
0.0
 11
89.0353
 21
43.5076
 31
0.0
  0
LINE
  5
1AF
330
1D
100
AcDbEntity
  8
0
100
AcDbLine
 10
89.0353
 20
47.60809
 30
0.0
 11
89.0353
 21
46.90153
 31
0.0
  0
LINE
  5
1B0
330
1D
100
AcDbEntity
  8
0
100
AcDbLine
 10
89.0353
 20
47.60809
 30
0.0
 11
89.0353
 21
48.24454
 31
0.0
  0
LINE
  5
1B1
330
1D
100
AcDbEntity
  8
0
100
AcDbLine
 10
89.0353
 20
48.24454
 30
0.0
 11
89.0353
 21
47.60809
 31
0.0
  0
LINE
  5
1B2
330
1D
100
AcDbEntity
  8
0
100
AcDbLine
 10
89.0353
 20
48.24454
 30
0.0
 11
89.0353
 21
48.8046
 31
0.0
  0
LINE
  5
1B3
330
1D
100
AcDbEntity
  8
0
100
AcDbLine
 10
89.0353
 20
48.8046
 30
0.0
 11
89.0353
 21
48.24454
 31
0.0
  0
LINE
  5
1B4
330
1D
100
AcDbEntity
  8
0
100
AcDbLine
 10
89.0353
 20
48.8046
 30
0.0
 11
89.0353
 21
49.2837
 31
0.0
  0
LINE
  5
1B5
330
1D
100
AcDbEntity
  8
0
100
AcDbLine
 10
89.0353
 20
49.2837
 30
0.0
 11
89.0353
 21
48.8046
 31
0.0
  0
LINE
  5
1B6
330
1D
100
AcDbEntity
  8
0
100
AcDbLine
 10
89.0353
 20
49.2837
 30
0.0
 11
89.0353
 21
49.6772
 31
0.0
  0
LINE
  5
1B7
330
1D
100
AcDbEntity
  8
0
100
AcDbLine
 10
89.0353
 20
49.6772
 30
0.0
 11
89.0353
 21
49.2837
 31
0.0
  0
LINE
  5
1B8
330
1D
100
AcDbEntity
  8
0
100
AcDbLine
 10
89.0353
 20
49.6772
 30
0.0
 11
89.0353
 21
49.9817
 31
0.0
  0
LINE
  5
1B9
330
1D
100
AcDbEntity
  8
0
100
AcDbLine
 10
89.0353
 20
46.90153
 30
0.0
 11
89.0353
 21
46.13095
 31
0.0
  0
LINE
  5
1BA
330
1D
100
AcDbEntity
  8
0
100
AcDbLine
 10
89.0353
 20
46.90153
 30
0.0
 11
89.0353
 21
47.60809
 31
0.0
  0
LINE
  5
1BB
330
1D
100
AcDbEntity
  8
0
100
AcDbLine
 10
89.0353
 20
46.13095
 30
0.0
 11
89.0353
 21
45.30317
 31
0.0
  0
LINE
  5
1BC
330
1D
100
AcDbEntity
  8
0
100
AcDbLine
 10
89.0353
 20
46.13095
 30
0.0
 11
89.0353
 21
46.90153
 31
0.0
  0
LINE
  5
1BD
330
1D
100
AcDbEntity
  8
0
100
AcDbLine
 10
89.0353
 20
43.5076
 30
0.0
 11
89.0353
 21
44.42605
 31
0.0
  0
LINE
  5
1BE
330
1D
100
AcDbEntity
  8
0
100
AcDbLine
 10
89.0353
 20
43.5076
 30
0.0
 11
89.0353
 21
42.55552
 31
0.0
  0
LINE
  5
1BF
330
1D
100
AcDbEntity
  8
0
100
AcDbLine
 10
88.0353
 20
49.4557
 30
0.0
 11
88.0353
 21
48.63037
 31
0.0
  0
LINE
  5
1C0
330
1D
100
AcDbEntity
  8
0
100
AcDbLine
 10
88.0353
 20
49.4557
 30
0.0
 11
88.0353
 21
50.0187
 31
0.0
  0
LINE
  5
1C1
330
1D
100
AcDbEntity
  8
0
100
AcDbLine
 10
88.0353
 20
50.0371
 30
0.0
 11
88.0755
 21
50.1871
 31
0.0
  0
LINE
  5
1C2
330
1D
100
AcDbEntity
  8
0
100
AcDbLine
 10
88.0755
 20
50.1871
 30
0.0
 11
88.1853
 21
50.2969
 31
0.0
  0
LINE
  5
1C3
330
1D
100
AcDbEntity
  8
0
100
AcDbLine
 10
89.0353
 20
50.1943
 30
0.0
 11
89.0353
 21
49.9817
 31
0.0
  0
LINE
  5
1C4
330
1D
100
AcDbEntity
  8
0
100
AcDbLine
 10
89.0353
 20
50.1943
 30
0.0
 11
89.0353
 21
50.3132
 31
0.0
  0
LINE
  5
1C5
330
1D
100
AcDbEntity
  8
0
100
AcDbLine
 10
89.0353
 20
49.9817
 30
0.0
 11
89.0353
 21
49.6772
 31
0.0
  0
LINE
  5
1C6
330
1D
100
AcDbEntity
  8
0
100
AcDbLine
 10
89.0353
 20
49.9817
 30
0.0
 11
89.0353
 21
50.1943
 31
0.0
  0
LINE
  5
1C7
330
1D
100
AcDbEntity
  8
0
100
AcDbLine
 10
88.0353
 20
50.0187
 30
0.0
 11
88.0353
 21
49.4557
 31
0.0
  0
LINE
  5
1C8
330
1D
100
AcDbEntity
  8
0
100
AcDbLine
 10
88.0353
 20
50.0187
 30
0.0
 11
88.0353
 21
50.3042
 31
0.0
  0
LINE
  5
1C9
330
1D
100
AcDbEntity
  8
0
100
AcDbLine
 10
89.0353
 20
49.8774
 30
0.0
 11
89.096
 21
50.116
 31
0.0
  0
LINE
  5
1CA
330
1D
100
AcDbEntity
  8
0
100
AcDbLine
 10
89.1684
 20
45.5808
 30
0.0
 11
89.1684
 21
47.33538
 31
0.0
  0
LINE
  5
1CB
330
1D
100
AcDbEntity
  8
0
100
AcDbLine
 10
89.1684
 20
45.5808
 30
0.0
 11
89.1684
 21
44.24936
 31
0.0
  0
LINE
  5
1CC
330
1D
100
AcDbEntity
  8
0
100
AcDbLine
 10
89.1684
 20
44.24936
 30
0.0
 11
89.1684
 21
45.5808
 31
0.0
  0
LINE
  5
1CD
330
1D
100
AcDbEntity
  8
0
100
AcDbLine
 10
89.1684
 20
44.24936
 30
0.0
 11
89.1684
 21
42.82273
 31
0.0
  0
LINE
  5
1CE
330
1D
100
AcDbEntity
  8
0
100
AcDbLine
 10
89.1684
 20
49.416
 30
0.0
 11
89.1684
 21
49.8986
 31
0.0
  0
LINE
  5
1CF
330
1D
100
AcDbEntity
  8
0
100
AcDbLine
 10
89.1684
 20
49.416
 30
0.0
 11
89.1684
 21
48.72599
 31
0.0
  0
LINE
  5
1D0
330
1D
100
AcDbEntity
  8
0
100
AcDbLine
 10
89.1684
 20
48.72599
 30
0.0
 11
89.1684
 21
47.33538
 31
0.0
  0
LINE
  5
1D1
330
1D
100
AcDbEntity
  8
0
100
AcDbLine
 10
89.1684
 20
48.72599
 30
0.0
 11
89.1684
 21
49.416
 31
0.0
  0
LINE
  5
1D2
330
1D
100
AcDbEntity
  8
0
100
AcDbLine
 10
89.1684
 20
47.33538
 30
0.0
 11
89.1684
 21
45.5808
 31
0.0
  0
LINE
  5
1D3
330
1D
100
AcDbEntity
  8
0
100
AcDbLine
 10
89.1684
 20
47.33538
 30
0.0
 11
89.1684
 21
48.72599
 31
0.0
  0
LINE
  5
1D4
330
1D
100
AcDbEntity
  8
0
100
AcDbLine
 10
89.096
 20
50.116
 30
0.0
 11
89.1684
 21
50.2063
 31
0.0
  0
LINE
  5
1D5
330
1D
100
AcDbEntity
  8
0
100
AcDbLine
 10
84.0877
 20
102.795
 30
0.0
 11
88.1616
 21
100.9719
 31
0.0
  0
LINE
  5
1D6
330
1D
100
AcDbEntity
  8
0
100
AcDbLine
 10
78.304
 20
105.848
 30
0.0
 11
78.9539
 21
105.3841
 31
0.0
  0
LINE
  5
1D7
330
1D
100
AcDbEntity
  8
0
100
AcDbLine
 10
78.9539
 20
105.3841
 30
0.0
 11
79.6565
 21
104.9445
 31
0.0
  0
LINE
  5
1D8
330
1D
100
AcDbEntity
  8
0
100
AcDbLine
 10
79.6565
 20
104.9445
 30
0.0
 11
81.1502
 21
104.1419
 31
0.0
  0
LINE
  5
1D9
330
1D
100
AcDbEntity
  8
0
100
AcDbLine
 10
81.1502
 20
104.1419
 30
0.0
 11
82.1579
 21
103.6608
 31
0.0
  0
LINE
  5
1DA
330
1D
100
AcDbEntity
  8
0
100
AcDbLine
 10
82.1579
 20
103.6608
 30
0.0
 11
84.0877
 21
102.795
 31
0.0
  0
LINE
  5
1DB
330
1D
100
AcDbEntity
  8
0
100
AcDbLine
 10
88.1853
 20
50.2969
 30
0.0
 11
88.3353
 21
50.3372
 31
0.0
  0
LINE
  5
1DC
330
1D
100
AcDbEntity
  8
0
100
AcDbLine
 10
88.3353
 20
50.3372
 30
0.0
 11
89.0353
 21
50.3372
 31
0.0
  0
LINE
  5
1DD
330
1D
100
AcDbEntity
  8
0
100
AcDbLine
 10
89.0353
 20
50.3132
 30
0.0
 11
89.0353
 21
50.1943
 31
0.0
  0
LINE
  5
1DE
330
1D
100
AcDbEntity
  8
0
100
AcDbLine
 10
88.1616
 20
100.9719
 30
0.0
 11
89.9758
 21
100.1105
 31
0.0
  0
LINE
  5
1DF
330
1D
100
AcDbEntity
  8
0
100
AcDbLine
 10
88.0353
 20
50.3042
 30
0.0
 11
88.0353
 21
50.0187
 31
0.0
  0
LINE
  5
1E0
330
1D
100
AcDbEntity
  8
0
100
AcDbLine
 10
89.1684
 20
50.2063
 30
0.0
 11
89.1684
 21
49.8986
 31
0.0
  0
LINE
  5
1E1
330
1D
100
AcDbEntity
  8
0
100
AcDbLine
 10
89.1684
 20
50.2063
 30
0.0
 11
89.2634
 21
50.297
 31
0.0
  0
LINE
  5
1E2
330
1D
100
AcDbEntity
  8
0
100
AcDbLine
 10
89.1684
 20
49.8986
 30
0.0
 11
89.1684
 21
50.2063
 31
0.0
  0
LINE
  5
1E3
330
1D
100
AcDbEntity
  8
0
100
AcDbLine
 10
89.1684
 20
49.8986
 30
0.0
 11
89.1684
 21
49.416
 31
0.0
  0
LINE
  5
1E4
330
1D
100
AcDbEntity
  8
0
100
AcDbLine
 10
89.1684
 20
41.33245
 30
0.0
 11
89.1684
 21
39.049277
 31
0.0
  0
LINE
  5
1E5
330
1D
100
AcDbEntity
  8
0
100
AcDbLine
 10
89.1684
 20
41.33245
 30
0.0
 11
89.1684
 21
42.82273
 31
0.0
  0
LINE
  5
1E6
330
1D
100
AcDbEntity
  8
0
100
AcDbLine
 10
89.1684
 20
42.82273
 30
0.0
 11
89.1684
 21
41.33245
 31
0.0
  0
LINE
  5
1E7
330
1D
100
AcDbEntity
  8
0
100
AcDbLine
 10
89.1684
 20
42.82273
 30
0.0
 11
89.1684
 21
44.24936
 31
0.0
  0
LINE
  5
1E8
330
1D
100
AcDbEntity
  8
0
100
AcDbLine
 10
89.1684
 20
32.30619
 30
0.0
 11
89.1684
 21
30.92522
 31
0.0
  0
LINE
  5
1E9
330
1D
100
AcDbEntity
  8
0
100
AcDbLine
 10
89.1684
 20
32.30619
 30
0.0
 11
89.1684
 21
34.05273
 31
0.0
  0
LINE
  5
1EA
330
1D
100
AcDbEntity
  8
0
100
AcDbLine
 10
89.2634
 20
29.38317
 30
0.0
 11
89.4968
 21
29.30417
 31
0.0
  0
LINE
  5
1EB
330
1D
100
AcDbEntity
  8
0
100
AcDbLine
 10
89.4968
 20
50.376
 30
0.0
 11
104.6905
 21
51.5506
 31
0.0
  0
LINE
  5
1EC
330
1D
100
AcDbEntity
  8
0
100
AcDbLine
 10
89.2634
 20
50.297
 30
0.0
 11
89.4968
 21
50.376
 31
0.0
  0
LINE
  5
1ED
330
1D
100
AcDbEntity
  8
0
100
AcDbLine
 10
89.1684
 20
29.76772
 30
0.0
 11
89.1684
 21
29.5105
 31
0.0
  0
LINE
  5
1EE
330
1D
100
AcDbEntity
  8
0
100
AcDbLine
 10
89.1684
 20
29.76772
 30
0.0
 11
89.1684
 21
30.24262
 31
0.0
  0
LINE
  5
1EF
330
1D
100
AcDbEntity
  8
0
100
AcDbLine
 10
89.4968
 20
29.30417
 30
0.0
 11
185.6505
 21
21.8698
 31
0.0
  0
LINE
  5
1F0
330
1D
100
AcDbEntity
  8
0
100
AcDbLine
 10
95.1349
 20
96.7625
 30
0.0
 11
95.7215
 21
96.1883
 31
0.0
  0
LINE
  5
1F1
330
1D
100
AcDbEntity
  8
0
100
AcDbLine
 10
95.7215
 20
96.1883
 30
0.0
 11
96.2676
 21
95.585
 31
0.0
  0
LINE
  5
1F2
330
1D
100
AcDbEntity
  8
0
100
AcDbLine
 10
94.5076
 20
97.3089
 30
0.0
 11
95.1349
 21
96.7625
 31
0.0
  0
LINE
  5
1F3
330
1D
100
AcDbEntity
  8
0
100
AcDbLine
 10
96.2676
 20
95.585
 30
0.0
 11
96.7741
 21
94.9505
 31
0.0
  0
LINE
  5
1F4
330
1D
100
AcDbEntity
  8
0
100
AcDbLine
 10
104.6905
 20
51.5506
 30
0.0
 11
106.3825
 21
51.7153
 31
0.0
  0
LINE
  5
1F5
330
1D
100
AcDbEntity
  8
0
100
AcDbLine
 10
106.3825
 20
51.7153
 30
0.0
 11
107.1685
 21
51.8493
 31
0.0
  0
LINE
  5
1F6
330
1D
100
AcDbEntity
  8
0
100
AcDbLine
 10
107.1685
 20
51.8493
 30
0.0
 11
108.2555
 21
52.1543
 31
0.0
  0
LINE
  5
1F7
330
1D
100
AcDbEntity
  8
0
100
AcDbLine
 10
107.6915
 20
67.187
 30
0.0
 11
107.8005
 21
67.4215
 31
0.0
  0
LINE
  5
1F8
330
1D
100
AcDbEntity
  8
0
100
AcDbLine
 10
107.6915
 20
67.187
 30
0.0
 11
107.7135
 21
66.9292
 31
0.0
  0
LINE
  5
1F9
330
1D
100
AcDbEntity
  8
0
100
AcDbLine
 10
107.8005
 20
67.4215
 30
0.0
 11
108.0125
 21
67.57
 31
0.0
  0
LINE
  5
1FD
330
1D
100
AcDbEntity
  8
0
100
AcDbLine
 10
107.8755
 20
68.0522
 30
0.0
 11
108.0245
 21
68.1064
 31
0.0
  0
LINE
  5
1FE
330
1D
100
AcDbEntity
  8
0
100
AcDbLine
 10
107.8455
 20
68.0412
 30
0.0
 11
108.0165
 21
67.5714
 31
0.0
  0
LINE
  5
20B
330
1D
100
AcDbEntity
  8
0
100
AcDbLine
 10
107.7135
 20
66.9292
 30
0.0
 11
110.3275
 21
59.7468
 31
0.0
  0
LINE
  5
20C
330
1D
100
AcDbEntity
  8
0
100
AcDbLine
 10
108.2555
 20
52.1543
 30
0.0
 11
109.4605
 21
52.7639
 31
0.0
  0
LINE
  5
20D
330
1D
100
AcDbEntity
  8
0
100
AcDbLine
 10
110.3845
 20
53.6197
 30
0.0
 11
110.9765
 21
54.6928
 31
0.0
  0
LINE
  5
214
330
1D
100
AcDbEntity
  8
0
100
AcDbLine
 10
110.9375
 20
57.914
 30
0.0
 11
111.1255
 21
57.0654
 31
0.0
  0
LINE
  5
215
330
1D
100
AcDbEntity
  8
0
100
AcDbLine
 10
110.3275
 20
59.7468
 30
0.0
 11
110.9375
 21
57.914
 31
0.0
  0
LINE
  5
216
330
1D
100
AcDbEntity
  8
0
100
AcDbLine
 10
111.1255
 20
57.0654
 30
0.0
 11
111.194943025492
 21
55.938941535817
 31
0.0
  0
LINE
  5
217
330
1D
100
AcDbEntity
  8
0
100
AcDbLine
 10
111.193402951047
 20
55.812174158084
 30
0.0
 11
111.194943025492
 21
55.938941535817
 31
0.0
  0
LINE
  5
219
330
1D
100
AcDbEntity
  8
0
100
AcDbLine
 10
110.9765
 20
54.6928
 30
0.0
 11
111.193402951047
 21
55.812174158084
 31
0.0
  0
LINE
  5
21A
330
1D
100
AcDbEntity
  8
0
100
AcDbLine
 10
109.4605
 20
52.7639
 30
0.0
 11
110.3845
 21
53.6197
 31
0.0
  0
LINE
  5
21B
330
1D
100
AcDbEntity
  8
0
100
AcDbLine
 10
107.2905
 20
68.5274
 30
0.0
 11
107.4795
 21
68.4809
 31
0.0
  0
LINE
  5
21C
330
1D
100
AcDbEntity
  8
0
100
AcDbLine
 10
107.1335
 20
68.6427
 30
0.0
 11
107.2905
 21
68.5274
 31
0.0
  0
LINE
  5
21D
330
1D
100
AcDbEntity
  8
0
100
AcDbLine
 10
107.6725
 20
68.5106
 30
0.0
 11
107.7255
 21
68.5297
 31
0.0
  0
LINE
  5
21F
330
1D
100
AcDbEntity
  8
0
100
AcDbLine
 10
107.8285
 20
68.5673
 30
0.0
 11
107.9865
 21
68.6248
 31
0.0
  0
LINE
  5
220
330
1D
100
AcDbEntity
  8
0
100
AcDbLine
 10
107.7255
 20
68.5297
 30
0.0
 11
107.8285
 21
68.5673
 31
0.0
  0
LINE
  5
2EC
330
1D
100
AcDbEntity
  8
0
100
AcDbLine
 10
133.6995
 20
76.9195
 30
0.0
 11
134.0235
 21
77.0374
 31
0.0
  0
LINE
  5
2F6
330
1D
100
AcDbEntity
  8
0
100
AcDbLine
 10
133.8525
 20
77.5073
 30
0.0
 11
134.0595
 21
77.5827
 31
0.0
  0
LINE
  5
2F7
330
1D
100
AcDbEntity
  8
0
100
AcDbLine
 10
133.5285
 20
77.3894
 30
0.0
 11
133.8525
 21
77.5073
 31
0.0
  0
LINE
  5
2F9
330
1D
100
AcDbEntity
  8
0
100
AcDbLine
 10
133.6575
 20
77.9681
 30
0.0
 11
133.9015
 21
78.0571
 31
0.0
  0
LINE
  5
2FA
330
1D
100
AcDbEntity
  8
0
100
AcDbLine
 10
133.9015
 20
78.0571
 30
0.0
 11
133.9835
 21
78.0871
 31
0.0
  0
LINE
  5
2FE
330
1D
100
AcDbEntity
  8
0
100
AcDbLine
 10
134.0235
 20
77.0374
 30
0.0
 11
134.2315
 21
77.1129
 31
0.0
  0
LINE
  5
2FF
330
1D
100
AcDbEntity
  8
0
100
AcDbLine
 10
134.2315
 20
77.1129
 30
0.0
 11
134.3205
 21
77.1453
 31
0.0
  0
LINE
  5
300
330
1D
100
AcDbEntity
  8
0
100
AcDbLine
 10
134.1495
 20
77.6151
 30
0.0
 11
134.3205
 21
77.1453
 31
0.0
  0
LINE
  5
301
330
1D
100
AcDbEntity
  8
0
100
AcDbLine
 10
134.0595
 20
77.5827
 30
0.0
 11
134.1495
 21
77.6151
 31
0.0
  0
LINE
  5
302
330
1D
100
AcDbEntity
  8
0
100
AcDbLine
 10
134.1105
 20
78.1552
 30
0.0
 11
134.2665
 21
78.3456
 31
0.0
  0
LINE
  5
303
330
1D
100
AcDbEntity
  8
0
100
AcDbLine
 10
133.9835
 20
78.0871
 30
0.0
 11
134.1105
 21
78.1552
 31
0.0
  0
LINE
  5
30A
330
1D
100
AcDbEntity
  8
0
100
AcDbLine
 10
107.4795
 20
68.4809
 30
0.0
 11
107.6725
 21
68.5106
 31
0.0
  0
LINE
  5
30B
330
1D
100
AcDbEntity
  8
0
100
AcDbLine
 10
107.0315
 20
68.8094
 30
0.0
 11
107.1335
 21
68.6427
 31
0.0
  0
LINE
  5
30C
330
1D
100
AcDbEntity
  8
0
100
AcDbLine
 10
98.9166
 20
91.0134
 30
0.0
 11
99.7899
 21
88.7061
 31
0.0
  0
LINE
  5
30D
330
1D
100
AcDbEntity
  8
0
100
AcDbLine
 10
99.7899
 20
88.7061
 30
0.0
 11
107.0315
 21
68.8094
 31
0.0
  0
LINE
  5
30E
330
1D
100
AcDbEntity
  8
0
100
AcDbLine
 10
134.2665
 20
78.3456
 30
0.0
 11
134.3125
 21
78.5312
 31
0.0
  0
LINE
  5
30F
330
1D
100
AcDbEntity
  8
0
100
AcDbLine
 10
195.5355
 20
21.8452
 30
0.0
 11
195.7855
 21
21.9121
 31
0.0
  0
LINE
  5
310
330
1D
100
AcDbEntity
  8
0
100
AcDbLine
 10
186.4215
 20
21.8401
 30
0.0
 11
195.5355
 21
21.8452
 31
0.0
  0
LINE
  5
311
330
1D
100
AcDbEntity
  8
0
100
AcDbLine
 10
196.5665
 20
18.9239
 30
0.0
 11
197.1225
 21
14.6934
 31
0.0
  0
LINE
  5
312
330
1D
100
AcDbEntity
  8
0
100
AcDbLine
 10
200.0355
 20
8.849
 30
0.0
 11
200.0355
 21
8.9183
 31
0.0
  0
LINE
  5
313
330
1D
100
AcDbEntity
  8
0
100
AcDbLine
 10
200.0355
 20
8.9183
 30
0.0
 11
200.0355
 21
8.849
 31
0.0
  0
LINE
  5
314
330
1D
100
AcDbEntity
  8
0
100
AcDbLine
 10
200.0355
 20
8.9183
 30
0.0
 11
200.0355
 21
9.2682
 31
0.0
  0
LINE
  5
315
330
1D
100
AcDbEntity
  8
0
100
AcDbLine
 10
197.8585
 20
10.5
 30
0.0
 11
198.0265
 21
10.1114
 31
0.0
  0
LINE
  5
316
330
1D
100
AcDbEntity
  8
0
100
AcDbLine
 10
198.0265
 20
10.1114
 30
0.0
 11
198.3395
 21
9.8276
 31
0.0
  0
LINE
  5
317
330
1D
100
AcDbEntity
  8
0
100
AcDbLine
 10
198.3395
 20
9.8276
 30
0.0
 11
200.0355
 21
8.849
 31
0.0
  0
LINE
  5
318
330
1D
100
AcDbEntity
  8
0
100
AcDbLine
 10
200.0355
 20
10.7929
 30
0.0
 11
200.0355
 21
11.9531
 31
0.0
  0
LINE
  5
319
330
1D
100
AcDbEntity
  8
0
100
AcDbLine
 10
200.0355
 20
10.7929
 30
0.0
 11
200.0355
 21
9.895
 31
0.0
  0
LINE
  5
31A
330
1D
100
AcDbEntity
  8
0
100
AcDbLine
 10
200.0355
 20
11.9531
 30
0.0
 11
200.0355
 21
10.7929
 31
0.0
  0
LINE
  5
31B
330
1D
100
AcDbEntity
  8
0
100
AcDbLine
 10
200.0355
 20
11.9531
 30
0.0
 11
200.0355
 21
13.3663
 31
0.0
  0
LINE
  5
31C
330
1D
100
AcDbEntity
  8
0
100
AcDbLine
 10
200.0355
 20
13.3663
 30
0.0
 11
200.0355
 21
11.9531
 31
0.0
  0
LINE
  5
31D
330
1D
100
AcDbEntity
  8
0
100
AcDbLine
 10
200.0355
 20
13.3663
 30
0.0
 11
200.0355
 21
15.0193
 31
0.0
  0
LINE
  5
31E
330
1D
100
AcDbEntity
  8
0
100
AcDbLine
 10
200.0355
 20
15.0193
 30
0.0
 11
200.0355
 21
13.3663
 31
0.0
  0
LINE
  5
31F
330
1D
100
AcDbEntity
  8
0
100
AcDbLine
 10
200.0355
 20
15.0193
 30
0.0
 11
200.0355
 21
16.8971
 31
0.0
  0
LINE
  5
320
330
1D
100
AcDbEntity
  8
0
100
AcDbLine
 10
200.0355
 20
18.9831
 30
0.0
 11
200.0355
 21
16.8971
 31
0.0
  0
LINE
  5
321
330
1D
100
AcDbEntity
  8
0
100
AcDbLine
 10
200.0355
 20
18.9831
 30
0.0
 11
200.0355
 21
21.2577
 31
0.0
  0
LINE
  5
322
330
1D
100
AcDbEntity
  8
0
100
AcDbLine
 10
200.0355
 20
21.2577
 30
0.0
 11
200.0355
 21
18.9831
 31
0.0
  0
LINE
  5
323
330
1D
100
AcDbEntity
  8
0
100
AcDbLine
 10
200.0355
 20
21.2577
 30
0.0
 11
200.0355
 21
23.7002
 31
0.0
  0
LINE
  5
324
330
1D
100
AcDbEntity
  8
0
100
AcDbLine
 10
200.0355
 20
16.8971
 30
0.0
 11
200.0355
 21
15.0193
 31
0.0
  0
LINE
  5
325
330
1D
100
AcDbEntity
  8
0
100
AcDbLine
 10
200.0355
 20
16.8971
 30
0.0
 11
200.0355
 21
18.9831
 31
0.0
  0
LINE
  5
326
330
1D
100
AcDbEntity
  8
0
100
AcDbLine
 10
200.0355
 20
9.895
 30
0.0
 11
200.0355
 21
9.2682
 31
0.0
  0
LINE
  5
327
330
1D
100
AcDbEntity
  8
0
100
AcDbLine
 10
200.0355
 20
9.895
 30
0.0
 11
200.0355
 21
10.7929
 31
0.0
  0
LINE
  5
328
330
1D
100
AcDbEntity
  8
0
100
AcDbLine
 10
200.0355
 20
9.2682
 30
0.0
 11
200.0355
 21
8.9183
 31
0.0
  0
LINE
  5
329
330
1D
100
AcDbEntity
  8
0
100
AcDbLine
 10
200.0355
 20
9.2682
 30
0.0
 11
200.0355
 21
9.895
 31
0.0
  0
LINE
  5
32A
330
1D
100
AcDbEntity
  8
0
100
AcDbLine
 10
197.1225
 20
14.6934
 30
0.0
 11
197.8585
 21
10.5
 31
0.0
  0
LINE
  5
32B
330
1D
100
AcDbEntity
  8
0
100
AcDbLine
 10
144.522874228734
 20
57.153273932695
 30
0.0
 11
144.8485
 21
56.9341
 31
0.0
  0
LINE
  5
32C
330
1D
100
AcDbEntity
  8
0
100
AcDbLine
 10
140.2115
 20
62.6118
 30
0.0
 11
140.826725246463
 21
61.332967715847
 31
0.0
  0
LINE
  5
32D
330
1D
100
AcDbEntity
  8
0
100
AcDbLine
 10
143.086856295531
 20
58.296276364703
 30
0.0
 11
143.790645858287
 21
57.676069824701
 31
0.0
  0
LINE
  5
330
330
1D
100
AcDbEntity
  8
0
100
AcDbLine
 10
140.8135
 20
61.3542
 30
0.0
 11
141.843721863072
 21
59.70024493773
 31
0.0
  0
LINE
  5
335
330
1D
100
AcDbEntity
  8
0
100
AcDbLine
 10
152.9425
 20
55.3065
 30
0.0
 11
154.9615
 21
55.4373
 31
0.0
  0
LINE
  5
336
330
1D
100
AcDbEntity
  8
0
100
AcDbLine
 10
154.9615
 20
55.4373
 30
0.0
 11
185.6505
 21
57.8103
 31
0.0
  0
LINE
  5
337
330
1D
100
AcDbEntity
  8
0
100
AcDbLine
 10
147.9915
 20
55.6866
 30
0.0
 11
150.3135
 21
55.3359
 31
0.0
  0
LINE
  5
338
330
1D
100
AcDbEntity
  8
0
100
AcDbLine
 10
150.3135
 20
55.3359
 30
0.0
 11
152.9425
 21
55.3065
 31
0.0
  0
LINE
  5
339
330
1D
100
AcDbEntity
  8
0
100
AcDbLine
 10
145.995363388666
 20
56.354884753254
 30
0.0
 11
146.741594832335
 21
56.059800273722
 31
0.0
  0
LINE
  5
33A
330
1D
100
AcDbEntity
  8
0
100
AcDbLine
 10
134.8165
 20
77.0598
 30
0.0
 11
134.9645
 21
76.8478
 31
0.0
  0
LINE
  5
33B
330
1D
100
AcDbEntity
  8
0
100
AcDbLine
 10
134.5815
 20
77.1692
 30
0.0
 11
134.8165
 21
77.0598
 31
0.0
  0
LINE
  5
33C
330
1D
100
AcDbEntity
  8
0
100
AcDbLine
 10
134.3235
 20
77.1466
 30
0.0
 11
134.5815
 21
77.1692
 31
0.0
  0
LINE
  5
33D
330
1D
100
AcDbEntity
  8
0
100
AcDbLine
 10
134.9645
 20
76.8478
 30
0.0
 11
139.1525
 21
65.3431
 31
0.0
  0
LINE
  5
33E
330
1D
100
AcDbEntity
  8
0
100
AcDbLine
 10
139.1525
 20
65.3431
 30
0.0
 11
140.2115
 21
62.6118
 31
0.0
  0
LINE
  5
33F
330
1D
100
AcDbEntity
  8
0
100
AcDbLine
 10
196.0355
 20
22.3447
 30
0.0
 11
196.0355
 21
22.6824
 31
0.0
  0
LINE
  5
340
330
1D
100
AcDbEntity
  8
0
100
AcDbLine
 10
195.9685
 20
22.0952
 30
0.0
 11
196.0355
 21
22.3447
 31
0.0
  0
LINE
  5
341
330
1D
100
AcDbEntity
  8
0
100
AcDbLine
 10
195.7855
 20
21.9121
 30
0.0
 11
195.9685
 21
22.0952
 31
0.0
  0
LINE
  5
342
330
1D
100
AcDbEntity
  8
0
100
AcDbLine
 10
196.0355
 20
26.015684
 30
0.0
 11
196.1915
 21
23.1737
 31
0.0
  0
LINE
  5
343
330
1D
100
AcDbEntity
  8
0
100
AcDbLine
 10
196.0355
 20
37.20865
 30
0.0
 11
196.0355
 21
40.25306
 31
0.0
  0
LINE
  5
344
330
1D
100
AcDbEntity
  8
0
100
AcDbLine
 10
196.0355
 20
24.8955
 30
0.0
 11
196.0355
 21
26.7033
 31
0.0
  0
LINE
  5
345
330
1D
100
AcDbEntity
  8
0
100
AcDbLine
 10
196.0355
 20
22.6824
 30
0.0
 11
196.0355
 21
22.3447
 31
0.0
  0
LINE
  5
346
330
1D
100
AcDbEntity
  8
0
100
AcDbLine
 10
196.0355
 20
26.015684
 30
0.0
 11
196.1915
 21
23.1737
 31
0.0
  0
LINE
  5
347
330
1D
100
AcDbEntity
  8
0
100
AcDbLine
 10
196.0355
 20
43.28477
 30
0.0
 11
196.0355
 21
40.25306
 31
0.0
  0
LINE
  5
348
330
1D
100
AcDbEntity
  8
0
100
AcDbLine
 10
196.0355
 20
43.28477
 30
0.0
 11
196.0355
 21
46.21197
 31
0.0
  0
LINE
  5
349
330
1D
100
AcDbEntity
  8
0
100
AcDbLine
 10
196.0355
 20
56.4212
 30
0.0
 11
196.0355
 21
57.141
 31
0.0
  0
LINE
  5
34A
330
1D
100
AcDbEntity
  8
0
100
AcDbLine
 10
196.0355
 20
48.9453
 30
0.0
 11
196.0355
 21
46.21197
 31
0.0
  0
LINE
  5
34B
330
1D
100
AcDbEntity
  8
0
100
AcDbLine
 10
196.0355
 20
46.21197
 30
0.0
 11
196.0355
 21
43.28477
 31
0.0
  0
LINE
  5
34C
330
1D
100
AcDbEntity
  8
0
100
AcDbLine
 10
196.0355
 20
46.21197
 30
0.0
 11
196.0355
 21
48.9453
 31
0.0
  0
LINE
  5
34D
330
1D
100
AcDbEntity
  8
0
100
AcDbLine
 10
196.0355
 20
53.66462
 30
0.0
 11
196.1915
 21
56.5067
 31
0.0
  0
LINE
  5
34E
330
1D
100
AcDbEntity
  8
0
100
AcDbLine
 10
196.0355
 20
40.25306
 30
0.0
 11
196.0355
 21
37.20865
 31
0.0
  0
LINE
  5
34F
330
1D
100
AcDbEntity
  8
0
100
AcDbLine
 10
196.0355
 20
40.25306
 30
0.0
 11
196.0355
 21
43.28477
 31
0.0
  0
LINE
  5
350
330
1D
100
AcDbEntity
  8
0
100
AcDbLine
 10
200.0355
 20
23.7002
 30
0.0
 11
200.0355
 21
21.2577
 31
0.0
  0
LINE
  5
351
330
1D
100
AcDbEntity
  8
0
100
AcDbLine
 10
200.0355
 20
23.7002
 30
0.0
 11
200.0355
 21
26.2888
 31
0.0
  0
LINE
  5
352
330
1D
100
AcDbEntity
  8
0
100
AcDbLine
 10
200.0355
 20
26.2888
 30
0.0
 11
200.0355
 21
23.7002
 31
0.0
  0
LINE
  5
353
330
1D
100
AcDbEntity
  8
0
100
AcDbLine
 10
200.0355
 20
26.2888
 30
0.0
 11
200.0355
 21
29.0008
 31
0.0
  0
LINE
  5
354
330
1D
100
AcDbEntity
  8
0
100
AcDbLine
 10
200.0355
 20
29.0008
 30
0.0
 11
200.0355
 21
26.2888
 31
0.0
  0
LINE
  5
355
330
1D
100
AcDbEntity
  8
0
100
AcDbLine
 10
200.0355
 20
29.0008
 30
0.0
 11
200.0355
 21
31.81044
 31
0.0
  0
LINE
  5
356
330
1D
100
AcDbEntity
  8
0
100
AcDbLine
 10
200.0355
 20
31.81044
 30
0.0
 11
200.0355
 21
29.0008
 31
0.0
  0
LINE
  5
357
330
1D
100
AcDbEntity
  8
0
100
AcDbLine
 10
200.0355
 20
31.81044
 30
0.0
 11
200.0355
 21
34.69294
 31
0.0
  0
LINE
  5
358
330
1D
100
AcDbEntity
  8
0
100
AcDbLine
 10
200.0355
 20
34.69294
 30
0.0
 11
200.0355
 21
31.81044
 31
0.0
  0
LINE
  5
359
330
1D
100
AcDbEntity
  8
0
100
AcDbLine
 10
200.0355
 20
34.69294
 30
0.0
 11
200.0355
 21
37.62268
 31
0.0
  0
LINE
  5
35A
330
1D
100
AcDbEntity
  8
0
100
AcDbLine
 10
200.0355
 20
40.57164
 30
0.0
 11
200.0355
 21
37.62268
 31
0.0
  0
LINE
  5
35B
330
1D
100
AcDbEntity
  8
0
100
AcDbLine
 10
200.0355
 20
40.57164
 30
0.0
 11
200.0355
 21
43.51398
 31
0.0
  0
LINE
  5
35C
330
1D
100
AcDbEntity
  8
0
100
AcDbLine
 10
200.0355
 20
43.51398
 30
0.0
 11
200.0355
 21
40.57164
 31
0.0
  0
LINE
  5
35D
330
1D
100
AcDbEntity
  8
0
100
AcDbLine
 10
200.0355
 20
43.51398
 30
0.0
 11
200.0355
 21
46.42323
 31
0.0
  0
LINE
  5
35E
330
1D
100
AcDbEntity
  8
0
100
AcDbLine
 10
200.0355
 20
46.42323
 30
0.0
 11
200.0355
 21
43.51398
 31
0.0
  0
LINE
  5
35F
330
1D
100
AcDbEntity
  8
0
100
AcDbLine
 10
200.0355
 20
46.42323
 30
0.0
 11
200.0355
 21
49.2729
 31
0.0
  0
LINE
  5
360
330
1D
100
AcDbEntity
  8
0
100
AcDbLine
 10
200.0355
 20
52.0374
 30
0.0
 11
200.0355
 21
54.6911
 31
0.0
  0
LINE
  5
361
330
1D
100
AcDbEntity
  8
0
100
AcDbLine
 10
200.0355
 20
52.0374
 30
0.0
 11
200.0355
 21
49.2729
 31
0.0
  0
LINE
  5
362
330
1D
100
AcDbEntity
  8
0
100
AcDbLine
 10
200.0355
 20
49.2729
 30
0.0
 11
200.0355
 21
46.42323
 31
0.0
  0
LINE
  5
363
330
1D
100
AcDbEntity
  8
0
100
AcDbLine
 10
200.0355
 20
49.2729
 30
0.0
 11
200.0355
 21
52.0374
 31
0.0
  0
LINE
  5
364
330
1D
100
AcDbEntity
  8
0
100
AcDbLine
 10
200.0355
 20
54.6911
 30
0.0
 11
200.0355
 21
52.0374
 31
0.0
  0
LINE
  5
365
330
1D
100
AcDbEntity
  8
0
100
AcDbLine
 10
200.0355
 20
54.6911
 30
0.0
 11
200.0355
 21
57.2104
 31
0.0
  0
LINE
  5
366
330
1D
100
AcDbEntity
  8
0
100
AcDbLine
 10
200.0355
 20
37.62268
 30
0.0
 11
200.0355
 21
34.69294
 31
0.0
  0
LINE
  5
367
330
1D
100
AcDbEntity
  8
0
100
AcDbLine
 10
200.0355
 20
37.62268
 30
0.0
 11
200.0355
 21
40.57164
 31
0.0
  0
LINE
  5
368
330
1D
100
AcDbEntity
  8
0
100
AcDbLine
 10
196.1915
 20
23.1737
 30
0.0
 11
196.5665
 21
18.9483
 31
0.0
  0
LINE
  5
369
330
1D
100
AcDbEntity
  8
0
100
AcDbLine
 10
196.1915
 20
56.5067
 30
0.0
 11
196.5665
 21
60.7319
 31
0.0
  0
LINE
  5
36A
330
1D
100
AcDbEntity
  8
0
100
AcDbLine
 10
196.0355
 20
26.7033
 30
0.0
 11
196.0355
 21
24.8955
 31
0.0
  0
LINE
  5
36B
330
1D
100
AcDbEntity
  8
0
100
AcDbLine
 10
195.5355
 20
57.8351
 30
0.0
 11
195.7855
 21
57.768
 31
0.0
  0
LINE
  5
36C
330
1D
100
AcDbEntity
  8
0
100
AcDbLine
 10
195.9685
 20
57.585
 30
0.0
 11
196.0355
 21
57.3354
 31
0.0
  0
LINE
  5
36D
330
1D
100
AcDbEntity
  8
0
100
AcDbLine
 10
195.7855
 20
57.768
 30
0.0
 11
195.9685
 21
57.585
 31
0.0
  0
LINE
  5
36E
330
1D
100
AcDbEntity
  8
0
100
AcDbLine
 10
186.4215
 20
57.8401
 30
0.0
 11
195.5355
 21
57.8351
 31
0.0
  0
LINE
  5
36F
330
1D
100
AcDbEntity
  8
0
100
AcDbLine
 10
200.0355
 20
57.2104
 30
0.0
 11
200.0355
 21
54.6911
 31
0.0
  0
LINE
  5
370
330
1D
100
AcDbEntity
  8
0
100
AcDbLine
 10
200.0355
 20
57.2104
 30
0.0
 11
200.0355
 21
59.5725
 31
0.0
  0
LINE
  5
371
330
1D
100
AcDbEntity
  8
0
100
AcDbLine
 10
200.0355
 20
59.5725
 30
0.0
 11
200.0355
 21
57.2104
 31
0.0
  0
LINE
  5
372
330
1D
100
AcDbEntity
  8
0
100
AcDbLine
 10
200.0355
 20
59.5725
 30
0.0
 11
200.0355
 21
61.7561
 31
0.0
  0
LINE
  5
373
330
1D
100
AcDbEntity
  8
0
100
AcDbLine
 10
200.0355
 20
61.7561
 30
0.0
 11
200.0355
 21
59.5725
 31
0.0
  0
LINE
  5
374
330
1D
100
AcDbEntity
  8
0
100
AcDbLine
 10
200.0355
 20
61.7561
 30
0.0
 11
200.0355
 21
63.7406
 31
0.0
  0
LINE
  5
375
330
1D
100
AcDbEntity
  8
0
100
AcDbLine
 10
200.0355
 20
63.7406
 30
0.0
 11
200.0355
 21
61.7561
 31
0.0
  0
LINE
  5
376
330
1D
100
AcDbEntity
  8
0
100
AcDbLine
 10
200.0355
 20
63.7406
 30
0.0
 11
200.0355
 21
65.5092
 31
0.0
  0
LINE
  5
377
330
1D
100
AcDbEntity
  8
0
100
AcDbLine
 10
196.5665
 20
60.7563
 30
0.0
 11
197.1225
 21
64.9867
 31
0.0
  0
LINE
  5
378
330
1D
100
AcDbEntity
  8
0
100
AcDbLine
 10
200.0355
 20
65.5092
 30
0.0
 11
200.0355
 21
63.7406
 31
0.0
  0
LINE
  5
379
330
1D
100
AcDbEntity
  8
0
100
AcDbLine
 10
200.0355
 20
65.5092
 30
0.0
 11
200.0355
 21
67.0455
 31
0.0
  0
LINE
  5
37A
330
1D
100
AcDbEntity
  8
0
100
AcDbLine
 10
197.8585
 20
69.18
 30
0.0
 11
198.0265
 21
69.5687
 31
0.0
  0
LINE
  5
37B
330
1D
100
AcDbEntity
  8
0
100
AcDbLine
 10
198.0265
 20
69.5687
 30
0.0
 11
198.3395
 21
69.8525
 31
0.0
  0
LINE
  5
37C
330
1D
100
AcDbEntity
  8
0
100
AcDbLine
 10
198.3395
 20
69.8525
 30
0.0
 11
200.0355
 21
70.8311
 31
0.0
  0
LINE
  5
37D
330
1D
100
AcDbEntity
  8
0
100
AcDbLine
 10
200.0355
 20
69.3659
 30
0.0
 11
200.0355
 21
68.3349
 31
0.0
  0
LINE
  5
37E
330
1D
100
AcDbEntity
  8
0
100
AcDbLine
 10
200.0355
 20
69.3659
 30
0.0
 11
200.0355
 21
70.1303
 31
0.0
  0
LINE
  5
37F
330
1D
100
AcDbEntity
  8
0
100
AcDbLine
 10
200.0355
 20
70.1303
 30
0.0
 11
200.0355
 21
69.3659
 31
0.0
  0
LINE
  5
380
330
1D
100
AcDbEntity
  8
0
100
AcDbLine
 10
200.0355
 20
70.1303
 30
0.0
 11
200.0355
 21
70.6202
 31
0.0
  0
LINE
  5
381
330
1D
100
AcDbEntity
  8
0
100
AcDbLine
 10
200.0355
 20
70.6202
 30
0.0
 11
200.0355
 21
70.1303
 31
0.0
  0
LINE
  5
382
330
1D
100
AcDbEntity
  8
0
100
AcDbLine
 10
200.0355
 20
70.6202
 30
0.0
 11
200.0355
 21
70.8311
 31
0.0
  0
LINE
  5
383
330
1D
100
AcDbEntity
  8
0
100
AcDbLine
 10
200.0355
 20
70.8311
 30
0.0
 11
200.0355
 21
70.6202
 31
0.0
  0
LINE
  5
384
330
1D
100
AcDbEntity
  8
0
100
AcDbLine
 10
200.0355
 20
67.0455
 30
0.0
 11
200.0355
 21
65.5092
 31
0.0
  0
LINE
  5
385
330
1D
100
AcDbEntity
  8
0
100
AcDbLine
 10
200.0355
 20
67.0455
 30
0.0
 11
200.0355
 21
68.3349
 31
0.0
  0
LINE
  5
386
330
1D
100
AcDbEntity
  8
0
100
AcDbLine
 10
200.0355
 20
68.3349
 30
0.0
 11
200.0355
 21
67.0455
 31
0.0
  0
LINE
  5
387
330
1D
100
AcDbEntity
  8
0
100
AcDbLine
 10
200.0355
 20
68.3349
 30
0.0
 11
200.0355
 21
69.3659
 31
0.0
  0
LINE
  5
388
330
1D
100
AcDbEntity
  8
0
100
AcDbLine
 10
197.1225
 20
64.9867
 30
0.0
 11
197.8585
 21
69.18
 31
0.0
  0
LINE
  5
389
330
1D
100
AcDbEntity
  8
0
100
AcDbLine
 10
196.0355
 20
57.3354
 30
0.0
 11
196.0355
 21
57.141
 31
0.0
  0
LINE
  5
38A
330
1D
100
AcDbEntity
  8
0
100
AcDbLine
 10
196.0355
 20
57.141
 30
0.0
 11
196.0355
 21
56.4212
 31
0.0
  0
LINE
  5
38B
330
1D
100
AcDbEntity
  8
0
100
AcDbLine
 10
196.0355
 20
57.141
 30
0.0
 11
196.0355
 21
57.3354
 31
0.0
  0
LINE
  5
38C
330
1D
100
AcDbEntity
  8
0
100
AcDbLine
 10
185.6505
 20
57.8103
 30
0.0
 11
186.4215
 21
57.8401
 31
0.0
  0
LINE
  5
38D
330
1D
100
AcDbEntity
  8
0
100
AcDbLine
 10
185.6505
 20
21.8698
 30
0.0
 11
186.4215
 21
21.8401
 31
0.0
  0
LINE
  5
38E
330
1D
100
AcDbEntity
  8
0
100
AcDbLine
 10
134.2825
 20
78.728
 30
0.0
 11
134.3125
 21
78.5312
 31
0.0
  0
LINE
  5
38F
330
1D
100
AcDbEntity
  8
0
100
AcDbLine
 10
98.4525
 20
92.0856
 30
0.0
 11
98.9166
 21
91.0134
 31
0.0
  0
LINE
  5
390
330
1D
100
AcDbEntity
  8
0
100
AcDbLine
 10
97.6768
 20
93.5843
 30
0.0
 11
98.4525
 21
92.0856
 31
0.0
  0
LINE
  5
391
330
1D
100
AcDbEntity
  8
0
100
AcDbLine
 10
97.2432
 20
94.284
 30
0.0
 11
97.6768
 21
93.5843
 31
0.0
  0
LINE
  5
392
330
1D
100
AcDbEntity
  8
0
100
AcDbLine
 10
96.7741
 20
94.9505
 30
0.0
 11
97.2432
 21
94.284
 31
0.0
  0
LINE
  5
393
330
1D
100
AcDbEntity
  8
0
100
AcDbLine
 10
93.6861
 20
97.9432
 30
0.0
 11
94.5076
 21
97.3089
 31
0.0
  0
LINE
  5
394
330
1D
100
AcDbEntity
  8
0
100
AcDbLine
 10
92.8116
 20
98.5375
 30
0.0
 11
93.6861
 21
97.9432
 31
0.0
  0
LINE
  5
399
330
1D
100
AcDbEntity
  8
0
100
AcDbLine
 10
91.456
 20
99.3403
 30
0.0
 11
92.8116
 21
98.5375
 31
0.0
  0
LINE
  5
39A
330
1D
100
AcDbEntity
  8
0
100
AcDbLine
 10
89.9758
 20
100.1105
 30
0.0
 11
91.456
 21
99.3403
 31
0.0
  0
LINE
  5
39B
330
1D
100
AcDbEntity
  8
0
100
AcDbLine
 10
76.7834
 20
107.3655
 30
0.0
 11
76.9171
 21
107.2217
 31
0.0
  0
LINE
  5
39C
330
1D
100
AcDbEntity
  8
0
100
AcDbLine
 10
76.9171
 20
107.2217
 30
0.0
 11
77.2136
 21
106.8411
 31
0.0
  0
LINE
  5
39D
330
1D
100
AcDbEntity
  8
0
100
AcDbLine
 10
77.2136
 20
106.8411
 30
0.0
 11
77.7208
 21
106.3344
 31
0.0
  0
LINE
  5
39E
330
1D
100
AcDbEntity
  8
0
100
AcDbLine
 10
77.7208
 20
106.3344
 30
0.0
 11
78.304
 21
105.848
 31
0.0
  0
LINE
  5
39F
330
1D
100
AcDbEntity
  8
0
100
AcDbLine
 10
76.4211
 20
107.9059
 30
0.0
 11
76.7834
 21
107.3655
 31
0.0
  0
LINE
  5
3A0
330
1D
100
AcDbEntity
  8
0
100
AcDbLine
 10
75.3387
 20
110.6534
 30
0.0
 11
75.4175
 21
110.8476
 31
0.0
  0
LINE
  5
3A1
330
1D
100
AcDbEntity
  8
0
100
AcDbLine
 10
75.3387
 20
110.6534
 30
0.0
 11
75.349
 21
110.4352
 31
0.0
  0
LINE
  5
3A2
330
1D
100
AcDbEntity
  8
0
100
AcDbLine
 10
75.4175
 20
110.8476
 30
0.0
 11
75.5687
 21
110.9927
 31
0.0
  0
LINE
  5
3A3
330
1D
100
AcDbEntity
  8
0
100
AcDbLine
 10
75.7753
 20
111.0638
 30
0.0
 11
120.2795
 21
116.0817
 31
0.0
  0
LINE
  5
3A4
330
1D
100
AcDbEntity
  8
0
100
AcDbLine
 10
75.5687
 20
110.9927
 30
0.0
 11
75.7753
 21
111.0638
 31
0.0
  0
LINE
  5
3A5
330
1D
100
AcDbEntity
  8
0
100
AcDbLine
 10
75.349
 20
110.4352
 30
0.0
 11
75.5513
 21
109.7754
 31
0.0
  0
LINE
  5
3A6
330
1D
100
AcDbEntity
  8
0
100
AcDbLine
 10
75.5513
 20
109.7754
 30
0.0
 11
75.7956
 21
109.1323
 31
0.0
  0
LINE
  5
3A7
330
1D
100
AcDbEntity
  8
0
100
AcDbLine
 10
120.5995
 20
116.0099
 30
0.0
 11
120.7225
 21
115.902
 31
0.0
  0
LINE
  5
3A8
330
1D
100
AcDbEntity
  8
0
100
AcDbLine
 10
120.4475
 20
116.0723
 30
0.0
 11
120.5995
 21
116.0099
 31
0.0
  0
LINE
  5
3A9
330
1D
100
AcDbEntity
  8
0
100
AcDbLine
 10
120.2795
 20
116.0817
 30
0.0
 11
120.4475
 21
116.0723
 31
0.0
  0
LINE
  5
3AA
330
1D
100
AcDbEntity
  8
0
100
AcDbLine
 10
120.7225
 20
115.902
 30
0.0
 11
120.8055
 21
115.7559
 31
0.0
  0
LINE
  5
3AB
330
1D
100
AcDbEntity
  8
0
100
AcDbLine
 10
120.8055
 20
115.7559
 30
0.0
 11
134.2825
 21
78.728
 31
0.0
  0
LINE
  5
3AC
330
1D
100
AcDbEntity
  8
0
100
AcDbLine
 10
75.7956
 20
109.1323
 30
0.0
 11
76.0846
 21
108.5083
 31
0.0
  0
LINE
  5
3AD
330
1D
100
AcDbEntity
  8
0
100
AcDbLine
 10
76.0846
 20
108.5083
 30
0.0
 11
76.4211
 21
107.9059
 31
0.0
  0
LINE
  5
3D5
330
1D
100
AcDbEntity
  8
0
100
AcDbLine
 10
107.9865
 20
68.6248
 30
0.0
 11
133.6575
 21
77.9681
 31
0.0
  0
LINE
  5
3D6
330
1D
100
AcDbEntity
  8
0
100
AcDbLine
 10
133.5285
 20
77.3894
 30
0.0
 11
107.8755
 21
68.0522
 31
0.0
  0
LINE
  5
3D7
330
1D
100
AcDbEntity
  8
0
100
AcDbLine
 10
108.0165
 20
67.5714
 30
0.0
 11
133.6995
 21
76.9195
 31
0.0
  0
LINE
  5
3D8
330
1D
100
AcDbEntity
  8
0
100
AcDbLine
 10
141.843721863072
 20
59.70024493773
 30
0.0
 11
143.086856295531
 21
58.296276364703
 31
0.0
  0
LINE
  5
3D9
330
1D
100
AcDbEntity
  8
0
100
AcDbLine
 10
143.790645858287
 20
57.676069824701
 30
0.0
 11
144.522874228734
 21
57.153273932695
 31
0.0
  0
LINE
  5
3DA
330
1D
100
AcDbEntity
  8
0
100
AcDbLine
 10
144.8485
 20
56.9341
 30
0.0
 11
145.995363388666
 21
56.354884753254
 31
0.0
  0
LINE
  5
3DB
330
1D
100
AcDbEntity
  8
0
100
AcDbLine
 10
146.741594832335
 20
56.059800273722
 30
0.0
 11
147.9915
 21
55.6866
 31
0.0
  0
LINE
  5
3DC
330
1D
100
AcDbEntity
  8
0
100
AcDbLine
 10
196.0355
 20
53.66462
 30
0.0
 11
196.0355
 21
48.9453
 31
0.0
  0
LINE
  5
3DD
330
1D
100
AcDbEntity
  8
0
100
AcDbLine
 10
196.0355
 20
26.7033
 30
0.0
 11
196.0355
 21
37.20865
 31
0.0
  0
LINE
  5
3DE
330
1D
100
AcDbEntity
  8
0
100
AcDbLine
 10
74.4193
 20
29.34083
 30
0.0
 11
88.0353
 21
29.34083
 31
0.0
  0
LINE
  5
3DF
330
1D
100
AcDbEntity
  8
0
100
AcDbLine
 10
5.4215
 20
19.8441
 30
0.0
 11
22.6485
 21
7.836
 31
0.0
  0
LINE
  5
3E0
330
1D
100
AcDbEntity
  8
0
100
AcDbLine
 10
0.1785
 20
11.4313
 30
0.0
 11
16.5695
 21
0.0056
 31
0.0
  0
ENDSEC
  0
SECTION
  2
OBJECTS
  0
DICTIONARY
  5
C
330
0
100
AcDbDictionary
281
     1
  3
ACAD_GROUP
350
D
  3
ACAD_LAYOUT
350
1A
  3
ACAD_MLEADERSTYLE
350
3E3
  3
ACAD_MLINESTYLE
350
17
  3
ACAD_PLOTSETTINGS
350
19
  3
ACAD_PLOTSTYLENAME
350
E
  3
ACAD_SCALELIST
350
3B3
  3
AcDbVariableDictionary
350
3E1
  3
DWGPROPS
350
3E8
  0
DICTIONARY
  5
D
102
{ACAD_REACTORS
330
C
102
}
330
C
100
AcDbDictionary
281
     1
  0
DICTIONARY
  5
1A
102
{ACAD_REACTORS
330
C
102
}
330
C
100
AcDbDictionary
281
     1
  3
Layout1
350
1C
  3
Model
350
1E
  0
DICTIONARY
  5
3E3
102
{ACAD_REACTORS
330
C
102
}
330
C
100
AcDbDictionary
281
     1
  0
DICTIONARY
  5
17
102
{ACAD_REACTORS
330
C
102
}
330
C
100
AcDbDictionary
281
     1
  3
Standard
350
18
  0
DICTIONARY
  5
19
102
{ACAD_REACTORS
330
C
102
}
330
C
100
AcDbDictionary
281
     1
  0
ACDBDICTIONARYWDFLT
  5
E
102
{ACAD_REACTORS
330
C
102
}
330
C
100
AcDbDictionary
281
     1
  3
Normal
350
F
100
AcDbDictionaryWithDefault
340
F
  0
DICTIONARY
  5
3B3
102
{ACAD_REACTORS
330
C
102
}
330
C
100
AcDbDictionary
281
     1
  3
A0
350
3B4
  3
A1
350
3B5
  3
A2
350
3B6
  3
A3
350
3B7
  3
A4
350
3B8
  3
A5
350
3B9
  3
A6
350
3BA
  3
A7
350
3BB
  3
A8
350
3BC
  3
A9
350
3BD
  3
B0
350
3BE
  3
B1
350
3BF
  3
B2
350
3C0
  3
B3
350
3C1
  3
B4
350
3C2
  3
B5
350
3C3
  3
B6
350
3C4
  3
B7
350
3C5
  3
B8
350
3C6
  3
B9
350
3C7
  3
C0
350
3C8
  3
C1
350
3C9
  3
C2
350
3CA
  3
C3
350
3CB
  3
C4
350
3CC
  3
C5
350
3CD
  3
C6
350
3CE
  3
C7
350
3CF
  3
C8
350
3D0
  3
C9
350
3D1
  3
D0
350
3D2
  3
D1
350
3D3
  3
D2
350
3D4
  0
DICTIONARY
  5
3E1
102
{ACAD_REACTORS
330
C
102
}
330
C
100
AcDbDictionary
281
     1
  3
CANNOSCALE
350
3E4
  0
XRECORD
  5
3E8
102
{ACAD_REACTORS
330
C
102
}
330
C
100
AcDbXrecord
280
     1
  1
DWGPROPS COOKIE
  2

  3

  4

  6

  7

  8
MARTIN
  9

300
=
301
=
302
=
303
=
304
=
305
=
306
=
307
=
308
=
309
=
 40
0.0
 41
2456646.728644202
 42
2456646.739349491
  1

 90
        0
  0
LAYOUT
  5
1C
102
{ACAD_REACTORS
330
1A
102
}
330
1A
100
AcDbPlotSettings
  1

  2
none_device
  4

  6

 40
0.0
 41
0.0
 42
0.0
 43
0.0
 44
0.0
 45
0.0
 46
0.0
 47
0.0
 48
0.0
 49
0.0
140
0.0
141
0.0
142
1.0
143
1.0
 70
   688
 72
     0
 73
     0
 74
     5
  7

 75
    16
147
1.0
148
0.0
149
0.0
100
AcDbLayout
  1
Layout1
 70
     1
 71
     1
 10
0.0
 20
0.0
 11
12.0
 21
9.0
 12
0.0
 22
0.0
 32
0.0
 14
1.000000000000E+20
 24
1.000000000000E+20
 34
1.000000000000E+20
 15
-1.000000000000E+20
 25
-1.000000000000E+20
 35
-1.000000000000E+20
146
0.0
 13
0.0
 23
0.0
 33
0.0
 16
1.0
 26
0.0
 36
0.0
 17
0.0
 27
1.0
 37
0.0
 76
     0
330
1B
  0
LAYOUT
  5
1E
102
{ACAD_REACTORS
330
1A
102
}
330
1A
100
AcDbPlotSettings
  1

  2
none_device
  4

  6

 40
0.0
 41
0.0
 42
0.0
 43
0.0
 44
0.0
 45
0.0
 46
0.0
 47
0.0
 48
0.0
 49
0.0
140
0.0
141
0.0
142
1.0
143
1.0
 70
  1712
 72
     0
 73
     0
 74
     0
  7

 75
     0
147
1.0
148
0.0
149
0.0
100
AcDbLayout
  1
Model
 70
     1
 71
     0
 10
0.0
 20
0.0
 11
12.0
 21
9.0
 12
0.0
 22
0.0
 32
0.0
 14
-0.0355
 24
-0.0817
 34
0.0
 15
200.0355
 25
116.0817
 35
0.0
146
0.0
 13
0.0
 23
0.0
 33
0.0
 16
1.0
 26
0.0
 36
0.0
 17
0.0
 27
1.0
 37
0.0
 76
     0
330
1D
331
3AE
  0
MLINESTYLE
  5
18
102
{ACAD_REACTORS
330
17
102
}
330
17
100
AcDbMlineStyle
  2
Standard
 70
     0
  3

 62
   256
 51
90.0
 52
90.0
 71
     2
 49
0.5
 62
   256
  6
BYLAYER
 49
-0.5
 62
   256
  6
BYLAYER
  0
ACDBPLACEHOLDER
  5
F
102
{ACAD_REACTORS
330
E
102
}
330
E
  0
SCALE
  5
3B4
102
{ACAD_REACTORS
330
3B3
102
}
330
3B3
100
AcDbScale
 70
     0
300
1:1
140
1.0
141
1.0
290
     1
  0
SCALE
  5
3B5
102
{ACAD_REACTORS
330
3B3
102
}
330
3B3
100
AcDbScale
 70
     0
300
1:2
140
1.0
141
2.0
290
     0
  0
SCALE
  5
3B6
102
{ACAD_REACTORS
330
3B3
102
}
330
3B3
100
AcDbScale
 70
     0
300
1:4
140
1.0
141
4.0
290
     0
  0
SCALE
  5
3B7
102
{ACAD_REACTORS
330
3B3
102
}
330
3B3
100
AcDbScale
 70
     0
300
1:5
140
1.0
141
5.0
290
     0
  0
SCALE
  5
3B8
102
{ACAD_REACTORS
330
3B3
102
}
330
3B3
100
AcDbScale
 70
     0
300
1:8
140
1.0
141
8.0
290
     0
  0
SCALE
  5
3B9
102
{ACAD_REACTORS
330
3B3
102
}
330
3B3
100
AcDbScale
 70
     0
300
1:10
140
1.0
141
10.0
290
     0
  0
SCALE
  5
3BA
102
{ACAD_REACTORS
330
3B3
102
}
330
3B3
100
AcDbScale
 70
     0
300
1:16
140
1.0
141
16.0
290
     0
  0
SCALE
  5
3BB
102
{ACAD_REACTORS
330
3B3
102
}
330
3B3
100
AcDbScale
 70
     0
300
1:20
140
1.0
141
20.0
290
     0
  0
SCALE
  5
3BC
102
{ACAD_REACTORS
330
3B3
102
}
330
3B3
100
AcDbScale
 70
     0
300
1:30
140
1.0
141
30.0
290
     0
  0
SCALE
  5
3BD
102
{ACAD_REACTORS
330
3B3
102
}
330
3B3
100
AcDbScale
 70
     0
300
1:40
140
1.0
141
40.0
290
     0
  0
SCALE
  5
3BE
102
{ACAD_REACTORS
330
3B3
102
}
330
3B3
100
AcDbScale
 70
     0
300
1:50
140
1.0
141
50.0
290
     0
  0
SCALE
  5
3BF
102
{ACAD_REACTORS
330
3B3
102
}
330
3B3
100
AcDbScale
 70
     0
300
1:100
140
1.0
141
100.0
290
     0
  0
SCALE
  5
3C0
102
{ACAD_REACTORS
330
3B3
102
}
330
3B3
100
AcDbScale
 70
     0
300
2:1
140
2.0
141
1.0
290
     0
  0
SCALE
  5
3C1
102
{ACAD_REACTORS
330
3B3
102
}
330
3B3
100
AcDbScale
 70
     0
300
4:1
140
4.0
141
1.0
290
     0
  0
SCALE
  5
3C2
102
{ACAD_REACTORS
330
3B3
102
}
330
3B3
100
AcDbScale
 70
     0
300
8:1
140
8.0
141
1.0
290
     0
  0
SCALE
  5
3C3
102
{ACAD_REACTORS
330
3B3
102
}
330
3B3
100
AcDbScale
 70
     0
300
10:1
140
10.0
141
1.0
290
     0
  0
SCALE
  5
3C4
102
{ACAD_REACTORS
330
3B3
102
}
330
3B3
100
AcDbScale
 70
     0
300
100:1
140
100.0
141
1.0
290
     0
  0
SCALE
  5
3C5
102
{ACAD_REACTORS
330
3B3
102
}
330
3B3
100
AcDbScale
 70
     0
300
1/128" = 1'-0"
140
0.0078125
141
12.0
290
     0
  0
SCALE
  5
3C6
102
{ACAD_REACTORS
330
3B3
102
}
330
3B3
100
AcDbScale
 70
     0
300
1/64" = 1'-0"
140
0.015625
141
12.0
290
     0
  0
SCALE
  5
3C7
102
{ACAD_REACTORS
330
3B3
102
}
330
3B3
100
AcDbScale
 70
     0
300
1/32" = 1'-0"
140
0.03125
141
12.0
290
     0
  0
SCALE
  5
3C8
102
{ACAD_REACTORS
330
3B3
102
}
330
3B3
100
AcDbScale
 70
     0
300
1/16" = 1'-0"
140
0.0625
141
12.0
290
     0
  0
SCALE
  5
3C9
102
{ACAD_REACTORS
330
3B3
102
}
330
3B3
100
AcDbScale
 70
     0
300
3/32" = 1'-0"
140
0.09375
141
12.0
290
     0
  0
SCALE
  5
3CA
102
{ACAD_REACTORS
330
3B3
102
}
330
3B3
100
AcDbScale
 70
     0
300
1/8" = 1'-0"
140
0.125
141
12.0
290
     0
  0
SCALE
  5
3CB
102
{ACAD_REACTORS
330
3B3
102
}
330
3B3
100
AcDbScale
 70
     0
300
3/16" = 1'-0"
140
0.1875
141
12.0
290
     0
  0
SCALE
  5
3CC
102
{ACAD_REACTORS
330
3B3
102
}
330
3B3
100
AcDbScale
 70
     0
300
1/4" = 1'-0"
140
0.25
141
12.0
290
     0
  0
SCALE
  5
3CD
102
{ACAD_REACTORS
330
3B3
102
}
330
3B3
100
AcDbScale
 70
     0
300
3/8" = 1'-0"
140
0.375
141
12.0
290
     0
  0
SCALE
  5
3CE
102
{ACAD_REACTORS
330
3B3
102
}
330
3B3
100
AcDbScale
 70
     0
300
1/2" = 1'-0"
140
0.5
141
12.0
290
     0
  0
SCALE
  5
3CF
102
{ACAD_REACTORS
330
3B3
102
}
330
3B3
100
AcDbScale
 70
     0
300
3/4" = 1'-0"
140
0.75
141
12.0
290
     0
  0
SCALE
  5
3D0
102
{ACAD_REACTORS
330
3B3
102
}
330
3B3
100
AcDbScale
 70
     0
300
1" = 1'-0"
140
1.0
141
12.0
290
     0
  0
SCALE
  5
3D1
102
{ACAD_REACTORS
330
3B3
102
}
330
3B3
100
AcDbScale
 70
     0
300
1-1/2" = 1'-0"
140
1.5
141
12.0
290
     0
  0
SCALE
  5
3D2
102
{ACAD_REACTORS
330
3B3
102
}
330
3B3
100
AcDbScale
 70
     0
300
3" = 1'-0"
140
3.0
141
12.0
290
     0
  0
SCALE
  5
3D3
102
{ACAD_REACTORS
330
3B3
102
}
330
3B3
100
AcDbScale
 70
     0
300
6" = 1'-0"
140
6.0
141
12.0
290
     0
  0
SCALE
  5
3D4
102
{ACAD_REACTORS
330
3B3
102
}
330
3B3
100
AcDbScale
 70
     0
300
1'-0" = 1'-0"
140
12.0
141
12.0
290
     0
  0
DICTIONARYVAR
  5
3E4
102
{ACAD_REACTORS
330
3E1
102
}
330
3E1
100
DictionaryVariables
280
     0
  1
1:1
  0
ENDSEC
  0
SECTION
  2
THUMBNAILIMAGE
 90
    16364
310
28000000B40000005500000001000800000000000000000000000000000000000000000000000000FFFFFF000000FF0000FFFF0000FF0000FFFF0000FF000000FF00FF000000000080808000C0C0C0000000FF007F7FFF000000A5005252A50000007F003F3F7F0000004C0026264C000000260013132600003FFF007F9FFF
310
000029A5005267A500001F7F003F4F7F0000134C00262F4C000009260013172600007FFF007FBFFF000052A500527CA500003F7F003F5F7F0000264C0026394C0000132600131C260000BFFF007FDFFF00007CA5005291A500005F7F003F6F7F0000394C0026424C00001C26001321260000FFFF007FFFFF0000A5A50052A5
310
A500007F7F003F7F7F00004C4C00264C4C00002626001326260000FFBF007FFFDF0000A57C0052A59100007F5F003F7F6F00004C3900264C420000261C001326210000FF7F007FFFBF0000A5520052A57C00007F3F003F7F5F00004C2600264C39000026130013261C0000FF3F007FFF9F0000A5290052A56700007F1F003F
310
7F4F00004C1300264C2F00002609001326170000FF00007FFF7F0000A5000052A55200007F00003F7F3F00004C0000264C260000260000132613003FFF00009FFF7F0029A5000067A552001F7F00004F7F3F00134C00002F4C260009260000172613007FFF0000BFFF7F0052A500007CA552003F7F00005F7F3F00264C0000
310
394C2600132600001C261300BFFF0000DFFF7F007CA5000091A552005F7F00006F7F3F00394C0000424C26001C26000021261300FFFF0000FFFF7F00A5A50000A5A552007F7F00007F7F3F004C4C00004C4C26002626000026261300FFBF0000FFDF7F00A57C0000A59152007F5F00007F6F3F004C3900004C422600261C00
310
0026211300FF7F0000FFBF7F00A5520000A57C52007F3F00007F5F3F004C2600004C39260026130000261C1300FF3F0000FF9F7F00A5290000A56752007F1F00007F4F3F004C1300004C2F26002609000026171300FF000000FF7F7F00A5000000A55252007F0000007F3F3F004C0000004C2626002600000026131300FF00
310
3F00FF7F9F00A5002900A55267007F001F007F3F4F004C0013004C262F002600090026131700FF007F00FF7FBF00A5005200A5527C007F003F007F3F5F004C0026004C2639002600130026131C00FF00BF00FF7FDF00A5007C00A55291007F005F007F3F6F004C0039004C26420026001C0026132100FF00FF00FF7FFF00A5
310
00A500A552A5007F007F007F3F7F004C004C004C264C002600260026132600BF00FF00DF7FFF007C00A5009152A5005F007F006F3F7F0039004C0042264C001C002600211326007F00FF00BF7FFF005200A5007C52A5003F007F005F3F7F0026004C0039264C00130026001C1326003F00FF009F7FFF002900A5006752A500
310
1F007F004F3F7F0013004C002F264C000900260017132600000000002D2D2D005B5B5B0089898900B7B7B700B3B3B30000000000000000000000000000000000000000000000000000000000000007070000000000000000000000000000000000000000000000000000000000000000000000000000000000000000000000
310
00000000000000000000000000000000000000000000000000000000000000000000000000000000000000000000000000000000000000000000000000000000000000000000000000000000000000000000000000000000000000000000000000000000000000000000000000000000000000000000000000000000000000
310
00000707000007000000000000000000000000000000000000000000000000000000000000000000000000000000000000000000000000000000000000000000000000000000000000000000000000000000000000000000000000000000000000000000000000000000000000000000000000000000000000000000000000
310
00000000000000000000000000000000000000000000000000000000000000000000000000000000000000000000000000000000000007000000000700000000000000000000000000000000000000000000000000000000000000000000000000000000000000000000000000000000000000000000000000000000000000
310
00000000000000000000000000000000000000000000000000000000000000000000000000000000000000000000000000000000000000000000000000000000000000000000000000000000000000000000000000000000000000000000000000000000000000000007070000000000000700000000000000000000000000
310
00000000000000000000000000000000000000000000000000000000000000000000000000000000000000000000000000000000000000000000000000000000000000000000000000000000000000000000000000000000000000000000000000000000000000000000000000000000000000000000000000000000000000
310
00000000000000000000000000000000000000000000000000000000000007000000000000000000070000000000000000000000000000000000000000000000000000000000000000000000000000000000000000000000000000000000000000000000000000000000000000000000000000000000000000000000000000
310
00000000000000000000000000000000000000000000000000000000000000000000000000000000000000000000000000000000000000000000000000000000000000000000000000000000000000000007070000000000000000000007000000000000000000000000000000000000000000000000000000000000000000
310
00000000000000000000000000000000000000000000000000000000000000000000000000000000000000000000000000000000000000000000000000000000000000000000000000000000000000000000000000000000000000000000000000000000000000000000000000000000000000000000000000000000000000
310
00000000000007000000000000000000000000070000000000000000000000000000000000000000000000000000000000000000000000000000000000000000000000000000000000000000000000000000000000000000000000000000000000000000000000000000000000000000000000000000000000000000000000
310
00000000000000000000000000000000000000000700000000000000000000000000000000000000000000000000000000000000000000000007070000000000000000000000000707070000000000000000000000000000000000000000000000000000000000000000000000000000000000000000000000000000000000
310
00000000000000000000000000000000000000000000000000000000000000000000000000000000000000000000000000000000000000000000000000000000000000000000000707070000000000000000000000000000000000000000000000000000000000000000000000070000000000000000000000000707000000
310
07000000000000000000000000000000000000000000000000000000000000000000000000000000000000000000000000000000000000000000000000000000000000000000000000000000000000000000000000000000000000000000000000000000000000000000000000000000000000000000000000000000070007
310
00000000000000000000000000000000000000000000000000000000000000000000000700000000000000000000000700000000000700000000000000000000000000000000000000000000000000000000000000000000000000000000000000000000000000000000000000000000000000000000000000000000000000
310
00000000000000000000000000000000000000000000000000000000000000000000000000000000000000000000000000000700070000000000000000000000000000000000000000000000000000000000000000000000000700000000000000000707000000000000000700000000000000000000000000000000000000
310
00000000000000000000000000000000000000000000000000000000000000000000000000000000000000000000000000000000000000000000000000000000000000000000000000000000000000000000000000000000000000000000000000000000000000070007000000000000000000000000000000000000000000
310
00000000000000000000000000000000070000000000000700000000000000000000070000000000000000000000000000000000000000000000000000000000000000000000000000000000000000000000000000000000000000000000000000000000000000000000000000000000000000000000000000000000000000
310
00000000000000000000000000000000000000000000000000000000000700070000000000000000000000000000000000000000000000000000000000000000000000000007000000000707000000000000000000000000070000000000000000000000000000000000000000000000000000000000000000000000000000
310
00000000000000000000000000000000000000000000000000000000000000000000000000000000000000000000000000000000000000000000000000000000000000000000000000000000000000000007000007000000000000000000000000000000000000000000000000000000000000000000000000000007000707
310
00000000000000000000000000000007000000000000000000000000000000000000000000000000000000000000000000000000000000000000000000000000000000000000000000000000000000000000000000000000000000000000000000000000000000000000000000000000000000000000000000000000000000
310
00000000000000070000070000000000000000000000000000000000000000000000000000000000000000000000000000000700000000000000000000000000000000000007000000000000000000000000000000000000000000000000000000000000000000000000000000000000000000000000000000000000000000
310
00000000000000000000000000000000000000000000000000000000000000000000000000000000000000000000000000000000000000000000000007000007000000000000000000000000000000000000000000000000000000000000000000000000000000000700000000000000000000000000000000000007000000
310
00000000000000000000000000000000000000000000000000000000000000000000000000000000000000000000000000000000000000000000000000000000000000000000000000000000000000000000000000000000000000000000000000000000000000000000000000000000000700000700000000000000000000
310
00000000000000000000000000000000000000000000000000000000000000070000000000000000000000000000000000000700000000000000000000000000000000000000000000000000000000000000000000000000000000000000000000000000000000000000000000000000000000000000000000000000000000
310
00000000000000000000000000000000000000000000000000070707070707070707070707070707000007000000000000000000000000000000000000000000000000000000000000000000000000000000000007000000000000000000000000000000000000000700000000000000000000000000000000000000000000
310
00000000000000000000000000000000000000000000000000000000000000000000000000000000000000000000000000000000000000000000000000000000070707070707070707070707070700000000000000000000000000000700000700000000000000000000000000000000000000000000000000000000000000
310
00000000000000000000000700000000000000000000000000000000000000070700000000000000000000000000000000000000000000000000000000000000000000000000000000000000000000000000000000000000000000000000000000000000000000070707070707070707070707070700000000000000000000
310
00000000000000000000000000000000000007000007000000000000000000000000000000000000000000000000000000000000000000000000000000000000000700000000000000000000000000000000000000000700000000000000000000000000000000000000000000000000000000000000000000000000000000
310
00000000000000000000000000000007070707070707070707070707070000000000000000000000000000000000000000000000000000000000000000000000000000000000000700000700000000000000000000000000000000000000000000000000000000000000000000000000000000000000000700000000000000
310
00000000000000000000000000070707070700000000000000000000000000000000000000000000000000000000000000000000000007070707070707070707070707070000000000000000000000000000000000000000000000000000000000000000000000000000000000000000000000000000000000000000070000
310
07000000000000000000000000000000000000000000000000000000000000000000000000000000000000000007000000000000000000000000000000000000000000000000000707070707070707070707070707070707070707070707070707070707070707070707070000000000000000000000000000000000000000
310
00000000000000000000000000000000000000000000000000000000000000000000000000000000000000000000000000000700000700000000000000000000000000000000000000000000000000000000000000000000000000000000000000000007000000000000000000000000000000000000000000000000000000
310
00000000000000000000000000000000000000000000000000070700000000000000000000000000000000000000000000000000000000000000000000000000000000000000000000000000000000000000000000000000000000000000000000000000000000070000070000000000000000000000000000000000000000
310
00000000000000000000000000000000000000000000000000070000000000000000000000000000000000000000000000000000000000000000000000000000000000000000000000000000000007070000000000000000000000000000000000000000000000000000000000000000000000000000000000000000000000
310
00000000000000000000000000000000000000000000000000000000000700000700000000000000000000000000000000000000000000000000000000000000000000000000000000000000000000070000000000000000000000000000000000000000000000000000000000000000000000000000000000000000000000
310
00000000070700000000000000000000000000000000000000000000000000000000000000000000000000000000000000000000000000000000000000000000000000000000000000000000000000000000070000070000000000000000000000000000000000000000000000000000000000000000000000000000000000
310
00000000000007000000000000000000000000000000000000000000000000000000000000000000000000000000000000000000000000000007070000000000000000000000000000000000000000000000000000000000000000000000000000000000000000000000000000000000000000000000000000000000000000
310
00000000000000000700000700000000000000000000000000000000000000000000000000000000000000000000000000000000000000000000000007000000000000000000000000000000000000000000000000000000000000000000000000000000000000000000000000000707000000000000000000000000000000
310
00000000000000000000000000000000000000000000000000000000000000000000000000000000000000000000000000000000000000000000000000070000070000000000000000000000000000000000000000000000000000000000000000000000000000000000000000000000000007000000000000000000000000
310
00000000000000000000000000000000000000000000000000000000000000000000000007070000000000000000000000000000000000000000000000000000000000000000000000000000000000000000000000000000000000000000000000000000000000000000000000000000000007000007000000000000000000
310
00000000000000000000000000000000000000000000000000000000000000000000000000000000000707000000000000000000000000000000000000000000000000000000000000000000000000000000000000000000000707000000000000000000000000000000000000000000000000000000000000000000000000
310
00000000000000000000000000000000000000000000000000000000000000000000000000000000070000070000000000000000000000000000000000000000000000000000000000000000000000000000000000000000000000000000000007000000000000000000000000000000000000000000000000000000000000
310
00000000000000000000000000000007070000000000000000000000000000000000000000000000000000000000000000000000000000000000000000000000000000000000000000000000000000000000000000000000000000000007000007000000000000000000000000000000000000000000000000000000000000
310
00000000000000000000000000000000000000000000000700000000000000000000000000000000000000000000000000000000000000000000000000000000000000000707000000000000000000000000000000000000000000000000000000000000000000000000000000000000000000000000000000000000000000
310
00000000000000000000000000000000000000070000070000000000000000000000000000000000000000000000000000000000000000000000000000000000000000000000000000000000000707070000000000000000000000000000000000000000000000000000000000000000000000000000000000070700000000
310
00000000000000000000000000000000000000000000000000000000000000000000000000000000000000000000000000000000000000000000000000000000000000000000000007000007000000000000000000000000000000000000000000000000000000000000000000000000000000000000000000000000000000
310
00000000000007070000000000000000000000000000000000000000000000000000000000000000000000000000000707000000000000000000000000000000000000000000000000000000000000000000000000000000000000000000000000000000000000000000000000000000000000000000000000000000000700
310
00070000000000000000000000000000000000000000000000000000000000000000000000000000000000000000000000000000000000000000000000070000000000000000000000000000000000000000000000000000000000000000000000000000070700000000000000000000000000000000000000000000000000
310
00000000000000000000000000000000000000000000000000000000000000000000000000000000000000000000000000000007000007000000000000000000000000000000000000000000000000000000000000000000000000000000000000000000000000000000000000000000000000070707070000000000000000
310
00000000000000000000000000000000000000000000000000000707000000000000000000000000000000000000000000000000000000000000000000000000000000000000000000000000000000000000000000000000000000000000000000000000000000000700000700000000000000000000000000000000000000
310
00000000000000000000000000000000000000000000000000000000000000000000000000000000000000000007070700000000000000000000000000000000000000000000000000000000000000070700000000000000000000000000000000000000000000000000000000000000000000000000000000000000000000
310
00000000000000000000000000000000000000000000000000000000000007000007000000000000000000000000000000000000000000000000000000000000000000000000000000000000000000000000000000000000000000000000000000000000000707070707070707070707070707070707070707070707070707
310
07070707070707070707070700000000000000000000000000000000000000000000000000000000000000000000000000000000000000000000000000000000000000000000000000000000000000000000000700000700000000000000000000000000000000000000000000000000000000000000000000000000000000
310
00000000000000000000000000000000000000000000000000000000000000000000000000000000000000000000000000000000000000000000000000000000000707070707070707070000000000000000000000000000000000000000000000000000000000000000000000000000000000000000000000000000000000
310
00000000000000000007000007000000000000000000000000000000000000000000000000000000000000000000000000000000000000000000000000000000000000000000000000000000000000000000000000000000000000000000000000000000000000000000000000000000000000000000000000000000000000
310
07000000000000000000000000000000000000000000000000000000000000000000000000000000000000000000000000000000000000000000000000000700000700000000000000000000000000000000000000000000000000000000000000000000000000000000000000000000000000000000000000000000000000
310
00000000000000000000000000000000000000000000000000000000000000000000000000000000000000000000000000000000000007000000000000000000000000000000000000000000000000000000000000000000000000000000000000000000000000000000000000000000000000070000070000000000000000
310
00000000000000000000000000000000000000000000000000000000000000000000000000000000000000000000000000000000000000000000000000000000000000000000000000000000000000000000000000000000000000000000000000000000000000000000000700000000000000000000000000000000000000
310
00000000000707070707070707070707070707070707000000000000000000000000000000000000000700000700000000000000000000000000000000000000000000000000000000000000000000000000000000000000000000000000000000000000000000000000000000000000000000000000000000000000000000
310
00000000000000000000000000000000000000000000000000000000000000000007000000000000000000000000000000000000000000000707000000000000000000000000000000000007070707070707070707070707070707070707070000070000000000000000000000000000000000000000000000000000000000
310
00000000000000000000000000000000000000000000000000000000000000000000000000000000000000000000000000000000000000000000000000000000000000000000000000000000000000000000000000070000000000000000000000000000000000000000000000070000000000000000000000000000000000
310
00000000000000000000000000000000000000000700000700000000000000000000000000000000000000000000000000000000000000000000000000000000000000000000000000000000000000000000000000000000000000000000000000000000000000000000000000000000000000000000000000000000000000
310
00000000000000000000000700000000000000000000000000000000000000000000070000000000000000000000000000000000000000000000000000000000000000000000000000070000070000000000000000000000000000000000000000000000000000000000000000000000000000000000000000000000000000
310
00000000000000000000000000000000000000000000000000000000000000000000000000000000000000000000000000000000000000000000000000000000070000000000000000000000000000000000000000000700000000000000000000000000000000000000000000000000000000000000000000000000000007
310
00000700000000000000000000000000000000000000000000000000000000000000000000000000000000000000000000000000000000000000000000000000000000000000000000000000000000000000000000000000000000000000000000000000000000000000000000000000000000000007000000000000000000
310
00000000000000000000000007000000000000000000000000000000000000000000000000000000000000000000000000000000070000070000000000000000000000000000000000000000000000000000000000000000000000000000000000000000000000000000000000000000000000000000000000000000000000
310
00000000000000000000000000000000000000000000000000000000000000000000000000000000000007000000000000000000000000000000000000000000070000000000000000000000000000000000000000000000000000000000000000000000000000000000070007000000000000000000000000000000000000
310
00000000000000000000000000000000000000000000000000000000000000000000000000000000000000000000000000000000000000000000000000000000000000000000000000000000000000000000000000000000000000000000000700000000000000000000000000000000000000000007000000000000000000
310
00000000000000000000000000000000000000000000000000000000000000000700070000000000000000000000000000000000000000000000000000000000000000000000000000000000000000000000000000000000000000000000000000000000000000000000000000000000000000000000000000000000000000
310
00000000000000000000000000000000000000000007070000000000000000000000000000000000000000070000000000000000000000000000000000000000000000000000000000000000000000000000000000070007000000000000000000000000000000000000000000000000000000000000000000000000000000
310
00000000000000000000000000000000000000000000000000000000000000000000000000000000000000000000000000000000000000000000000000000000000000000000000000070707070700000000000000000000000000000000000700000000000000000000000000000000000000000000000000000000000000
310
00000000000000000000000700070000000000000000000000000000000000000000000000000000000000000000000000000000000000000000000000000000000000000000000000000000000000000000000000000000000000000000000000000000000000000000000000000000000000000000000000000000000007
310
00000707070707000000000000000000000000000007000000000000000000000000000000000000000000000000000000000000000000000000000000000000070707000000000000000000000000000000000000000000000000000000000000000000000000000000000000000000000000000000000000000000000000
310
00000000000000000000000000000000000000000000000000000000000000000000000000000000000000000000000000000007000000000007070707070000000000000000000000070000000000000000000000000000000000000000000000000000000000000000000000000000000000000000000700000000000000
310
00000000000000000000000000000000000000000000000000000000000000000000000000000000000000000000000000000000000000000000000000000000000000000000000000000000000000000000000000000000000000000000000000000000000000000700000000000000000707070707000000000000000007
310
00000000000000000000000000000000000000000000000000000000000000000000000000000000000000000000000000000000000000000000000000000000000000000000000000000000000000000000000000000000000000000000000000000000000000000000000000000000000000000000000000000000000000
310
00000000000000000000000000000000000000000000000000000000000007000000000000000000000707070707070000000000070000000000000000000000000000000000000000000000000000000000000000000000000000000000000000000000000000000000000000000000000000000000000000000000000000
310
00000000000000000000000000000000000000000000000000000000000000000000000000000000000000000000000000000000000000000000000000000000000000000000000000000000000000000000070000000000000000000000000000070707070700000700000000000000000000000000000000000000000000
310
00000000000000000000000000000000000000000000000000000000000000000000000000000000000000000000000000000000000000000000000000000000000000000000000000000000000000000000000000000000000000000000000000000000000000000000000000000000000000000000000000000000000000
310
00000000000000000700000000000000000000000000000000000707070707000000000000000000000000000000000000000000000000000000000000000000000000000000000000000000000000000000000000000000000000000000000000000000000000000000000000000000000000000000000000000000000000
310
00000000000000000000000000000000000000000000000000000000000000000000000000000000000000000000000000000000000000000000000000070000000000000000000000000000000000000007070700000000000000000000000000000000000000000000000000000000000000000000000000000000000000
310
00000000000000000000000000000000000000000000000000000000000000000000000000000000000000000000000000000000000000000000000000000000000000000000000000000000000000000000000000000000000000000000000000000000000000000000000000000000000700000000000000000000000000
310
00000000000000000007000000000000000000000000000000000000000000000000000000000000000000000000000000000000000000000000000000000000000000000000000000000000000000000000000000000000000000000000000000000000000000000000000000000000000000000000000000000000000000
310
00000000000000000000000000000000000000000000000000000000000000000000000000000007000000000000000000000000000000000000000000070000000000000000000000000000000000000000000000000000000000000000000000000000000000000000000000000000000000000000000000000000000000
310
00000000000000000000000000000000000000000000000000000000000000000000000000000000000000000000000000000000000000000000000000000000000000000000000000000000000000000000000000000000000000000700000000000000000000000000000000000000000007000000000000000000000000
310
00000000000000000000000000000000000000000000000000000000000000000000000000000000000000000000000000000000000000000000000000000000000000000000000000000000000000000000000000000000000000000000000000000000000000000000000000000000000000000000000000000000000000
310
00000000000000000000000000000000000700000000000000000000000000000000000000000000070000000000000000000000000000000000000000000000000000000000000000000000000000000000000000000000000000000000000000000000000000000000000000000000000000000000000000000000000000
310
00000000000000000000000000000000000000000000000000000000000000000000000000000000000000000000000000000000000000000000000000000000000000000000070000000000000000000000000000000000000000000700000000000000000000000000000000000000000000000000000000000000000000
310
00000000000000000000000000000000000000000000000000000000000000000000000000000000000000000000000000000000000000000000000000000000000000000000000000000000000000000000000000000000000000000000000000000000000000000000000000000000000000000000000000000007000000
310
00000000000000000000000000000000000007000000000000000000000000000000000000000000000000000000000000000000000000000000000000000000000000000000000000000000000000000000000000000000000000000000000000000000000000000000000000000000000000000000000000000000000000
310
00000000000000000000000000000000000000000000000000000000000000000000000000000000000000000000000007000000000000000000000000000000000000000000070000000000000000000000000000000000000000000000000000000000000000000000000000000000000000000000000000000000000000
310
00000000000000000000000000000000000000000000000000000000000000000000000000000000000000000000000000000000000000000000000000000000000000000000000000000000000000000000000000000000000000000000000000000000000700000000000000000000000000000000000000000007000000
310
00000000000000000000000000000000000000000000000000000000000000000000000000000000000000000000000000000000000000000000000000000000000000000000000000000000000000000000000000000000000000000000000000000000000000000000000000000000000000000000000000000000000000
310
00000000000000000000000000000000000000000000000000000700000000000000000000000000000000000000000000070000000000000000000000000000000000000000000000000000000000000000000000000000000000000000000000000000000000000000000000000000000000000000000000000000000000
310
00000000000000000000000000000000000000000000000000000000000000000000000000000000000000000000000000000000000000000000000000000000000000000000000000000000000000070000000000000000000000000000000000000000000700000000000000000000000000000000000000000000000000
310
00000000000000000000000000000000000000000000000000000000000000000000000000000000000000000000000000000000000000000000000000000000000000000000000000000000000000000000000000000000000000000000000000000000000000000000000000000000000000000000000000000000000000
310
00000000070000000000000000000000000000000000000000000007000000000000000000000000000000000000000000000000000000000000000000000000000000000000000000000000000000000000000000000000000000000000000000000000000000000000000000000000000000000000000000000000000000
310
00000000000000000000000000000000000000000000000000000000000000000000000000000000000000000000000000000000000000000707000000000000000000000000000000000000000000000700000000000000000000000000000000000000000000000000000000000000000000000000000000000000000000
310
00000000000000000000000000000000000000000000000000000000000000000000000000000000000000000000000000000000000000000000000000000000000000000000000000000000000000000000000000000000000000000000000000000000000000000000000000070000000000000000000000000000000000
310
00000000000700000000000000000000000000000000000000000000000000000000000000000000000000000000000000000000000000000000000000000000000000000000000000000000000000000000000000000000000000000000000000000000000000000000000000000000000000000000000000000000000000
310
00000000000000000000000000000000000000000000000000000000000000000007070000000000000000000000000000000000000000000000070000000000000000000000000000000000000000000000000000000000000000000000000000000000000000000000000000000000000000000000000000000000000000
310
00000000000000000000000000000000000000000000000000000000000000000000000000000000000000000000000000000000000000000000000000000000000000000000000000000000000000000000000000070700000000000000000000000000000000000000000000000700000000000000000000000000000000
310
00000000000000000000000000000000000000000000000000000000000000000000000000000000000000000000000000000000000000000000000000000000000000000000000000000000000000000000000000000000000000000000000000000000000000000000000000000000000000000000000000000000000000
310
00000000000000000007070000000000000000000000000000000000000000000000000007000000000000000000000000000000000000000000000000000000000000000000000000000000000000000000000000000000000000000000000000000000000000000000000000000000000000000000000000000000000000
310
00000000000000000000000000000000000000000000000000000000000000000000000000000000000000000000000000000000000000000000000007070000000000000000000000000000000000000000000000000000000700000000000000000000000000000000000000000000000000000000000000000000000000
310
00000000000000000000000000000000000000000000000000000000000000000000000000000000000000000000000000000000000000000000000000000000000000000000000000000000000000000000000000000000000000000000000000000000000000000000000000000707070000000000000000000000000000
310
00000000000000000000000000000700000000000000000000000000000000000000000000000000000000000000000000000000000000000000000000000000000000000000000000000000000000000000000000000000000000000000000000000000000000000000000000000000000000000000000000000000000000
310
00000000000000000000000000000000000000000000000000000000000000000000070700000000000000000000000000000000000000000000000000000000000000070000000000000000000000000000000000000000000000000000000000000000000000000000000000000000000000000000000000000000000000
310
00000000000000000000000000000000000000000000000000000000000000000000000000000000000000000000000000000000000000000000000000000000000000000000000000000000000000000000000000000700000000000000000000000000000000000000000000000000000000000000000007000000000000
310
00000000000000000000000000000000000000000000000000000000000000000000000000000000000000000000000000000000000000000000000000000000000000000000000000000000000000000000000000000000000000000000000000000000000000000000000000000000000000000000000000000000000000
310
00000000000000000000000707000000000000000000000000000000000000000000000000000000000000000007000000000000000000000000000000000000000000000000000000000000000000000000000000000000000000000000000000000000000000000000000000000000000000000000000000000000000000
310
00000000000000000000000000000000000000000000000000000000000000000000000000000000000000000000000000000000000000000000000000000000070000000000000000000000000000000000000000000000000000000000000000000700000000000000000000000000000000000000000000000000000000
310
00000000000000000000000000000000000000000000000000000000000000000000000000000000000000000000000000000000000000000000000000000000000000000000000000000000000000000000000000000000000000000000000000000000000000000000000000000000000000000700000000000000000000
310
00000000000000000000000000000000000000000000000700000000000000000000000000000000000000000000000000000000000000000000000000000000000000000000000000000000000000000000000000000000000000000000000000000000000000000000000000000000000000000000000000000000000000
310
00000000000000000000000000000000000000000000000000000000000000000000000000000000000007070707070707000000000000000000000000000000000000000000000000000000070000000000000000000000000000000000000000000000000000000000000000000000000000000000000000000000000000
310
00000000000000000000000000000000000000000000000000000000000000000000000000000000000000000000000000000000000000000000000000000000000000000000000000000000000000000000000000000000000000000000000000000000000007070707070707070707000000000000000000000000000000
310
00000700000000000000000000000000000000000000000000000000000000000000000000000000000000000000000000000000000000000000000000000000000000000000000000000000000000000000000000000000000000000000000000000000000000000000000000000000000000000000000000000000000000
310
00000000000000000000000000000000000000000000000000000000000000000000000000000707070707070707070707000000000007000000000000000000000000000000000000000000000000000000000000000000000000000000000000000000000000000000000000000000000000000000000000000000000000
310
00000000000000000000000000000000000000000000000000000000000000000000000000000000000000000000000000000000000000000000000000000000000000000000000000000000000000000000000000000000000000000000000000000000000007070707070700000000000000000000000000000000000000
310
00000000000000000000000000000000000000000000000000000000000000000000000000000000000000000000000000000000000000000000000000000000000000000000000000000000000000000000000000000000000000000000000000000000000000000000000000000000000000000000000000000000000000
310
000000000000000000000000000000000000000000000000000000000000000000000000000000000000000000000000000000000000000000000000000000000000000000000000000000000000000000000000000000000000000000000000000000000000000000000000
  0
ENDSEC
  0
EOF
