  0
SECTION
  2
HEADER
  9
$ACADVER
  1
AC1015
  9
$ACADMAINTVER
 70
     6
  9
$DWGCODEPAGE
  3
ANSI_1252
  9
$INSBASE
 10
0.0
 20
0.0
 30
0.0
  9
$EXTMIN
 10
-0.1646
 20
-0.1232575
 30
0.0
  9
$EXTMAX
 10
144.1646
 20
289.1232575
 30
0.0
  9
$LIMMIN
 10
0.0
 20
0.0
  9
$LIMMAX
 10
12.0
 20
9.0
  9
$ORTHOMODE
 70
     0
  9
$REGENMODE
 70
     1
  9
$FILLMODE
 70
     1
  9
$QTEXTMODE
 70
     0
  9
$MIRRTEXT
 70
     1
  9
$LTSCALE
 40
1.0
  9
$ATTMODE
 70
     1
  9
$TEXTSIZE
 40
0.2
  9
$TRACEWID
 40
0.05
  9
$TEXTSTYLE
  7
Standard
  9
$CLAYER
  8
0
  9
$CELTYPE
  6
ByBlock
  9
$CECOLOR
 62
   256
  9
$CELTSCALE
 40
1.0
  9
$DISPSILH
 70
     0
  9
$DIMSCALE
 40
1.0
  9
$DIMASZ
 40
0.18
  9
$DIMEXO
 40
0.0625
  9
$DIMDLI
 40
0.38
  9
$DIMRND
 40
0.0
  9
$DIMDLE
 40
0.0
  9
$DIMEXE
 40
0.18
  9
$DIMTP
 40
0.0
  9
$DIMTM
 40
0.0
  9
$DIMTXT
 40
0.18
  9
$DIMCEN
 40
0.09
  9
$DIMTSZ
 40
0.0
  9
$DIMTOL
 70
     0
  9
$DIMLIM
 70
     0
  9
$DIMTIH
 70
     1
  9
$DIMTOH
 70
     1
  9
$DIMSE1
 70
     0
  9
$DIMSE2
 70
     0
  9
$DIMTAD
 70
     0
  9
$DIMZIN
 70
     0
  9
$DIMBLK
  1

  9
$DIMASO
 70
     1
  9
$DIMSHO
 70
     1
  9
$DIMPOST
  1

  9
$DIMAPOST
  1

  9
$DIMALT
 70
     0
  9
$DIMALTD
 70
     2
  9
$DIMALTF
 40
25.4
  9
$DIMLFAC
 40
1.0
  9
$DIMTOFL
 70
     0
  9
$DIMTVP
 40
0.0
  9
$DIMTIX
 70
     0
  9
$DIMSOXD
 70
     0
  9
$DIMSAH
 70
     0
  9
$DIMBLK1
  1

  9
$DIMBLK2
  1

  9
$DIMSTYLE
  2
Standard
  9
$DIMCLRD
 70
     0
  9
$DIMCLRE
 70
     0
  9
$DIMCLRT
 70
     0
  9
$DIMTFAC
 40
1.0
  9
$DIMGAP
 40
0.09
  9
$DIMJUST
 70
     0
  9
$DIMSD1
 70
     0
  9
$DIMSD2
 70
     0
  9
$DIMTOLJ
 70
     1
  9
$DIMTZIN
 70
     0
  9
$DIMALTZ
 70
     0
  9
$DIMALTTZ
 70
     0
  9
$DIMUPT
 70
     0
  9
$DIMDEC
 70
     4
  9
$DIMTDEC
 70
     4
  9
$DIMALTU
 70
     2
  9
$DIMALTTD
 70
     2
  9
$DIMTXSTY
  7
Standard
  9
$DIMAUNIT
 70
     0
  9
$DIMADEC
 70
     0
  9
$DIMALTRND
 40
0.0
  9
$DIMAZIN
 70
     0
  9
$DIMDSEP
 70
    46
  9
$DIMATFIT
 70
     3
  9
$DIMFRAC
 70
     0
  9
$DIMLDRBLK
  1

  9
$DIMLUNIT
 70
     2
  9
$DIMLWD
 70
    -2
  9
$DIMLWE
 70
    -2
  9
$DIMTMOVE
 70
     2
  9
$LUNITS
 70
     2
  9
$LUPREC
 70
     4
  9
$SKETCHINC
 40
0.1
  9
$FILLETRAD
 40
0.5
  9
$AUNITS
 70
     0
  9
$AUPREC
 70
     0
  9
$MENU
  1
.
  9
$ELEVATION
 40
0.0
  9
$PELEVATION
 40
0.0
  9
$THICKNESS
 40
0.0
  9
$LIMCHECK
 70
     0
  9
$CHAMFERA
 40
0.5
  9
$CHAMFERB
 40
0.5
  9
$CHAMFERC
 40
1.0
  9
$CHAMFERD
 40
0.0
  9
$SKPOLY
 70
     0
  9
$TDCREATE
 40
2456646.486733391
  9
$TDUCREATE
 40
2456646.445066724
  9
$TDUPDATE
 40
2456646.568387581
  9
$TDUUPDATE
 40
2456646.526720915
  9
$TDINDWG
 40
0.0816540162
  9
$TDUSRTIMER
 40
0.0816540162
  9
$USRTIMER
 70
     1
  9
$ANGBASE
 50
0.0
  9
$ANGDIR
 70
     0
  9
$PDMODE
 70
     0
  9
$PDSIZE
 40
0.0
  9
$PLINEWID
 40
0.0
  9
$SPLFRAME
 70
     0
  9
$SPLINETYPE
 70
     6
  9
$SPLINESEGS
 70
     8
  9
$HANDSEED
  5
584
  9
$SURFTAB1
 70
     6
  9
$SURFTAB2
 70
     6
  9
$SURFTYPE
 70
     6
  9
$SURFU
 70
     6
  9
$SURFV
 70
     6
  9
$UCSBASE
  2

  9
$UCSNAME
  2

  9
$UCSORG
 10
0.0
 20
0.0
 30
0.0
  9
$UCSXDIR
 10
1.0
 20
0.0
 30
0.0
  9
$UCSYDIR
 10
0.0
 20
1.0
 30
0.0
  9
$UCSORTHOREF
  2

  9
$UCSORTHOVIEW
 70
     0
  9
$UCSORGTOP
 10
0.0
 20
0.0
 30
0.0
  9
$UCSORGBOTTOM
 10
0.0
 20
0.0
 30
0.0
  9
$UCSORGLEFT
 10
0.0
 20
0.0
 30
0.0
  9
$UCSORGRIGHT
 10
0.0
 20
0.0
 30
0.0
  9
$UCSORGFRONT
 10
0.0
 20
0.0
 30
0.0
  9
$UCSORGBACK
 10
0.0
 20
0.0
 30
0.0
  9
$PUCSBASE
  2

  9
$PUCSNAME
  2

  9
$PUCSORG
 10
0.0
 20
0.0
 30
0.0
  9
$PUCSXDIR
 10
1.0
 20
0.0
 30
0.0
  9
$PUCSYDIR
 10
0.0
 20
1.0
 30
0.0
  9
$PUCSORTHOREF
  2

  9
$PUCSORTHOVIEW
 70
     0
  9
$PUCSORGTOP
 10
0.0
 20
0.0
 30
0.0
  9
$PUCSORGBOTTOM
 10
0.0
 20
0.0
 30
0.0
  9
$PUCSORGLEFT
 10
0.0
 20
0.0
 30
0.0
  9
$PUCSORGRIGHT
 10
0.0
 20
0.0
 30
0.0
  9
$PUCSORGFRONT
 10
0.0
 20
0.0
 30
0.0
  9
$PUCSORGBACK
 10
0.0
 20
0.0
 30
0.0
  9
$USERI1
 70
     0
  9
$USERI2
 70
     0
  9
$USERI3
 70
     0
  9
$USERI4
 70
     0
  9
$USERI5
 70
     0
  9
$USERR1
 40
0.0
  9
$USERR2
 40
0.0
  9
$USERR3
 40
0.0
  9
$USERR4
 40
0.0
  9
$USERR5
 40
0.0
  9
$WORLDVIEW
 70
     1
  9
$SHADEDGE
 70
     3
  9
$SHADEDIF
 70
    70
  9
$TILEMODE
 70
     1
  9
$MAXACTVP
 70
    64
  9
$PINSBASE
 10
0.0
 20
0.0
 30
0.0
  9
$PLIMCHECK
 70
     0
  9
$PEXTMIN
 10
1.000000000000E+20
 20
1.000000000000E+20
 30
1.000000000000E+20
  9
$PEXTMAX
 10
-1.000000000000E+20
 20
-1.000000000000E+20
 30
-1.000000000000E+20
  9
$PLIMMIN
 10
0.0
 20
0.0
  9
$PLIMMAX
 10
12.0
 20
9.0
  9
$UNITMODE
 70
     0
  9
$VISRETAIN
 70
     1
  9
$PLINEGEN
 70
     0
  9
$PSLTSCALE
 70
     1
  9
$TREEDEPTH
 70
  3020
  9
$CMLSTYLE
  2
Standard
  9
$CMLJUST
 70
     0
  9
$CMLSCALE
 40
1.0
  9
$PROXYGRAPHICS
 70
     1
  9
$MEASUREMENT
 70
     0
  9
$CELWEIGHT
370
    -1
  9
$ENDCAPS
280
     0
  9
$JOINSTYLE
280
     0
  9
$LWDISPLAY
290
     0
  9
$INSUNITS
 70
     0
  9
$HYPERLINKBASE
  1

  9
$STYLESHEET
  1

  9
$XEDIT
290
     1
  9
$CEPSNTYPE
380
     0
  9
$PSTYLEMODE
290
     1
  9
$FINGERPRINTGUID
  2
{8898590D-B5AC-4F06-B5F1-B2F8CCF52C9A}
  9
$VERSIONGUID
  2
{FAEB1C32-E019-11D5-929B-00C0DF256EC4}
  9
$EXTNAMES
290
     1
  9
$PSVPSCALE
 40
0.0
  9
$OLESTARTUP
290
     0
  0
ENDSEC
  0
SECTION
  2
CLASSES
  0
CLASS
  1
ACDBDICTIONARYWDFLT
  2
AcDbDictionaryWithDefault
  3
ObjectDBX Classes
 90
        0
280
     0
281
     0
  0
CLASS
  1
SCALE
  2
AcDbScale
  3
ObjectDBX Classes
 90
     1153
280
     0
281
     0
  0
CLASS
  1
DICTIONARYVAR
  2
AcDbDictionaryVar
  3
ObjectDBX Classes
 90
        0
280
     0
281
     0
  0
CLASS
  1
ACDBPLACEHOLDER
  2
AcDbPlaceHolder
  3
ObjectDBX Classes
 90
        0
280
     0
281
     0
  0
CLASS
  1
LAYOUT
  2
AcDbLayout
  3
ObjectDBX Classes
 90
        0
280
     0
281
     0
  0
ENDSEC
  0
SECTION
  2
TABLES
  0
TABLE
  2
VPORT
  5
8
330
0
100
AcDbSymbolTable
 70
     1
  0
VPORT
  5
44A
330
8
100
AcDbSymbolTableRecord
100
AcDbViewportTableRecord
  2
*Active
 70
     0
 10
0.0
 20
0.0
 11
1.0
 21
1.0
 12
72.0
 22
144.5
 13
0.0
 23
0.0
 14
0.5
 24
0.5
 15
0.5
 25
0.5
 16
0.0
 26
0.0
 36
1.0
 17
0.0
 27
0.0
 37
0.0
 40
295.0314453
 41
1.729542302358
 42
50.0
 43
0.0
 44
0.0
 50
0.0
 51
0.0
 71
    16
 72
   100
 73
     1
 74
     3
 75
     0
 76
     0
 77
     0
 78
     0
281
     0
 65
     1
110
0.0
120
0.0
130
0.0
111
1.0
121
0.0
131
0.0
112
0.0
122
1.0
132
0.0
 79
     0
146
0.0
  0
ENDTAB
  0
TABLE
  2
LTYPE
  5
5
330
0
100
AcDbSymbolTable
 70
     1
  0
LTYPE
  5
14
330
5
100
AcDbSymbolTableRecord
100
AcDbLinetypeTableRecord
  2
ByBlock
 70
     0
  3

 72
    65
 73
     0
 40
0.0
  0
LTYPE
  5
15
330
5
100
AcDbSymbolTableRecord
100
AcDbLinetypeTableRecord
  2
ByLayer
 70
     0
  3

 72
    65
 73
     0
 40
0.0
  0
LTYPE
  5
16
330
5
100
AcDbSymbolTableRecord
100
AcDbLinetypeTableRecord
  2
Continuous
 70
     0
  3
Solid line
 72
    65
 73
     0
 40
0.0
  0
ENDTAB
  0
TABLE
  2
LAYER
  5
2
330
0
100
AcDbSymbolTable
 70
     1
  0
LAYER
  5
10
330
2
100
AcDbSymbolTableRecord
100
AcDbLayerTableRecord
  2
0
 70
     0
 62
     7
  6
Continuous
370
    -3
390
F
  0
ENDTAB
  0
TABLE
  2
STYLE
  5
3
330
0
100
AcDbSymbolTable
 70
     1
  0
STYLE
  5
11
330
3
100
AcDbSymbolTableRecord
100
AcDbTextStyleTableRecord
  2
Standard
 70
     0
 40
0.0
 41
1.0
 50
0.0
 71
     0
 42
0.2
  3
txt
  4

  0
ENDTAB
  0
TABLE
  2
VIEW
  5
6
330
0
100
AcDbSymbolTable
 70
     0
  0
ENDTAB
  0
TABLE
  2
UCS
  5
7
330
0
100
AcDbSymbolTable
 70
     0
  0
ENDTAB
  0
TABLE
  2
APPID
  5
9
330
0
100
AcDbSymbolTable
 70
     1
  0
APPID
  5
12
330
9
100
AcDbSymbolTableRecord
100
AcDbRegAppTableRecord
  2
ACAD
 70
     0
  0
ENDTAB
  0
TABLE
  2
DIMSTYLE
  5
A
330
0
100
AcDbSymbolTable
 70
     1
100
AcDbDimStyleTable
  0
DIMSTYLE
105
20
330
A
100
AcDbSymbolTableRecord
100
AcDbDimStyleTableRecord
  2
Standard
 70
     0
340
11
  0
ENDTAB
  0
TABLE
  2
BLOCK_RECORD
  5
1
330
0
100
AcDbSymbolTable
 70
     0
  0
BLOCK_RECORD
  5
1D
330
1
100
AcDbSymbolTableRecord
100
AcDbBlockTableRecord
  2
*Model_Space
340
1E
  0
BLOCK_RECORD
  5
1B
330
1
100
AcDbSymbolTableRecord
100
AcDbBlockTableRecord
  2
*Paper_Space
340
1C
  0
ENDTAB
  0
ENDSEC
  0
SECTION
  2
BLOCKS
  0
BLOCK
  5
44D
330
1D
100
AcDbEntity
  8
0
100
AcDbBlockBegin
  2
*Model_Space
 70
     0
 10
0.0
 20
0.0
 30
0.0
  3
*Model_Space
  1
*Model_Space
  0
ENDBLK
  5
44E
330
1D
100
AcDbEntity
  8
0
100
AcDbBlockEnd
  0
BLOCK
  5
44B
330
1B
100
AcDbEntity
 67
     1
  8
0
100
AcDbBlockBegin
  2
*Paper_Space
 70
     0
 10
0.0
 20
0.0
 30
0.0
  3
*Paper_Space
  1
*Paper_Space
  0
ENDBLK
  5
44C
330
1B
100
AcDbEntity
 67
     1
  8
0
100
AcDbBlockEnd
  0
ENDSEC
  0
SECTION
  2
ENTITIES
  0
LINE
  5
21
330
1D
100
AcDbEntity
  8
0
100
AcDbLine
 10
49.3588
 20
-0.1229145
 30
0.0
 11
49.7205
 21
-0.1229145
 31
0.0
  0
LINE
  5
22
330
1D
100
AcDbEntity
  8
0
100
AcDbLine
 10
49.7205
 20
-0.1229145
 30
0.0
 11
50.3172
 21
-0.1229145
 31
0.0
  0
LINE
  5
23
330
1D
100
AcDbEntity
  8
0
100
AcDbLine
 10
50.3172
 20
-0.1229145
 30
0.0
 11
51.1436
 21
-0.1229145
 31
0.0
  0
LINE
  5
24
330
1D
100
AcDbEntity
  8
0
100
AcDbLine
 10
51.1436
 20
-0.1229145
 30
0.0
 11
52.1901
 21
-0.1229145
 31
0.0
  0
LINE
  5
25
330
1D
100
AcDbEntity
  8
0
100
AcDbLine
 10
49.2363
 20
-0.1228335
 30
0.0
 11
49.3588
 21
-0.1229145
 31
0.0
  0
LINE
  5
26
330
1D
100
AcDbEntity
  8
0
100
AcDbLine
 10
55.8936
 20
-0.1232575
 30
0.0
 11
55.975153738322
 21
-0.1232185
 31
0.0
  0
LINE
  5
27
330
1D
100
AcDbEntity
  8
0
100
AcDbLine
 10
55.0476
 20
-0.1232575
 30
0.0
 11
55.8936
 21
-0.1232575
 31
0.0
  0
LINE
  5
28
330
1D
100
AcDbEntity
  8
0
100
AcDbLine
 10
54.2521
 20
-0.1232575
 30
0.0
 11
55.0476
 21
-0.1232575
 31
0.0
  0
LINE
  5
29
330
1D
100
AcDbEntity
  8
0
100
AcDbLine
 10
52.8218
 20
-0.1232575
 30
0.0
 11
53.5098
 21
-0.1232575
 31
0.0
  0
LINE
  5
2A
330
1D
100
AcDbEntity
  8
0
100
AcDbLine
 10
52.201
 20
-0.1224895
 30
0.0
 11
52.8247
 21
-0.1232185
 31
0.0
  0
LINE
  5
2B
330
1D
100
AcDbEntity
  8
0
100
AcDbLine
 10
52.8247
 20
-0.1232185
 30
0.0
 11
53.5156
 21
-0.1232185
 31
0.0
  0
LINE
  5
30
330
1D
100
AcDbEntity
  8
0
100
AcDbLine
 10
53.5156
 20
-0.1232185
 30
0.0
 11
54.2616
 21
-0.1232185
 31
0.0
  0
LINE
  5
35
330
1D
100
AcDbEntity
  8
0
100
AcDbLine
 10
55.0607
 20
-0.1232185
 30
0.0
 11
56.0645
 21
-0.1232185
 31
0.0
  0
LINE
  5
36
330
1D
100
AcDbEntity
  8
0
100
AcDbLine
 10
54.2616
 20
-0.1232185
 30
0.0
 11
55.0607
 21
-0.1232185
 31
0.0
  0
LINE
  5
37
330
1D
100
AcDbEntity
  8
0
100
AcDbLine
 10
57.862162237757
 20
-0.1228295
 30
0.0
 11
58.7161
 21
-0.1228295
 31
0.0
  0
LINE
  5
38
330
1D
100
AcDbEntity
  8
0
100
AcDbLine
 10
60.9881
 20
-0.1228295
 30
0.0
 11
62.1887
 21
-0.1228295
 31
0.0
  0
LINE
  5
39
330
1D
100
AcDbEntity
  8
0
100
AcDbLine
 10
62.1887
 20
-0.1228295
 30
0.0
 11
63.4276
 21
-0.1228295
 31
0.0
  0
LINE
  5
3A
330
1D
100
AcDbEntity
  8
0
100
AcDbLine
 10
59.8293
 20
-0.1228295
 30
0.0
 11
60.9881
 21
-0.1228295
 31
0.0
  0
LINE
  5
3B
330
1D
100
AcDbEntity
  8
0
100
AcDbLine
 10
58.7161
 20
-0.1228295
 30
0.0
 11
59.8293
 21
-0.1228295
 31
0.0
  0
LINE
  5
3C
330
1D
100
AcDbEntity
  8
0
100
AcDbLine
 10
64.701
 20
-0.1228295
 30
0.0
 11
66.0046
 21
-0.1228295
 31
0.0
  0
LINE
  5
3D
330
1D
100
AcDbEntity
  8
0
100
AcDbLine
 10
63.4276
 20
-0.1228295
 30
0.0
 11
64.701
 21
-0.1228295
 31
0.0
  0
LINE
  5
3E
330
1D
100
AcDbEntity
  8
0
100
AcDbLine
 10
61.6771
 20
-0.1227895
 30
0.0
 11
62.7202
 21
-0.1227895
 31
0.0
  0
LINE
  5
3F
330
1D
100
AcDbEntity
  8
0
100
AcDbLine
 10
62.7202
 20
-0.1227895
 30
0.0
 11
63.7902
 21
-0.1227895
 31
0.0
  0
LINE
  5
40
330
1D
100
AcDbEntity
  8
0
100
AcDbLine
 10
63.7902
 20
-0.1227895
 30
0.0
 11
64.8841
 21
-0.1227895
 31
0.0
  0
LINE
  5
41
330
1D
100
AcDbEntity
  8
0
100
AcDbLine
 10
60.0208
 20
-0.1227895
 30
0.0
 11
61.6771
 21
-0.1227895
 31
0.0
  0
LINE
  5
42
330
1D
100
AcDbEntity
  8
0
100
AcDbLine
 10
58.9653
 20
-0.1227895
 30
0.0
 11
60.0208
 21
-0.1227895
 31
0.0
  0
LINE
  5
43
330
1D
100
AcDbEntity
  8
0
100
AcDbLine
 10
57.9524
 20
-0.1227895
 30
0.0
 11
58.9653
 21
-0.1227895
 31
0.0
  0
LINE
  5
44
330
1D
100
AcDbEntity
  8
0
100
AcDbLine
 10
56.9846
 20
-0.1232185
 30
0.0
 11
57.9524
 21
-0.1227895
 31
0.0
  0
LINE
  5
45
330
1D
100
AcDbEntity
  8
0
100
AcDbLine
 10
56.0645
 20
-0.1232185
 30
0.0
 11
56.9846
 21
-0.1232185
 31
0.0
  0
LINE
  5
46
330
1D
100
AcDbEntity
  8
0
100
AcDbLine
 10
64.8841
 20
-0.1227895
 30
0.0
 11
65.9997
 21
-0.1227895
 31
0.0
  0
LINE
  5
47
330
1D
100
AcDbEntity
  8
0
100
AcDbLine
 10
67.3339
 20
-0.1228295
 30
0.0
 11
68.6847
 21
-0.1228295
 31
0.0
  0
LINE
  5
48
330
1D
100
AcDbEntity
  8
0
100
AcDbLine
 10
70.3338
 20
-0.1228295
 30
0.0
 11
71.9986
 21
-0.1227905
 31
0.0
  0
LINE
  5
49
330
1D
100
AcDbEntity
  8
0
100
AcDbLine
 10
68.6847
 20
-0.1228295
 30
0.0
 11
70.3338
 21
-0.1228295
 31
0.0
  0
LINE
  5
4D
330
1D
100
AcDbEntity
  8
0
100
AcDbLine
 10
66.0046
 20
-0.1228295
 30
0.0
 11
67.3339
 21
-0.1228295
 31
0.0
  0
LINE
  5
4E
330
1D
100
AcDbEntity
  8
0
100
AcDbLine
 10
65.9997
 20
-0.1227895
 30
0.0
 11
67.4675
 21
-0.1227895
 31
0.0
  0
LINE
  5
4F
330
1D
100
AcDbEntity
  8
0
100
AcDbLine
 10
68.9609
 20
-0.1227895
 30
0.0
 11
70.4734
 21
-0.1227895
 31
0.0
  0
LINE
  5
50
330
1D
100
AcDbEntity
  8
0
100
AcDbLine
 10
67.4675
 20
-0.1227895
 30
0.0
 11
68.9609
 21
-0.1227895
 31
0.0
  0
LINE
  5
66
330
1D
100
AcDbEntity
  8
0
100
AcDbLine
 10
70.4734
 20
-0.1227895
 30
0.0
 11
71.9986
 21
-0.1227895
 31
0.0
  0
LINE
  5
6A
330
1D
100
AcDbEntity
  8
0
100
AcDbLine
 10
53.5098
 20
-0.1232575
 30
0.0
 11
54.2521
 21
-0.1232575
 31
0.0
  0
LINE
  5
6B
330
1D
100
AcDbEntity
  8
0
100
AcDbLine
 10
52.1951
 20
-0.1228335
 30
0.0
 11
52.8218
 21
-0.1232575
 31
0.0
  0
LINE
  5
6C
330
1D
100
AcDbEntity
  8
0
100
AcDbLine
 10
42.0086
 20
16.0965575
 30
0.0
 11
43.0276
 21
14.6010575
 31
0.0
  0
LINE
  5
6D
330
1D
100
AcDbEntity
  8
0
100
AcDbLine
 10
44.038197997094
 20
12.949362809364
 30
0.0
 11
44.9403
 21
11.3148575
 31
0.0
  0
LINE
  5
6E
330
1D
100
AcDbEntity
  8
0
100
AcDbLine
 10
40.95979026877
 20
17.500215477267
 30
0.0
 11
42.0086
 21
16.0965575
 31
0.0
  0
LINE
  5
6F
330
1D
100
AcDbEntity
  8
0
100
AcDbLine
 10
38.4739
 20
20.4401575
 30
0.0
 11
39.7293
 21
19.0165575
 31
0.0
  0
LINE
  5
70
330
1D
100
AcDbEntity
  8
0
100
AcDbLine
 10
44.9403
 20
11.3148575
 30
0.0
 11
45.8128
 21
9.5243475
 31
0.0
  0
LINE
  5
71
330
1D
100
AcDbEntity
  8
0
100
AcDbLine
 10
45.8128
 20
9.5243475
 30
0.0
 11
46.6315
 21
7.6117975
 31
0.0
  0
LINE
  5
72
330
1D
100
AcDbEntity
  8
0
100
AcDbLine
 10
46.6315
 20
7.6117975
 30
0.0
 11
47.358
 21
5.6845275
 31
0.0
  0
LINE
  5
73
330
1D
100
AcDbEntity
  8
0
100
AcDbLine
 10
47.358
 20
5.6845275
 30
0.0
 11
48.3218
 21
2.7868875
 31
0.0
  0
LINE
  5
74
330
1D
100
AcDbEntity
  8
0
100
AcDbLine
 10
48.3218
 20
2.7868875
 30
0.0
 11
49.2363
 21
-0.1228335
 31
0.0
  0
LINE
  5
75
330
1D
100
AcDbEntity
  8
0
100
AcDbLine
 10
48.3218
 20
2.7868875
 30
0.0
 11
49.2363
 21
-0.1228335
 31
0.0
  0
LINE
  5
76
330
1D
100
AcDbEntity
  8
0
100
AcDbLine
 10
44.038197997094
 20
12.949362809364
 30
0.0
 11
44.9403
 21
11.3148575
 31
0.0
  0
LINE
  5
79
330
1D
100
AcDbEntity
  8
0
100
AcDbLine
 10
36.936627553144
 20
22.040713991896
 30
0.0
 11
38.4739
 21
20.4401575
 31
0.0
  0
LINE
  5
7B
330
1D
100
AcDbEntity
  8
0
100
AcDbLine
 10
34.1468
 20
24.7943575
 30
0.0
 11
34.285
 21
24.5828575
 31
0.0
  0
LINE
  5
7C
330
1D
100
AcDbEntity
  8
0
100
AcDbLine
 10
34.1297
 20
25.0463575
 30
0.0
 11
34.2379
 21
25.2746575
 31
0.0
  0
LINE
  5
7D
330
1D
100
AcDbEntity
  8
0
100
AcDbLine
 10
34.1297
 20
25.0463575
 30
0.0
 11
34.1468
 21
24.7943575
 31
0.0
  0
LINE
  5
7E
330
1D
100
AcDbEntity
  8
0
100
AcDbLine
 10
33.4861
 20
25.9485575
 30
0.0
 11
34.2522
 21
25.3057575
 31
0.0
  0
LINE
  5
8E
330
1D
100
AcDbEntity
  8
0
100
AcDbLine
 10
34.285
 20
24.5828575
 30
0.0
 11
37.1453
 21
21.8406575
 31
0.0
  0
LINE
  5
97
330
1D
100
AcDbEntity
  8
0
100
AcDbLine
 10
32.7096
 20
26.0020575
 30
0.0
 11
32.9548
 21
26.0325575
 31
0.0
  0
LINE
  5
98
330
1D
100
AcDbEntity
  8
0
100
AcDbLine
 10
33.1554
 20
26.1766575
 30
0.0
 11
33.197
 21
26.2261575
 31
0.0
  0
LINE
  5
A5
330
1D
100
AcDbEntity
  8
0
100
AcDbLine
 10
33.916611953331
 20
27.083867469189
 30
0.0
 11
34.222992498177
 21
26.826763795263
 31
0.0
  0
LINE
  5
18A
330
1D
100
AcDbEntity
  8
0
100
AcDbLine
 10
50.435592859912
 20
46.770370065465
 30
0.0
 11
50.742
 21
46.5132575
 31
0.0
  0
LINE
  5
19A
330
1D
100
AcDbEntity
  8
0
100
AcDbLine
 10
60.6327
 20
46.5954575
 30
0.0
 11
61.5383
 21
46.6097575
 31
0.0
  0
LINE
  5
19C
330
1D
100
AcDbEntity
  8
0
100
AcDbLine
 10
61.5383
 20
46.6097575
 30
0.0
 11
62.7355
 21
46.6438575
 31
0.0
  0
LINE
  5
19D
330
1D
100
AcDbEntity
  8
0
100
AcDbLine
 10
59.9966
 20
46.6249575
 30
0.0
 11
60.6327
 21
46.5954575
 31
0.0
  0
LINE
  5
19E
330
1D
100
AcDbEntity
  8
0
100
AcDbLine
 10
70.299
 20
46.6602575
 30
0.0
 11
71.9986
 21
46.6430575
 31
0.0
  0
LINE
  5
19F
330
1D
100
AcDbEntity
  8
0
100
AcDbLine
 10
64.0828
 20
46.6815575
 30
0.0
 11
65.5016
 21
46.7069575
 31
0.0
  0
LINE
  5
1A0
330
1D
100
AcDbEntity
  8
0
100
AcDbLine
 10
62.7355
 20
46.6438575
 30
0.0
 11
64.0828
 21
46.6815575
 31
0.0
  0
LINE
  5
1A2
330
1D
100
AcDbEntity
  8
0
100
AcDbLine
 10
59.4986
 20
46.7513579158
 30
0.0
 11
59.4986
 21
206.6272575
 31
0.0
  0
LINE
  5
1A3
330
1D
100
AcDbEntity
  8
0
100
AcDbLine
 10
59.2845
 20
46.8470575
 30
0.0
 11
59.5731
 21
46.7180575
 31
0.0
  0
LINE
  5
1A4
330
1D
100
AcDbEntity
  8
0
100
AcDbLine
 10
59.5731
 20
46.7180575
 30
0.0
 11
59.9966
 21
46.6249575
 31
0.0
  0
LINE
  5
1A5
330
1D
100
AcDbEntity
  8
0
100
AcDbLine
 10
65.5016
 20
46.7069575
 30
0.0
 11
67.0485
 21
46.7104575
 31
0.0
  0
LINE
  5
1A6
330
1D
100
AcDbEntity
  8
0
100
AcDbLine
 10
67.0485
 20
46.7104575
 30
0.0
 11
68.6445
 21
46.6905575
 31
0.0
  0
LINE
  5
1A7
330
1D
100
AcDbEntity
  8
0
100
AcDbLine
 10
68.6445
 20
46.6905575
 30
0.0
 11
70.299
 21
46.6602575
 31
0.0
  0
LINE
  5
1BA
330
1D
100
AcDbEntity
  8
0
100
AcDbLine
 10
52.4139
 20
46.9360575
 30
0.0
 11
52.5944
 21
47.0718575
 31
0.0
  0
LINE
  5
1C3
330
1D
100
AcDbEntity
  8
0
100
AcDbLine
 10
51.479
 20
47.3915575
 30
0.0
 11
52.245
 21
46.7487575
 31
0.0
  0
LINE
  5
1C5
330
1D
100
AcDbEntity
  8
0
100
AcDbLine
 10
52.5944
 20
47.0718575
 30
0.0
 11
52.8162
 21
47.1143575
 31
0.0
  0
LINE
  5
1C6
330
1D
100
AcDbEntity
  8
0
100
AcDbLine
 10
52.8162
 20
47.1143575
 30
0.0
 11
56.524
 21
46.9719575
 31
0.0
  0
LINE
  5
1D6
330
1D
100
AcDbEntity
  8
0
100
AcDbLine
 10
51.1968
 20
47.6775575
 30
0.0
 11
51.3039
 21
47.9001575
 31
0.0
  0
LINE
  5
1D7
330
1D
100
AcDbEntity
  8
0
100
AcDbLine
 10
51.1551
 20
47.6278575
 30
0.0
 11
51.1968
 21
47.6775575
 31
0.0
  0
LINE
  5
1DD
330
1D
100
AcDbEntity
  8
0
100
AcDbLine
 10
32.9548
 20
26.0325575
 30
0.0
 11
33.1554
 21
26.1766575
 31
0.0
  0
LINE
  5
1DE
330
1D
100
AcDbEntity
  8
0
100
AcDbLine
 10
32.4798
 20
26.0926575
 30
0.0
 11
32.7096
 21
26.0020575
 31
0.0
  0
LINE
  5
1DF
330
1D
100
AcDbEntity
  8
0
100
AcDbLine
 10
-0.0117
 20
49.6219575
 30
0.0
 11
0.2391
 21
49.3598575
 31
0.0
  0
LINE
  5
1E0
330
1D
100
AcDbEntity
  8
0
100
AcDbLine
 10
-0.1524
 20
49.9564575
 30
0.0
 11
-0.0117
 21
49.6219575
 31
0.0
  0
LINE
  5
1E1
330
1D
100
AcDbEntity
  8
0
100
AcDbLine
 10
-0.1524
 20
49.9564575
 30
0.0
 11
-0.0117
 21
49.6219575
 31
0.0
  0
LINE
  5
1E2
330
1D
100
AcDbEntity
  8
0
100
AcDbLine
 10
-0.0465
 20
50.6622575
 30
0.0
 11
0.05406971172
 21
50.828675098326
 31
0.0
  0
LINE
  5
1EA
330
1D
100
AcDbEntity
  8
0
100
AcDbLine
 10
-0.1646
 20
50.3191575
 30
0.0
 11
-0.0465
 21
50.6622575
 31
0.0
  0
LINE
  5
1EB
330
1D
100
AcDbEntity
  8
0
100
AcDbLine
 10
-0.1646
 20
50.3191575
 30
0.0
 11
-0.0465
 21
50.6622575
 31
0.0
  0
LINE
  5
1EC
330
1D
100
AcDbEntity
  8
0
100
AcDbLine
 10
-0.1646
 20
50.3191575
 30
0.0
 11
-0.1524
 21
49.9564575
 31
0.0
  0
LINE
  5
1ED
330
1D
100
AcDbEntity
  8
0
100
AcDbLine
 10
-0.0117
 20
49.6219575
 30
0.0
 11
0.2391
 21
49.3598575
 31
0.0
  0
LINE
  5
1EE
330
1D
100
AcDbEntity
  8
0
100
AcDbLine
 10
51.2913
 20
48.1468575
 30
0.0
 11
51.3039
 21
47.9001575
 31
0.0
  0
LINE
  5
1EF
330
1D
100
AcDbEntity
  8
0
100
AcDbLine
 10
0.2391
 20
49.3598575
 30
0.0
 11
32.4798
 21
26.0926575
 31
0.0
  0
LINE
  5
1F4
330
1D
100
AcDbEntity
  8
0
100
AcDbLine
 10
2.695529090509
 20
54.970759997506
 30
0.0
 11
2.9504
 21
55.3423575
 31
0.0
  0
LINE
  5
1F5
330
1D
100
AcDbEntity
  8
0
100
AcDbLine
 10
2.695529090509
 20
54.970759997506
 30
0.0
 11
2.9504
 21
55.3423575
 31
0.0
  0
LINE
  5
1F8
330
1D
100
AcDbEntity
  8
0
100
AcDbLine
 10
3.7543
 20
56.4562575
 30
0.0
 11
5.4085
 21
58.6501575
 31
0.0
  0
LINE
  5
1F9
330
1D
100
AcDbEntity
  8
0
100
AcDbLine
 10
9.7919
 20
64.1006575
 30
0.0
 11
12.0672
 21
66.7556575
 31
0.0
  0
LINE
  5
1FA
330
1D
100
AcDbEntity
  8
0
100
AcDbLine
 10
7.5723
 20
61.3988575
 30
0.0
 11
9.7919
 21
64.1006575
 31
0.0
  0
LINE
  5
1FB
330
1D
100
AcDbEntity
  8
0
100
AcDbLine
 10
14.3983
 20
69.3637575
 30
0.0
 11
16.2716
 21
71.3737575
 31
0.0
  0
LINE
  5
1FC
330
1D
100
AcDbEntity
  8
0
100
AcDbLine
 10
12.0672
 20
66.7556575
 30
0.0
 11
14.3983
 21
69.3637575
 31
0.0
  0
LINE
  5
209
330
1D
100
AcDbEntity
  8
0
100
AcDbLine
 10
21.3177
 20
76.1230575
 30
0.0
 11
21.6351
 21
76.2989575
 31
0.0
  0
LINE
  5
20D
330
1D
100
AcDbEntity
  8
0
100
AcDbLine
 10
16.2716
 20
71.3737575
 30
0.0
 11
16.5207
 21
71.6291575
 31
0.0
  0
LINE
  5
210
330
1D
100
AcDbEntity
  8
0
100
AcDbLine
 10
21.9944
 20
76.3499575
 30
0.0
 11
22.3482
 21
76.2694575
 31
0.0
  0
LINE
  5
211
330
1D
100
AcDbEntity
  8
0
100
AcDbLine
 10
21.6351
 20
76.2989575
 30
0.0
 11
21.9944
 21
76.3499575
 31
0.0
  0
LINE
  5
212
330
1D
100
AcDbEntity
  8
0
100
AcDbLine
 10
22.3482
 20
76.2694575
 30
0.0
 11
22.65
 21
76.0680575
 31
0.0
  0
LINE
  5
213
330
1D
100
AcDbEntity
  8
0
100
AcDbLine
 10
59.4986
 20
206.6272575
 30
0.0
 11
59.4986
 21
213.8982575
 31
0.0
  0
LINE
  5
214
330
1D
100
AcDbEntity
  8
0
100
AcDbLine
 10
59.4986
 20
206.6272575
 30
0.0
 11
59.4986
 21
46.7513579158
 31
0.0
  0
LINE
  5
215
330
1D
100
AcDbEntity
  8
0
100
AcDbLine
 10
68.427
 20
207.5732575
 30
0.0
 11
69.6247
 21
207.4462575
 31
0.0
  0
LINE
  5
216
330
1D
100
AcDbEntity
  8
0
100
AcDbLine
 10
67.266
 20
207.7512575
 30
0.0
 11
68.427
 21
207.5732575
 31
0.0
  0
LINE
  5
217
330
1D
100
AcDbEntity
  8
0
100
AcDbLine
 10
65.1015
 20
208.2512575
 30
0.0
 11
66.1539
 21
207.9782575
 31
0.0
  0
LINE
  5
218
330
1D
100
AcDbEntity
  8
0
100
AcDbLine
 10
66.1539
 20
207.9782575
 30
0.0
 11
67.266
 21
207.7512575
 31
0.0
  0
LINE
  5
219
330
1D
100
AcDbEntity
  8
0
100
AcDbLine
 10
70.8466
 20
207.3702575
 30
0.0
 11
72.0803
 21
207.3472575
 31
0.0
  0
LINE
  5
21A
330
1D
100
AcDbEntity
  8
0
100
AcDbLine
 10
69.6247
 20
207.4462575
 30
0.0
 11
70.8466
 21
207.3702575
 31
0.0
  0
LINE
  5
229
330
1D
100
AcDbEntity
  8
0
100
AcDbLine
 10
70.1482
 20
208.0422575
 30
0.0
 11
71.2905
 21
207.9842575
 31
0.0
  0
LINE
  5
22A
330
1D
100
AcDbEntity
  8
0
100
AcDbLine
 10
69.0276
 20
208.1532575
 30
0.0
 11
70.1482
 21
208.0422575
 31
0.0
  0
LINE
  5
22B
330
1D
100
AcDbEntity
  8
0
100
AcDbLine
 10
60.9445
 20
210.2672575
 30
0.0
 11
61.559
 21
209.8072575
 31
0.0
  0
LINE
  5
22C
330
1D
100
AcDbEntity
  8
0
100
AcDbLine
 10
60.4431
 20
210.7522575
 30
0.0
 11
60.9445
 21
210.2672575
 31
0.0
  0
LINE
  5
22D
330
1D
100
AcDbEntity
  8
0
100
AcDbLine
 10
59.5574
 20
212.4432575
 30
0.0
 11
59.6936
 21
211.9122575
 31
0.0
  0
LINE
  5
22E
330
1D
100
AcDbEntity
  8
0
100
AcDbLine
 10
59.6936
 20
211.9122575
 30
0.0
 11
59.9558
 21
211.3902575
 31
0.0
  0
LINE
  5
22F
330
1D
100
AcDbEntity
  8
0
100
AcDbLine
 10
59.9558
 20
211.3902575
 30
0.0
 11
60.3419
 21
210.8832575
 31
0.0
  0
LINE
  5
230
330
1D
100
AcDbEntity
  8
0
100
AcDbLine
 10
60.3419
 20
210.8832575
 30
0.0
 11
60.4431
 21
210.7522575
 31
0.0
  0
LINE
  5
231
330
1D
100
AcDbEntity
  8
0
100
AcDbLine
 10
61.42
 20
212.0352575
 30
0.0
 11
61.5918
 21
211.5552575
 31
0.0
  0
LINE
  5
232
330
1D
100
AcDbEntity
  8
0
100
AcDbLine
 10
59.5191
 20
212.6152575
 30
0.0
 11
59.5574
 21
212.4432575
 31
0.0
  0
LINE
  5
233
330
1D
100
AcDbEntity
  8
0
100
AcDbLine
 10
59.5108
 20
213.1502575
 30
0.0
 11
59.5191
 21
212.6152575
 31
0.0
  0
LINE
  5
234
330
1D
100
AcDbEntity
  8
0
100
AcDbLine
 10
61.372
 20
212.5212575
 30
0.0
 11
61.4488
 21
213.0062575
 31
0.0
  0
LINE
  5
235
330
1D
100
AcDbEntity
  8
0
100
AcDbLine
 10
61.372
 20
212.5212575
 30
0.0
 11
61.42
 21
212.0352575
 31
0.0
  0
LINE
  5
236
330
1D
100
AcDbEntity
  8
0
100
AcDbLine
 10
61.559
 20
209.8072575
 30
0.0
 11
62.2809
 21
209.3742575
 31
0.0
  0
LINE
  5
237
330
1D
100
AcDbEntity
  8
0
100
AcDbLine
 10
61.8859
 20
211.0842575
 30
0.0
 11
62.2983
 21
210.6302575
 31
0.0
  0
LINE
  5
238
330
1D
100
AcDbEntity
  8
0
100
AcDbLine
 10
61.5918
 20
211.5552575
 30
0.0
 11
61.8859
 21
211.0842575
 31
0.0
  0
LINE
  5
239
330
1D
100
AcDbEntity
  8
0
100
AcDbLine
 10
61.4488
 20
213.0062575
 30
0.0
 11
61.6491
 21
213.4852575
 31
0.0
  0
LINE
  5
23A
330
1D
100
AcDbEntity
  8
0
100
AcDbLine
 10
59.4986
 20
213.8982575
 30
0.0
 11
59.4986
 21
221.0892575
 31
0.0
  0
LINE
  5
23B
330
1D
100
AcDbEntity
  8
0
100
AcDbLine
 10
59.4986
 20
213.8982575
 30
0.0
 11
59.4986
 21
206.6272575
 31
0.0
  0
LINE
  5
23D
330
1D
100
AcDbEntity
  8
0
100
AcDbLine
 10
61.6491
 20
213.4852575
 30
0.0
 11
61.9708
 21
213.9522575
 31
0.0
  0
LINE
  5
23E
330
1D
100
AcDbEntity
  8
0
100
AcDbLine
 10
62.2809
 20
209.3742575
 30
0.0
 11
63.1024
 21
208.9762575
 31
0.0
  0
LINE
  5
23F
330
1D
100
AcDbEntity
  8
0
100
AcDbLine
 10
62.8248
 20
210.1982575
 30
0.0
 11
63.4584
 21
209.7922575
 31
0.0
  0
LINE
  5
240
330
1D
100
AcDbEntity
  8
0
100
AcDbLine
 10
62.2983
 20
210.6302575
 30
0.0
 11
62.8248
 21
210.1982575
 31
0.0
  0
LINE
  5
241
330
1D
100
AcDbEntity
  8
0
100
AcDbLine
 10
61.9708
 20
213.9522575
 30
0.0
 11
62.4101
 21
214.4022575
 31
0.0
  0
LINE
  5
242
330
1D
100
AcDbEntity
  8
0
100
AcDbLine
 10
62.4101
 20
214.4022575
 30
0.0
 11
62.9616
 21
214.8282575
 31
0.0
  0
LINE
  5
243
330
1D
100
AcDbEntity
  8
0
100
AcDbLine
 10
64.1198
 20
208.5682575
 30
0.0
 11
65.1015
 21
208.2512575
 31
0.0
  0
LINE
  5
244
330
1D
100
AcDbEntity
  8
0
100
AcDbLine
 10
63.2191
 20
208.9252575
 30
0.0
 11
64.1198
 21
208.5682575
 31
0.0
  0
LINE
  5
245
330
1D
100
AcDbEntity
  8
0
100
AcDbLine
 10
63.1024
 20
208.9762575
 30
0.0
 11
63.2191
 21
208.9252575
 31
0.0
  0
LINE
  5
246
330
1D
100
AcDbEntity
  8
0
100
AcDbLine
 10
64.1924
 20
209.4172575
 30
0.0
 11
65.0178
 21
209.0792575
 31
0.0
  0
LINE
  5
247
330
1D
100
AcDbEntity
  8
0
100
AcDbLine
 10
63.4584
 20
209.7922575
 30
0.0
 11
64.1924
 21
209.4172575
 31
0.0
  0
LINE
  5
248
330
1D
100
AcDbEntity
  8
0
100
AcDbLine
 10
62.9616
 20
214.8282575
 30
0.0
 11
63.6194
 21
215.2282575
 31
0.0
  0
LINE
  5
249
330
1D
100
AcDbEntity
  8
0
100
AcDbLine
 10
63.6194
 20
215.2282575
 30
0.0
 11
64.3753
 21
215.5942575
 31
0.0
  0
LINE
  5
24A
330
1D
100
AcDbEntity
  8
0
100
AcDbLine
 10
65.9251
 20
208.7792575
 30
0.0
 11
66.9036
 21
208.5242575
 31
0.0
  0
LINE
  5
24B
330
1D
100
AcDbEntity
  8
0
100
AcDbLine
 10
65.0178
 20
209.0792575
 30
0.0
 11
65.9251
 21
208.7792575
 31
0.0
  0
LINE
  5
24C
330
1D
100
AcDbEntity
  8
0
100
AcDbLine
 10
64.3753
 20
215.5942575
 30
0.0
 11
65.2204
 21
215.9242575
 31
0.0
  0
LINE
  5
24D
330
1D
100
AcDbEntity
  8
0
100
AcDbLine
 10
65.2204
 20
215.9242575
 30
0.0
 11
66.1452
 21
216.2142575
 31
0.0
  0
LINE
  5
24E
330
1D
100
AcDbEntity
  8
0
100
AcDbLine
 10
66.9036
 20
208.5242575
 30
0.0
 11
67.9418
 21
208.3142575
 31
0.0
  0
LINE
  5
24F
330
1D
100
AcDbEntity
  8
0
100
AcDbLine
 10
66.1452
 20
216.2142575
 30
0.0
 11
67.1387
 21
216.4592575
 31
0.0
  0
LINE
  5
250
330
1D
100
AcDbEntity
  8
0
100
AcDbLine
 10
67.1387
 20
216.4592575
 30
0.0
 11
68.1887
 21
216.6582575
 31
0.0
  0
LINE
  5
252
330
1D
100
AcDbEntity
  8
0
100
AcDbLine
 10
68.1887
 20
216.6582575
 30
0.0
 11
69.2837
 21
216.8072575
 31
0.0
  0
LINE
  5
253
330
1D
100
AcDbEntity
  8
0
100
AcDbLine
 10
69.2837
 20
216.8072575
 30
0.0
 11
70.4106
 21
216.9062575
 31
0.0
  0
LINE
  5
254
330
1D
100
AcDbEntity
  8
0
100
AcDbLine
 10
70.4106
 20
216.9062575
 30
0.0
 11
71.5561
 21
216.9522575
 31
0.0
  0
LINE
  5
255
330
1D
100
AcDbEntity
  8
0
100
AcDbLine
 10
59.4986
 20
221.0892575
 30
0.0
 11
59.4986
 21
228.1242575
 31
0.0
  0
LINE
  5
256
330
1D
100
AcDbEntity
  8
0
100
AcDbLine
 10
59.4986
 20
221.0892575
 30
0.0
 11
59.4986
 21
213.8982575
 31
0.0
  0
LINE
  5
257
330
1D
100
AcDbEntity
  8
0
100
AcDbLine
 10
59.4986
 20
228.1242575
 30
0.0
 11
59.4986
 21
234.9262575
 31
0.0
  0
LINE
  5
258
330
1D
100
AcDbEntity
  8
0
100
AcDbLine
 10
59.4986
 20
228.1242575
 30
0.0
 11
59.4986
 21
221.0892575
 31
0.0
  0
LINE
  5
259
330
1D
100
AcDbEntity
  8
0
100
AcDbLine
 10
59.5107
 20
230.6422575
 30
0.0
 11
59.6303
 21
231.1752575
 31
0.0
  0
LINE
  5
25A
330
1D
100
AcDbEntity
  8
0
100
AcDbLine
 10
59.5107
 20
230.6422575
 30
0.0
 11
59.5108
 21
213.1502575
 31
0.0
  0
LINE
  5
25B
330
1D
100
AcDbEntity
  8
0
100
AcDbLine
 10
59.6303
 20
231.1752575
 30
0.0
 11
59.877
 21
231.7002575
 31
0.0
  0
LINE
  5
25C
330
1D
100
AcDbEntity
  8
0
100
AcDbLine
 10
59.877
 20
231.7002575
 30
0.0
 11
60.2478
 21
232.2112575
 31
0.0
  0
LINE
  5
25D
330
1D
100
AcDbEntity
  8
0
100
AcDbLine
 10
59.4986
 20
230.7732575
 30
0.0
 11
59.9245
 21
232.1402575
 31
0.0
  0
LINE
  5
25E
330
1D
100
AcDbEntity
  8
0
100
AcDbLine
 10
59.4986
 20
230.7732575
 30
0.0
 11
59.522714607538
 21
230.695800859681
 31
0.0
  0
LINE
  5
25F
330
1D
100
AcDbEntity
  8
0
100
AcDbLine
 10
59.4986
 20
230.7732575
 30
0.0
 11
59.4986
 21
236.2102575
 31
0.0
  0
LINE
  5
260
330
1D
100
AcDbEntity
  8
0
100
AcDbLine
 10
60.2478
 20
232.2112575
 30
0.0
 11
60.7394
 21
232.7052575
 31
0.0
  0
LINE
  5
261
330
1D
100
AcDbEntity
  8
0
100
AcDbLine
 10
59.4986
 20
234.9262575
 30
0.0
 11
59.4986
 21
241.4232575
 31
0.0
  0
LINE
  5
262
330
1D
100
AcDbEntity
  8
0
100
AcDbLine
 10
59.4986
 20
234.9262575
 30
0.0
 11
59.4986
 21
228.1242575
 31
0.0
  0
LINE
  5
263
330
1D
100
AcDbEntity
  8
0
100
AcDbLine
 10
60.7394
 20
232.7052575
 30
0.0
 11
61.3465
 21
233.1742575
 31
0.0
  0
LINE
  5
264
330
1D
100
AcDbEntity
  8
0
100
AcDbLine
 10
60.7394
 20
232.7052575
 30
0.0
 11
60.9195
 21
232.8492575
 31
0.0
  0
LINE
  5
265
330
1D
100
AcDbEntity
  8
0
100
AcDbLine
 10
60.9195
 20
232.8492575
 30
0.0
 11
61.5169
 21
233.3112575
 31
0.0
  0
LINE
  5
266
330
1D
100
AcDbEntity
  8
0
100
AcDbLine
 10
59.9245
 20
232.1402575
 30
0.0
 11
61.1733
 21
233.4142575
 31
0.0
  0
LINE
  5
267
330
1D
100
AcDbEntity
  8
0
100
AcDbLine
 10
61.3465
 20
233.1742575
 30
0.0
 11
62.0628
 21
233.6152575
 31
0.0
  0
LINE
  5
268
330
1D
100
AcDbEntity
  8
0
100
AcDbLine
 10
62.0628
 20
233.6152575
 30
0.0
 11
62.8811
 21
234.0242575
 31
0.0
  0
LINE
  5
269
330
1D
100
AcDbEntity
  8
0
100
AcDbLine
 10
62.8811
 20
234.0242575
 30
0.0
 11
63.7931
 21
234.3952575
 31
0.0
  0
LINE
  5
26A
330
1D
100
AcDbEntity
  8
0
100
AcDbLine
 10
63.1596
 20
234.5082575
 30
0.0
 11
65.7485
 21
235.3472575
 31
0.0
  0
LINE
  5
26B
330
1D
100
AcDbEntity
  8
0
100
AcDbLine
 10
63.7931
 20
234.3952575
 30
0.0
 11
64.7891
 21
234.7252575
 31
0.0
  0
LINE
  5
26C
330
1D
100
AcDbEntity
  8
0
100
AcDbLine
 10
64.7891
 20
234.7252575
 30
0.0
 11
65.859
 21
235.0122575
 31
0.0
  0
LINE
  5
26D
330
1D
100
AcDbEntity
  8
0
100
AcDbLine
 10
65.7485
 20
235.3472575
 30
0.0
 11
68.7633
 21
235.8752575
 31
0.0
  0
LINE
  5
26E
330
1D
100
AcDbEntity
  8
0
100
AcDbLine
 10
65.859
 20
235.0122575
 30
0.0
 11
66.9921
 21
235.2502575
 31
0.0
  0
LINE
  5
26F
330
1D
100
AcDbEntity
  8
0
100
AcDbLine
 10
66.9921
 20
235.2502575
 30
0.0
 11
68.1768
 21
235.4402575
 31
0.0
  0
LINE
  5
270
330
1D
100
AcDbEntity
  8
0
100
AcDbLine
 10
68.1768
 20
235.4402575
 30
0.0
 11
69.4003
 21
235.5772575
 31
0.0
  0
LINE
  5
271
330
1D
100
AcDbEntity
  8
0
100
AcDbLine
 10
67.0722
 20
235.3542575
 30
0.0
 11
68.2377
 21
235.5402575
 31
0.0
  0
LINE
  5
272
330
1D
100
AcDbEntity
  8
0
100
AcDbLine
 10
65.9574
 20
235.1192575
 30
0.0
 11
67.0722
 21
235.3542575
 31
0.0
  0
LINE
  5
273
330
1D
100
AcDbEntity
  8
0
100
AcDbLine
 10
64.9045
 20
234.8382575
 30
0.0
 11
65.9574
 21
235.1192575
 31
0.0
  0
LINE
  5
274
330
1D
100
AcDbEntity
  8
0
100
AcDbLine
 10
63.9245
 20
234.5132575
 30
0.0
 11
64.9045
 21
234.8382575
 31
0.0
  0
LINE
  5
275
330
1D
100
AcDbEntity
  8
0
100
AcDbLine
 10
63.0271
 20
234.1472575
 30
0.0
 11
63.9245
 21
234.5132575
 31
0.0
  0
LINE
  5
276
330
1D
100
AcDbEntity
  8
0
100
AcDbLine
 10
62.2218
 20
233.7452575
 30
0.0
 11
63.0271
 21
234.1472575
 31
0.0
  0
LINE
  5
277
330
1D
100
AcDbEntity
  8
0
100
AcDbLine
 10
61.5169
 20
233.3112575
 30
0.0
 11
62.2218
 21
233.7452575
 31
0.0
  0
LINE
  5
278
330
1D
100
AcDbEntity
  8
0
100
AcDbLine
 10
61.1733
 20
233.4142575
 30
0.0
 11
63.1596
 21
234.5082575
 31
0.0
  0
LINE
  5
279
330
1D
100
AcDbEntity
  8
0
100
AcDbLine
 10
69.4003
 20
235.5772575
 30
0.0
 11
70.6507
 21
235.6622575
 31
0.0
  0
LINE
  5
27A
330
1D
100
AcDbEntity
  8
0
100
AcDbLine
 10
70.6507
 20
235.6622575
 30
0.0
 11
71.9146
 21
235.6932575
 31
0.0
  0
LINE
  5
27B
330
1D
100
AcDbEntity
  8
0
100
AcDbLine
 10
59.4986
 20
236.2102575
 30
0.0
 11
59.4986
 21
242.6392575
 31
0.0
  0
LINE
  5
27C
330
1D
100
AcDbEntity
  8
0
100
AcDbLine
 10
59.4986
 20
236.2102575
 30
0.0
 11
59.4986
 21
230.7732575
 31
0.0
  0
LINE
  5
27D
330
1D
100
AcDbEntity
  8
0
100
AcDbLine
 10
59.4986
 20
242.6392575
 30
0.0
 11
59.4986
 21
236.2102575
 31
0.0
  0
LINE
  5
27E
330
1D
100
AcDbEntity
  8
0
100
AcDbLine
 10
59.4986
 20
242.6392575
 30
0.0
 11
59.4986
 21
248.6792575
 31
0.0
  0
LINE
  5
27F
330
1D
100
AcDbEntity
  8
0
100
AcDbLine
 10
59.4986
 20
253.2222575
 30
0.0
 11
59.4986
 21
258.3952575
 31
0.0
  0
LINE
  5
280
330
1D
100
AcDbEntity
  8
0
100
AcDbLine
 10
59.4986
 20
253.2222575
 30
0.0
 11
59.4986
 21
247.5432575
 31
0.0
  0
LINE
  5
281
330
1D
100
AcDbEntity
  8
0
100
AcDbLine
 10
59.4986
 20
258.3952575
 30
0.0
 11
59.4986
 21
263.0092575
 31
0.0
  0
LINE
  5
282
330
1D
100
AcDbEntity
  8
0
100
AcDbLine
 10
59.4986
 20
258.3952575
 30
0.0
 11
59.4986
 21
253.2222575
 31
0.0
  0
LINE
  5
283
330
1D
100
AcDbEntity
  8
0
100
AcDbLine
 10
59.4986
 20
263.0092575
 30
0.0
 11
59.4986
 21
267.0122575
 31
0.0
  0
LINE
  5
284
330
1D
100
AcDbEntity
  8
0
100
AcDbLine
 10
59.4986
 20
263.0092575
 30
0.0
 11
59.4986
 21
258.3952575
 31
0.0
  0
LINE
  5
285
330
1D
100
AcDbEntity
  8
0
100
AcDbLine
 10
59.4986
 20
267.0122575
 30
0.0
 11
59.4986
 21
270.3632575
 31
0.0
  0
LINE
  5
286
330
1D
100
AcDbEntity
  8
0
100
AcDbLine
 10
59.4986
 20
267.0122575
 30
0.0
 11
59.4986
 21
263.0092575
 31
0.0
  0
LINE
  5
287
330
1D
100
AcDbEntity
  8
0
100
AcDbLine
 10
59.4986
 20
270.3632575
 30
0.0
 11
59.4986
 21
273.0242575
 31
0.0
  0
LINE
  5
288
330
1D
100
AcDbEntity
  8
0
100
AcDbLine
 10
59.4986
 20
270.3632575
 30
0.0
 11
59.4986
 21
267.0122575
 31
0.0
  0
LINE
  5
289
330
1D
100
AcDbEntity
  8
0
100
AcDbLine
 10
59.4986
 20
263.8322575
 30
0.0
 11
59.4986
 21
259.3332575
 31
0.0
  0
LINE
  5
28A
330
1D
100
AcDbEntity
  8
0
100
AcDbLine
 10
59.4986
 20
263.8322575
 30
0.0
 11
59.4986
 21
267.7132575
 31
0.0
  0
LINE
  5
28B
330
1D
100
AcDbEntity
  8
0
100
AcDbLine
 10
59.4986
 20
259.3332575
 30
0.0
 11
59.4986
 21
254.2642575
 31
0.0
  0
LINE
  5
28C
330
1D
100
AcDbEntity
  8
0
100
AcDbLine
 10
59.4986
 20
259.3332575
 30
0.0
 11
59.4986
 21
263.8322575
 31
0.0
  0
LINE
  5
28D
330
1D
100
AcDbEntity
  8
0
100
AcDbLine
 10
59.4986
 20
254.2642575
 30
0.0
 11
59.4986
 21
248.6792575
 31
0.0
  0
LINE
  5
28E
330
1D
100
AcDbEntity
  8
0
100
AcDbLine
 10
59.4986
 20
254.2642575
 30
0.0
 11
59.4986
 21
259.3332575
 31
0.0
  0
LINE
  5
28F
330
1D
100
AcDbEntity
  8
0
100
AcDbLine
 10
59.4986
 20
248.6792575
 30
0.0
 11
59.4986
 21
242.6392575
 31
0.0
  0
LINE
  5
290
330
1D
100
AcDbEntity
  8
0
100
AcDbLine
 10
59.4986
 20
248.6792575
 30
0.0
 11
59.4986
 21
254.2642575
 31
0.0
  0
LINE
  5
291
330
1D
100
AcDbEntity
  8
0
100
AcDbLine
 10
59.4986
 20
247.5432575
 30
0.0
 11
59.4986
 21
241.4232575
 31
0.0
  0
LINE
  5
292
330
1D
100
AcDbEntity
  8
0
100
AcDbLine
 10
59.4986
 20
247.5432575
 30
0.0
 11
59.4986
 21
253.2222575
 31
0.0
  0
LINE
  5
293
330
1D
100
AcDbEntity
  8
0
100
AcDbLine
 10
59.4986
 20
241.4232575
 30
0.0
 11
59.4986
 21
247.5432575
 31
0.0
  0
LINE
  5
294
330
1D
100
AcDbEntity
  8
0
100
AcDbLine
 10
59.4986
 20
241.4232575
 30
0.0
 11
59.4986
 21
234.9262575
 31
0.0
  0
LINE
  5
295
330
1D
100
AcDbEntity
  8
0
100
AcDbLine
 10
59.4986
 20
273.0242575
 30
0.0
 11
59.4986
 21
274.9682575
 31
0.0
  0
LINE
  5
296
330
1D
100
AcDbEntity
  8
0
100
AcDbLine
 10
59.4986
 20
273.0242575
 30
0.0
 11
59.4986
 21
270.3632575
 31
0.0
  0
LINE
  5
297
330
1D
100
AcDbEntity
  8
0
100
AcDbLine
 10
59.4986
 20
273.4572575
 30
0.0
 11
59.4986
 21
270.9332575
 31
0.0
  0
LINE
  5
298
330
1D
100
AcDbEntity
  8
0
100
AcDbLine
 10
59.4986
 20
273.4572575
 30
0.0
 11
59.4986
 21
275.2582575
 31
0.0
  0
LINE
  5
299
330
1D
100
AcDbEntity
  8
0
100
AcDbLine
 10
59.4986
 20
270.9332575
 30
0.0
 11
59.4986
 21
267.7132575
 31
0.0
  0
LINE
  5
29A
330
1D
100
AcDbEntity
  8
0
100
AcDbLine
 10
59.4986
 20
270.9332575
 30
0.0
 11
59.4986
 21
273.4572575
 31
0.0
  0
LINE
  5
29B
330
1D
100
AcDbEntity
  8
0
100
AcDbLine
 10
59.4986
 20
267.7132575
 30
0.0
 11
59.4986
 21
270.9332575
 31
0.0
  0
LINE
  5
29C
330
1D
100
AcDbEntity
  8
0
100
AcDbLine
 10
59.4986
 20
267.7132575
 30
0.0
 11
59.4986
 21
263.8322575
 31
0.0
  0
LINE
  5
29D
330
1D
100
AcDbEntity
  8
0
100
AcDbLine
 10
59.4986
 20
276.6232575
 30
0.0
 11
59.4986
 21
276.3182575
 31
0.0
  0
LINE
  5
29E
330
1D
100
AcDbEntity
  8
0
100
AcDbLine
 10
59.4986
 20
276.6232575
 30
0.0
 11
59.9245
 21
279.8582575
 31
0.0
  0
LINE
  5
29F
330
1D
100
AcDbEntity
  8
0
100
AcDbLine
 10
59.4986
 20
276.6232575
 30
0.0
 11
59.4986
 21
276.1722575
 31
0.0
  0
LINE
  5
2A0
330
1D
100
AcDbEntity
  8
0
100
AcDbLine
 10
59.4986
 20
276.3182575
 30
0.0
 11
59.4986
 21
275.2582575
 31
0.0
  0
LINE
  5
2A1
330
1D
100
AcDbEntity
  8
0
100
AcDbLine
 10
59.4986
 20
276.3182575
 30
0.0
 11
59.4986
 21
276.6232575
 31
0.0
  0
LINE
  5
2A2
330
1D
100
AcDbEntity
  8
0
100
AcDbLine
 10
59.4986
 20
275.2582575
 30
0.0
 11
59.4986
 21
273.4572575
 31
0.0
  0
LINE
  5
2A3
330
1D
100
AcDbEntity
  8
0
100
AcDbLine
 10
59.4986
 20
275.2582575
 30
0.0
 11
59.4986
 21
276.3182575
 31
0.0
  0
LINE
  5
2A4
330
1D
100
AcDbEntity
  8
0
100
AcDbLine
 10
59.4986
 20
274.9682575
 30
0.0
 11
59.4986
 21
276.1722575
 31
0.0
  0
LINE
  5
2A5
330
1D
100
AcDbEntity
  8
0
100
AcDbLine
 10
59.4986
 20
274.9682575
 30
0.0
 11
59.4986
 21
273.0242575
 31
0.0
  0
LINE
  5
2A6
330
1D
100
AcDbEntity
  8
0
100
AcDbLine
 10
59.9245
 20
279.8582575
 30
0.0
 11
61.1733
 21
282.8732575
 31
0.0
  0
LINE
  5
2A7
330
1D
100
AcDbEntity
  8
0
100
AcDbLine
 10
61.1733
 20
282.8732575
 30
0.0
 11
63.1598
 21
285.4622575
 31
0.0
  0
LINE
  5
2A8
330
1D
100
AcDbEntity
  8
0
100
AcDbLine
 10
63.1598
 20
285.4622575
 30
0.0
 11
65.7487
 21
287.4492575
 31
0.0
  0
LINE
  5
2A9
330
1D
100
AcDbEntity
  8
0
100
AcDbLine
 10
68.7633
 20
235.8752575
 30
0.0
 11
71.9986
 21
236.0552575
 31
0.0
  0
LINE
  5
2AA
330
1D
100
AcDbEntity
  8
0
100
AcDbLine
 10
65.7487
 20
287.4492575
 30
0.0
 11
68.7633
 21
288.6972575
 31
0.0
  0
LINE
  5
2AB
330
1D
100
AcDbEntity
  8
0
100
AcDbLine
 10
68.7633
 20
288.6972575
 30
0.0
 11
71.9986
 21
289.1232575
 31
0.0
  0
LINE
  5
2AC
330
1D
100
AcDbEntity
  8
0
100
AcDbLine
 10
59.4986
 20
276.1722575
 30
0.0
 11
59.4986
 21
274.9682575
 31
0.0
  0
LINE
  5
2AD
330
1D
100
AcDbEntity
  8
0
100
AcDbLine
 10
59.4986
 20
276.1722575
 30
0.0
 11
59.4986
 21
276.6232575
 31
0.0
  0
LINE
  5
2AE
330
1D
100
AcDbEntity
  8
0
100
AcDbLine
 10
69.442
 20
235.6762575
 30
0.0
 11
70.6722
 21
235.7592575
 31
0.0
  0
LINE
  5
2AF
330
1D
100
AcDbEntity
  8
0
100
AcDbLine
 10
70.6722
 20
235.7592575
 30
0.0
 11
71.9159
 21
235.7892575
 31
0.0
  0
LINE
  5
2B0
330
1D
100
AcDbEntity
  8
0
100
AcDbLine
 10
68.2377
 20
235.5402575
 30
0.0
 11
69.442
 21
235.6762575
 31
0.0
  0
LINE
  5
323
330
1D
100
AcDbEntity
  8
0
100
AcDbLine
 10
67.9418
 20
208.3142575
 30
0.0
 11
69.0276
 21
208.1532575
 31
0.0
  0
LINE
  5
324
330
1D
100
AcDbEntity
  8
0
100
AcDbLine
 10
22.65
 20
76.0680575
 30
0.0
 11
51.1623
 21
48.3573575
 31
0.0
  0
LINE
  5
325
330
1D
100
AcDbEntity
  8
0
100
AcDbLine
 10
5.4085
 20
58.6501575
 30
0.0
 11
7.5723
 21
61.3988575
 31
0.0
  0
LINE
  5
326
330
1D
100
AcDbEntity
  8
0
100
AcDbLine
 10
2.9504
 20
55.3423575
 30
0.0
 11
3.7543
 21
56.4562575
 31
0.0
  0
LINE
  5
327
330
1D
100
AcDbEntity
  8
0
100
AcDbLine
 10
51.1623
 20
48.3573575
 30
0.0
 11
51.2913
 21
48.1468575
 31
0.0
  0
LINE
  5
328
330
1D
100
AcDbEntity
  8
0
100
AcDbLine
 10
0.2391
 20
49.3598575
 30
0.0
 11
32.4798
 21
26.0926575
 31
0.0
  0
LINE
  5
471
330
1D
100
AcDbEntity
  8
0
100
AcDbLine
 10
44.038197997094
 20
12.949362809364
 30
0.0
 11
43.0276
 21
14.6010575
 31
0.0
  0
LINE
  5
472
330
1D
100
AcDbEntity
  8
0
100
AcDbLine
 10
40.95979026877
 20
17.500215477267
 30
0.0
 11
39.7293
 21
19.0165575
 31
0.0
  0
LINE
  5
473
330
1D
100
AcDbEntity
  8
0
100
AcDbLine
 10
21.3177
 20
76.1230575
 30
0.0
 11
16.5207
 21
71.6291575
 31
0.0
  0
LINE
  5
474
330
1D
100
AcDbEntity
  8
0
100
AcDbLine
 10
0.05406971172
 20
50.828675098326
 30
0.0
 11
2.695529090509
 21
54.970759997506
 31
0.0
  0
LINE
  5
475
330
1D
100
AcDbEntity
  8
0
100
AcDbLine
 10
56.524
 20
46.9719575
 30
0.0
 11
59.2845
 21
46.8470575
 31
0.0
  0
LINE
  5
476
330
1D
100
AcDbEntity
  8
0
100
AcDbLine
 10
51.1551
 20
47.6278575
 30
0.0
 11
33.197
 21
26.2261575
 31
0.0
  0
LINE
  5
477
330
1D
100
AcDbEntity
  8
0
100
AcDbLine
 10
33.4861
 20
25.9485575
 30
0.0
 11
51.479
 21
47.3915575
 31
0.0
  0
LINE
  5
478
330
1D
100
AcDbEntity
  8
0
100
AcDbLine
 10
52.4139
 20
46.9360575
 30
0.0
 11
34.2379
 21
25.2746575
 31
0.0
  0
LINE
  5
479
330
1D
100
AcDbEntity
  8
0
100
AcDbLine
 10
84.5014
 20
46.7513579158
 30
0.0
 11
84.5014
 21
206.6272575
 31
0.0
  0
LINE
  5
47A
330
1D
100
AcDbEntity
  8
0
100
AcDbLine
 10
84.5014
 20
206.6272575
 30
0.0
 11
84.5014
 21
46.7513579158
 31
0.0
  0
LINE
  5
47B
330
1D
100
AcDbEntity
  8
0
100
AcDbLine
 10
121.35
 20
76.0680575
 30
0.0
 11
92.8377
 21
48.3573575
 31
0.0
  0
LINE
  5
47C
330
1D
100
AcDbEntity
  8
0
100
AcDbLine
 10
122.6823
 20
76.1230575
 30
0.0
 11
127.4793
 21
71.6291575
 31
0.0
  0
LINE
  5
47D
330
1D
100
AcDbEntity
  8
0
100
AcDbLine
 10
109.715
 20
24.5828575
 30
0.0
 11
106.8547
 21
21.8406575
 31
0.0
  0
LINE
  5
47E
330
1D
100
AcDbEntity
  8
0
100
AcDbLine
 10
92.8449
 20
47.6278575
 30
0.0
 11
110.803
 21
26.2261575
 31
0.0
  0
LINE
  5
47F
330
1D
100
AcDbEntity
  8
0
100
AcDbLine
 10
110.5139
 20
25.9485575
 30
0.0
 11
92.521
 21
47.3915575
 31
0.0
  0
LINE
  5
480
330
1D
100
AcDbEntity
  8
0
100
AcDbLine
 10
91.5861
 20
46.9360575
 30
0.0
 11
109.7621
 21
25.2746575
 31
0.0
  0
LINE
  5
481
330
1D
100
AcDbEntity
  8
0
100
AcDbLine
 10
143.7609
 20
49.3598575
 30
0.0
 11
111.5202
 21
26.0926575
 31
0.0
  0
LINE
  5
482
330
1D
100
AcDbEntity
  8
0
100
AcDbLine
 10
143.7609
 20
49.3598575
 30
0.0
 11
111.5202
 21
26.0926575
 31
0.0
  0
LINE
  5
483
330
1D
100
AcDbEntity
  8
0
100
AcDbLine
 10
110.083388046669
 20
27.083867469189
 30
0.0
 11
109.777007501823
 21
26.826763795263
 31
0.0
  0
LINE
  5
484
330
1D
100
AcDbEntity
  8
0
100
AcDbLine
 10
110.5139
 20
25.9485575
 30
0.0
 11
109.7478
 21
25.3057575
 31
0.0
  0
LINE
  5
485
330
1D
100
AcDbEntity
  8
0
100
AcDbLine
 10
111.2904
 20
26.0020575
 30
0.0
 11
111.0452
 21
26.0325575
 31
0.0
  0
LINE
  5
486
330
1D
100
AcDbEntity
  8
0
100
AcDbLine
 10
110.8446
 20
26.1766575
 30
0.0
 11
110.803
 21
26.2261575
 31
0.0
  0
LINE
  5
487
330
1D
100
AcDbEntity
  8
0
100
AcDbLine
 10
111.0452
 20
26.0325575
 30
0.0
 11
110.8446
 21
26.1766575
 31
0.0
  0
LINE
  5
488
330
1D
100
AcDbEntity
  8
0
100
AcDbLine
 10
111.5202
 20
26.0926575
 30
0.0
 11
111.2904
 21
26.0020575
 31
0.0
  0
LINE
  5
489
330
1D
100
AcDbEntity
  8
0
100
AcDbLine
 10
109.8532
 20
24.7943575
 30
0.0
 11
109.715
 21
24.5828575
 31
0.0
  0
LINE
  5
48A
330
1D
100
AcDbEntity
  8
0
100
AcDbLine
 10
109.8703
 20
25.0463575
 30
0.0
 11
109.7621
 21
25.2746575
 31
0.0
  0
LINE
  5
48B
330
1D
100
AcDbEntity
  8
0
100
AcDbLine
 10
109.8703
 20
25.0463575
 30
0.0
 11
109.8532
 21
24.7943575
 31
0.0
  0
LINE
  5
48C
330
1D
100
AcDbEntity
  8
0
100
AcDbLine
 10
143.94593028828
 20
50.828675098326
 30
0.0
 11
141.304470909491
 21
54.970759997506
 31
0.0
  0
LINE
  5
48D
330
1D
100
AcDbEntity
  8
0
100
AcDbLine
 10
144.0117
 20
49.6219575
 30
0.0
 11
143.7609
 21
49.3598575
 31
0.0
  0
LINE
  5
48E
330
1D
100
AcDbEntity
  8
0
100
AcDbLine
 10
144.1524
 20
49.9564575
 30
0.0
 11
144.0117
 21
49.6219575
 31
0.0
  0
LINE
  5
48F
330
1D
100
AcDbEntity
  8
0
100
AcDbLine
 10
144.1524
 20
49.9564575
 30
0.0
 11
144.0117
 21
49.6219575
 31
0.0
  0
LINE
  5
490
330
1D
100
AcDbEntity
  8
0
100
AcDbLine
 10
144.0465
 20
50.6622575
 30
0.0
 11
143.94593028828
 21
50.828675098326
 31
0.0
  0
LINE
  5
491
330
1D
100
AcDbEntity
  8
0
100
AcDbLine
 10
144.1646
 20
50.3191575
 30
0.0
 11
144.0465
 21
50.6622575
 31
0.0
  0
LINE
  5
492
330
1D
100
AcDbEntity
  8
0
100
AcDbLine
 10
144.1646
 20
50.3191575
 30
0.0
 11
144.0465
 21
50.6622575
 31
0.0
  0
LINE
  5
493
330
1D
100
AcDbEntity
  8
0
100
AcDbLine
 10
144.1646
 20
50.3191575
 30
0.0
 11
144.1524
 21
49.9564575
 31
0.0
  0
LINE
  5
494
330
1D
100
AcDbEntity
  8
0
100
AcDbLine
 10
144.0117
 20
49.6219575
 30
0.0
 11
143.7609
 21
49.3598575
 31
0.0
  0
LINE
  5
495
330
1D
100
AcDbEntity
  8
0
100
AcDbLine
 10
141.304470909491
 20
54.970759997506
 30
0.0
 11
141.0496
 21
55.3423575
 31
0.0
  0
LINE
  5
496
330
1D
100
AcDbEntity
  8
0
100
AcDbLine
 10
141.304470909491
 20
54.970759997506
 30
0.0
 11
141.0496
 21
55.3423575
 31
0.0
  0
LINE
  5
497
330
1D
100
AcDbEntity
  8
0
100
AcDbLine
 10
140.2457
 20
56.4562575
 30
0.0
 11
138.5915
 21
58.6501575
 31
0.0
  0
LINE
  5
498
330
1D
100
AcDbEntity
  8
0
100
AcDbLine
 10
134.2081
 20
64.1006575
 30
0.0
 11
131.9328
 21
66.7556575
 31
0.0
  0
LINE
  5
499
330
1D
100
AcDbEntity
  8
0
100
AcDbLine
 10
136.4277
 20
61.3988575
 30
0.0
 11
134.2081
 21
64.1006575
 31
0.0
  0
LINE
  5
49A
330
1D
100
AcDbEntity
  8
0
100
AcDbLine
 10
129.6017
 20
69.3637575
 30
0.0
 11
127.7284
 21
71.3737575
 31
0.0
  0
LINE
  5
49B
330
1D
100
AcDbEntity
  8
0
100
AcDbLine
 10
131.9328
 20
66.7556575
 30
0.0
 11
129.6017
 21
69.3637575
 31
0.0
  0
LINE
  5
49C
330
1D
100
AcDbEntity
  8
0
100
AcDbLine
 10
127.7284
 20
71.3737575
 30
0.0
 11
127.4793
 21
71.6291575
 31
0.0
  0
LINE
  5
49D
330
1D
100
AcDbEntity
  8
0
100
AcDbLine
 10
138.5915
 20
58.6501575
 30
0.0
 11
136.4277
 21
61.3988575
 31
0.0
  0
LINE
  5
49E
330
1D
100
AcDbEntity
  8
0
100
AcDbLine
 10
141.0496
 20
55.3423575
 30
0.0
 11
140.2457
 21
56.4562575
 31
0.0
  0
LINE
  5
49F
330
1D
100
AcDbEntity
  8
0
100
AcDbLine
 10
90.4844
 20
-0.1232185
 30
0.0
 11
89.7384
 21
-0.1232185
 31
0.0
  0
LINE
  5
4A0
330
1D
100
AcDbEntity
  8
0
100
AcDbLine
 10
90.4902
 20
-0.1232575
 30
0.0
 11
89.7479
 21
-0.1232575
 31
0.0
  0
LINE
  5
4A1
330
1D
100
AcDbEntity
  8
0
100
AcDbLine
 10
103.04020973123
 20
17.500215477267
 30
0.0
 11
104.2707
 21
19.0165575
 31
0.0
  0
LINE
  5
4A2
330
1D
100
AcDbEntity
  8
0
100
AcDbLine
 10
94.6412
 20
-0.1229145
 30
0.0
 11
94.2795
 21
-0.1229145
 31
0.0
  0
LINE
  5
4A3
330
1D
100
AcDbEntity
  8
0
100
AcDbLine
 10
94.2795
 20
-0.1229145
 30
0.0
 11
93.6828
 21
-0.1229145
 31
0.0
  0
LINE
  5
4A4
330
1D
100
AcDbEntity
  8
0
100
AcDbLine
 10
93.6828
 20
-0.1229145
 30
0.0
 11
92.8564
 21
-0.1229145
 31
0.0
  0
LINE
  5
4A5
330
1D
100
AcDbEntity
  8
0
100
AcDbLine
 10
92.8564
 20
-0.1229145
 30
0.0
 11
91.8099
 21
-0.1229145
 31
0.0
  0
LINE
  5
4A6
330
1D
100
AcDbEntity
  8
0
100
AcDbLine
 10
94.7637
 20
-0.1228335
 30
0.0
 11
94.6412
 21
-0.1229145
 31
0.0
  0
LINE
  5
4A7
330
1D
100
AcDbEntity
  8
0
100
AcDbLine
 10
91.1782
 20
-0.1232575
 30
0.0
 11
90.4902
 21
-0.1232575
 31
0.0
  0
LINE
  5
4A8
330
1D
100
AcDbEntity
  8
0
100
AcDbLine
 10
91.799
 20
-0.1224895
 30
0.0
 11
91.1753
 21
-0.1232185
 31
0.0
  0
LINE
  5
4A9
330
1D
100
AcDbEntity
  8
0
100
AcDbLine
 10
91.1753
 20
-0.1232185
 30
0.0
 11
90.4844
 21
-0.1232185
 31
0.0
  0
LINE
  5
4AA
330
1D
100
AcDbEntity
  8
0
100
AcDbLine
 10
91.8049
 20
-0.1228335
 30
0.0
 11
91.1782
 21
-0.1232575
 31
0.0
  0
LINE
  5
4AB
330
1D
100
AcDbEntity
  8
0
100
AcDbLine
 10
101.9914
 20
16.0965575
 30
0.0
 11
100.9724
 21
14.6010575
 31
0.0
  0
LINE
  5
4AC
330
1D
100
AcDbEntity
  8
0
100
AcDbLine
 10
99.961802002906
 20
12.949362809364
 30
0.0
 11
99.0597
 21
11.3148575
 31
0.0
  0
LINE
  5
4AD
330
1D
100
AcDbEntity
  8
0
100
AcDbLine
 10
103.04020973123
 20
17.500215477267
 30
0.0
 11
101.9914
 21
16.0965575
 31
0.0
  0
LINE
  5
4AE
330
1D
100
AcDbEntity
  8
0
100
AcDbLine
 10
99.0597
 20
11.3148575
 30
0.0
 11
98.1872
 21
9.5243475
 31
0.0
  0
LINE
  5
4AF
330
1D
100
AcDbEntity
  8
0
100
AcDbLine
 10
98.1872
 20
9.5243475
 30
0.0
 11
97.3685
 21
7.6117975
 31
0.0
  0
LINE
  5
4B0
330
1D
100
AcDbEntity
  8
0
100
AcDbLine
 10
97.3685
 20
7.6117975
 30
0.0
 11
96.642
 21
5.6845275
 31
0.0
  0
LINE
  5
4B1
330
1D
100
AcDbEntity
  8
0
100
AcDbLine
 10
96.642
 20
5.6845275
 30
0.0
 11
95.6782
 21
2.7868875
 31
0.0
  0
LINE
  5
4B2
330
1D
100
AcDbEntity
  8
0
100
AcDbLine
 10
95.6782
 20
2.7868875
 30
0.0
 11
94.7637
 21
-0.1228335
 31
0.0
  0
LINE
  5
4B3
330
1D
100
AcDbEntity
  8
0
100
AcDbLine
 10
95.6782
 20
2.7868875
 30
0.0
 11
94.7637
 21
-0.1228335
 31
0.0
  0
LINE
  5
4B4
330
1D
100
AcDbEntity
  8
0
100
AcDbLine
 10
99.961802002906
 20
12.949362809364
 30
0.0
 11
99.0597
 21
11.3148575
 31
0.0
  0
LINE
  5
4B5
330
1D
100
AcDbEntity
  8
0
100
AcDbLine
 10
99.961802002906
 20
12.949362809364
 30
0.0
 11
100.9724
 21
14.6010575
 31
0.0
  0
LINE
  5
4B6
330
1D
100
AcDbEntity
  8
0
100
AcDbLine
 10
105.5261
 20
20.4401575
 30
0.0
 11
104.2707
 21
19.0165575
 31
0.0
  0
LINE
  5
4B7
330
1D
100
AcDbEntity
  8
0
100
AcDbLine
 10
107.063372446856
 20
22.040713991896
 30
0.0
 11
105.5261
 21
20.4401575
 31
0.0
  0
LINE
  5
4B8
330
1D
100
AcDbEntity
  8
0
100
AcDbLine
 10
81.8113
 20
-0.1228295
 30
0.0
 11
80.5724
 21
-0.1228295
 31
0.0
  0
LINE
  5
4B9
330
1D
100
AcDbEntity
  8
0
100
AcDbLine
 10
81.2798
 20
-0.1227895
 30
0.0
 11
80.2098
 21
-0.1227895
 31
0.0
  0
LINE
  5
4BA
330
1D
100
AcDbEntity
  8
0
100
AcDbLine
 10
88.1064
 20
-0.1232575
 30
0.0
 11
88.024846261678
 21
-0.1232185
 31
0.0
  0
LINE
  5
4BB
330
1D
100
AcDbEntity
  8
0
100
AcDbLine
 10
88.9524
 20
-0.1232575
 30
0.0
 11
88.1064
 21
-0.1232575
 31
0.0
  0
LINE
  5
4BC
330
1D
100
AcDbEntity
  8
0
100
AcDbLine
 10
89.7479
 20
-0.1232575
 30
0.0
 11
88.9524
 21
-0.1232575
 31
0.0
  0
LINE
  5
4BD
330
1D
100
AcDbEntity
  8
0
100
AcDbLine
 10
88.9393
 20
-0.1232185
 30
0.0
 11
87.9355
 21
-0.1232185
 31
0.0
  0
LINE
  5
4BE
330
1D
100
AcDbEntity
  8
0
100
AcDbLine
 10
89.7384
 20
-0.1232185
 30
0.0
 11
88.9393
 21
-0.1232185
 31
0.0
  0
LINE
  5
4BF
330
1D
100
AcDbEntity
  8
0
100
AcDbLine
 10
86.137837762243
 20
-0.1228295
 30
0.0
 11
85.2839
 21
-0.1228295
 31
0.0
  0
LINE
  5
4C0
330
1D
100
AcDbEntity
  8
0
100
AcDbLine
 10
83.0119
 20
-0.1228295
 30
0.0
 11
81.8113
 21
-0.1228295
 31
0.0
  0
LINE
  5
4C1
330
1D
100
AcDbEntity
  8
0
100
AcDbLine
 10
84.1707
 20
-0.1228295
 30
0.0
 11
83.0119
 21
-0.1228295
 31
0.0
  0
LINE
  5
4C2
330
1D
100
AcDbEntity
  8
0
100
AcDbLine
 10
85.2839
 20
-0.1228295
 30
0.0
 11
84.1707
 21
-0.1228295
 31
0.0
  0
LINE
  5
4C3
330
1D
100
AcDbEntity
  8
0
100
AcDbLine
 10
82.3229
 20
-0.1227895
 30
0.0
 11
81.2798
 21
-0.1227895
 31
0.0
  0
LINE
  5
4C4
330
1D
100
AcDbEntity
  8
0
100
AcDbLine
 10
83.9792
 20
-0.1227895
 30
0.0
 11
82.3229
 21
-0.1227895
 31
0.0
  0
LINE
  5
4C5
330
1D
100
AcDbEntity
  8
0
100
AcDbLine
 10
85.0347
 20
-0.1227895
 30
0.0
 11
83.9792
 21
-0.1227895
 31
0.0
  0
LINE
  5
4C6
330
1D
100
AcDbEntity
  8
0
100
AcDbLine
 10
86.0476
 20
-0.1227895
 30
0.0
 11
85.0347
 21
-0.1227895
 31
0.0
  0
LINE
  5
4C7
330
1D
100
AcDbEntity
  8
0
100
AcDbLine
 10
87.0154
 20
-0.1232185
 30
0.0
 11
86.0476
 21
-0.1227895
 31
0.0
  0
LINE
  5
4C8
330
1D
100
AcDbEntity
  8
0
100
AcDbLine
 10
87.9355
 20
-0.1232185
 30
0.0
 11
87.0154
 21
-0.1232185
 31
0.0
  0
LINE
  5
4C9
330
1D
100
AcDbEntity
  8
0
100
AcDbLine
 10
79.299
 20
-0.1228295
 30
0.0
 11
77.9954
 21
-0.1228295
 31
0.0
  0
LINE
  5
4CA
330
1D
100
AcDbEntity
  8
0
100
AcDbLine
 10
80.5724
 20
-0.1228295
 30
0.0
 11
79.299
 21
-0.1228295
 31
0.0
  0
LINE
  5
4CB
330
1D
100
AcDbEntity
  8
0
100
AcDbLine
 10
80.2098
 20
-0.1227895
 30
0.0
 11
79.1159
 21
-0.1227895
 31
0.0
  0
LINE
  5
4CC
330
1D
100
AcDbEntity
  8
0
100
AcDbLine
 10
79.1159
 20
-0.1227895
 30
0.0
 11
78.0003
 21
-0.1227895
 31
0.0
  0
LINE
  5
4CD
330
1D
100
AcDbEntity
  8
0
100
AcDbLine
 10
76.6661
 20
-0.1228295
 30
0.0
 11
75.3153
 21
-0.1228295
 31
0.0
  0
LINE
  5
4CE
330
1D
100
AcDbEntity
  8
0
100
AcDbLine
 10
73.6662
 20
-0.1228295
 30
0.0
 11
72.0014
 21
-0.1227905
 31
0.0
  0
LINE
  5
4CF
330
1D
100
AcDbEntity
  8
0
100
AcDbLine
 10
75.3153
 20
-0.1228295
 30
0.0
 11
73.6662
 21
-0.1228295
 31
0.0
  0
LINE
  5
4D0
330
1D
100
AcDbEntity
  8
0
100
AcDbLine
 10
77.9954
 20
-0.1228295
 30
0.0
 11
76.6661
 21
-0.1228295
 31
0.0
  0
LINE
  5
4D1
330
1D
100
AcDbEntity
  8
0
100
AcDbLine
 10
78.0003
 20
-0.1227895
 30
0.0
 11
76.5325
 21
-0.1227895
 31
0.0
  0
LINE
  5
4D2
330
1D
100
AcDbEntity
  8
0
100
AcDbLine
 10
75.0391
 20
-0.1227895
 30
0.0
 11
73.5266
 21
-0.1227895
 31
0.0
  0
LINE
  5
4D3
330
1D
100
AcDbEntity
  8
0
100
AcDbLine
 10
76.5325
 20
-0.1227895
 30
0.0
 11
75.0391
 21
-0.1227895
 31
0.0
  0
LINE
  5
4D4
330
1D
100
AcDbEntity
  8
0
100
AcDbLine
 10
73.5266
 20
-0.1227895
 30
0.0
 11
72.0014
 21
-0.1227895
 31
0.0
  0
LINE
  5
4D5
330
1D
100
AcDbEntity
  8
0
100
AcDbLine
 10
91.1838
 20
47.1143575
 30
0.0
 11
87.476
 21
46.9719575
 31
0.0
  0
LINE
  5
4D6
330
1D
100
AcDbEntity
  8
0
100
AcDbLine
 10
92.521
 20
47.3915575
 30
0.0
 11
91.755
 21
46.7487575
 31
0.0
  0
LINE
  5
4D7
330
1D
100
AcDbEntity
  8
0
100
AcDbLine
 10
93.564407140088
 20
46.770370065465
 30
0.0
 11
93.258
 21
46.5132575
 31
0.0
  0
LINE
  5
4D8
330
1D
100
AcDbEntity
  8
0
100
AcDbLine
 10
92.8032
 20
47.6775575
 30
0.0
 11
92.6961
 21
47.9001575
 31
0.0
  0
LINE
  5
4D9
330
1D
100
AcDbEntity
  8
0
100
AcDbLine
 10
92.8449
 20
47.6278575
 30
0.0
 11
92.8032
 21
47.6775575
 31
0.0
  0
LINE
  5
4DA
330
1D
100
AcDbEntity
  8
0
100
AcDbLine
 10
92.7087
 20
48.1468575
 30
0.0
 11
92.6961
 21
47.9001575
 31
0.0
  0
LINE
  5
4DB
330
1D
100
AcDbEntity
  8
0
100
AcDbLine
 10
92.8377
 20
48.3573575
 30
0.0
 11
92.7087
 21
48.1468575
 31
0.0
  0
LINE
  5
4DC
330
1D
100
AcDbEntity
  8
0
100
AcDbLine
 10
91.5861
 20
46.9360575
 30
0.0
 11
91.4056
 21
47.0718575
 31
0.0
  0
LINE
  5
4DD
330
1D
100
AcDbEntity
  8
0
100
AcDbLine
 10
91.4056
 20
47.0718575
 30
0.0
 11
91.1838
 21
47.1143575
 31
0.0
  0
LINE
  5
4DE
330
1D
100
AcDbEntity
  8
0
100
AcDbLine
 10
83.3673
 20
46.5954575
 30
0.0
 11
82.4617
 21
46.6097575
 31
0.0
  0
LINE
  5
4DF
330
1D
100
AcDbEntity
  8
0
100
AcDbLine
 10
82.4617
 20
46.6097575
 30
0.0
 11
81.2645
 21
46.6438575
 31
0.0
  0
LINE
  5
4E0
330
1D
100
AcDbEntity
  8
0
100
AcDbLine
 10
84.0034
 20
46.6249575
 30
0.0
 11
83.3673
 21
46.5954575
 31
0.0
  0
LINE
  5
4E1
330
1D
100
AcDbEntity
  8
0
100
AcDbLine
 10
73.701
 20
46.6602575
 30
0.0
 11
72.0014
 21
46.6430575
 31
0.0
  0
LINE
  5
4E2
330
1D
100
AcDbEntity
  8
0
100
AcDbLine
 10
79.9172
 20
46.6815575
 30
0.0
 11
78.4984
 21
46.7069575
 31
0.0
  0
LINE
  5
4E3
330
1D
100
AcDbEntity
  8
0
100
AcDbLine
 10
81.2645
 20
46.6438575
 30
0.0
 11
79.9172
 21
46.6815575
 31
0.0
  0
LINE
  5
4E4
330
1D
100
AcDbEntity
  8
0
100
AcDbLine
 10
84.7155
 20
46.8470575
 30
0.0
 11
84.4269
 21
46.7180575
 31
0.0
  0
LINE
  5
4E5
330
1D
100
AcDbEntity
  8
0
100
AcDbLine
 10
84.4269
 20
46.7180575
 30
0.0
 11
84.0034
 21
46.6249575
 31
0.0
  0
LINE
  5
4E6
330
1D
100
AcDbEntity
  8
0
100
AcDbLine
 10
78.4984
 20
46.7069575
 30
0.0
 11
76.9515
 21
46.7104575
 31
0.0
  0
LINE
  5
4E7
330
1D
100
AcDbEntity
  8
0
100
AcDbLine
 10
76.9515
 20
46.7104575
 30
0.0
 11
75.3555
 21
46.6905575
 31
0.0
  0
LINE
  5
4E8
330
1D
100
AcDbEntity
  8
0
100
AcDbLine
 10
75.3555
 20
46.6905575
 30
0.0
 11
73.701
 21
46.6602575
 31
0.0
  0
LINE
  5
4E9
330
1D
100
AcDbEntity
  8
0
100
AcDbLine
 10
87.476
 20
46.9719575
 30
0.0
 11
84.7155
 21
46.8470575
 31
0.0
  0
LINE
  5
4EA
330
1D
100
AcDbEntity
  8
0
100
AcDbLine
 10
122.6823
 20
76.1230575
 30
0.0
 11
122.3649
 21
76.2989575
 31
0.0
  0
LINE
  5
4EB
330
1D
100
AcDbEntity
  8
0
100
AcDbLine
 10
122.0056
 20
76.3499575
 30
0.0
 11
121.6518
 21
76.2694575
 31
0.0
  0
LINE
  5
4EC
330
1D
100
AcDbEntity
  8
0
100
AcDbLine
 10
122.3649
 20
76.2989575
 30
0.0
 11
122.0056
 21
76.3499575
 31
0.0
  0
LINE
  5
4ED
330
1D
100
AcDbEntity
  8
0
100
AcDbLine
 10
121.6518
 20
76.2694575
 30
0.0
 11
121.35
 21
76.0680575
 31
0.0
  0
LINE
  5
4EE
330
1D
100
AcDbEntity
  8
0
100
AcDbLine
 10
84.5014
 20
213.8982575
 30
0.0
 11
84.5014
 21
221.0892575
 31
0.0
  0
LINE
  5
4EF
330
1D
100
AcDbEntity
  8
0
100
AcDbLine
 10
74.7163
 20
216.8072575
 30
0.0
 11
73.5894
 21
216.9062575
 31
0.0
  0
LINE
  5
4F0
330
1D
100
AcDbEntity
  8
0
100
AcDbLine
 10
84.5014
 20
221.0892575
 30
0.0
 11
84.5014
 21
213.8982575
 31
0.0
  0
LINE
  5
4F1
330
1D
100
AcDbEntity
  8
0
100
AcDbLine
 10
84.4893
 20
230.6422575
 30
0.0
 11
84.4892
 21
213.1502575
 31
0.0
  0
LINE
  5
4F2
330
1D
100
AcDbEntity
  8
0
100
AcDbLine
 10
81.1752
 20
210.1982575
 30
0.0
 11
80.5416
 21
209.7922575
 31
0.0
  0
LINE
  5
4F3
330
1D
100
AcDbEntity
  8
0
100
AcDbLine
 10
80.8976
 20
208.9762575
 30
0.0
 11
80.7809
 21
208.9252575
 31
0.0
  0
LINE
  5
4F4
330
1D
100
AcDbEntity
  8
0
100
AcDbLine
 10
81.0384
 20
214.8282575
 30
0.0
 11
80.3806
 21
215.2282575
 31
0.0
  0
LINE
  5
4F5
330
1D
100
AcDbEntity
  8
0
100
AcDbLine
 10
84.5014
 20
206.6272575
 30
0.0
 11
84.5014
 21
213.8982575
 31
0.0
  0
LINE
  5
4F6
330
1D
100
AcDbEntity
  8
0
100
AcDbLine
 10
84.5014
 20
213.8982575
 30
0.0
 11
84.5014
 21
206.6272575
 31
0.0
  0
LINE
  5
4F7
330
1D
100
AcDbEntity
  8
0
100
AcDbLine
 10
84.4426
 20
212.4432575
 30
0.0
 11
84.3064
 21
211.9122575
 31
0.0
  0
LINE
  5
4F8
330
1D
100
AcDbEntity
  8
0
100
AcDbLine
 10
82.628
 20
212.5212575
 30
0.0
 11
82.58
 21
212.0352575
 31
0.0
  0
LINE
  5
4F9
330
1D
100
AcDbEntity
  8
0
100
AcDbLine
 10
83.0555
 20
210.2672575
 30
0.0
 11
82.441
 21
209.8072575
 31
0.0
  0
LINE
  5
4FA
330
1D
100
AcDbEntity
  8
0
100
AcDbLine
 10
83.5569
 20
210.7522575
 30
0.0
 11
83.0555
 21
210.2672575
 31
0.0
  0
LINE
  5
4FB
330
1D
100
AcDbEntity
  8
0
100
AcDbLine
 10
84.3064
 20
211.9122575
 30
0.0
 11
84.0442
 21
211.3902575
 31
0.0
  0
LINE
  5
4FC
330
1D
100
AcDbEntity
  8
0
100
AcDbLine
 10
84.0442
 20
211.3902575
 30
0.0
 11
83.6581
 21
210.8832575
 31
0.0
  0
LINE
  5
4FD
330
1D
100
AcDbEntity
  8
0
100
AcDbLine
 10
83.6581
 20
210.8832575
 30
0.0
 11
83.5569
 21
210.7522575
 31
0.0
  0
LINE
  5
4FE
330
1D
100
AcDbEntity
  8
0
100
AcDbLine
 10
82.58
 20
212.0352575
 30
0.0
 11
82.4082
 21
211.5552575
 31
0.0
  0
LINE
  5
4FF
330
1D
100
AcDbEntity
  8
0
100
AcDbLine
 10
82.441
 20
209.8072575
 30
0.0
 11
81.7191
 21
209.3742575
 31
0.0
  0
LINE
  5
500
330
1D
100
AcDbEntity
  8
0
100
AcDbLine
 10
82.1141
 20
211.0842575
 30
0.0
 11
81.7017
 21
210.6302575
 31
0.0
  0
LINE
  5
501
330
1D
100
AcDbEntity
  8
0
100
AcDbLine
 10
82.4082
 20
211.5552575
 30
0.0
 11
82.1141
 21
211.0842575
 31
0.0
  0
LINE
  5
502
330
1D
100
AcDbEntity
  8
0
100
AcDbLine
 10
81.7191
 20
209.3742575
 30
0.0
 11
80.8976
 21
208.9762575
 31
0.0
  0
LINE
  5
503
330
1D
100
AcDbEntity
  8
0
100
AcDbLine
 10
81.7017
 20
210.6302575
 30
0.0
 11
81.1752
 21
210.1982575
 31
0.0
  0
LINE
  5
504
330
1D
100
AcDbEntity
  8
0
100
AcDbLine
 10
84.4809
 20
212.6152575
 30
0.0
 11
84.4426
 21
212.4432575
 31
0.0
  0
LINE
  5
505
330
1D
100
AcDbEntity
  8
0
100
AcDbLine
 10
84.4892
 20
213.1502575
 30
0.0
 11
84.4809
 21
212.6152575
 31
0.0
  0
LINE
  5
506
330
1D
100
AcDbEntity
  8
0
100
AcDbLine
 10
82.628
 20
212.5212575
 30
0.0
 11
82.5512
 21
213.0062575
 31
0.0
  0
LINE
  5
507
330
1D
100
AcDbEntity
  8
0
100
AcDbLine
 10
82.5512
 20
213.0062575
 30
0.0
 11
82.3509
 21
213.4852575
 31
0.0
  0
LINE
  5
508
330
1D
100
AcDbEntity
  8
0
100
AcDbLine
 10
82.3509
 20
213.4852575
 30
0.0
 11
82.0292
 21
213.9522575
 31
0.0
  0
LINE
  5
509
330
1D
100
AcDbEntity
  8
0
100
AcDbLine
 10
82.0292
 20
213.9522575
 30
0.0
 11
81.5899
 21
214.4022575
 31
0.0
  0
LINE
  5
50A
330
1D
100
AcDbEntity
  8
0
100
AcDbLine
 10
81.5899
 20
214.4022575
 30
0.0
 11
81.0384
 21
214.8282575
 31
0.0
  0
LINE
  5
50B
330
1D
100
AcDbEntity
  8
0
100
AcDbLine
 10
77.8461
 20
207.9782575
 30
0.0
 11
76.734
 21
207.7512575
 31
0.0
  0
LINE
  5
50C
330
1D
100
AcDbEntity
  8
0
100
AcDbLine
 10
75.573
 20
207.5732575
 30
0.0
 11
74.3753
 21
207.4462575
 31
0.0
  0
LINE
  5
50D
330
1D
100
AcDbEntity
  8
0
100
AcDbLine
 10
76.734
 20
207.7512575
 30
0.0
 11
75.573
 21
207.5732575
 31
0.0
  0
LINE
  5
50E
330
1D
100
AcDbEntity
  8
0
100
AcDbLine
 10
73.1534
 20
207.3702575
 30
0.0
 11
71.9197
 21
207.3472575
 31
0.0
  0
LINE
  5
50F
330
1D
100
AcDbEntity
  8
0
100
AcDbLine
 10
74.3753
 20
207.4462575
 30
0.0
 11
73.1534
 21
207.3702575
 31
0.0
  0
LINE
  5
510
330
1D
100
AcDbEntity
  8
0
100
AcDbLine
 10
78.8985
 20
208.2512575
 30
0.0
 11
77.8461
 21
207.9782575
 31
0.0
  0
LINE
  5
511
330
1D
100
AcDbEntity
  8
0
100
AcDbLine
 10
73.8518
 20
208.0422575
 30
0.0
 11
72.7095
 21
207.9842575
 31
0.0
  0
LINE
  5
512
330
1D
100
AcDbEntity
  8
0
100
AcDbLine
 10
74.9724
 20
208.1532575
 30
0.0
 11
73.8518
 21
208.0422575
 31
0.0
  0
LINE
  5
513
330
1D
100
AcDbEntity
  8
0
100
AcDbLine
 10
79.8802
 20
208.5682575
 30
0.0
 11
78.8985
 21
208.2512575
 31
0.0
  0
LINE
  5
514
330
1D
100
AcDbEntity
  8
0
100
AcDbLine
 10
80.7809
 20
208.9252575
 30
0.0
 11
79.8802
 21
208.5682575
 31
0.0
  0
LINE
  5
515
330
1D
100
AcDbEntity
  8
0
100
AcDbLine
 10
79.8076
 20
209.4172575
 30
0.0
 11
78.9822
 21
209.0792575
 31
0.0
  0
LINE
  5
516
330
1D
100
AcDbEntity
  8
0
100
AcDbLine
 10
80.5416
 20
209.7922575
 30
0.0
 11
79.8076
 21
209.4172575
 31
0.0
  0
LINE
  5
517
330
1D
100
AcDbEntity
  8
0
100
AcDbLine
 10
80.3806
 20
215.2282575
 30
0.0
 11
79.6247
 21
215.5942575
 31
0.0
  0
LINE
  5
518
330
1D
100
AcDbEntity
  8
0
100
AcDbLine
 10
78.0749
 20
208.7792575
 30
0.0
 11
77.0964
 21
208.5242575
 31
0.0
  0
LINE
  5
519
330
1D
100
AcDbEntity
  8
0
100
AcDbLine
 10
78.9822
 20
209.0792575
 30
0.0
 11
78.0749
 21
208.7792575
 31
0.0
  0
LINE
  5
51A
330
1D
100
AcDbEntity
  8
0
100
AcDbLine
 10
79.6247
 20
215.5942575
 30
0.0
 11
78.7796
 21
215.9242575
 31
0.0
  0
LINE
  5
51B
330
1D
100
AcDbEntity
  8
0
100
AcDbLine
 10
78.7796
 20
215.9242575
 30
0.0
 11
77.8548
 21
216.2142575
 31
0.0
  0
LINE
  5
51C
330
1D
100
AcDbEntity
  8
0
100
AcDbLine
 10
77.0964
 20
208.5242575
 30
0.0
 11
76.0582
 21
208.3142575
 31
0.0
  0
LINE
  5
51D
330
1D
100
AcDbEntity
  8
0
100
AcDbLine
 10
77.8548
 20
216.2142575
 30
0.0
 11
76.8613
 21
216.4592575
 31
0.0
  0
LINE
  5
51E
330
1D
100
AcDbEntity
  8
0
100
AcDbLine
 10
76.8613
 20
216.4592575
 30
0.0
 11
75.8113
 21
216.6582575
 31
0.0
  0
LINE
  5
51F
330
1D
100
AcDbEntity
  8
0
100
AcDbLine
 10
75.8113
 20
216.6582575
 30
0.0
 11
74.7163
 21
216.8072575
 31
0.0
  0
LINE
  5
520
330
1D
100
AcDbEntity
  8
0
100
AcDbLine
 10
76.0582
 20
208.3142575
 30
0.0
 11
74.9724
 21
208.1532575
 31
0.0
  0
LINE
  5
521
330
1D
100
AcDbEntity
  8
0
100
AcDbLine
 10
84.5014
 20
253.2222575
 30
0.0
 11
84.5014
 21
247.5432575
 31
0.0
  0
LINE
  5
522
330
1D
100
AcDbEntity
  8
0
100
AcDbLine
 10
84.5014
 20
254.2642575
 30
0.0
 11
84.5014
 21
248.6792575
 31
0.0
  0
LINE
  5
523
330
1D
100
AcDbEntity
  8
0
100
AcDbLine
 10
84.5014
 20
248.6792575
 30
0.0
 11
84.5014
 21
254.2642575
 31
0.0
  0
LINE
  5
524
330
1D
100
AcDbEntity
  8
0
100
AcDbLine
 10
84.5014
 20
247.5432575
 30
0.0
 11
84.5014
 21
253.2222575
 31
0.0
  0
LINE
  5
525
330
1D
100
AcDbEntity
  8
0
100
AcDbLine
 10
84.5014
 20
228.1242575
 30
0.0
 11
84.5014
 21
234.9262575
 31
0.0
  0
LINE
  5
526
330
1D
100
AcDbEntity
  8
0
100
AcDbLine
 10
84.5014
 20
230.7732575
 30
0.0
 11
84.5014
 21
236.2102575
 31
0.0
  0
LINE
  5
527
330
1D
100
AcDbEntity
  8
0
100
AcDbLine
 10
84.5014
 20
234.9262575
 30
0.0
 11
84.5014
 21
228.1242575
 31
0.0
  0
LINE
  5
528
330
1D
100
AcDbEntity
  8
0
100
AcDbLine
 10
80.8404
 20
234.5082575
 30
0.0
 11
78.2515
 21
235.3472575
 31
0.0
  0
LINE
  5
529
330
1D
100
AcDbEntity
  8
0
100
AcDbLine
 10
79.2109
 20
234.7252575
 30
0.0
 11
78.141
 21
235.0122575
 31
0.0
  0
LINE
  5
52A
330
1D
100
AcDbEntity
  8
0
100
AcDbLine
 10
79.0955
 20
234.8382575
 30
0.0
 11
78.0426
 21
235.1192575
 31
0.0
  0
LINE
  5
52B
330
1D
100
AcDbEntity
  8
0
100
AcDbLine
 10
84.5014
 20
236.2102575
 30
0.0
 11
84.5014
 21
230.7732575
 31
0.0
  0
LINE
  5
52C
330
1D
100
AcDbEntity
  8
0
100
AcDbLine
 10
81.1189
 20
234.0242575
 30
0.0
 11
80.2069
 21
234.3952575
 31
0.0
  0
LINE
  5
52D
330
1D
100
AcDbEntity
  8
0
100
AcDbLine
 10
80.9729
 20
234.1472575
 30
0.0
 11
80.0755
 21
234.5132575
 31
0.0
  0
LINE
  5
52E
330
1D
100
AcDbEntity
  8
0
100
AcDbLine
 10
82.8267
 20
233.4142575
 30
0.0
 11
80.8404
 21
234.5082575
 31
0.0
  0
LINE
  5
52F
330
1D
100
AcDbEntity
  8
0
100
AcDbLine
 10
84.5014
 20
221.0892575
 30
0.0
 11
84.5014
 21
228.1242575
 31
0.0
  0
LINE
  5
530
330
1D
100
AcDbEntity
  8
0
100
AcDbLine
 10
84.5014
 20
228.1242575
 30
0.0
 11
84.5014
 21
221.0892575
 31
0.0
  0
LINE
  5
531
330
1D
100
AcDbEntity
  8
0
100
AcDbLine
 10
84.4893
 20
230.6422575
 30
0.0
 11
84.3697
 21
231.1752575
 31
0.0
  0
LINE
  5
532
330
1D
100
AcDbEntity
  8
0
100
AcDbLine
 10
84.3697
 20
231.1752575
 30
0.0
 11
84.123
 21
231.7002575
 31
0.0
  0
LINE
  5
533
330
1D
100
AcDbEntity
  8
0
100
AcDbLine
 10
84.123
 20
231.7002575
 30
0.0
 11
83.7522
 21
232.2112575
 31
0.0
  0
LINE
  5
534
330
1D
100
AcDbEntity
  8
0
100
AcDbLine
 10
84.5014
 20
230.7732575
 30
0.0
 11
84.0755
 21
232.1402575
 31
0.0
  0
LINE
  5
535
330
1D
100
AcDbEntity
  8
0
100
AcDbLine
 10
84.5014
 20
230.7732575
 30
0.0
 11
84.477285392462
 21
230.695800859681
 31
0.0
  0
LINE
  5
536
330
1D
100
AcDbEntity
  8
0
100
AcDbLine
 10
83.7522
 20
232.2112575
 30
0.0
 11
83.2606
 21
232.7052575
 31
0.0
  0
LINE
  5
537
330
1D
100
AcDbEntity
  8
0
100
AcDbLine
 10
83.2606
 20
232.7052575
 30
0.0
 11
82.6535
 21
233.1742575
 31
0.0
  0
LINE
  5
538
330
1D
100
AcDbEntity
  8
0
100
AcDbLine
 10
83.2606
 20
232.7052575
 30
0.0
 11
83.0805
 21
232.8492575
 31
0.0
  0
LINE
  5
539
330
1D
100
AcDbEntity
  8
0
100
AcDbLine
 10
83.0805
 20
232.8492575
 30
0.0
 11
82.4831
 21
233.3112575
 31
0.0
  0
LINE
  5
53A
330
1D
100
AcDbEntity
  8
0
100
AcDbLine
 10
84.0755
 20
232.1402575
 30
0.0
 11
82.8267
 21
233.4142575
 31
0.0
  0
LINE
  5
53B
330
1D
100
AcDbEntity
  8
0
100
AcDbLine
 10
82.6535
 20
233.1742575
 30
0.0
 11
81.9372
 21
233.6152575
 31
0.0
  0
LINE
  5
53C
330
1D
100
AcDbEntity
  8
0
100
AcDbLine
 10
81.9372
 20
233.6152575
 30
0.0
 11
81.1189
 21
234.0242575
 31
0.0
  0
LINE
  5
53D
330
1D
100
AcDbEntity
  8
0
100
AcDbLine
 10
81.7782
 20
233.7452575
 30
0.0
 11
80.9729
 21
234.1472575
 31
0.0
  0
LINE
  5
53E
330
1D
100
AcDbEntity
  8
0
100
AcDbLine
 10
82.4831
 20
233.3112575
 30
0.0
 11
81.7782
 21
233.7452575
 31
0.0
  0
LINE
  5
53F
330
1D
100
AcDbEntity
  8
0
100
AcDbLine
 10
73.5894
 20
216.9062575
 30
0.0
 11
72.4439
 21
216.9522575
 31
0.0
  0
LINE
  5
540
330
1D
100
AcDbEntity
  8
0
100
AcDbLine
 10
80.2069
 20
234.3952575
 30
0.0
 11
79.2109
 21
234.7252575
 31
0.0
  0
LINE
  5
541
330
1D
100
AcDbEntity
  8
0
100
AcDbLine
 10
80.0755
 20
234.5132575
 30
0.0
 11
79.0955
 21
234.8382575
 31
0.0
  0
LINE
  5
542
330
1D
100
AcDbEntity
  8
0
100
AcDbLine
 10
84.5014
 20
234.9262575
 30
0.0
 11
84.5014
 21
241.4232575
 31
0.0
  0
LINE
  5
543
330
1D
100
AcDbEntity
  8
0
100
AcDbLine
 10
78.2515
 20
235.3472575
 30
0.0
 11
75.2367
 21
235.8752575
 31
0.0
  0
LINE
  5
544
330
1D
100
AcDbEntity
  8
0
100
AcDbLine
 10
78.141
 20
235.0122575
 30
0.0
 11
77.0079
 21
235.2502575
 31
0.0
  0
LINE
  5
545
330
1D
100
AcDbEntity
  8
0
100
AcDbLine
 10
77.0079
 20
235.2502575
 30
0.0
 11
75.8232
 21
235.4402575
 31
0.0
  0
LINE
  5
546
330
1D
100
AcDbEntity
  8
0
100
AcDbLine
 10
75.8232
 20
235.4402575
 30
0.0
 11
74.5997
 21
235.5772575
 31
0.0
  0
LINE
  5
547
330
1D
100
AcDbEntity
  8
0
100
AcDbLine
 10
76.9278
 20
235.3542575
 30
0.0
 11
75.7623
 21
235.5402575
 31
0.0
  0
LINE
  5
548
330
1D
100
AcDbEntity
  8
0
100
AcDbLine
 10
78.0426
 20
235.1192575
 30
0.0
 11
76.9278
 21
235.3542575
 31
0.0
  0
LINE
  5
549
330
1D
100
AcDbEntity
  8
0
100
AcDbLine
 10
74.5997
 20
235.5772575
 30
0.0
 11
73.3493
 21
235.6622575
 31
0.0
  0
LINE
  5
54A
330
1D
100
AcDbEntity
  8
0
100
AcDbLine
 10
73.3493
 20
235.6622575
 30
0.0
 11
72.0854
 21
235.6932575
 31
0.0
  0
LINE
  5
54B
330
1D
100
AcDbEntity
  8
0
100
AcDbLine
 10
84.5014
 20
236.2102575
 30
0.0
 11
84.5014
 21
242.6392575
 31
0.0
  0
LINE
  5
54C
330
1D
100
AcDbEntity
  8
0
100
AcDbLine
 10
84.5014
 20
242.6392575
 30
0.0
 11
84.5014
 21
236.2102575
 31
0.0
  0
LINE
  5
54D
330
1D
100
AcDbEntity
  8
0
100
AcDbLine
 10
84.5014
 20
242.6392575
 30
0.0
 11
84.5014
 21
248.6792575
 31
0.0
  0
LINE
  5
54E
330
1D
100
AcDbEntity
  8
0
100
AcDbLine
 10
84.5014
 20
248.6792575
 30
0.0
 11
84.5014
 21
242.6392575
 31
0.0
  0
LINE
  5
54F
330
1D
100
AcDbEntity
  8
0
100
AcDbLine
 10
84.5014
 20
247.5432575
 30
0.0
 11
84.5014
 21
241.4232575
 31
0.0
  0
LINE
  5
550
330
1D
100
AcDbEntity
  8
0
100
AcDbLine
 10
84.5014
 20
241.4232575
 30
0.0
 11
84.5014
 21
247.5432575
 31
0.0
  0
LINE
  5
551
330
1D
100
AcDbEntity
  8
0
100
AcDbLine
 10
84.5014
 20
241.4232575
 30
0.0
 11
84.5014
 21
234.9262575
 31
0.0
  0
LINE
  5
552
330
1D
100
AcDbEntity
  8
0
100
AcDbLine
 10
75.2367
 20
235.8752575
 30
0.0
 11
72.0014
 21
236.0552575
 31
0.0
  0
LINE
  5
553
330
1D
100
AcDbEntity
  8
0
100
AcDbLine
 10
74.558
 20
235.6762575
 30
0.0
 11
73.3278
 21
235.7592575
 31
0.0
  0
LINE
  5
554
330
1D
100
AcDbEntity
  8
0
100
AcDbLine
 10
73.3278
 20
235.7592575
 30
0.0
 11
72.0841
 21
235.7892575
 31
0.0
  0
LINE
  5
555
330
1D
100
AcDbEntity
  8
0
100
AcDbLine
 10
75.7623
 20
235.5402575
 30
0.0
 11
74.558
 21
235.6762575
 31
0.0
  0
LINE
  5
556
330
1D
100
AcDbEntity
  8
0
100
AcDbLine
 10
84.5014
 20
270.3632575
 30
0.0
 11
84.5014
 21
273.0242575
 31
0.0
  0
LINE
  5
557
330
1D
100
AcDbEntity
  8
0
100
AcDbLine
 10
84.5014
 20
273.0242575
 30
0.0
 11
84.5014
 21
270.3632575
 31
0.0
  0
LINE
  5
558
330
1D
100
AcDbEntity
  8
0
100
AcDbLine
 10
84.5014
 20
273.4572575
 30
0.0
 11
84.5014
 21
270.9332575
 31
0.0
  0
LINE
  5
559
330
1D
100
AcDbEntity
  8
0
100
AcDbLine
 10
84.5014
 20
270.9332575
 30
0.0
 11
84.5014
 21
273.4572575
 31
0.0
  0
LINE
  5
55A
330
1D
100
AcDbEntity
  8
0
100
AcDbLine
 10
84.5014
 20
253.2222575
 30
0.0
 11
84.5014
 21
258.3952575
 31
0.0
  0
LINE
  5
55B
330
1D
100
AcDbEntity
  8
0
100
AcDbLine
 10
84.5014
 20
258.3952575
 30
0.0
 11
84.5014
 21
263.0092575
 31
0.0
  0
LINE
  5
55C
330
1D
100
AcDbEntity
  8
0
100
AcDbLine
 10
84.5014
 20
258.3952575
 30
0.0
 11
84.5014
 21
253.2222575
 31
0.0
  0
LINE
  5
55D
330
1D
100
AcDbEntity
  8
0
100
AcDbLine
 10
84.5014
 20
263.0092575
 30
0.0
 11
84.5014
 21
267.0122575
 31
0.0
  0
LINE
  5
55E
330
1D
100
AcDbEntity
  8
0
100
AcDbLine
 10
84.5014
 20
263.0092575
 30
0.0
 11
84.5014
 21
258.3952575
 31
0.0
  0
LINE
  5
55F
330
1D
100
AcDbEntity
  8
0
100
AcDbLine
 10
84.5014
 20
267.0122575
 30
0.0
 11
84.5014
 21
270.3632575
 31
0.0
  0
LINE
  5
560
330
1D
100
AcDbEntity
  8
0
100
AcDbLine
 10
84.5014
 20
267.0122575
 30
0.0
 11
84.5014
 21
263.0092575
 31
0.0
  0
LINE
  5
561
330
1D
100
AcDbEntity
  8
0
100
AcDbLine
 10
84.5014
 20
270.3632575
 30
0.0
 11
84.5014
 21
267.0122575
 31
0.0
  0
LINE
  5
562
330
1D
100
AcDbEntity
  8
0
100
AcDbLine
 10
84.5014
 20
263.8322575
 30
0.0
 11
84.5014
 21
259.3332575
 31
0.0
  0
LINE
  5
563
330
1D
100
AcDbEntity
  8
0
100
AcDbLine
 10
84.5014
 20
263.8322575
 30
0.0
 11
84.5014
 21
267.7132575
 31
0.0
  0
LINE
  5
564
330
1D
100
AcDbEntity
  8
0
100
AcDbLine
 10
84.5014
 20
259.3332575
 30
0.0
 11
84.5014
 21
254.2642575
 31
0.0
  0
LINE
  5
565
330
1D
100
AcDbEntity
  8
0
100
AcDbLine
 10
84.5014
 20
259.3332575
 30
0.0
 11
84.5014
 21
263.8322575
 31
0.0
  0
LINE
  5
566
330
1D
100
AcDbEntity
  8
0
100
AcDbLine
 10
84.5014
 20
254.2642575
 30
0.0
 11
84.5014
 21
259.3332575
 31
0.0
  0
LINE
  5
567
330
1D
100
AcDbEntity
  8
0
100
AcDbLine
 10
84.5014
 20
270.9332575
 30
0.0
 11
84.5014
 21
267.7132575
 31
0.0
  0
LINE
  5
568
330
1D
100
AcDbEntity
  8
0
100
AcDbLine
 10
84.5014
 20
267.7132575
 30
0.0
 11
84.5014
 21
270.9332575
 31
0.0
  0
LINE
  5
569
330
1D
100
AcDbEntity
  8
0
100
AcDbLine
 10
84.5014
 20
267.7132575
 30
0.0
 11
84.5014
 21
263.8322575
 31
0.0
  0
LINE
  5
56A
330
1D
100
AcDbEntity
  8
0
100
AcDbLine
 10
84.5014
 20
273.0242575
 30
0.0
 11
84.5014
 21
274.9682575
 31
0.0
  0
LINE
  5
56B
330
1D
100
AcDbEntity
  8
0
100
AcDbLine
 10
84.5014
 20
273.4572575
 30
0.0
 11
84.5014
 21
275.2582575
 31
0.0
  0
LINE
  5
56C
330
1D
100
AcDbEntity
  8
0
100
AcDbLine
 10
84.5014
 20
276.6232575
 30
0.0
 11
84.5014
 21
276.3182575
 31
0.0
  0
LINE
  5
56D
330
1D
100
AcDbEntity
  8
0
100
AcDbLine
 10
84.5014
 20
276.6232575
 30
0.0
 11
84.0755
 21
279.8582575
 31
0.0
  0
LINE
  5
56E
330
1D
100
AcDbEntity
  8
0
100
AcDbLine
 10
84.5014
 20
276.6232575
 30
0.0
 11
84.5014
 21
276.1722575
 31
0.0
  0
LINE
  5
56F
330
1D
100
AcDbEntity
  8
0
100
AcDbLine
 10
84.5014
 20
276.3182575
 30
0.0
 11
84.5014
 21
275.2582575
 31
0.0
  0
LINE
  5
570
330
1D
100
AcDbEntity
  8
0
100
AcDbLine
 10
84.5014
 20
276.3182575
 30
0.0
 11
84.5014
 21
276.6232575
 31
0.0
  0
LINE
  5
571
330
1D
100
AcDbEntity
  8
0
100
AcDbLine
 10
84.5014
 20
275.2582575
 30
0.0
 11
84.5014
 21
273.4572575
 31
0.0
  0
LINE
  5
572
330
1D
100
AcDbEntity
  8
0
100
AcDbLine
 10
84.5014
 20
275.2582575
 30
0.0
 11
84.5014
 21
276.3182575
 31
0.0
  0
LINE
  5
573
330
1D
100
AcDbEntity
  8
0
100
AcDbLine
 10
84.5014
 20
274.9682575
 30
0.0
 11
84.5014
 21
276.1722575
 31
0.0
  0
LINE
  5
574
330
1D
100
AcDbEntity
  8
0
100
AcDbLine
 10
84.5014
 20
274.9682575
 30
0.0
 11
84.5014
 21
273.0242575
 31
0.0
  0
LINE
  5
575
330
1D
100
AcDbEntity
  8
0
100
AcDbLine
 10
84.0755
 20
279.8582575
 30
0.0
 11
82.8267
 21
282.8732575
 31
0.0
  0
LINE
  5
576
330
1D
100
AcDbEntity
  8
0
100
AcDbLine
 10
82.8267
 20
282.8732575
 30
0.0
 11
80.8402
 21
285.4622575
 31
0.0
  0
LINE
  5
577
330
1D
100
AcDbEntity
  8
0
100
AcDbLine
 10
80.8402
 20
285.4622575
 30
0.0
 11
78.2513
 21
287.4492575
 31
0.0
  0
LINE
  5
578
330
1D
100
AcDbEntity
  8
0
100
AcDbLine
 10
78.2513
 20
287.4492575
 30
0.0
 11
75.2367
 21
288.6972575
 31
0.0
  0
LINE
  5
579
330
1D
100
AcDbEntity
  8
0
100
AcDbLine
 10
75.2367
 20
288.6972575
 30
0.0
 11
72.0014
 21
289.1232575
 31
0.0
  0
LINE
  5
57A
330
1D
100
AcDbEntity
  8
0
100
AcDbLine
 10
84.5014
 20
276.1722575
 30
0.0
 11
84.5014
 21
274.9682575
 31
0.0
  0
LINE
  5
57B
330
1D
100
AcDbEntity
  8
0
100
AcDbLine
 10
84.5014
 20
276.1722575
 30
0.0
 11
84.5014
 21
276.6232575
 31
0.0
  0
LINE
  5
57C
330
1D
100
AcDbEntity
  8
0
100
AcDbLine
 10
71.5561
 20
216.9522575
 30
0.0
 11
72.4439
 21
216.9522575
 31
0.0
  0
LINE
  5
57D
330
1D
100
AcDbEntity
  8
0
100
AcDbLine
 10
71.2905
 20
207.9842575
 30
0.0
 11
72.7095
 21
207.9842575
 31
0.0
  0
ENDSEC
  0
SECTION
  2
OBJECTS
  0
DICTIONARY
  5
C
330
0
100
AcDbDictionary
281
     1
  3
ACAD_GROUP
350
D
  3
ACAD_LAYOUT
350
1A
  3
ACAD_MLEADERSTYLE
350
580
  3
ACAD_MLINESTYLE
350
17
  3
ACAD_PLOTSETTINGS
350
19
  3
ACAD_PLOTSTYLENAME
350
E
  3
ACAD_SCALELIST
350
44F
  3
AcDbVariableDictionary
350
57E
  3
DWGPROPS
350
583
  0
DICTIONARY
  5
D
102
{ACAD_REACTORS
330
C
102
}
330
C
100
AcDbDictionary
281
     1
  0
DICTIONARY
  5
1A
102
{ACAD_REACTORS
330
C
102
}
330
C
100
AcDbDictionary
281
     1
  3
Layout1
350
1C
  3
Model
350
1E
  0
DICTIONARY
  5
580
102
{ACAD_REACTORS
330
C
102
}
330
C
100
AcDbDictionary
281
     1
  0
DICTIONARY
  5
17
102
{ACAD_REACTORS
330
C
102
}
330
C
100
AcDbDictionary
281
     1
  3
Standard
350
18
  0
DICTIONARY
  5
19
102
{ACAD_REACTORS
330
C
102
}
330
C
100
AcDbDictionary
281
     1
  0
ACDBDICTIONARYWDFLT
  5
E
102
{ACAD_REACTORS
330
C
102
}
330
C
100
AcDbDictionary
281
     1
  3
Normal
350
F
100
AcDbDictionaryWithDefault
340
F
  0
DICTIONARY
  5
44F
102
{ACAD_REACTORS
330
C
102
}
330
C
100
AcDbDictionary
281
     1
  3
A0
350
450
  3
A1
350
451
  3
A2
350
452
  3
A3
350
453
  3
A4
350
454
  3
A5
350
455
  3
A6
350
456
  3
A7
350
457
  3
A8
350
458
  3
A9
350
459
  3
B0
350
45A
  3
B1
350
45B
  3
B2
350
45C
  3
B3
350
45D
  3
B4
350
45E
  3
B5
350
45F
  3
B6
350
460
  3
B7
350
461
  3
B8
350
462
  3
B9
350
463
  3
C0
350
464
  3
C1
350
465
  3
C2
350
466
  3
C3
350
467
  3
C4
350
468
  3
C5
350
469
  3
C6
350
46A
  3
C7
350
46B
  3
C8
350
46C
  3
C9
350
46D
  3
D0
350
46E
  3
D1
350
46F
  3
D2
350
470
  0
DICTIONARY
  5
57E
102
{ACAD_REACTORS
330
C
102
}
330
C
100
AcDbDictionary
281
     1
  3
CANNOSCALE
350
581
  0
XRECORD
  5
583
102
{ACAD_REACTORS
330
C
102
}
330
C
100
AcDbXrecord
280
     1
  1
DWGPROPS COOKIE
  2

  3

  4

  6

  7

  8
MARTIN
  9

300
=
301
=
302
=
303
=
304
=
305
=
306
=
307
=
308
=
309
=
 40
0.0
 41
2456646.445066724
 42
2456646.526720915
  1

 90
        0
  0
LAYOUT
  5
1C
102
{ACAD_REACTORS
330
1A
102
}
330
1A
100
AcDbPlotSettings
  1

  2
none_device
  4

  6

 40
0.0
 41
0.0
 42
0.0
 43
0.0
 44
0.0
 45
0.0
 46
0.0
 47
0.0
 48
0.0
 49
0.0
140
0.0
141
0.0
142
1.0
143
1.0
 70
   688
 72
     0
 73
     0
 74
     5
  7

 75
    16
147
1.0
148
0.0
149
0.0
100
AcDbLayout
  1
Layout1
 70
     1
 71
     1
 10
0.0
 20
0.0
 11
12.0
 21
9.0
 12
0.0
 22
0.0
 32
0.0
 14
1.000000000000E+20
 24
1.000000000000E+20
 34
1.000000000000E+20
 15
-1.000000000000E+20
 25
-1.000000000000E+20
 35
-1.000000000000E+20
146
0.0
 13
0.0
 23
0.0
 33
0.0
 16
1.0
 26
0.0
 36
0.0
 17
0.0
 27
1.0
 37
0.0
 76
     0
330
1B
  0
LAYOUT
  5
1E
102
{ACAD_REACTORS
330
1A
102
}
330
1A
100
AcDbPlotSettings
  1

  2
none_device
  4

  6

 40
0.0
 41
0.0
 42
0.0
 43
0.0
 44
0.0
 45
0.0
 46
0.0
 47
0.0
 48
0.0
 49
0.0
140
0.0
141
0.0
142
1.0
143
1.0
 70
  1712
 72
     0
 73
     0
 74
     0
  7

 75
     0
147
1.0
148
0.0
149
0.0
100
AcDbLayout
  1
Model
 70
     1
 71
     0
 10
0.0
 20
0.0
 11
12.0
 21
9.0
 12
0.0
 22
0.0
 32
0.0
 14
-0.1646
 24
-0.1232575
 34
0.0
 15
144.1646
 25
289.1232575
 35
0.0
146
0.0
 13
0.0
 23
0.0
 33
0.0
 16
1.0
 26
0.0
 36
0.0
 17
0.0
 27
1.0
 37
0.0
 76
     0
330
1D
331
44A
  0
MLINESTYLE
  5
18
102
{ACAD_REACTORS
330
17
102
}
330
17
100
AcDbMlineStyle
  2
Standard
 70
     0
  3

 62
   256
 51
90.0
 52
90.0
 71
     2
 49
0.5
 62
   256
  6
BYLAYER
 49
-0.5
 62
   256
  6
BYLAYER
  0
ACDBPLACEHOLDER
  5
F
102
{ACAD_REACTORS
330
E
102
}
330
E
  0
SCALE
  5
450
102
{ACAD_REACTORS
330
44F
102
}
330
44F
100
AcDbScale
 70
     0
300
1:1
140
1.0
141
1.0
290
     1
  0
SCALE
  5
451
102
{ACAD_REACTORS
330
44F
102
}
330
44F
100
AcDbScale
 70
     0
300
1:2
140
1.0
141
2.0
290
     0
  0
SCALE
  5
452
102
{ACAD_REACTORS
330
44F
102
}
330
44F
100
AcDbScale
 70
     0
300
1:4
140
1.0
141
4.0
290
     0
  0
SCALE
  5
453
102
{ACAD_REACTORS
330
44F
102
}
330
44F
100
AcDbScale
 70
     0
300
1:5
140
1.0
141
5.0
290
     0
  0
SCALE
  5
454
102
{ACAD_REACTORS
330
44F
102
}
330
44F
100
AcDbScale
 70
     0
300
1:8
140
1.0
141
8.0
290
     0
  0
SCALE
  5
455
102
{ACAD_REACTORS
330
44F
102
}
330
44F
100
AcDbScale
 70
     0
300
1:10
140
1.0
141
10.0
290
     0
  0
SCALE
  5
456
102
{ACAD_REACTORS
330
44F
102
}
330
44F
100
AcDbScale
 70
     0
300
1:16
140
1.0
141
16.0
290
     0
  0
SCALE
  5
457
102
{ACAD_REACTORS
330
44F
102
}
330
44F
100
AcDbScale
 70
     0
300
1:20
140
1.0
141
20.0
290
     0
  0
SCALE
  5
458
102
{ACAD_REACTORS
330
44F
102
}
330
44F
100
AcDbScale
 70
     0
300
1:30
140
1.0
141
30.0
290
     0
  0
SCALE
  5
459
102
{ACAD_REACTORS
330
44F
102
}
330
44F
100
AcDbScale
 70
     0
300
1:40
140
1.0
141
40.0
290
     0
  0
SCALE
  5
45A
102
{ACAD_REACTORS
330
44F
102
}
330
44F
100
AcDbScale
 70
     0
300
1:50
140
1.0
141
50.0
290
     0
  0
SCALE
  5
45B
102
{ACAD_REACTORS
330
44F
102
}
330
44F
100
AcDbScale
 70
     0
300
1:100
140
1.0
141
100.0
290
     0
  0
SCALE
  5
45C
102
{ACAD_REACTORS
330
44F
102
}
330
44F
100
AcDbScale
 70
     0
300
2:1
140
2.0
141
1.0
290
     0
  0
SCALE
  5
45D
102
{ACAD_REACTORS
330
44F
102
}
330
44F
100
AcDbScale
 70
     0
300
4:1
140
4.0
141
1.0
290
     0
  0
SCALE
  5
45E
102
{ACAD_REACTORS
330
44F
102
}
330
44F
100
AcDbScale
 70
     0
300
8:1
140
8.0
141
1.0
290
     0
  0
SCALE
  5
45F
102
{ACAD_REACTORS
330
44F
102
}
330
44F
100
AcDbScale
 70
     0
300
10:1
140
10.0
141
1.0
290
     0
  0
SCALE
  5
460
102
{ACAD_REACTORS
330
44F
102
}
330
44F
100
AcDbScale
 70
     0
300
100:1
140
100.0
141
1.0
290
     0
  0
SCALE
  5
461
102
{ACAD_REACTORS
330
44F
102
}
330
44F
100
AcDbScale
 70
     0
300
1/128" = 1'-0"
140
0.0078125
141
12.0
290
     0
  0
SCALE
  5
462
102
{ACAD_REACTORS
330
44F
102
}
330
44F
100
AcDbScale
 70
     0
300
1/64" = 1'-0"
140
0.015625
141
12.0
290
     0
  0
SCALE
  5
463
102
{ACAD_REACTORS
330
44F
102
}
330
44F
100
AcDbScale
 70
     0
300
1/32" = 1'-0"
140
0.03125
141
12.0
290
     0
  0
SCALE
  5
464
102
{ACAD_REACTORS
330
44F
102
}
330
44F
100
AcDbScale
 70
     0
300
1/16" = 1'-0"
140
0.0625
141
12.0
290
     0
  0
SCALE
  5
465
102
{ACAD_REACTORS
330
44F
102
}
330
44F
100
AcDbScale
 70
     0
300
3/32" = 1'-0"
140
0.09375
141
12.0
290
     0
  0
SCALE
  5
466
102
{ACAD_REACTORS
330
44F
102
}
330
44F
100
AcDbScale
 70
     0
300
1/8" = 1'-0"
140
0.125
141
12.0
290
     0
  0
SCALE
  5
467
102
{ACAD_REACTORS
330
44F
102
}
330
44F
100
AcDbScale
 70
     0
300
3/16" = 1'-0"
140
0.1875
141
12.0
290
     0
  0
SCALE
  5
468
102
{ACAD_REACTORS
330
44F
102
}
330
44F
100
AcDbScale
 70
     0
300
1/4" = 1'-0"
140
0.25
141
12.0
290
     0
  0
SCALE
  5
469
102
{ACAD_REACTORS
330
44F
102
}
330
44F
100
AcDbScale
 70
     0
300
3/8" = 1'-0"
140
0.375
141
12.0
290
     0
  0
SCALE
  5
46A
102
{ACAD_REACTORS
330
44F
102
}
330
44F
100
AcDbScale
 70
     0
300
1/2" = 1'-0"
140
0.5
141
12.0
290
     0
  0
SCALE
  5
46B
102
{ACAD_REACTORS
330
44F
102
}
330
44F
100
AcDbScale
 70
     0
300
3/4" = 1'-0"
140
0.75
141
12.0
290
     0
  0
SCALE
  5
46C
102
{ACAD_REACTORS
330
44F
102
}
330
44F
100
AcDbScale
 70
     0
300
1" = 1'-0"
140
1.0
141
12.0
290
     0
  0
SCALE
  5
46D
102
{ACAD_REACTORS
330
44F
102
}
330
44F
100
AcDbScale
 70
     0
300
1-1/2" = 1'-0"
140
1.5
141
12.0
290
     0
  0
SCALE
  5
46E
102
{ACAD_REACTORS
330
44F
102
}
330
44F
100
AcDbScale
 70
     0
300
3" = 1'-0"
140
3.0
141
12.0
290
     0
  0
SCALE
  5
46F
102
{ACAD_REACTORS
330
44F
102
}
330
44F
100
AcDbScale
 70
     0
300
6" = 1'-0"
140
6.0
141
12.0
290
     0
  0
SCALE
  5
470
102
{ACAD_REACTORS
330
44F
102
}
330
44F
100
AcDbScale
 70
     0
300
1'-0" = 1'-0"
140
12.0
141
12.0
290
     0
  0
DICTIONARYVAR
  5
581
102
{ACAD_REACTORS
330
57E
102
}
330
57E
100
DictionaryVariables
280
     0
  1
1:1
  0
ENDSEC
  0
SECTION
  2
THUMBNAILIMAGE
 90
    16364
310
28000000B40000005500000001000800000000000000000000000000000000000000000000000000FFFFFF000000FF0000FFFF0000FF0000FFFF0000FF000000FF00FF000000000080808000C0C0C0000000FF007F7FFF000000A5005252A50000007F003F3F7F0000004C0026264C000000260013132600003FFF007F9FFF
310
000029A5005267A500001F7F003F4F7F0000134C00262F4C000009260013172600007FFF007FBFFF000052A500527CA500003F7F003F5F7F0000264C0026394C0000132600131C260000BFFF007FDFFF00007CA5005291A500005F7F003F6F7F0000394C0026424C00001C26001321260000FFFF007FFFFF0000A5A50052A5
310
A500007F7F003F7F7F00004C4C00264C4C00002626001326260000FFBF007FFFDF0000A57C0052A59100007F5F003F7F6F00004C3900264C420000261C001326210000FF7F007FFFBF0000A5520052A57C00007F3F003F7F5F00004C2600264C39000026130013261C0000FF3F007FFF9F0000A5290052A56700007F1F003F
310
7F4F00004C1300264C2F00002609001326170000FF00007FFF7F0000A5000052A55200007F00003F7F3F00004C0000264C260000260000132613003FFF00009FFF7F0029A5000067A552001F7F00004F7F3F00134C00002F4C260009260000172613007FFF0000BFFF7F0052A500007CA552003F7F00005F7F3F00264C0000
310
394C2600132600001C261300BFFF0000DFFF7F007CA5000091A552005F7F00006F7F3F00394C0000424C26001C26000021261300FFFF0000FFFF7F00A5A50000A5A552007F7F00007F7F3F004C4C00004C4C26002626000026261300FFBF0000FFDF7F00A57C0000A59152007F5F00007F6F3F004C3900004C422600261C00
310
0026211300FF7F0000FFBF7F00A5520000A57C52007F3F00007F5F3F004C2600004C39260026130000261C1300FF3F0000FF9F7F00A5290000A56752007F1F00007F4F3F004C1300004C2F26002609000026171300FF000000FF7F7F00A5000000A55252007F0000007F3F3F004C0000004C2626002600000026131300FF00
310
3F00FF7F9F00A5002900A55267007F001F007F3F4F004C0013004C262F002600090026131700FF007F00FF7FBF00A5005200A5527C007F003F007F3F5F004C0026004C2639002600130026131C00FF00BF00FF7FDF00A5007C00A55291007F005F007F3F6F004C0039004C26420026001C0026132100FF00FF00FF7FFF00A5
310
00A500A552A5007F007F007F3F7F004C004C004C264C002600260026132600BF00FF00DF7FFF007C00A5009152A5005F007F006F3F7F0039004C0042264C001C002600211326007F00FF00BF7FFF005200A5007C52A5003F007F005F3F7F0026004C0039264C00130026001C1326003F00FF009F7FFF002900A5006752A500
310
1F007F004F3F7F0013004C002F264C000900260017132600000000002D2D2D005B5B5B0089898900B7B7B700B3B3B30000000000000000000000000000000000000000000000000000000000000000000000000000000000000000000000000000000000000000000000000000000000000000000000000000000000000000
310
00000000070707070707070707070707070707000000000000000000000000000000000000000000000000000000000000000000000000000000000000000000000000000000000000000000000000000000000000000000000000000000000000000000000000000000000000000000000000000000000000000000000000
310
00000000000000000000000000000000000000000000000000000000000000000000000000000000000000000000000000000000000000000007000000000000000000000000000700000000000000000000000000000000000000000000000000000000000000000000000000000000000000000000000000000000000000
310
00000000000000000000000000000000000000000000000000000000000000000000000000000000000000000000000000000000000000000000000000000000000000000000000000000000000000000000000000000000000000000000000000000000000000000000000000000700000000000000000000000000070000
310
00000000000000000000000000000000000000000000000000000000000000000000000000000000000000000000000000000000000000000000000000000000000000000000000000000000000000000000000000000000000000000000000000000000000000000000000000000000000000000000000000000000000000
310
00000000000000000000000000000000000000000000000000000000000000000000000700000000000000000000000000000007000000000000000000000000000000000000000000000000000000000000000000000000000000000000000000000000000000000000000000000000000000000000000000000000000000
310
00000000000000000000000000000000000000000000000000000000000000000000000000000000000000000000000000000000000000000000000000000000000000000000000000000000000000000000000000000000070000000000000000000000000000000700000000000000000000000000000000000000000000
310
00000000000000000000000000000000000000000000000000000000000000000000000000000000000000000000000000000000000000000000000000000000000000000000000000000000000000000000000000000000000000000000000000000000000000000000000000000000000000000000000000000000000000
310
00000000000000000000000000070000000000000000000000000000000000070000000000000000000000000000000000000000000000000000000000000000000000000000000000000000000000000000000000000000000000000000000000000000000000000000000000000000000000000000000000000000000000
310
00000000000000000000000000000000000000000000000000000000000000000000000000000000000000000000000000000000000000000000000000000000000700000000000000000000000000000000000000070000000000000000000000000000000000000000000000000000000000000000000000000000000000
310
00000000000000000000000000000000000000000000000000000000000000000000000000000000000000000000000000000000000000000000000000000000000000000000000000000000000000000000000000000000000000000000000000000000000000000000000000000000000000000007000000000000000000
310
00000000000000000000000007000000000000000000000000000000000000000000000000000000000000000000000000000000000000000000000000000000000000000000000000000000000000000000000000000000000000000000000000000000000000000000000000000000000000000000000000000000000000
310
00000000000000000000000000000000000000000000000000000000000000000000000000000000000707070700000000000000000000000000000000000000070707070000000000000000000000000000000000000000000000000000000000000000000000000000000000000000000000000000000000000000000000
310
00000000000000000000000000000000000000000000000000000000000000000000000000000000000000000000000000000000000000000000000000000000000000000000000000000000000000000000000000000000000000000007000000070700000000000000000000000000000000000707000000070000000000
310
00000000000000000000000000000000000000000000000000000000000000000000000000000000000000000000000000000000000000000000000000000000000000000000000000000000000000000000000000000000000000000000000000000000000000000000000000000000000000000000000000000000000000
310
00000000000000000000000000000000000007000000000007000000000000000000000000000000000707000000000007000000000000000000000000000000000000000000000000000000000000000000000000000000000000000000000000000000000000000000000000000000000000000000000000000000000000
310
00000000000000000000000000000000000000000000000000000000000000000000000000000000000000000000000000000000000000000000000000000000000000000007070000000000000007000000000000000000000000000000070000000000000007070000000000000000000000000000000000000000000000
310
00000000000000000000000000000000000000000000000000000000000000000000000000000000000000000000000000000000000000000000000000000000000000000000000000000000000000000000000000000000000000000000000000000000000000000000000000000000000000000000000000070000000000
310
00000000000700000000000000000000000000070000000000000000000007000000000000000000000000000000000000000000000000000000000000000000000000000000000000000000000000000000000000000000000000000000000000000000000000000000000000000000000000000000000000000000000000
310
00000000000000000000000000000000000000000000000000000000000000000000000000000000000000000007070000000000000000000000070707070707070707070707070707000000000000000000000007070000000000000000000000000000000000000000000000000000000000000000000000000000000000
310
00000000000000000000000000000000000000000000000000000000000000000000000000000000000000000000000000000000000000000000000000000000000000000000000000000000000000000000000000000000000000000000000000070000000000000000000000000000070007000000000000000700070000
310
00000000000000000000000007000000000000000000000000000000000000000000000000000000000000000000000000000000000000000000000000000000000000000000000000000000000000000000000000000000000000000000000000000000000000000000000000000000000000000000000000000000000000
310
00000000000000000000000000000000000000000000000700000000000000000000000000070000070000000000000007000007000000000000000000000000000700000000000000000000000000000000000000000000000000000000000000000000000000000000000000000000000000000000000000000000000000
310
00000000000000000000000000000000000000000000000000000000000000000000000000000000000000000000000000000000000000000000000000000000000000000000000000000000000700000000000000000000000700000007000000000000000700000007000000000000000000000007000000000000000000
310
00000000000000000000000000000000000000000000000000000000000000000000000000000000000000000000000000000000000000000000000000000000000000000000000000000000000000000000000000000000000000000000000000000000000000000000000000000000000000000000000000000000000000
310
00000000070000000000000000000700000000070000000000000007000000000700000000000000000007000000000000000000000000000000000000000000000000000000000000000000000000000000000000000000000000000000000000000000000000000000000000000000000000000000000000000000000000
310
00000000000000000000000000000000000000000000000000000000000000000000000000000000000000000000000000000000000000000007070000000000000007000000000007000000000000000700000000000700000000000000070700000000000000000000000000000000000000000000000000000000000000
310
00000000000000000000000000000000000000000000000000000000000000000000000000000000000000000000000000000000000000000000000000000000000000000000000000000000000000000000000000000000000000000000000000000000000000000000000000000000070000000000070000000000000700
310
00000000000007000000000000070000000000070000000000000000000000000000000000000000000000000000000000000000000000000000000000000000000000000000000000000000000000000000000000000000000000000000000000000000000000000000000000000000000000000000000000000000000000
310
00000000000000000000000000000000000000000000000000000000000000000000000000000707000000070000000000000007000000000000000700000000000000070000000707000000000000000000000000000000000000000000000000000000000000000000000000000000000000000000000000000000000000
310
00000000000000000000000000000000000000000000000000000000000000000000000000000000000000000000000000000000000000000000000000000000000000000000000000000000000000000000000000000000000000000000000700000000000000000700000000000000070000000000000000070000000000
310
00000000000000000000000000000000000000000000000000000000000000000000000000000000000000000000000000000000000000000000000000000000000000000000000000000000000000000000000000000000000000000000000000000000000000000000000000000000000000000000000000000000000000
310
00000000000000000000000000000000000000070700000000000000000007000000000000000700000000000000000007070000000000000000000000000000000000000000000000000000000000000000000000000000000000000000000000000000000000000000000000000000000000000000000000000000000000
310
00000000000000000000000000000000000000000000000000000000000000000000000000000000000000000000000000000000000000000000000000000000000000000000000000000000000000000000000700000000000000070000000000000000000000000000000000000000000000000000000000000000000000
310
00000000000000000000000000000000000000000000000000000000000000000000000000000000000000000000000000000000000000000000000000000000000000000000000000000000000000000000000000000000000000000000000000000000000000000000000000000000000000000000000000000000000000
310
00000000000000000007000000000000000700000000000000000000000000000000000000000000000000000000000000000000000000000000000000000000000000000000000000000000000000000000000000000000000000000000000000000000000000000000000000000000000000000000000000000000000000
310
00000000000000000000000000000000000000000000000000000000000000000000000000000000000000000000000000000000000000000000000000000700000000000000070000000000000000000000000000000000000000000000000000000000000000000000000000000000000000000000000000000000000000
310
00000000000000000000000000000000000000000000000000000000000000000000000000000000000000000000000000000000000000000000000000000000000000000000000000000000000000000000000000000000000000000000000000000000000000000000000000000000000000070000000000000007000000
310
00000000000000000000000000000000000000000000000000000000000000000000000000000000000000000000000000000000000000000000000000000000000000000000000000000000000000000000000000000000000000000000000000000000000000000000000000000000000000000000000000000000000000
310
00000000000000000000000000000000000000000000000000000000000000000000000000000000000700000000000000070000000000000000000000000000000000000000000000000000000000000000000000000000000000000000000000000000000000000000000000000000000000000000000000000000000000
310
00000000000000000000000000000000000000000000000000000000000000000000000000000000000000000000000000000000000000000000000000000000000000000000000000000000000000000000000000000000000000000000070000000000000007000000000000000000000000000000000000000000000000
310
00000000000000000000000000000000000000000000000000000000000000000000000000000000000000000000000000000000000000000000000000000000000000000000000000000000000000000000000000000000000000000000000000000000000000000000000000000000000000000000000000000000000000
310
00000000000000000000000000000000000000000700000000000000070000000000000000000000000000000000000000000000000000000000000000000000000000000000000000000000000000000000000000000000000000000000000000000000000000000000000000000000000000000000000000000000000000
310
00000000000000000000000000000000000000000000000000000000000000000000000000000000000000000000000000000000000000000000000000000000000000000000000000070000000000000007000000000000000000000000000000000000000000000000000000000000000000000000000000000000000000
310
00000000000000000000000000000000000000000000000000000000000000000000000000000000000000000000000000000000000000000000000000000000000000000000000000000000000000000000000000000000000000000000000000000000000000000000000000000000000000000000000000000000000007
310
00000000000000070000000000000000000000000000000000000000000000000000000000000000000000000000000000000000000000000000000000000000000000000000000000000000000000000000000000000000000000000000000000000000000000000000000000000000000000000000000000000000000000
310
00000000000000000000000000000000000000000000000000000000000000000000000000000000000000000000000000000000070000000000000007000000000000000000000000000000000000000000000000000000000000000000000000000000000000000000000000000000000000000000000000000000000000
310
00000000000000000000000000000000000000000000000000000000000000000000000000000000000000000000000000000000000000000000000000000000000000000000000000000000000000000000000000000000000000000000000000000000000000000007000000000000000700000000000000000000000000
310
00000000000000000000000000000000000000000000000000000000000000000000000000000000000000000000000000000000000000000000000000000000000000000000000000000000000000000000000000000000000000000000000000000000000000000000000000000000000000000000000000000000000000
310
00000000000000000000000000000000000000000000000000000000000000070000000000000007000000000000000000000000000000000000000000000000000000000000000000000000000000000000000000000000000000000000000000000000000000000000000000000000000000000000000000000000000000
310
00000000000000000000000000000000000000000000000000000000000000000000000000000000000000000000000000000000000000000000000000000000000000000000000000000000000000000000000007000000000000000700000000000000000000000000000000000000000000000000000000000000000000
310
00000000000000000000000000000000000000000000000000000000000000000000000000000000000000000000000000000000000000000000000000000000000000000000000000000000000000000000000000000000000000000000000000000000000000000000000000000000000000000000000000000000000000
310
00000000000000000000070000000000000007000000000000000000000000000000000000000000000000000000000000000000000000000000000000000000000000000000000000000000000000000000000000000000000000000000000000000000000000000000000000000000000000000000000000000000000000
310
00000000000000000000000000000000000000000000000000000000000000000000000000000000000000000000000000000000000000000000000000000007000000000000000700000000000000000000000000000000000000000000000000000000000000000000000000000000000000000000000000000000000000
310
00000000000000000000000000000000000000000000000000000000000000000000000000000000000000000000000000000000000000000000000000000000000000000000000000000000000000000000000000000000000000000000000000000000000000000000000000000000000000000700000000000000070000
310
00000000000000000000000000000000000000000000000000000000000000000000000000000000000000000000000000000000000000000000000000000000000000000000000000000000000000000000000000000000000000000000000000000000000000000000000000000000000000000000000000000000000000
310
00000000000000000000000000000000000000000000000000000000000000000000000000000000000007000000000000000700000000000000000000000000000000000000000000000000000000000000000000000000000000000000000000000000000000000000000000000000000000000000000000000000000000
310
00000000000000000000000000000000000000000000000000000000000000000000000000000000000000000000000000000000000000000000000000000000000000000000000000000000000000000000000000000000000000000000000700000000000000070000000000000000000000000000000000000000000000
310
00000000000000000000000000000000000000000000000000000000000000000000000000000000000000000000000000000000000000000000000000000000000000000000000000000000000000000000000000000000000000000000000000000000000000000000000000000000000000000000000000000000000000
310
00000000000000000000000000000000000000000007000000000000000700000000000000000000000000000000000000000000000000000000000000000000000000000000000000000000000000000000000000000000000000000000000000000000000000000000000000000000000000000000000000000000000000
310
00000000000000000000000000000000000000000000000000000000000000000000000000000000000000000000000000000000000000000000000000000000000000000000000000000700000000000000070000000000000000000000000000000000000000000000000000000000000000000000000000000000000000
310
00000000000000000000000000000000000000000000000000000000000000000000000000000000000000000000000000000000000000000000000000000000000000000000000000000000000000000000000000000000000000000000000000000000000000000000000000000000000000000000000000000000000000
310
07000000000000000700000000000000000000000000000000000000000000000000000000000000000000000000000000000000000000000000000000000000000000000000000000000000000000000000000000000000000000000000000000000000000000000000000000000000000000000000000000000000000000
310
00000000000000000000000000000000000000000000000000000000000000000000000000000000000000000000000000000000000700000000000000070000000000000000000000000000000000000000000000000000000000000000000000000000000000000000000000000000000000000000000000000000000000
310
00000000000000000000000000000000000000000000000000000000000000000000000000000000000000000000000000000000000000000000000000000000000000000000000000000000000000000000000000000000000000000000000000000000000000000000070000000000000007000000000000000000000000
310
00000000000000000000000000000000000000000000000000000000000000000000000000000000000000000000000000000000000000000000000000000000000000000000000000000000000000000000000000000000000000000000000000000000000000000000000000000000000000000000000000000000000000
310
00000000000000000000000000000000000000000000000000000000000000000700000000000000070000000000000000000000000000000000000000000000000000000000000000000000000000000000000000000000000000000000000000000000000000000000000000000000000000000000000000000000000000
310
00000000000000000000000000000000000000000000000000000000000000000000000000000000000000000000000000000000000000000000000000000000000000000000000000000000000000000000000000070000000000000007000000000000000000000000000000000000000000000000000000000000000000
310
00000000000000000000000000000000000000000000000000000000000000000000000000000000000000000000000000000000000000000000000000000000000000000000000000000000000000000000000000000000000000000000000000000000000000000000000000000000000000000000000000000000000000
310
00000000000000000000000700000000000000070000000000000000000000000000000000000000000000000000000000000000000000000000000000000000000000000000000000000000000000000000000000000000000000000000000000000000000000000000000000000000000000000000000000000000000000
310
00000000000000000000000000000000000000000000000000000000000000000000000000000000000000000000000000000000000000000000000000000000070000000000000007000000000000000000000000000000000000000000000000000000000000000000000000000000000000000000000000000000000000
310
00000000000000000000000000000000000000000000000000000000000000000000000000000000000000000000000000000000000000000000000000000000000000000000000000000000000000000000000000000000000000000000000000000000000000000000000000000000000000000007000000000000000700
310
00000000000000000000000000000000000000000000000000000000000000000000000000000000000000000000000000000000000000000000000000000000000000000000000000000000000000000000000000000000000000000000000000000000000000000000000000000000000000000000000000000000000000
310
00000000000000000000000000000000000000000000000000000000000000000000000000000000000000070000000000000007000000000000000000000000000000000000000000000000000000000000000000000000000000000000000000000000000000000000000000000000000000000000000000000000000000
310
00000000000000000000000000000000000000000000000000000000000000000000000000000000000000000000000000000000000000000000000000000000000000000000000000000000000000000000000000000000000000000000000007000000000000000700000000000000000000000000000000000000000000
310
00000000000000000000000000000000000000000000000000000000000000000000000000000000000000000000000000000000000000000000000000000000000000000000000000000000000000000000000000000000000000000000000000000000000000000000000000000000000000000000000000000000000000
310
00000000000000000000000000000000000000000000070000000000000007000000000000000000000000000000000000000000000000000000000000000000000000000000000000000000000000000000000000000000000000000000000000000000000000000000000000000000000000000000000000000000000000
310
00000000000000000000000000000000000000000000000000000000000000000000000000000000000000000000000000000000000000000000000000000000000000000000000000000007000000000000000700000000000000000000000000000000000000000000000000000000000000000000000000000000000000
310
00000000000000000000000000000000000000000000000000000000000000000000000000000000000000000000000000000000000000000000000000000000000000000000000000000000000000000000000000000000000000000000000000000000000000000000000000000000000000000000000000000000000000
310
00070000000000000007000000000000000000000000000000000000000000000000000000000000000000000000000000000000000000000000000000000000000000000000000000000000000000000000000000000000000000000000000000000000000000000000000000000000000000000000000000000000000000
310
00000000000000000000000000000000000000000000000000000000000000000000000000000000000000000000000000000000000007000000000000000700000000000000000000000000000000000000000000000000000000000000000000000000000000000000000000000000000000000000000000000000000000
310
00000000000000000000000000000000000000000000000000000000000000000000000000000000000000000000000000000000000000000000000000000000000000000000000000000000000000000000000000000000000000000000000000000000000000000000000700000000000000070000000000000000000000
310
00000000000000000000000000000000000000000000000000000000000000000000000000000000000000000000000000000000000000000000000000000000000000000000000000000000000000000000000000000000000000000000000000000000000000000000000000000000000000000000000000000000000000
310
00000000000000000000000000000000000000000000000000000000000000000007000000000000000700000000000000000000000000000000000000000000000000000000000000000000000000000000000000000000000000000000000000000000000000000000000000000000000000000000000000000000000000
310
00000000000000000000000000000000000000000000000000000000000000000000000000000000000000000000000000000000000000000000000000000000000000000000000000000000000000000000000000000700000000000000070000000000000000000000000000000000000000000000000000000000000000
310
00000000000000000000000000000000000000000000000000000000000000000000000000000000000000000000000000000000000000000000000000000000000000000000000000000000000000000000000000000000000000000000000000000000000000000000000000000000000000000000000000000000000000
310
00000000000000000000000007070707070707070700000000000000000000000000000000000000000000000000000000000000000000000000000000000000000000000000000000000000000000000000000000000000000000000000000000000000000000000000000000000000000000000000000000000000000000
310
00000000000000000000000000000000000000000000000000000000000000000000000000000000000000000000000000000000000000000000000000000000000707000000000007070000000000000000000000000000000000000000000000000000000000000000000000000000000000000000000000000000000000
310
00000000000000000000000000000000000000000000000000000000000000000000000000000000000000000000000000000000000000000000000000000000000000000000000000000000000000000000000000000000000000000000000000000000000000000000000000000000000000000000070707070707070707
310
00000000000000000000000000000000000000000000000000000000000000000000000000000000000000000000000000000000000000000000000000000000000000000000000000000000000000000000000000000000000000000000000000000000000000000000000000000000000000000000000000000000000000
310
00000000000000000000000000000000000000000000000000000000000000000000000000000000000000000700000000000000070000000000000000000000000000000000000000000000000000000000000000000000000000000000000000000000000000000000000000000000000000000000000000000000000000
310
00000000000000000000000000000000000000000000000000000000000000000000000000000000000000000000000000000000000000000000000000000000000000000000000000000000000000000000000000000000000000000000000000070000000000000007000000000000000000000000000000000000000000
310
00000000000000000000000000000000000000000000000000000000000000000000000000000000000000000000000000000000000000000000000000000000000000000000000000000000000000000000000000000000000000000000000000000000000000000000000000000000000000000000000000000000000000
310
00000000000000000000000000000000000000000000000700000000000000070000000000000000000000000000000000000000000000000000000000000000000000000000000000000000000000000000000000000000000000000000000000000000000000000000000000000000000000000000000000000000000000
310
00000000000000000000000000000000000000000000000000000000000000000000000000000000000000000000000000000000000000000000000000000000000000000000000000000000070000000000000007000000000000000000000000000000000000000000000000000000000000000000000000000000000000
310
00000000000000000000000000000000000000000000000000000000000000000000000000000000000000000000000000000000000000000000000000000000000000000000000000000000000000000000000000000000000000000000000000000000000000000000000000000000000000000000000000000000000000
310
00000707070000000707070000000000000000000000000000000000000000000000000000000000000000000000000000000000000000000000000000000000000000000000000000000000000000000000000000000000000000000000000000000000000000000000000000000000000000000000000000000000000000
310
00000000000000000000000000000000000000000000000000000000000000000000000000000000000000000000000000000000000000070007070707070007000000000000000000000000000000000000000000000000000000000000000000000000000000000000000000000000000000000000000000000000000000
310
00000000000000000000000000000000000000000000000000000000000000000000000000000000000000000000000000000000000000000000000000000000000000000000000000000000000000000000000000000000000000000000000000000000000000000000000007000000000000000700000000000000000000
310
00000000000000000000000000000000000000000000000000000000000000000000000000000000000000000000000000000000000000000000000000000000000000000000000000000000000000000000000000000000000000000000000000000000000000000000000000000000000000000000000000000000000000
310
00000000000000000000000000000000000000000000000000000000000000000000070000000000000007000000000000000000000000000000000000000000000000000000000000000000000000000000000000000000000000000000000000000000000000000000000000000000000000000000000000000000000000
310
00000000000000000000000000000000000000000000000000000000000000000000000000000000000000000000000000000000000000000000000000000000000000000000000000000000000000000000000000000007000000000000000700000000000000000000000000000000000000000000000000000000000000
310
00000000000000000000000000000000000000000000000000000000000000000000000000000000000000000000000000000000000000000000000000000000000000000000000000000000000000000000000000000000000000000000000000000000000000000000000000000000000000000000000000000000000000
310
00000000000000000000000000070000000000000007000000000000000000000000000000000000000000000000000000000000000000000000000000000000000000000000000000000000000000000000000000000000000000000000000000000000000000000000000000000000000000000000000000000000000000
310
00000000000000000000000000000000000000000000000000000000000000000000000000000000000000000000000000000000000000000000000000000000000007000000000000000700000000000000000000000000000000000000000000000000000000000000000000000000000000000000000000000000000000
310
00000000000000000000000000000000000000000000000000000000000000000000000000000000000000000000000000000000000000000000000000000000000000000000000000000000000000000000000000000000000000000000000000000000000000000000000000000000000000000000000700000000000000
310
07000000000000000000000000000000000000000000000000000000000000000000000000000000000000000000000000000000000000000000000000000000000000000000000000000000000000000000000000000000000000000000000000000000000000000000000000000000000000000000000000000000000000
310
00000000000000000000000000000000000000000000000000000000000000000000000000000000000000000007000000000000000700000000000000000000000000000000000000000000000000000000000000000000000000000000000000000000000000000000000000000000000000000000000000000000000000
310
00000000000000000000000000000000000000000000000000000000000000000000000000000000000000000000000000000000000000000000000000000000000000000000000000000000000000000000000000000000000000000000000000000700000000000000070000000000000000000000000000000000000000
310
00000000000000000000000000000000000000000000000000000000000000000000000000000000000000000000000000000000000000000000000000000000000000000000000000000000000000000000000000000000000000000000000000000000000000000000000000000000000000000000000000000000000000
310
00000000000000000000000000000000000000000000000007000000000000000700000000000000000000000000000000000000000000000000000000000000000000000000000000000000000000000000000000000000000000000000000000000000000000000000000000000000000000000000000000000000000000
310
00000000000000000000000000000000000000000000000000000000000000000000000000000000000000000000000000000000000000000000000000000000000000000000000000000000000700000000000000070000000000000000000000000000000000000000000000000000000000000000000000000000000000
310
00000000000000000000000000000000000000000000000000000000000000000000000000000000000000000000000000000000000000000000000000000000000000000000000000000000000000000000000000000000000000000000000000000000000000000000000000000000000000000000000000000000000000
310
00000007000000000000000700000000000000000000000000000000000000000000000000000000000000000000000000000000000000000000000000000000000000000000000000000000000000000000000000000000000000000000000000000000000000000000000000000000000000000000000000000000000000
310
00000000000000000000000000000000000000000000000000000000000000000000000000000000000000000000000000000000000000000707000000000007070000000000000000000000000000000000000000000000000000000000000000000000000000000000000000000000000000000000000000000000000000
310
00000000000000000000000000000000000000000000000000000000000000000000000000000000000000000000000000000000000000000000000000000000000000000000000000000000000000000000000000000000000000000000000000000000000000000000000000000700000000000700000000000000000000
310
00000000000000000000000000000000000000000000000000000000000000000000000000000000000000000000000000000000000000000000000000000000000000000000000000000000000000000000000000000000000000000000000000000000000000000000000000000000000000000000000000000000000000
310
00000000000000000000000000000000000000000000000000000000000000000000000007000000000007000000000000000000000000000000000000000000000000000000000000000000000000000000000000000000000000000000000000000000000000000000000000000000000000000000000000000000000000
310
00000000000000000000000000000000000000000000000000000000000000000000000000000000000000000000000000000000000000000000000000000000000000000000000000000000000000000000000000000000000007070007070000000000000000000000000000000000000000000000000000000000000000
310
00000000000000000000000000000000000000000000000000000000000000000000000000000000000000000000000000000000000000000000000000000000000000000000000000000000000000000000000000000000000000000000000000000000000000000000000000000000000000000000000000000000000000
310
000000000000000000000000000000000000000000000000000000000000000000000000000000000000000000000000000000000000000000000000000000000000000000000000000000000000000000000000000000000000000000000000000000000000000000000000
  0
ENDSEC
  0
EOF
