  0
SECTION
  2
HEADER
  9
$ACADVER
  1
AC1015
  9
$ACADMAINTVER
 70
     6
  9
$DWGCODEPAGE
  3
ANSI_1252
  9
$INSBASE
 10
0.0
 20
0.0
 30
0.0
  9
$EXTMIN
 10
-0.03625
 20
-0.1885
 30
0.0
  9
$EXTMAX
 10
76.03625
 20
235.1885
 30
0.0
  9
$LIMMIN
 10
0.0
 20
0.0
  9
$LIMMAX
 10
12.0
 20
9.0
  9
$ORTHOMODE
 70
     0
  9
$REGENMODE
 70
     1
  9
$FILLMODE
 70
     1
  9
$QTEXTMODE
 70
     0
  9
$MIRRTEXT
 70
     1
  9
$LTSCALE
 40
1.0
  9
$ATTMODE
 70
     1
  9
$TEXTSIZE
 40
0.2
  9
$TRACEWID
 40
0.05
  9
$TEXTSTYLE
  7
Standard
  9
$CLAYER
  8
0
  9
$CELTYPE
  6
ByBlock
  9
$CECOLOR
 62
   256
  9
$CELTSCALE
 40
1.0
  9
$DISPSILH
 70
     0
  9
$DIMSCALE
 40
1.0
  9
$DIMASZ
 40
0.18
  9
$DIMEXO
 40
0.0625
  9
$DIMDLI
 40
0.38
  9
$DIMRND
 40
0.0
  9
$DIMDLE
 40
0.0
  9
$DIMEXE
 40
0.18
  9
$DIMTP
 40
0.0
  9
$DIMTM
 40
0.0
  9
$DIMTXT
 40
0.18
  9
$DIMCEN
 40
0.09
  9
$DIMTSZ
 40
0.0
  9
$DIMTOL
 70
     0
  9
$DIMLIM
 70
     0
  9
$DIMTIH
 70
     1
  9
$DIMTOH
 70
     1
  9
$DIMSE1
 70
     0
  9
$DIMSE2
 70
     0
  9
$DIMTAD
 70
     0
  9
$DIMZIN
 70
     0
  9
$DIMBLK
  1

  9
$DIMASO
 70
     1
  9
$DIMSHO
 70
     1
  9
$DIMPOST
  1

  9
$DIMAPOST
  1

  9
$DIMALT
 70
     0
  9
$DIMALTD
 70
     2
  9
$DIMALTF
 40
25.4
  9
$DIMLFAC
 40
1.0
  9
$DIMTOFL
 70
     0
  9
$DIMTVP
 40
0.0
  9
$DIMTIX
 70
     0
  9
$DIMSOXD
 70
     0
  9
$DIMSAH
 70
     0
  9
$DIMBLK1
  1

  9
$DIMBLK2
  1

  9
$DIMSTYLE
  2
Standard
  9
$DIMCLRD
 70
     0
  9
$DIMCLRE
 70
     0
  9
$DIMCLRT
 70
     0
  9
$DIMTFAC
 40
1.0
  9
$DIMGAP
 40
0.09
  9
$DIMJUST
 70
     0
  9
$DIMSD1
 70
     0
  9
$DIMSD2
 70
     0
  9
$DIMTOLJ
 70
     1
  9
$DIMTZIN
 70
     0
  9
$DIMALTZ
 70
     0
  9
$DIMALTTZ
 70
     0
  9
$DIMUPT
 70
     0
  9
$DIMDEC
 70
     4
  9
$DIMTDEC
 70
     4
  9
$DIMALTU
 70
     2
  9
$DIMALTTD
 70
     2
  9
$DIMTXSTY
  7
Standard
  9
$DIMAUNIT
 70
     0
  9
$DIMADEC
 70
     0
  9
$DIMALTRND
 40
0.0
  9
$DIMAZIN
 70
     0
  9
$DIMDSEP
 70
    46
  9
$DIMATFIT
 70
     3
  9
$DIMFRAC
 70
     0
  9
$DIMLDRBLK
  1

  9
$DIMLUNIT
 70
     2
  9
$DIMLWD
 70
    -2
  9
$DIMLWE
 70
    -2
  9
$DIMTMOVE
 70
     2
  9
$LUNITS
 70
     2
  9
$LUPREC
 70
     4
  9
$SKETCHINC
 40
0.1
  9
$FILLETRAD
 40
0.5
  9
$AUNITS
 70
     0
  9
$AUPREC
 70
     0
  9
$MENU
  1
.
  9
$ELEVATION
 40
0.0
  9
$PELEVATION
 40
0.0
  9
$THICKNESS
 40
0.0
  9
$LIMCHECK
 70
     0
  9
$CHAMFERA
 40
0.5
  9
$CHAMFERB
 40
0.5
  9
$CHAMFERC
 40
1.0
  9
$CHAMFERD
 40
0.0
  9
$SKPOLY
 70
     0
  9
$TDCREATE
 40
2456646.661158854
  9
$TDUCREATE
 40
2456646.619492188
  9
$TDUPDATE
 40
2456646.661303889
  9
$TDUUPDATE
 40
2456646.619637222
  9
$TDINDWG
 40
0.0001448727
  9
$TDUSRTIMER
 40
0.0001448727
  9
$USRTIMER
 70
     1
  9
$ANGBASE
 50
0.0
  9
$ANGDIR
 70
     0
  9
$PDMODE
 70
     0
  9
$PDSIZE
 40
0.0
  9
$PLINEWID
 40
0.0
  9
$SPLFRAME
 70
     0
  9
$SPLINETYPE
 70
     6
  9
$SPLINESEGS
 70
     8
  9
$HANDSEED
  5
41B
  9
$SURFTAB1
 70
     6
  9
$SURFTAB2
 70
     6
  9
$SURFTYPE
 70
     6
  9
$SURFU
 70
     6
  9
$SURFV
 70
     6
  9
$UCSBASE
  2

  9
$UCSNAME
  2

  9
$UCSORG
 10
0.0
 20
0.0
 30
0.0
  9
$UCSXDIR
 10
1.0
 20
0.0
 30
0.0
  9
$UCSYDIR
 10
0.0
 20
1.0
 30
0.0
  9
$UCSORTHOREF
  2

  9
$UCSORTHOVIEW
 70
     0
  9
$UCSORGTOP
 10
0.0
 20
0.0
 30
0.0
  9
$UCSORGBOTTOM
 10
0.0
 20
0.0
 30
0.0
  9
$UCSORGLEFT
 10
0.0
 20
0.0
 30
0.0
  9
$UCSORGRIGHT
 10
0.0
 20
0.0
 30
0.0
  9
$UCSORGFRONT
 10
0.0
 20
0.0
 30
0.0
  9
$UCSORGBACK
 10
0.0
 20
0.0
 30
0.0
  9
$PUCSBASE
  2

  9
$PUCSNAME
  2

  9
$PUCSORG
 10
0.0
 20
0.0
 30
0.0
  9
$PUCSXDIR
 10
1.0
 20
0.0
 30
0.0
  9
$PUCSYDIR
 10
0.0
 20
1.0
 30
0.0
  9
$PUCSORTHOREF
  2

  9
$PUCSORTHOVIEW
 70
     0
  9
$PUCSORGTOP
 10
0.0
 20
0.0
 30
0.0
  9
$PUCSORGBOTTOM
 10
0.0
 20
0.0
 30
0.0
  9
$PUCSORGLEFT
 10
0.0
 20
0.0
 30
0.0
  9
$PUCSORGRIGHT
 10
0.0
 20
0.0
 30
0.0
  9
$PUCSORGFRONT
 10
0.0
 20
0.0
 30
0.0
  9
$PUCSORGBACK
 10
0.0
 20
0.0
 30
0.0
  9
$USERI1
 70
     0
  9
$USERI2
 70
     0
  9
$USERI3
 70
     0
  9
$USERI4
 70
     0
  9
$USERI5
 70
     0
  9
$USERR1
 40
0.0
  9
$USERR2
 40
0.0
  9
$USERR3
 40
0.0
  9
$USERR4
 40
0.0
  9
$USERR5
 40
0.0
  9
$WORLDVIEW
 70
     1
  9
$SHADEDGE
 70
     3
  9
$SHADEDIF
 70
    70
  9
$TILEMODE
 70
     1
  9
$MAXACTVP
 70
    64
  9
$PINSBASE
 10
0.0
 20
0.0
 30
0.0
  9
$PLIMCHECK
 70
     0
  9
$PEXTMIN
 10
1.000000000000E+20
 20
1.000000000000E+20
 30
1.000000000000E+20
  9
$PEXTMAX
 10
-1.000000000000E+20
 20
-1.000000000000E+20
 30
-1.000000000000E+20
  9
$PLIMMIN
 10
0.0
 20
0.0
  9
$PLIMMAX
 10
12.0
 20
9.0
  9
$UNITMODE
 70
     0
  9
$VISRETAIN
 70
     1
  9
$PLINEGEN
 70
     0
  9
$PSLTSCALE
 70
     1
  9
$TREEDEPTH
 70
  3020
  9
$CMLSTYLE
  2
Standard
  9
$CMLJUST
 70
     0
  9
$CMLSCALE
 40
1.0
  9
$PROXYGRAPHICS
 70
     1
  9
$MEASUREMENT
 70
     0
  9
$CELWEIGHT
370
    -1
  9
$ENDCAPS
280
     0
  9
$JOINSTYLE
280
     0
  9
$LWDISPLAY
290
     0
  9
$INSUNITS
 70
     0
  9
$HYPERLINKBASE
  1

  9
$STYLESHEET
  1

  9
$XEDIT
290
     1
  9
$CEPSNTYPE
380
     0
  9
$PSTYLEMODE
290
     1
  9
$FINGERPRINTGUID
  2
{E7E87551-18D7-4DA2-A94F-80DDF588CC40}
  9
$VERSIONGUID
  2
{FAEB1C32-E019-11D5-929B-00C0DF256EC4}
  9
$EXTNAMES
290
     1
  9
$PSVPSCALE
 40
0.0
  9
$OLESTARTUP
290
     0
  0
ENDSEC
  0
SECTION
  2
CLASSES
  0
CLASS
  1
ACDBDICTIONARYWDFLT
  2
AcDbDictionaryWithDefault
  3
ObjectDBX Classes
 90
        0
280
     0
281
     0
  0
CLASS
  1
SCALE
  2
AcDbScale
  3
ObjectDBX Classes
 90
     1153
280
     0
281
     0
  0
CLASS
  1
DICTIONARYVAR
  2
AcDbDictionaryVar
  3
ObjectDBX Classes
 90
        0
280
     0
281
     0
  0
CLASS
  1
ACDBPLACEHOLDER
  2
AcDbPlaceHolder
  3
ObjectDBX Classes
 90
        0
280
     0
281
     0
  0
CLASS
  1
LAYOUT
  2
AcDbLayout
  3
ObjectDBX Classes
 90
        0
280
     0
281
     0
  0
ENDSEC
  0
SECTION
  2
TABLES
  0
TABLE
  2
VPORT
  5
8
330
0
100
AcDbSymbolTable
 70
     1
  0
VPORT
  5
3EE
330
8
100
AcDbSymbolTableRecord
100
AcDbViewportTableRecord
  2
*Active
 70
     0
 10
0.0
 20
0.0
 11
1.0
 21
1.0
 12
38.0
 22
117.5
 13
0.0
 23
0.0
 14
0.5
 24
0.5
 15
0.5
 25
0.5
 16
0.0
 26
0.0
 36
1.0
 17
0.0
 27
0.0
 37
0.0
 40
240.08454
 41
1.319001386963
 42
50.0
 43
0.0
 44
0.0
 50
0.0
 51
0.0
 71
    16
 72
   100
 73
     1
 74
     3
 75
     0
 76
     0
 77
     0
 78
     0
281
     0
 65
     1
110
0.0
120
0.0
130
0.0
111
1.0
121
0.0
131
0.0
112
0.0
122
1.0
132
0.0
 79
     0
146
0.0
  0
ENDTAB
  0
TABLE
  2
LTYPE
  5
5
330
0
100
AcDbSymbolTable
 70
     1
  0
LTYPE
  5
14
330
5
100
AcDbSymbolTableRecord
100
AcDbLinetypeTableRecord
  2
ByBlock
 70
     0
  3

 72
    65
 73
     0
 40
0.0
  0
LTYPE
  5
15
330
5
100
AcDbSymbolTableRecord
100
AcDbLinetypeTableRecord
  2
ByLayer
 70
     0
  3

 72
    65
 73
     0
 40
0.0
  0
LTYPE
  5
16
330
5
100
AcDbSymbolTableRecord
100
AcDbLinetypeTableRecord
  2
Continuous
 70
     0
  3
Solid line
 72
    65
 73
     0
 40
0.0
  0
ENDTAB
  0
TABLE
  2
LAYER
  5
2
330
0
100
AcDbSymbolTable
 70
     1
  0
LAYER
  5
10
330
2
100
AcDbSymbolTableRecord
100
AcDbLayerTableRecord
  2
0
 70
     0
 62
     7
  6
Continuous
370
    -3
390
F
  0
ENDTAB
  0
TABLE
  2
STYLE
  5
3
330
0
100
AcDbSymbolTable
 70
     1
  0
STYLE
  5
11
330
3
100
AcDbSymbolTableRecord
100
AcDbTextStyleTableRecord
  2
Standard
 70
     0
 40
0.0
 41
1.0
 50
0.0
 71
     0
 42
0.2
  3
txt
  4

  0
ENDTAB
  0
TABLE
  2
VIEW
  5
6
330
0
100
AcDbSymbolTable
 70
     0
  0
ENDTAB
  0
TABLE
  2
UCS
  5
7
330
0
100
AcDbSymbolTable
 70
     0
  0
ENDTAB
  0
TABLE
  2
APPID
  5
9
330
0
100
AcDbSymbolTable
 70
     1
  0
APPID
  5
12
330
9
100
AcDbSymbolTableRecord
100
AcDbRegAppTableRecord
  2
ACAD
 70
     0
  0
ENDTAB
  0
TABLE
  2
DIMSTYLE
  5
A
330
0
100
AcDbSymbolTable
 70
     1
100
AcDbDimStyleTable
  0
DIMSTYLE
105
20
330
A
100
AcDbSymbolTableRecord
100
AcDbDimStyleTableRecord
  2
Standard
 70
     0
340
11
  0
ENDTAB
  0
TABLE
  2
BLOCK_RECORD
  5
1
330
0
100
AcDbSymbolTable
 70
     0
  0
BLOCK_RECORD
  5
1D
330
1
100
AcDbSymbolTableRecord
100
AcDbBlockTableRecord
  2
*Model_Space
340
1E
  0
BLOCK_RECORD
  5
1B
330
1
100
AcDbSymbolTableRecord
100
AcDbBlockTableRecord
  2
*Paper_Space
340
1C
  0
ENDTAB
  0
ENDSEC
  0
SECTION
  2
BLOCKS
  0
BLOCK
  5
3F1
330
1D
100
AcDbEntity
  8
0
100
AcDbBlockBegin
  2
*Model_Space
 70
     0
 10
0.0
 20
0.0
 30
0.0
  3
*Model_Space
  1
*Model_Space
  0
ENDBLK
  5
3F2
330
1D
100
AcDbEntity
  8
0
100
AcDbBlockEnd
  0
BLOCK
  5
3EF
330
1B
100
AcDbEntity
 67
     1
  8
0
100
AcDbBlockBegin
  2
*Paper_Space
 70
     0
 10
0.0
 20
0.0
 30
0.0
  3
*Paper_Space
  1
*Paper_Space
  0
ENDBLK
  5
3F0
330
1B
100
AcDbEntity
 67
     1
  8
0
100
AcDbBlockEnd
  0
ENDSEC
  0
SECTION
  2
ENTITIES
  0
LINE
  5
21
330
1D
100
AcDbEntity
  8
0
100
AcDbLine
 10
15.61085
 20
68.3235
 30
0.0
 11
17.86325
 21
68.1885
 31
0.0
  0
LINE
  5
22
330
1D
100
AcDbEntity
  8
0
100
AcDbLine
 10
17.86325
 20
68.1885
 30
0.0
 11
19.59325
 21
68.3235
 31
0.0
  0
LINE
  5
23
330
1D
100
AcDbEntity
  8
0
100
AcDbLine
 10
19.59325
 20
68.3235
 30
0.0
 11
20.76355
 21
68.6835
 31
0.0
  0
LINE
  5
24
330
1D
100
AcDbEntity
  8
0
100
AcDbLine
 10
28.43385
 20
67.4485
 30
0.0
 11
29.95395
 21
67.3325
 31
0.0
  0
LINE
  5
25
330
1D
100
AcDbEntity
  8
0
100
AcDbLine
 10
27.95145
 20
67.4025
 30
0.0
 11
28.71985
 21
67.1885
 31
0.0
  0
LINE
  5
26
330
1D
100
AcDbEntity
  8
0
100
AcDbLine
 10
27.36915
 20
67.9025
 30
0.0
 11
27.95145
 21
67.4025
 31
0.0
  0
LINE
  5
27
330
1D
100
AcDbEntity
  8
0
100
AcDbLine
 10
27.36915
 20
67.9025
 30
0.0
 11
28.43385
 21
67.4485
 31
0.0
  0
LINE
  5
28
330
1D
100
AcDbEntity
  8
0
100
AcDbLine
 10
27.16035
 20
67.9025
 30
0.0
 11
27.36915
 21
67.9025
 31
0.0
  0
LINE
  5
29
330
1D
100
AcDbEntity
  8
0
100
AcDbLine
 10
27.16035
 20
67.9025
 30
0.0
 11
27.95145
 21
67.4025
 31
0.0
  0
LINE
  5
2A
330
1D
100
AcDbEntity
  8
0
100
AcDbLine
 10
13.04755
 20
68.6835
 30
0.0
 11
15.61085
 21
68.3235
 31
0.0
  0
LINE
  5
2B
330
1D
100
AcDbEntity
  8
0
100
AcDbLine
 10
0.25745
 20
73.8035
 30
0.0
 11
1.25205
 21
72.9025
 31
0.0
  0
LINE
  5
2C
330
1D
100
AcDbEntity
  8
0
100
AcDbLine
 10
10.23765
 20
69.2845
 30
0.0
 11
13.04755
 21
68.6835
 31
0.0
  0
LINE
  5
2D
330
1D
100
AcDbEntity
  8
0
100
AcDbLine
 10
7.45505
 20
70.0805
 30
0.0
 11
10.23765
 21
69.2845
 31
0.0
  0
LINE
  5
2E
330
1D
100
AcDbEntity
  8
0
100
AcDbLine
 10
4.96695
 20
70.9815
 30
0.0
 11
7.45505
 21
70.0805
 31
0.0
  0
LINE
  5
2F
330
1D
100
AcDbEntity
  8
0
100
AcDbLine
 10
2.82945
 20
71.9415
 30
0.0
 11
4.96695
 21
70.9815
 31
0.0
  0
LINE
  5
30
330
1D
100
AcDbEntity
  8
0
100
AcDbLine
 10
1.25205
 20
72.9025
 30
0.0
 11
2.82945
 21
71.9415
 31
0.0
  0
LINE
  5
31
330
1D
100
AcDbEntity
  8
0
100
AcDbLine
 10
-0.03625
 20
74.5995
 30
0.0
 11
0.25745
 21
73.8035
 31
0.0
  0
LINE
  5
32
330
1D
100
AcDbEntity
  8
0
100
AcDbLine
 10
-0.03625
 20
74.5995
 30
0.0
 11
4.454033020579
 21
92.13325327561
 31
0.0
  0
LINE
  5
33
330
1D
100
AcDbEntity
  8
0
100
AcDbLine
 10
-0.03625
 20
74.5995
 30
0.0
 11
4.454033020579
 21
92.13325327561
 31
0.0
  0
LINE
  5
34
330
1D
100
AcDbEntity
  8
0
100
AcDbLine
 10
20.76355
 20
68.6835
 30
0.0
 11
21.25155
 21
69.2845
 31
0.0
  0
LINE
  5
35
330
1D
100
AcDbEntity
  8
0
100
AcDbLine
 10
21.25155
 20
69.2845
 30
0.0
 11
25.697891145831
 21
86.647232523396
 31
0.0
  0
LINE
  5
36
330
1D
100
AcDbEntity
  8
0
100
AcDbLine
 10
21.25155
 20
69.2845
 30
0.0
 11
25.697891145831
 21
86.647232523396
 31
0.0
  0
LINE
  5
37
330
1D
100
AcDbEntity
  8
0
100
AcDbLine
 10
26.89835
 20
68.6175
 30
0.0
 11
27.16035
 21
67.9025
 31
0.0
  0
LINE
  5
38
330
1D
100
AcDbEntity
  8
0
100
AcDbLine
 10
26.89835
 20
68.6175
 30
0.0
 11
26.89835
 21
77.7595
 31
0.0
  0
LINE
  5
39
330
1D
100
AcDbEntity
  8
0
100
AcDbLine
 10
30.37355
 20
67.1885
 30
0.0
 11
30.57255
 21
67.1885
 31
0.0
  0
LINE
  5
3A
330
1D
100
AcDbEntity
  8
0
100
AcDbLine
 10
29.95395
 20
67.3325
 30
0.0
 11
30.57255
 21
67.39591468254
 31
0.0
  0
LINE
  5
3B
330
1D
100
AcDbEntity
  8
0
100
AcDbLine
 10
29.95395
 20
67.3325
 30
0.0
 11
30.57255
 21
67.289626437888
 31
0.0
  0
LINE
  5
3C
330
1D
100
AcDbEntity
  8
0
100
AcDbLine
 10
29.19885
 20
67.1885
 30
0.0
 11
30.37355
 21
67.1885
 31
0.0
  0
LINE
  5
3D
330
1D
100
AcDbEntity
  8
0
100
AcDbLine
 10
28.71985
 20
67.1885
 30
0.0
 11
29.19885
 21
67.1885
 31
0.0
  0
LINE
  5
3E
330
1D
100
AcDbEntity
  8
0
100
AcDbLine
 10
3.44765
 20
93.2245
 30
0.0
 11
3.72625
 21
92.8055
 31
0.0
  0
LINE
  5
3F
330
1D
100
AcDbEntity
  8
0
100
AcDbLine
 10
4.82835
 20
91.7875
 30
0.0
 11
6.62235
 21
90.6915
 31
0.0
  0
LINE
  5
40
330
1D
100
AcDbEntity
  8
0
100
AcDbLine
 10
3.72625
 20
92.8055
 30
0.0
 11
4.82835
 21
91.7875
 31
0.0
  0
LINE
  5
41
330
1D
100
AcDbEntity
  8
0
100
AcDbLine
 10
3.11515
 20
94.1375
 30
0.0
 11
3.13985
 21
94.8865
 31
0.0
  0
LINE
  5
42
330
1D
100
AcDbEntity
  8
0
100
AcDbLine
 10
3.11515
 20
94.1375
 30
0.0
 11
3.44765
 21
93.2245
 31
0.0
  0
LINE
  5
43
330
1D
100
AcDbEntity
  8
0
100
AcDbLine
 10
23.60565
 20
86.4515
 30
0.0
 11
25.57415
 21
86.6075
 31
0.0
  0
LINE
  5
44
330
1D
100
AcDbEntity
  8
0
100
AcDbLine
 10
25.57415
 20
86.6075
 30
0.0
 11
26.87595
 21
87.0255
 31
0.0
  0
LINE
  5
45
330
1D
100
AcDbEntity
  8
0
100
AcDbLine
 10
26.87595
 20
87.0255
 30
0.0
 11
27.32885
 21
87.2625
 31
0.0
  0
LINE
  5
46
330
1D
100
AcDbEntity
  8
0
100
AcDbLine
 10
21.03195
 20
86.6075
 30
0.0
 11
23.60565
 21
86.4515
 31
0.0
  0
LINE
  5
47
330
1D
100
AcDbEntity
  8
0
100
AcDbLine
 10
18.11615
 20
87.0255
 30
0.0
 11
21.03195
 21
86.6075
 31
0.0
  0
LINE
  5
48
330
1D
100
AcDbEntity
  8
0
100
AcDbLine
 10
6.62235
 20
90.6915
 30
0.0
 11
9.06525
 21
89.5955
 31
0.0
  0
LINE
  5
49
330
1D
100
AcDbEntity
  8
0
100
AcDbLine
 10
9.06525
 20
89.5955
 30
0.0
 11
11.89765
 21
88.5775
 31
0.0
  0
LINE
  5
4A
330
1D
100
AcDbEntity
  8
0
100
AcDbLine
 10
15.04005
 20
90.4965
 30
0.0
 11
15.32705
 21
88.9575
 31
0.0
  0
LINE
  5
4B
330
1D
100
AcDbEntity
  8
0
100
AcDbLine
 10
15.04005
 20
90.4965
 30
0.0
 11
15.04005
 21
147.1885
 31
0.0
  0
LINE
  5
4C
330
1D
100
AcDbEntity
  8
0
100
AcDbLine
 10
15.32705
 20
88.9575
 30
0.0
 11
15.99675
 21
88.1885
 31
0.0
  0
LINE
  5
4D
330
1D
100
AcDbEntity
  8
0
100
AcDbLine
 10
22.45425
 20
88.1885
 30
0.0
 11
27.04635
 21
88.1885
 31
0.0
  0
LINE
  5
4E
330
1D
100
AcDbEntity
  8
0
100
AcDbLine
 10
27.04635
 20
88.1885
 30
0.0
 11
30.57255
 21
88.1885
 31
0.0
  0
LINE
  5
4F
330
1D
100
AcDbEntity
  8
0
100
AcDbLine
 10
19.01025
 20
88.1885
 30
0.0
 11
22.45425
 21
88.1885
 31
0.0
  0
LINE
  5
50
330
1D
100
AcDbEntity
  8
0
100
AcDbLine
 10
16.80995
 20
88.1885
 30
0.0
 11
18.595937310398
 21
88.1885
 31
0.0
  0
LINE
  5
51
330
1D
100
AcDbEntity
  8
0
100
AcDbLine
 10
16.80995
 20
88.1885
 30
0.0
 11
19.01025
 21
88.1885
 31
0.0
  0
LINE
  5
52
330
1D
100
AcDbEntity
  8
0
100
AcDbLine
 10
15.99675
 20
88.1885
 30
0.0
 11
16.80995
 21
88.1885
 31
0.0
  0
LINE
  5
53
330
1D
100
AcDbEntity
  8
0
100
AcDbLine
 10
11.89765
 20
88.5775
 30
0.0
 11
14.99145
 21
87.6905
 31
0.0
  0
LINE
  5
54
330
1D
100
AcDbEntity
  8
0
100
AcDbLine
 10
14.99145
 20
87.6905
 30
0.0
 11
18.11615
 21
87.0255
 31
0.0
  0
LINE
  5
55
330
1D
100
AcDbEntity
  8
0
100
AcDbLine
 10
6.96105
 20
189.6505
 30
0.0
 11
7.83795
 21
189.1885
 31
0.0
  0
LINE
  5
56
330
1D
100
AcDbEntity
  8
0
100
AcDbLine
 10
6.96105
 20
189.6505
 30
0.0
 11
8.10095
 21
189.6505
 31
0.0
  0
LINE
  5
57
330
1D
100
AcDbEntity
  8
0
100
AcDbLine
 10
6.96105
 20
189.6505
 30
0.0
 11
6.96105
 21
190.7265
 31
0.0
  0
LINE
  5
58
330
1D
100
AcDbEntity
  8
0
100
AcDbLine
 10
6.96105
 20
190.7265
 30
0.0
 11
7.83795
 21
191.1885
 31
0.0
  0
LINE
  5
59
330
1D
100
AcDbEntity
  8
0
100
AcDbLine
 10
6.96105
 20
190.7265
 30
0.0
 11
8.10095
 21
190.7265
 31
0.0
  0
LINE
  5
5A
330
1D
100
AcDbEntity
  8
0
100
AcDbLine
 10
6.96105
 20
190.7265
 30
0.0
 11
6.96105
 21
189.6505
 31
0.0
  0
LINE
  5
5B
330
1D
100
AcDbEntity
  8
0
100
AcDbLine
 10
6.96105
 20
187.6505
 30
0.0
 11
7.83795
 21
187.1885
 31
0.0
  0
LINE
  5
5C
330
1D
100
AcDbEntity
  8
0
100
AcDbLine
 10
6.96105
 20
187.6505
 30
0.0
 11
8.10095
 21
187.6505
 31
0.0
  0
LINE
  5
5D
330
1D
100
AcDbEntity
  8
0
100
AcDbLine
 10
6.96105
 20
187.6505
 30
0.0
 11
6.96105
 21
188.7265
 31
0.0
  0
LINE
  5
5E
330
1D
100
AcDbEntity
  8
0
100
AcDbLine
 10
6.96105
 20
188.7265
 30
0.0
 11
7.83795
 21
189.1885
 31
0.0
  0
LINE
  5
5F
330
1D
100
AcDbEntity
  8
0
100
AcDbLine
 10
6.96105
 20
188.7265
 30
0.0
 11
8.10095
 21
188.7265
 31
0.0
  0
LINE
  5
60
330
1D
100
AcDbEntity
  8
0
100
AcDbLine
 10
6.96105
 20
188.7265
 30
0.0
 11
6.96105
 21
187.6505
 31
0.0
  0
LINE
  5
61
330
1D
100
AcDbEntity
  8
0
100
AcDbLine
 10
6.96105
 20
191.6505
 30
0.0
 11
7.83795
 21
191.1885
 31
0.0
  0
LINE
  5
62
330
1D
100
AcDbEntity
  8
0
100
AcDbLine
 10
6.96105
 20
191.6505
 30
0.0
 11
8.10095
 21
191.6505
 31
0.0
  0
LINE
  5
63
330
1D
100
AcDbEntity
  8
0
100
AcDbLine
 10
6.96105
 20
191.6505
 30
0.0
 11
6.96105
 21
192.7265
 31
0.0
  0
LINE
  5
64
330
1D
100
AcDbEntity
  8
0
100
AcDbLine
 10
6.96105
 20
192.7265
 30
0.0
 11
7.83795
 21
193.1885
 31
0.0
  0
LINE
  5
65
330
1D
100
AcDbEntity
  8
0
100
AcDbLine
 10
6.96105
 20
192.7265
 30
0.0
 11
8.10095
 21
192.7265
 31
0.0
  0
LINE
  5
66
330
1D
100
AcDbEntity
  8
0
100
AcDbLine
 10
6.96105
 20
192.7265
 30
0.0
 11
6.96105
 21
191.6505
 31
0.0
  0
LINE
  5
67
330
1D
100
AcDbEntity
  8
0
100
AcDbLine
 10
3.13985
 20
94.8865
 30
0.0
 11
15.04005
 21
141.355733038921
 31
0.0
  0
LINE
  5
68
330
1D
100
AcDbEntity
  8
0
100
AcDbLine
 10
18.14925
 20
147.1885
 30
0.0
 11
21.73675
 21
147.1885
 31
0.0
  0
LINE
  5
69
330
1D
100
AcDbEntity
  8
0
100
AcDbLine
 10
15.85325
 20
147.1885
 30
0.0
 11
18.14925
 21
147.1885
 31
0.0
  0
LINE
  5
6A
330
1D
100
AcDbEntity
  8
0
100
AcDbLine
 10
15.04005
 20
147.1885
 30
0.0
 11
15.04005
 21
90.4965
 31
0.0
  0
LINE
  5
6B
330
1D
100
AcDbEntity
  8
0
100
AcDbLine
 10
15.04005
 20
147.1885
 30
0.0
 11
15.85325
 21
147.1885
 31
0.0
  0
LINE
  5
6C
330
1D
100
AcDbEntity
  8
0
100
AcDbLine
 10
24.11225
 20
140.1885
 30
0.0
 11
26.67225
 21
140.1885
 31
0.0
  0
LINE
  5
6D
330
1D
100
AcDbEntity
  8
0
100
AcDbLine
 10
22.57625
 20
140.1885
 30
0.0
 11
24.11225
 21
140.1885
 31
0.0
  0
LINE
  5
6E
330
1D
100
AcDbEntity
  8
0
100
AcDbLine
 10
22.00025
 20
140.1885
 30
0.0
 11
22.57625
 21
140.1885
 31
0.0
  0
LINE
  5
6F
330
1D
100
AcDbEntity
  8
0
100
AcDbLine
 10
22.00025
 20
140.1885
 30
0.0
 11
22.00025
 21
170.3355
 31
0.0
  0
LINE
  5
70
330
1D
100
AcDbEntity
  8
0
100
AcDbLine
 10
26.67225
 20
140.1885
 30
0.0
 11
27.07255
 21
140.1885
 31
0.0
  0
LINE
  5
71
330
1D
100
AcDbEntity
  8
0
100
AcDbLine
 10
26.67225
 20
140.1885
 30
0.0
 11
30.06425
 21
140.1885
 31
0.0
  0
LINE
  5
72
330
1D
100
AcDbEntity
  8
0
100
AcDbLine
 10
27.07255
 20
140.1885
 30
0.0
 11
27.07255
 21
134.8965
 31
0.0
  0
LINE
  5
73
330
1D
100
AcDbEntity
  8
0
100
AcDbLine
 10
27.07255
 20
134.8965
 30
0.0
 11
27.33655
 21
134.5365
 31
0.0
  0
LINE
  5
74
330
1D
100
AcDbEntity
  8
0
100
AcDbLine
 10
27.07255
 20
134.8965
 30
0.0
 11
27.46855
 21
134.8965
 31
0.0
  0
LINE
  5
75
330
1D
100
AcDbEntity
  8
0
100
AcDbLine
 10
27.07255
 20
134.8965
 30
0.0
 11
27.07255
 21
140.1885
 31
0.0
  0
LINE
  5
76
330
1D
100
AcDbEntity
  8
0
100
AcDbLine
 10
26.97255
 20
134.5365
 30
0.0
 11
28.07255
 21
134.5365
 31
0.0
  0
LINE
  5
77
330
1D
100
AcDbEntity
  8
0
100
AcDbLine
 10
26.57255
 20
134.5365
 30
0.0
 11
26.97255
 21
134.5365
 31
0.0
  0
LINE
  5
78
330
1D
100
AcDbEntity
  8
0
100
AcDbLine
 10
26.57255
 20
134.5365
 30
0.0
 11
27.57255
 21
104.5365
 31
0.0
  0
LINE
  5
79
330
1D
100
AcDbEntity
  8
0
100
AcDbLine
 10
21.73675
 20
147.1885
 30
0.0
 11
22.00025
 21
147.1885
 31
0.0
  0
LINE
  5
7A
330
1D
100
AcDbEntity
  8
0
100
AcDbLine
 10
19.75065
 20
147.1885
 30
0.0
 11
22.00025
 21
147.1885
 31
0.0
  0
LINE
  5
7B
330
1D
100
AcDbEntity
  8
0
100
AcDbLine
 10
15.70765
 20
147.1885
 30
0.0
 11
19.75065
 21
147.1885
 31
0.0
  0
LINE
  5
7C
330
1D
100
AcDbEntity
  8
0
100
AcDbLine
 10
13.12465
 20
147.1885
 30
0.0
 11
15.04005
 21
147.1885
 31
0.0
  0
LINE
  5
7D
330
1D
100
AcDbEntity
  8
0
100
AcDbLine
 10
13.12465
 20
147.1885
 30
0.0
 11
15.70765
 21
147.1885
 31
0.0
  0
LINE
  5
7E
330
1D
100
AcDbEntity
  8
0
100
AcDbLine
 10
7.89445
 20
164.1885
 30
0.0
 11
8.29895
 21
164.1885
 31
0.0
  0
LINE
  5
7F
330
1D
100
AcDbEntity
  8
0
100
AcDbLine
 10
7.89445
 20
164.1885
 30
0.0
 11
7.89445
 21
170.1885
 31
0.0
  0
LINE
  5
80
330
1D
100
AcDbEntity
  8
0
100
AcDbLine
 10
8.29895
 20
164.1885
 30
0.0
 11
9.41895
 21
164.1885
 31
0.0
  0
LINE
  5
81
330
1D
100
AcDbEntity
  8
0
100
AcDbLine
 10
7.89445
 20
170.1885
 30
0.0
 11
8.29895
 21
170.1885
 31
0.0
  0
LINE
  5
82
330
1D
100
AcDbEntity
  8
0
100
AcDbLine
 10
7.89445
 20
170.1885
 30
0.0
 11
7.89445
 21
164.1885
 31
0.0
  0
LINE
  5
83
330
1D
100
AcDbEntity
  8
0
100
AcDbLine
 10
8.29895
 20
170.1885
 30
0.0
 11
8.96365
 21
170.1885
 31
0.0
  0
LINE
  5
84
330
1D
100
AcDbEntity
  8
0
100
AcDbLine
 10
8.96365
 20
164.1885
 30
0.0
 11
10.02995
 21
164.1885
 31
0.0
  0
LINE
  5
85
330
1D
100
AcDbEntity
  8
0
100
AcDbLine
 10
8.96365
 20
164.1885
 30
0.0
 11
8.96365
 21
170.1885
 31
0.0
  0
LINE
  5
86
330
1D
100
AcDbEntity
  8
0
100
AcDbLine
 10
10.51365
 20
159.1885
 30
0.0
 11
10.51365
 21
164.1885
 31
0.0
  0
LINE
  5
87
330
1D
100
AcDbEntity
  8
0
100
AcDbLine
 10
10.51365
 20
159.1885
 30
0.0
 11
10.67905
 21
159.1885
 31
0.0
  0
LINE
  5
88
330
1D
100
AcDbEntity
  8
0
100
AcDbLine
 10
10.67905
 20
159.1885
 30
0.0
 11
11.04705
 21
159.1885
 31
0.0
  0
LINE
  5
89
330
1D
100
AcDbEntity
  8
0
100
AcDbLine
 10
10.51365
 20
164.1885
 30
0.0
 11
10.67905
 21
164.1885
 31
0.0
  0
LINE
  5
8A
330
1D
100
AcDbEntity
  8
0
100
AcDbLine
 10
10.51365
 20
164.1885
 30
0.0
 11
10.51365
 21
159.1885
 31
0.0
  0
LINE
  5
8B
330
1D
100
AcDbEntity
  8
0
100
AcDbLine
 10
10.67905
 20
164.1885
 30
0.0
 11
11.04705
 21
164.1885
 31
0.0
  0
LINE
  5
8C
330
1D
100
AcDbEntity
  8
0
100
AcDbLine
 10
9.41895
 20
164.1885
 30
0.0
 11
10.28585
 21
164.1885
 31
0.0
  0
LINE
  5
8D
330
1D
100
AcDbEntity
  8
0
100
AcDbLine
 10
9.41895
 20
164.1885
 30
0.0
 11
10.51365
 21
164.1885
 31
0.0
  0
LINE
  5
8E
330
1D
100
AcDbEntity
  8
0
100
AcDbLine
 10
10.02995
 20
164.1885
 30
0.0
 11
12.98285
 21
164.1885
 31
0.0
  0
LINE
  5
8F
330
1D
100
AcDbEntity
  8
0
100
AcDbLine
 10
10.02995
 20
164.1885
 30
0.0
 11
10.28585
 21
164.1885
 31
0.0
  0
LINE
  5
90
330
1D
100
AcDbEntity
  8
0
100
AcDbLine
 10
8.96365
 20
170.1885
 30
0.0
 11
10.02995
 21
170.1885
 31
0.0
  0
LINE
  5
91
330
1D
100
AcDbEntity
  8
0
100
AcDbLine
 10
8.96365
 20
170.1885
 30
0.0
 11
8.96365
 21
164.1885
 31
0.0
  0
LINE
  5
92
330
1D
100
AcDbEntity
  8
0
100
AcDbLine
 10
10.51365
 20
176.1885
 30
0.0
 11
10.51365
 21
181.1885
 31
0.0
  0
LINE
  5
93
330
1D
100
AcDbEntity
  8
0
100
AcDbLine
 10
10.51365
 20
176.1885
 30
0.0
 11
10.67905
 21
176.1885
 31
0.0
  0
LINE
  5
94
330
1D
100
AcDbEntity
  8
0
100
AcDbLine
 10
10.67905
 20
176.1885
 30
0.0
 11
11.04705
 21
176.1885
 31
0.0
  0
LINE
  5
95
330
1D
100
AcDbEntity
  8
0
100
AcDbLine
 10
7.83795
 20
187.1885
 30
0.0
 11
8.89005
 21
187.1885
 31
0.0
  0
LINE
  5
96
330
1D
100
AcDbEntity
  8
0
100
AcDbLine
 10
8.89005
 20
187.1885
 30
0.0
 11
11.04705
 21
187.1885
 31
0.0
  0
LINE
  5
97
330
1D
100
AcDbEntity
  8
0
100
AcDbLine
 10
10.51365
 20
181.1885
 30
0.0
 11
10.67905
 21
181.1885
 31
0.0
  0
LINE
  5
98
330
1D
100
AcDbEntity
  8
0
100
AcDbLine
 10
10.51365
 20
181.1885
 30
0.0
 11
10.51365
 21
176.1885
 31
0.0
  0
LINE
  5
99
330
1D
100
AcDbEntity
  8
0
100
AcDbLine
 10
10.67905
 20
181.1885
 30
0.0
 11
11.04705
 21
181.1885
 31
0.0
  0
LINE
  5
9A
330
1D
100
AcDbEntity
  8
0
100
AcDbLine
 10
10.02995
 20
170.1885
 30
0.0
 11
12.98285
 21
170.1885
 31
0.0
  0
LINE
  5
9B
330
1D
100
AcDbEntity
  8
0
100
AcDbLine
 10
11.04705
 20
164.1885
 30
0.0
 11
11.04705
 21
149.4965
 31
0.0
  0
LINE
  5
9C
330
1D
100
AcDbEntity
  8
0
100
AcDbLine
 10
8.10095
 20
187.6505
 30
0.0
 11
11.25745
 21
187.6505
 31
0.0
  0
LINE
  5
9D
330
1D
100
AcDbEntity
  8
0
100
AcDbLine
 10
8.10095
 20
189.6505
 30
0.0
 11
11.25745
 21
189.6505
 31
0.0
  0
LINE
  5
9E
330
1D
100
AcDbEntity
  8
0
100
AcDbLine
 10
8.10095
 20
190.7265
 30
0.0
 11
11.25745
 21
190.7265
 31
0.0
  0
LINE
  5
9F
330
1D
100
AcDbEntity
  8
0
100
AcDbLine
 10
8.10095
 20
188.7265
 30
0.0
 11
11.25745
 21
188.7265
 31
0.0
  0
LINE
  5
A0
330
1D
100
AcDbEntity
  8
0
100
AcDbLine
 10
7.83795
 20
189.1885
 30
0.0
 11
8.89005
 21
189.1885
 31
0.0
  0
LINE
  5
A1
330
1D
100
AcDbEntity
  8
0
100
AcDbLine
 10
8.10095
 20
191.6505
 30
0.0
 11
8.89005
 21
191.1885
 31
0.0
  0
LINE
  5
A2
330
1D
100
AcDbEntity
  8
0
100
AcDbLine
 10
8.10095
 20
191.6505
 30
0.0
 11
11.25745
 21
191.6505
 31
0.0
  0
LINE
  5
A3
330
1D
100
AcDbEntity
  8
0
100
AcDbLine
 10
7.83795
 20
191.1885
 30
0.0
 11
8.89005
 21
191.1885
 31
0.0
  0
LINE
  5
A4
330
1D
100
AcDbEntity
  8
0
100
AcDbLine
 10
8.89005
 20
189.1885
 30
0.0
 11
11.87125
 21
189.1885
 31
0.0
  0
LINE
  5
A5
330
1D
100
AcDbEntity
  8
0
100
AcDbLine
 10
8.89005
 20
191.1885
 30
0.0
 11
11.87125
 21
191.1885
 31
0.0
  0
LINE
  5
A6
330
1D
100
AcDbEntity
  8
0
100
AcDbLine
 10
8.10095
 20
192.7265
 30
0.0
 11
11.25745
 21
192.7265
 31
0.0
  0
LINE
  5
A7
330
1D
100
AcDbEntity
  8
0
100
AcDbLine
 10
11.04705
 20
187.1885
 30
0.0
 11
11.04705
 21
170.1885
 31
0.0
  0
LINE
  5
A8
330
1D
100
AcDbEntity
  8
0
100
AcDbLine
 10
11.04705
 20
187.1885
 30
0.0
 11
12.00155
 21
187.1885
 31
0.0
  0
LINE
  5
A9
330
1D
100
AcDbEntity
  8
0
100
AcDbLine
 10
11.25745
 20
187.6505
 30
0.0
 11
16.07995
 21
187.6505
 31
0.0
  0
LINE
  5
AA
330
1D
100
AcDbEntity
  8
0
100
AcDbLine
 10
11.25745
 20
189.6505
 30
0.0
 11
16.07995
 21
189.6505
 31
0.0
  0
LINE
  5
AB
330
1D
100
AcDbEntity
  8
0
100
AcDbLine
 10
11.25745
 20
190.7265
 30
0.0
 11
12.00025
 21
190.7265
 31
0.0
  0
LINE
  5
AC
330
1D
100
AcDbEntity
  8
0
100
AcDbLine
 10
11.25745
 20
188.7265
 30
0.0
 11
16.07995
 21
188.7265
 31
0.0
  0
LINE
  5
AD
330
1D
100
AcDbEntity
  8
0
100
AcDbLine
 10
11.25745
 20
191.6505
 30
0.0
 11
11.87125
 21
191.1885
 31
0.0
  0
LINE
  5
AE
330
1D
100
AcDbEntity
  8
0
100
AcDbLine
 10
11.25745
 20
191.6505
 30
0.0
 11
13.00025
 21
191.6505
 31
0.0
  0
LINE
  5
AF
330
1D
100
AcDbEntity
  8
0
100
AcDbLine
 10
11.25745
 20
192.7265
 30
0.0
 11
13.00025
 21
192.7265
 31
0.0
  0
LINE
  5
B0
330
1D
100
AcDbEntity
  8
0
100
AcDbLine
 10
11.04705
 20
170.1885
 30
0.0
 11
11.04705
 21
187.1885
 31
0.0
  0
LINE
  5
B1
330
1D
100
AcDbEntity
  8
0
100
AcDbLine
 10
11.04705
 20
149.4965
 30
0.0
 11
11.38395
 21
147.9575
 31
0.0
  0
LINE
  5
B2
330
1D
100
AcDbEntity
  8
0
100
AcDbLine
 10
11.04705
 20
149.4965
 30
0.0
 11
11.04705
 21
164.1885
 31
0.0
  0
LINE
  5
B3
330
1D
100
AcDbEntity
  8
0
100
AcDbLine
 10
12.98285
 20
164.1885
 30
0.0
 11
17.49415
 21
164.1885
 31
0.0
  0
LINE
  5
B4
330
1D
100
AcDbEntity
  8
0
100
AcDbLine
 10
13.00025
 20
181.1885
 30
0.0
 11
13.00025
 21
179.1885
 31
0.0
  0
LINE
  5
B5
330
1D
100
AcDbEntity
  8
0
100
AcDbLine
 10
13.00025
 20
181.1885
 30
0.0
 11
13.90025
 21
181.1885
 31
0.0
  0
LINE
  5
B6
330
1D
100
AcDbEntity
  8
0
100
AcDbLine
 10
13.90025
 20
181.1885
 30
0.0
 11
16.30025
 21
181.1885
 31
0.0
  0
LINE
  5
B7
330
1D
100
AcDbEntity
  8
0
100
AcDbLine
 10
13.90025
 20
179.1885
 30
0.0
 11
16.30025
 21
179.1885
 31
0.0
  0
LINE
  5
B8
330
1D
100
AcDbEntity
  8
0
100
AcDbLine
 10
13.00025
 20
179.1885
 30
0.0
 11
13.90025
 21
179.1885
 31
0.0
  0
LINE
  5
B9
330
1D
100
AcDbEntity
  8
0
100
AcDbLine
 10
13.00025
 20
179.1885
 30
0.0
 11
13.00025
 21
181.1885
 31
0.0
  0
LINE
  5
BA
330
1D
100
AcDbEntity
  8
0
100
AcDbLine
 10
12.98285
 20
170.1885
 30
0.0
 11
17.49415
 21
170.1885
 31
0.0
  0
LINE
  5
BB
330
1D
100
AcDbEntity
  8
0
100
AcDbLine
 10
16.00025
 20
175.3355
 30
0.0
 11
16.79225
 21
175.3355
 31
0.0
  0
LINE
  5
BC
330
1D
100
AcDbEntity
  8
0
100
AcDbLine
 10
16.00025
 20
175.3355
 30
0.0
 11
16.00025
 21
170.3355
 31
0.0
  0
LINE
  5
BD
330
1D
100
AcDbEntity
  8
0
100
AcDbLine
 10
16.00025
 20
170.3355
 30
0.0
 11
16.00025
 21
175.3355
 31
0.0
  0
LINE
  5
BE
330
1D
100
AcDbEntity
  8
0
100
AcDbLine
 10
16.00025
 20
170.3355
 30
0.0
 11
16.79225
 21
170.3355
 31
0.0
  0
LINE
  5
BF
330
1D
100
AcDbEntity
  8
0
100
AcDbLine
 10
16.30025
 20
181.1885
 30
0.0
 11
20.30025
 21
181.1885
 31
0.0
  0
LINE
  5
C0
330
1D
100
AcDbEntity
  8
0
100
AcDbLine
 10
16.79225
 20
175.3355
 30
0.0
 11
18.90425
 21
175.3355
 31
0.0
  0
LINE
  5
C1
330
1D
100
AcDbEntity
  8
0
100
AcDbLine
 10
16.79225
 20
170.3355
 30
0.0
 11
18.90425
 21
170.3355
 31
0.0
  0
LINE
  5
C2
330
1D
100
AcDbEntity
  8
0
100
AcDbLine
 10
16.30025
 20
179.1885
 30
0.0
 11
20.30025
 21
179.1885
 31
0.0
  0
LINE
  5
C3
330
1D
100
AcDbEntity
  8
0
100
AcDbLine
 10
17.49415
 20
164.1885
 30
0.0
 11
22.00025
 21
164.1885
 31
0.0
  0
LINE
  5
C4
330
1D
100
AcDbEntity
  8
0
100
AcDbLine
 10
18.90425
 20
175.3355
 30
0.0
 11
22.42425
 21
175.3355
 31
0.0
  0
LINE
  5
C5
330
1D
100
AcDbEntity
  8
0
100
AcDbLine
 10
18.90425
 20
170.3355
 30
0.0
 11
22.00025
 21
170.3355
 31
0.0
  0
LINE
  5
C6
330
1D
100
AcDbEntity
  8
0
100
AcDbLine
 10
18.90425
 20
170.3355
 30
0.0
 11
22.42425
 21
170.3355
 31
0.0
  0
LINE
  5
C7
330
1D
100
AcDbEntity
  8
0
100
AcDbLine
 10
20.30025
 20
179.1885
 30
0.0
 11
22.00025
 21
179.1885
 31
0.0
  0
LINE
  5
C8
330
1D
100
AcDbEntity
  8
0
100
AcDbLine
 10
20.30025
 20
179.1885
 30
0.0
 11
25.60025
 21
179.1885
 31
0.0
  0
LINE
  5
C9
330
1D
100
AcDbEntity
  8
0
100
AcDbLine
 10
22.00025
 20
175.3355
 30
0.0
 11
22.00025
 21
179.1885
 31
0.0
  0
LINE
  5
CA
330
1D
100
AcDbEntity
  8
0
100
AcDbLine
 10
22.42425
 20
170.3355
 30
0.0
 11
27.08825
 21
170.3355
 31
0.0
  0
LINE
  5
CB
330
1D
100
AcDbEntity
  8
0
100
AcDbLine
 10
27.08825
 20
170.3355
 30
0.0
 11
30.04725
 21
170.3355
 31
0.0
  0
LINE
  5
CC
330
1D
100
AcDbEntity
  8
0
100
AcDbLine
 10
27.08825
 20
175.3355
 30
0.0
 11
30.04725
 21
175.3355
 31
0.0
  0
LINE
  5
CD
330
1D
100
AcDbEntity
  8
0
100
AcDbLine
 10
22.42425
 20
175.3355
 30
0.0
 11
27.08825
 21
175.3355
 31
0.0
  0
LINE
  5
CE
330
1D
100
AcDbEntity
  8
0
100
AcDbLine
 10
25.60025
 20
179.1885
 30
0.0
 11
31.60025
 21
179.1885
 31
0.0
  0
LINE
  5
CF
330
1D
100
AcDbEntity
  8
0
100
AcDbLine
 10
22.00025
 20
170.3355
 30
0.0
 11
22.00025
 21
140.1885
 31
0.0
  0
LINE
  5
D0
330
1D
100
AcDbEntity
  8
0
100
AcDbLine
 10
20.30025
 20
181.1885
 30
0.0
 11
25.60025
 21
181.1885
 31
0.0
  0
LINE
  5
D1
330
1D
100
AcDbEntity
  8
0
100
AcDbLine
 10
25.60025
 20
181.1885
 30
0.0
 11
31.60025
 21
181.1885
 31
0.0
  0
LINE
  5
D2
330
1D
100
AcDbEntity
  8
0
100
AcDbLine
 10
22.00025
 20
181.1885
 30
0.0
 11
22.00025
 21
190.1885
 31
0.0
  0
LINE
  5
D3
330
1D
100
AcDbEntity
  8
0
100
AcDbLine
 10
22.00025
 20
179.1885
 30
0.0
 11
22.00025
 21
175.3355
 31
0.0
  0
LINE
  5
D4
330
1D
100
AcDbEntity
  8
0
100
AcDbLine
 10
17.49415
 20
170.1885
 30
0.0
 11
22.00025
 21
170.1885
 31
0.0
  0
LINE
  5
D5
330
1D
100
AcDbEntity
  8
0
100
AcDbLine
 10
18.90835
 20
187.1885
 30
0.0
 11
22.00025
 21
187.1885
 31
0.0
  0
LINE
  5
D6
330
1D
100
AcDbEntity
  8
0
100
AcDbLine
 10
14.69695
 20
187.1885
 30
0.0
 11
18.90835
 21
187.1885
 31
0.0
  0
LINE
  5
D7
330
1D
100
AcDbEntity
  8
0
100
AcDbLine
 10
11.87125
 20
189.1885
 30
0.0
 11
16.60605
 21
189.1885
 31
0.0
  0
LINE
  5
D8
330
1D
100
AcDbEntity
  8
0
100
AcDbLine
 10
16.07995
 20
187.6505
 30
0.0
 11
22.00025
 21
187.6505
 31
0.0
  0
LINE
  5
D9
330
1D
100
AcDbEntity
  8
0
100
AcDbLine
 10
16.07995
 20
188.7265
 30
0.0
 11
22.00025
 21
188.7265
 31
0.0
  0
LINE
  5
DA
330
1D
100
AcDbEntity
  8
0
100
AcDbLine
 10
12.93625
 20
190.1885
 30
0.0
 11
15.43225
 21
190.1885
 31
0.0
  0
LINE
  5
DB
330
1D
100
AcDbEntity
  8
0
100
AcDbLine
 10
12.93625
 20
191.1885
 30
0.0
 11
15.43225
 21
191.1885
 31
0.0
  0
LINE
  5
DC
330
1D
100
AcDbEntity
  8
0
100
AcDbLine
 10
12.00025
 20
191.1885
 30
0.0
 11
12.00025
 21
190.1885
 31
0.0
  0
LINE
  5
DD
330
1D
100
AcDbEntity
  8
0
100
AcDbLine
 10
12.00025
 20
191.1885
 30
0.0
 11
12.93625
 21
191.1885
 31
0.0
  0
LINE
  5
DE
330
1D
100
AcDbEntity
  8
0
100
AcDbLine
 10
12.00025
 20
190.1885
 30
0.0
 11
12.93625
 21
190.1885
 31
0.0
  0
LINE
  5
DF
330
1D
100
AcDbEntity
  8
0
100
AcDbLine
 10
12.00025
 20
190.1885
 30
0.0
 11
12.00025
 21
191.1885
 31
0.0
  0
LINE
  5
E0
330
1D
100
AcDbEntity
  8
0
100
AcDbLine
 10
15.43225
 20
191.1885
 30
0.0
 11
19.59225
 21
191.1885
 31
0.0
  0
LINE
  5
E1
330
1D
100
AcDbEntity
  8
0
100
AcDbLine
 10
15.43225
 20
190.1885
 30
0.0
 11
19.59225
 21
190.1885
 31
0.0
  0
LINE
  5
E2
330
1D
100
AcDbEntity
  8
0
100
AcDbLine
 10
13.90025
 20
193.1885
 30
0.0
 11
16.30025
 21
193.1885
 31
0.0
  0
LINE
  5
E3
330
1D
100
AcDbEntity
  8
0
100
AcDbLine
 10
13.00025
 20
191.1885
 30
0.0
 11
13.00025
 21
193.1885
 31
0.0
  0
LINE
  5
E4
330
1D
100
AcDbEntity
  8
0
100
AcDbLine
 10
13.00025
 20
193.1885
 30
0.0
 11
13.00025
 21
191.1885
 31
0.0
  0
LINE
  5
E5
330
1D
100
AcDbEntity
  8
0
100
AcDbLine
 10
13.00025
 20
193.1885
 30
0.0
 11
13.90025
 21
193.1885
 31
0.0
  0
LINE
  5
E6
330
1D
100
AcDbEntity
  8
0
100
AcDbLine
 10
16.30025
 20
193.1885
 30
0.0
 11
20.30025
 21
193.1885
 31
0.0
  0
LINE
  5
E7
330
1D
100
AcDbEntity
  8
0
100
AcDbLine
 10
17.97495
 20
193.1885
 30
0.0
 11
17.97495
 21
197.9485
 31
0.0
  0
LINE
  5
E8
330
1D
100
AcDbEntity
  8
0
100
AcDbLine
 10
19.59225
 20
190.1885
 30
0.0
 11
22.00025
 21
190.1885
 31
0.0
  0
LINE
  5
E9
330
1D
100
AcDbEntity
  8
0
100
AcDbLine
 10
19.59225
 20
190.1885
 30
0.0
 11
25.10425
 21
190.1885
 31
0.0
  0
LINE
  5
EA
330
1D
100
AcDbEntity
  8
0
100
AcDbLine
 10
22.57625
 20
190.1885
 30
0.0
 11
24.11225
 21
190.1885
 31
0.0
  0
LINE
  5
EB
330
1D
100
AcDbEntity
  8
0
100
AcDbLine
 10
19.59225
 20
191.1885
 30
0.0
 11
25.10425
 21
191.1885
 31
0.0
  0
LINE
  5
EC
330
1D
100
AcDbEntity
  8
0
100
AcDbLine
 10
20.30025
 20
193.1885
 30
0.0
 11
25.60025
 21
193.1885
 31
0.0
  0
LINE
  5
ED
330
1D
100
AcDbEntity
  8
0
100
AcDbLine
 10
22.00025
 20
190.1885
 30
0.0
 11
22.00025
 21
181.1885
 31
0.0
  0
LINE
  5
EE
330
1D
100
AcDbEntity
  8
0
100
AcDbLine
 10
22.00025
 20
190.1885
 30
0.0
 11
22.57625
 21
190.1885
 31
0.0
  0
LINE
  5
EF
330
1D
100
AcDbEntity
  8
0
100
AcDbLine
 10
25.10425
 20
190.1885
 30
0.0
 11
31.34425
 21
190.1885
 31
0.0
  0
LINE
  5
F0
330
1D
100
AcDbEntity
  8
0
100
AcDbLine
 10
26.67225
 20
190.1885
 30
0.0
 11
30.06425
 21
190.1885
 31
0.0
  0
LINE
  5
F1
330
1D
100
AcDbEntity
  8
0
100
AcDbLine
 10
25.10425
 20
191.1885
 30
0.0
 11
31.34425
 21
191.1885
 31
0.0
  0
LINE
  5
F2
330
1D
100
AcDbEntity
  8
0
100
AcDbLine
 10
25.60025
 20
193.1885
 30
0.0
 11
31.60025
 21
193.1885
 31
0.0
  0
LINE
  5
F3
330
1D
100
AcDbEntity
  8
0
100
AcDbLine
 10
24.11225
 20
190.1885
 30
0.0
 11
26.67225
 21
190.1885
 31
0.0
  0
LINE
  5
F4
330
1D
100
AcDbEntity
  8
0
100
AcDbLine
 10
23.85815
 20
197.9485
 30
0.0
 11
27.98765
 21
197.9485
 31
0.0
  0
LINE
  5
F5
330
1D
100
AcDbEntity
  8
0
100
AcDbLine
 10
20.74685
 20
197.9485
 30
0.0
 11
23.85815
 21
197.9485
 31
0.0
  0
LINE
  5
F6
330
1D
100
AcDbEntity
  8
0
100
AcDbLine
 10
18.71035
 20
197.9485
 30
0.0
 11
20.74685
 21
197.9485
 31
0.0
  0
LINE
  5
F7
330
1D
100
AcDbEntity
  8
0
100
AcDbLine
 10
27.00025
 20
204.1885
 30
0.0
 11
27.00025
 21
201.1885
 31
0.0
  0
LINE
  5
F8
330
1D
100
AcDbEntity
  8
0
100
AcDbLine
 10
27.00025
 20
204.1885
 30
0.0
 11
27.39625
 21
204.1885
 31
0.0
  0
LINE
  5
F9
330
1D
100
AcDbEntity
  8
0
100
AcDbLine
 10
27.00025
 20
201.1885
 30
0.0
 11
27.39625
 21
201.1885
 31
0.0
  0
LINE
  5
FA
330
1D
100
AcDbEntity
  8
0
100
AcDbLine
 10
27.00025
 20
201.1885
 30
0.0
 11
27.00025
 21
204.1885
 31
0.0
  0
LINE
  5
FB
330
1D
100
AcDbEntity
  8
0
100
AcDbLine
 10
17.97495
 20
197.9485
 30
0.0
 11
18.54065
 21
198.1885
 31
0.0
  0
LINE
  5
FC
330
1D
100
AcDbEntity
  8
0
100
AcDbLine
 10
17.97495
 20
197.9485
 30
0.0
 11
18.71035
 21
197.9485
 31
0.0
  0
LINE
  5
FD
330
1D
100
AcDbEntity
  8
0
100
AcDbLine
 10
17.97495
 20
197.9485
 30
0.0
 11
17.97495
 21
193.1885
 31
0.0
  0
LINE
  5
FE
330
1D
100
AcDbEntity
  8
0
100
AcDbLine
 10
16.07995
 20
189.6505
 30
0.0
 11
22.00025
 21
189.6505
 31
0.0
  0
LINE
  5
FF
330
1D
100
AcDbEntity
  8
0
100
AcDbLine
 10
16.60605
 20
189.1885
 30
0.0
 11
22.00025
 21
189.1885
 31
0.0
  0
LINE
  5
100
330
1D
100
AcDbEntity
  8
0
100
AcDbLine
 10
11.87125
 20
191.1885
 30
0.0
 11
12.00025
 21
191.1885
 31
0.0
  0
LINE
  5
101
330
1D
100
AcDbEntity
  8
0
100
AcDbLine
 10
12.00155
 20
187.1885
 30
0.0
 11
14.69695
 21
187.1885
 31
0.0
  0
LINE
  5
102
330
1D
100
AcDbEntity
  8
0
100
AcDbLine
 10
11.38395
 20
147.9575
 30
0.0
 11
12.17005
 21
147.1885
 31
0.0
  0
LINE
  5
103
330
1D
100
AcDbEntity
  8
0
100
AcDbLine
 10
12.17005
 20
147.1885
 30
0.0
 11
13.12465
 21
147.1885
 31
0.0
  0
LINE
  5
104
330
1D
100
AcDbEntity
  8
0
100
AcDbLine
 10
27.36915
 20
78.4745
 30
0.0
 11
28.43385
 21
78.9285
 31
0.0
  0
LINE
  5
105
330
1D
100
AcDbEntity
  8
0
100
AcDbLine
 10
27.32885
 20
87.2625
 30
0.0
 11
27.88475
 21
87.9545
 31
0.0
  0
LINE
  5
106
330
1D
100
AcDbEntity
  8
0
100
AcDbLine
 10
27.39625
 20
204.1885
 30
0.0
 11
28.45225
 21
204.1885
 31
0.0
  0
LINE
  5
107
330
1D
100
AcDbEntity
  8
0
100
AcDbLine
 10
27.39625
 20
201.1885
 30
0.0
 11
28.00025
 21
201.1885
 31
0.0
  0
LINE
  5
108
330
1D
100
AcDbEntity
  8
0
100
AcDbLine
 10
27.39625
 20
201.1885
 30
0.0
 11
28.45225
 21
201.1885
 31
0.0
  0
LINE
  5
109
330
1D
100
AcDbEntity
  8
0
100
AcDbLine
 10
27.46855
 20
134.8965
 30
0.0
 11
28.52455
 21
134.8965
 31
0.0
  0
LINE
  5
10A
330
1D
100
AcDbEntity
  8
0
100
AcDbLine
 10
27.57255
 20
104.5365
 30
0.0
 11
27.97255
 21
104.5365
 31
0.0
  0
LINE
  5
10B
330
1D
100
AcDbEntity
  8
0
100
AcDbLine
 10
27.728582632573
 20
88.1885
 30
0.0
 11
29.32475
 21
88.1885
 31
0.0
  0
LINE
  5
10C
330
1D
100
AcDbEntity
  8
0
100
AcDbLine
 10
27.88475
 20
87.9545
 30
0.0
 11
28.003079147982
 21
88.1885
 31
0.0
  0
LINE
  5
10D
330
1D
100
AcDbEntity
  8
0
100
AcDbLine
 10
29.32475
 20
79.1885
 30
0.0
 11
29.32475
 21
88.1885
 31
0.0
  0
LINE
  5
10E
330
1D
100
AcDbEntity
  8
0
100
AcDbLine
 10
28.43385
 20
78.9285
 30
0.0
 11
29.19885
 21
79.1885
 31
0.0
  0
LINE
  5
10F
330
1D
100
AcDbEntity
  8
0
100
AcDbLine
 10
28.43385
 20
78.9285
 30
0.0
 11
29.95395
 21
79.0445
 31
0.0
  0
LINE
  5
110
330
1D
100
AcDbEntity
  8
0
100
AcDbLine
 10
30.37355
 20
79.1885
 30
0.0
 11
30.57255
 21
79.1885
 31
0.0
  0
LINE
  5
111
330
1D
100
AcDbEntity
  8
0
100
AcDbLine
 10
30.37355
 20
79.1885
 30
0.0
 11
30.57255
 21
79.134031856463
 31
0.0
  0
LINE
  5
112
330
1D
100
AcDbEntity
  8
0
100
AcDbLine
 10
29.95395
 20
79.0445
 30
0.0
 11
30.37355
 21
79.1885
 31
0.0
  0
LINE
  5
113
330
1D
100
AcDbEntity
  8
0
100
AcDbLine
 10
29.95395
 20
79.0445
 30
0.0
 11
30.57255
 21
78.98108531746
 31
0.0
  0
LINE
  5
114
330
1D
100
AcDbEntity
  8
0
100
AcDbLine
 10
28.00025
 20
88.182905261602
 30
0.0
 11
28.00025
 21
87.1885
 31
0.0
  0
LINE
  5
115
330
1D
100
AcDbEntity
  8
0
100
AcDbLine
 10
28.00025
 20
87.1885
 30
0.0
 11
28.36025
 21
87.1885
 31
0.0
  0
LINE
  5
116
330
1D
100
AcDbEntity
  8
0
100
AcDbLine
 10
28.00025
 20
87.1885
 30
0.0
 11
28.00025
 21
88.182905261602
 31
0.0
  0
LINE
  5
117
330
1D
100
AcDbEntity
  8
0
100
AcDbLine
 10
27.97255
 20
104.5365
 30
0.0
 11
28.97255
 21
104.5365
 31
0.0
  0
LINE
  5
118
330
1D
100
AcDbEntity
  8
0
100
AcDbLine
 10
28.36025
 20
87.1885
 30
0.0
 11
29.32025
 21
87.1885
 31
0.0
  0
LINE
  5
119
330
1D
100
AcDbEntity
  8
0
100
AcDbLine
 10
28.52455
 20
134.8965
 30
0.0
 11
30.28455
 21
134.8965
 31
0.0
  0
LINE
  5
11A
330
1D
100
AcDbEntity
  8
0
100
AcDbLine
 10
28.97255
 20
104.5365
 30
0.0
 11
30.67255
 21
104.5365
 31
0.0
  0
LINE
  5
11B
330
1D
100
AcDbEntity
  8
0
100
AcDbLine
 10
28.97255
 20
104.5365
 30
0.0
 11
30.57255
 21
104.5365
 31
0.0
  0
LINE
  5
11C
330
1D
100
AcDbEntity
  8
0
100
AcDbLine
 10
28.07255
 20
134.5365
 30
0.0
 11
29.97255
 21
134.5365
 31
0.0
  0
LINE
  5
11D
330
1D
100
AcDbEntity
  8
0
100
AcDbLine
 10
28.00025
 20
198.1885
 30
0.0
 11
28.00025
 21
201.1885
 31
0.0
  0
LINE
  5
11E
330
1D
100
AcDbEntity
  8
0
100
AcDbLine
 10
28.45225
 20
201.1885
 30
0.0
 11
30.21225
 21
201.1885
 31
0.0
  0
LINE
  5
11F
330
1D
100
AcDbEntity
  8
0
100
AcDbLine
 10
28.45225
 20
204.1885
 30
0.0
 11
30.21225
 21
204.1885
 31
0.0
  0
LINE
  5
120
330
1D
100
AcDbEntity
  8
0
100
AcDbLine
 10
28.36025
 20
201.1885
 30
0.0
 11
29.32025
 21
201.1885
 31
0.0
  0
LINE
  5
121
330
1D
100
AcDbEntity
  8
0
100
AcDbLine
 10
28.00025
 20
201.1885
 30
0.0
 11
28.00025
 21
198.1885
 31
0.0
  0
LINE
  5
122
330
1D
100
AcDbEntity
  8
0
100
AcDbLine
 10
28.00025
 20
201.1885
 30
0.0
 11
28.36025
 21
201.1885
 31
0.0
  0
LINE
  5
123
330
1D
100
AcDbEntity
  8
0
100
AcDbLine
 10
29.00025
 20
208.4745
 30
0.0
 11
29.20475
 21
208.8315
 31
0.0
  0
LINE
  5
124
330
1D
100
AcDbEntity
  8
0
100
AcDbLine
 10
29.00025
 20
208.4745
 30
0.0
 11
29.00025
 21
204.9025
 31
0.0
  0
LINE
  5
125
330
1D
100
AcDbEntity
  8
0
100
AcDbLine
 10
29.06335
 20
204.9025
 30
0.0
 11
29.34455
 21
204.5455
 31
0.0
  0
LINE
  5
126
330
1D
100
AcDbEntity
  8
0
100
AcDbLine
 10
29.32025
 20
201.1885
 30
0.0
 11
30.92025
 21
201.1885
 31
0.0
  0
LINE
  5
127
330
1D
100
AcDbEntity
  8
0
100
AcDbLine
 10
29.20475
 20
204.5455
 30
0.0
 11
29.34455
 21
204.5455
 31
0.0
  0
LINE
  5
128
330
1D
100
AcDbEntity
  8
0
100
AcDbLine
 10
29.20475
 20
204.5455
 30
0.0
 11
29.81845
 21
204.2955
 31
0.0
  0
LINE
  5
129
330
1D
100
AcDbEntity
  8
0
100
AcDbLine
 10
29.20475
 20
208.8315
 30
0.0
 11
29.34455
 21
208.8315
 31
0.0
  0
LINE
  5
12A
330
1D
100
AcDbEntity
  8
0
100
AcDbLine
 10
29.20475
 20
208.8315
 30
0.0
 11
29.81845
 21
209.0815
 31
0.0
  0
LINE
  5
12B
330
1D
100
AcDbEntity
  8
0
100
AcDbLine
 10
29.20475
 20
208.8315
 30
0.0
 11
30.00775
 21
209.0395
 31
0.0
  0
LINE
  5
12C
330
1D
100
AcDbEntity
  8
0
100
AcDbLine
 10
29.06335
 20
208.4745
 30
0.0
 11
29.34455
 21
208.8315
 31
0.0
  0
LINE
  5
12D
330
1D
100
AcDbEntity
  8
0
100
AcDbLine
 10
29.00025
 20
204.9025
 30
0.0
 11
29.00025
 21
208.4745
 31
0.0
  0
LINE
  5
12E
330
1D
100
AcDbEntity
  8
0
100
AcDbLine
 10
29.00025
 20
204.9025
 30
0.0
 11
29.20475
 21
204.5455
 31
0.0
  0
LINE
  5
12F
330
1D
100
AcDbEntity
  8
0
100
AcDbLine
 10
27.98765
 20
197.9485
 30
0.0
 11
32.73935
 21
197.9485
 31
0.0
  0
LINE
  5
130
330
1D
100
AcDbEntity
  8
0
100
AcDbLine
 10
30.04725
 20
170.3355
 30
0.0
 11
30.83925
 21
170.3355
 31
0.0
  0
LINE
  5
131
330
1D
100
AcDbEntity
  8
0
100
AcDbLine
 10
29.81845
 20
204.2955
 30
0.0
 11
30.43205
 21
204.1885
 31
0.0
  0
LINE
  5
132
330
1D
100
AcDbEntity
  8
0
100
AcDbLine
 10
29.34455
 20
204.5455
 30
0.0
 11
29.81845
 21
204.2955
 31
0.0
  0
LINE
  5
133
330
1D
100
AcDbEntity
  8
0
100
AcDbLine
 10
29.34455
 20
204.5455
 30
0.0
 11
30.00775
 21
204.3385
 31
0.0
  0
LINE
  5
134
330
1D
100
AcDbEntity
  8
0
100
AcDbLine
 10
29.34455
 20
208.8315
 30
0.0
 11
30.00775
 21
209.0395
 31
0.0
  0
LINE
  5
135
330
1D
100
AcDbEntity
  8
0
100
AcDbLine
 10
29.81845
 20
209.0815
 30
0.0
 11
30.00775
 21
209.0395
 31
0.0
  0
LINE
  5
136
330
1D
100
AcDbEntity
  8
0
100
AcDbLine
 10
29.81845
 20
209.0815
 30
0.0
 11
30.43205
 21
209.1885
 31
0.0
  0
LINE
  5
137
330
1D
100
AcDbEntity
  8
0
100
AcDbLine
 10
30.00775
 20
204.3385
 30
0.0
 11
30.71845
 21
204.1885
 31
0.0
  0
LINE
  5
138
330
1D
100
AcDbEntity
  8
0
100
AcDbLine
 10
30.00775
 20
204.3385
 30
0.0
 11
31.09645
 21
204.2605
 31
0.0
  0
LINE
  5
139
330
1D
100
AcDbEntity
  8
0
100
AcDbLine
 10
30.00775
 20
209.0395
 30
0.0
 11
30.71845
 21
209.1885
 31
0.0
  0
LINE
  5
13A
330
1D
100
AcDbEntity
  8
0
100
AcDbLine
 10
30.00775
 20
209.0395
 30
0.0
 11
31.45475
 21
209.1885
 31
0.0
  0
LINE
  5
13B
330
1D
100
AcDbEntity
  8
0
100
AcDbLine
 10
30.00775
 20
209.0395
 30
0.0
 11
31.09645
 21
209.1165
 31
0.0
  0
LINE
  5
13C
330
1D
100
AcDbEntity
  8
0
100
AcDbLine
 10
30.04725
 20
175.3355
 30
0.0
 11
30.83925
 21
175.3355
 31
0.0
  0
LINE
  5
13D
330
1D
100
AcDbEntity
  8
0
100
AcDbLine
 10
30.21225
 20
204.1885
 30
0.0
 11
31.99265
 21
204.1885
 31
0.0
  0
LINE
  5
13E
330
1D
100
AcDbEntity
  8
0
100
AcDbLine
 10
30.21225
 20
201.1885
 30
0.0
 11
31.99265
 21
201.1885
 31
0.0
  0
LINE
  5
13F
330
1D
100
AcDbEntity
  8
0
100
AcDbLine
 10
30.06425
 20
190.1885
 30
0.0
 11
33.90425
 21
190.1885
 31
0.0
  0
LINE
  5
140
330
1D
100
AcDbEntity
  8
0
100
AcDbLine
 10
30.06425
 20
140.1885
 30
0.0
 11
33.90425
 21
140.1885
 31
0.0
  0
LINE
  5
141
330
1D
100
AcDbEntity
  8
0
100
AcDbLine
 10
30.28455
 20
134.8965
 30
0.0
 11
32.61655
 21
134.8965
 31
0.0
  0
LINE
  5
142
330
1D
100
AcDbEntity
  8
0
100
AcDbLine
 10
29.97255
 20
134.5365
 30
0.0
 11
32.37255
 21
134.5365
 31
0.0
  0
LINE
  5
143
330
1D
100
AcDbEntity
  8
0
100
AcDbLine
 10
29.32475
 20
88.1885
 30
0.0
 11
29.32475
 21
79.1885
 31
0.0
  0
LINE
  5
144
330
1D
100
AcDbEntity
  8
0
100
AcDbLine
 10
29.19885
 20
79.1885
 30
0.0
 11
29.95395
 21
79.0445
 31
0.0
  0
LINE
  5
145
330
1D
100
AcDbEntity
  8
0
100
AcDbLine
 10
29.19885
 20
79.1885
 30
0.0
 11
30.37355
 21
79.1885
 31
0.0
  0
LINE
  5
146
330
1D
100
AcDbEntity
  8
0
100
AcDbLine
 10
27.95145
 20
78.9745
 30
0.0
 11
28.71985
 21
79.1885
 31
0.0
  0
LINE
  5
147
330
1D
100
AcDbEntity
  8
0
100
AcDbLine
 10
27.95145
 20
78.9745
 30
0.0
 11
28.43385
 21
78.9285
 31
0.0
  0
LINE
  5
148
330
1D
100
AcDbEntity
  8
0
100
AcDbLine
 10
27.16035
 20
78.4745
 30
0.0
 11
27.36915
 21
78.4745
 31
0.0
  0
LINE
  5
149
330
1D
100
AcDbEntity
  8
0
100
AcDbLine
 10
27.16035
 20
78.4745
 30
0.0
 11
27.95145
 21
78.9745
 31
0.0
  0
LINE
  5
14A
330
1D
100
AcDbEntity
  8
0
100
AcDbLine
 10
27.16035
 20
78.4745
 30
0.0
 11
28.43385
 21
78.9285
 31
0.0
  0
LINE
  5
14B
330
1D
100
AcDbEntity
  8
0
100
AcDbLine
 10
26.89835
 20
77.7595
 30
0.0
 11
27.36915
 21
78.4745
 31
0.0
  0
LINE
  5
14C
330
1D
100
AcDbEntity
  8
0
100
AcDbLine
 10
26.89835
 20
77.7595
 30
0.0
 11
26.98665
 21
77.7595
 31
0.0
  0
LINE
  5
14D
330
1D
100
AcDbEntity
  8
0
100
AcDbLine
 10
26.89835
 20
77.7595
 30
0.0
 11
27.16035
 21
78.4745
 31
0.0
  0
LINE
  5
14E
330
1D
100
AcDbEntity
  8
0
100
AcDbLine
 10
30.57255
 20
104.5365
 30
0.0
 11
30.57255
 21
48.7985
 31
0.0
  0
LINE
  5
14F
330
1D
100
AcDbEntity
  8
0
100
AcDbLine
 10
30.57255
 20
104.5365
 30
0.0
 11
30.87255
 21
104.5365
 31
0.0
  0
LINE
  5
150
330
1D
100
AcDbEntity
  8
0
100
AcDbLine
 10
31.57255
 20
45.6875
 30
0.0
 11
32.77255
 21
45.0125
 31
0.0
  0
LINE
  5
151
330
1D
100
AcDbEntity
  8
0
100
AcDbLine
 10
30.87255
 20
46.8115
 30
0.0
 11
31.57255
 21
45.6875
 31
0.0
  0
LINE
  5
152
330
1D
100
AcDbEntity
  8
0
100
AcDbLine
 10
31.57255
 20
104.5365
 30
0.0
 11
32.77255
 21
104.5365
 31
0.0
  0
LINE
  5
153
330
1D
100
AcDbEntity
  8
0
100
AcDbLine
 10
31.57255
 20
51.3475
 30
0.0
 11
32.77255
 21
52.5465
 31
0.0
  0
LINE
  5
154
330
1D
100
AcDbEntity
  8
0
100
AcDbLine
 10
30.87255
 20
104.5365
 30
0.0
 11
31.57255
 21
104.5365
 31
0.0
  0
LINE
  5
155
330
1D
100
AcDbEntity
  8
0
100
AcDbLine
 10
30.87255
 20
50.1475
 30
0.0
 11
31.57255
 21
51.3475
 31
0.0
  0
LINE
  5
156
330
1D
100
AcDbEntity
  8
0
100
AcDbLine
 10
30.57255
 20
48.7985
 30
0.0
 11
30.87255
 21
50.1475
 31
0.0
  0
LINE
  5
157
330
1D
100
AcDbEntity
  8
0
100
AcDbLine
 10
30.57255
 20
48.7985
 30
0.0
 11
30.87255
 21
46.8115
 31
0.0
  0
LINE
  5
158
330
1D
100
AcDbEntity
  8
0
100
AcDbLine
 10
30.57255
 20
48.7985
 30
0.0
 11
30.57255
 21
104.5365
 31
0.0
  0
LINE
  5
159
330
1D
100
AcDbEntity
  8
0
100
AcDbLine
 10
30.83925
 20
170.3355
 30
0.0
 11
32.15925
 21
170.3355
 31
0.0
  0
LINE
  5
15A
330
1D
100
AcDbEntity
  8
0
100
AcDbLine
 10
30.83925
 20
175.3355
 30
0.0
 11
32.15925
 21
175.3355
 31
0.0
  0
LINE
  5
15B
330
1D
100
AcDbEntity
  8
0
100
AcDbLine
 10
30.92025
 20
201.1885
 30
0.0
 11
31.99265
 21
201.1885
 31
0.0
  0
LINE
  5
15C
330
1D
100
AcDbEntity
  8
0
100
AcDbLine
 10
30.43205
 20
209.1885
 30
0.0
 11
30.71845
 21
209.1885
 31
0.0
  0
LINE
  5
15D
330
1D
100
AcDbEntity
  8
0
100
AcDbLine
 10
31.09645
 20
204.2605
 30
0.0
 11
31.45475
 21
204.1885
 31
0.0
  0
LINE
  5
15E
330
1D
100
AcDbEntity
  8
0
100
AcDbLine
 10
31.09645
 20
204.2605
 30
0.0
 11
31.99265
 21
204.218727228588
 31
0.0
  0
LINE
  5
15F
330
1D
100
AcDbEntity
  8
0
100
AcDbLine
 10
31.09645
 20
204.2605
 30
0.0
 11
31.99265
 21
204.307982963369
 31
0.0
  0
LINE
  5
160
330
1D
100
AcDbEntity
  8
0
100
AcDbLine
 10
30.71845
 20
204.1885
 30
0.0
 11
31.09645
 21
204.2605
 31
0.0
  0
LINE
  5
161
330
1D
100
AcDbEntity
  8
0
100
AcDbLine
 10
31.34425
 20
191.1885
 30
0.0
 11
38.00025
 21
191.1885
 31
0.0
  0
LINE
  5
162
330
1D
100
AcDbEntity
  8
0
100
AcDbLine
 10
31.34425
 20
190.1885
 30
0.0
 11
38.00025
 21
190.1885
 31
0.0
  0
LINE
  5
163
330
1D
100
AcDbEntity
  8
0
100
AcDbLine
 10
31.45475
 20
209.1885
 30
0.0
 11
31.99265
 21
209.1885
 31
0.0
  0
LINE
  5
164
330
1D
100
AcDbEntity
  8
0
100
AcDbLine
 10
31.09645
 20
209.1165
 30
0.0
 11
31.45475
 21
209.1885
 31
0.0
  0
LINE
  5
165
330
1D
100
AcDbEntity
  8
0
100
AcDbLine
 10
31.09645
 20
209.1165
 30
0.0
 11
31.99265
 21
209.158272771412
 31
0.0
  0
LINE
  5
166
330
1D
100
AcDbEntity
  8
0
100
AcDbLine
 10
31.09645
 20
209.1165
 30
0.0
 11
31.99265
 21
209.069017036631
 31
0.0
  0
LINE
  5
167
330
1D
100
AcDbEntity
  8
0
100
AcDbLine
 10
30.71845
 20
209.1885
 30
0.0
 11
31.45475
 21
209.1885
 31
0.0
  0
LINE
  5
168
330
1D
100
AcDbEntity
  8
0
100
AcDbLine
 10
31.60025
 20
193.1885
 30
0.0
 11
38.00025
 21
193.1885
 31
0.0
  0
LINE
  5
169
330
1D
100
AcDbEntity
  8
0
100
AcDbLine
 10
31.60025
 20
181.1885
 30
0.0
 11
38.00025
 21
181.1885
 31
0.0
  0
LINE
  5
16A
330
1D
100
AcDbEntity
  8
0
100
AcDbLine
 10
31.60025
 20
179.1885
 30
0.0
 11
38.00025
 21
179.1885
 31
0.0
  0
LINE
  5
16B
330
1D
100
AcDbEntity
  8
0
100
AcDbLine
 10
30.67255
 20
104.5365
 30
0.0
 11
32.87255
 21
104.5365
 31
0.0
  0
LINE
  5
16C
330
1D
100
AcDbEntity
  8
0
100
AcDbLine
 10
31.99265
 20
198.1885
 30
0.0
 11
31.99265
 21
211.5155
 31
0.0
  0
LINE
  5
16D
330
1D
100
AcDbEntity
  8
0
100
AcDbLine
 10
31.99265
 20
225.7685
 30
0.0
 11
32.16235
 21
225.1885
 31
0.0
  0
LINE
  5
16E
330
1D
100
AcDbEntity
  8
0
100
AcDbLine
 10
31.99265
 20
225.7685
 30
0.0
 11
31.99265
 21
234.6085
 31
0.0
  0
LINE
  5
16F
330
1D
100
AcDbEntity
  8
0
100
AcDbLine
 10
31.99265
 20
234.6085
 30
0.0
 11
32.16235
 21
235.1885
 31
0.0
  0
LINE
  5
170
330
1D
100
AcDbEntity
  8
0
100
AcDbLine
 10
31.99265
 20
234.6085
 30
0.0
 11
31.99265
 21
225.7685
 31
0.0
  0
LINE
  5
171
330
1D
100
AcDbEntity
  8
0
100
AcDbLine
 10
31.99265
 20
211.5155
 30
0.0
 11
32.16235
 21
212.1885
 31
0.0
  0
LINE
  5
172
330
1D
100
AcDbEntity
  8
0
100
AcDbLine
 10
31.99265
 20
211.5155
 30
0.0
 11
31.99265
 21
198.1885
 31
0.0
  0
LINE
  5
173
330
1D
100
AcDbEntity
  8
0
100
AcDbLine
 10
30.41945
 20
67.1885
 30
0.0
 11
30.57255
 21
67.1885
 31
0.0
  0
LINE
  5
174
330
1D
100
AcDbEntity
  8
0
100
AcDbLine
 10
32.15925
 20
170.3355
 30
0.0
 11
33.90825
 21
170.3355
 31
0.0
  0
LINE
  5
175
330
1D
100
AcDbEntity
  8
0
100
AcDbLine
 10
32.15925
 20
175.3355
 30
0.0
 11
33.90825
 21
175.3355
 31
0.0
  0
LINE
  5
176
330
1D
100
AcDbEntity
  8
0
100
AcDbLine
 10
32.77255
 20
45.0125
 30
0.0
 11
34.37255
 21
44.6375
 31
0.0
  0
LINE
  5
177
330
1D
100
AcDbEntity
  8
0
100
AcDbLine
 10
32.77255
 20
104.5365
 30
0.0
 11
34.37255
 21
104.5365
 31
0.0
  0
LINE
  5
178
330
1D
100
AcDbEntity
  8
0
100
AcDbLine
 10
34.37255
 20
44.6375
 30
0.0
 11
36.17255
 21
44.5625
 31
0.0
  0
LINE
  5
179
330
1D
100
AcDbEntity
  8
0
100
AcDbLine
 10
34.37255
 20
104.5365
 30
0.0
 11
36.17255
 21
104.5365
 31
0.0
  0
LINE
  5
17A
330
1D
100
AcDbEntity
  8
0
100
AcDbLine
 10
34.37255
 20
53.5965
 30
0.0
 11
36.17255
 21
54.3085
 31
0.0
  0
LINE
  5
17B
330
1D
100
AcDbEntity
  8
0
100
AcDbLine
 10
32.77255
 20
52.5465
 30
0.0
 11
34.37255
 21
53.5965
 31
0.0
  0
LINE
  5
17C
330
1D
100
AcDbEntity
  8
0
100
AcDbLine
 10
33.90825
 20
170.3355
 30
0.0
 11
35.88825
 21
170.3355
 31
0.0
  0
LINE
  5
17D
330
1D
100
AcDbEntity
  8
0
100
AcDbLine
 10
33.90825
 20
175.3355
 30
0.0
 11
35.88825
 21
175.3355
 31
0.0
  0
LINE
  5
17E
330
1D
100
AcDbEntity
  8
0
100
AcDbLine
 10
33.90425
 20
190.1885
 30
0.0
 11
38.00025
 21
190.1885
 31
0.0
  0
LINE
  5
17F
330
1D
100
AcDbEntity
  8
0
100
AcDbLine
 10
33.90425
 20
140.1885
 30
0.0
 11
38.00025
 21
140.1885
 31
0.0
  0
LINE
  5
180
330
1D
100
AcDbEntity
  8
0
100
AcDbLine
 10
32.61655
 20
134.8965
 30
0.0
 11
35.25655
 21
134.8965
 31
0.0
  0
LINE
  5
181
330
1D
100
AcDbEntity
  8
0
100
AcDbLine
 10
32.87255
 20
104.5365
 30
0.0
 11
35.37255
 21
104.5365
 31
0.0
  0
LINE
  5
182
330
1D
100
AcDbEntity
  8
0
100
AcDbLine
 10
32.37255
 20
134.5365
 30
0.0
 11
35.07255
 21
134.5365
 31
0.0
  0
LINE
  5
183
330
1D
100
AcDbEntity
  8
0
100
AcDbLine
 10
32.16235
 20
225.1885
 30
0.0
 11
32.36605
 21
225.1885
 31
0.0
  0
LINE
  5
184
330
1D
100
AcDbEntity
  8
0
100
AcDbLine
 10
32.16235
 20
235.1885
 30
0.0
 11
32.36605
 21
235.1885
 31
0.0
  0
LINE
  5
185
330
1D
100
AcDbEntity
  8
0
100
AcDbLine
 10
33.99515
 20
212.1885
 30
0.0
 11
33.99515
 21
225.1885
 31
0.0
  0
LINE
  5
186
330
1D
100
AcDbEntity
  8
0
100
AcDbLine
 10
33.85945
 20
212.1885
 30
0.0
 11
35.08135
 21
212.1885
 31
0.0
  0
LINE
  5
187
330
1D
100
AcDbEntity
  8
0
100
AcDbLine
 10
32.94305
 20
212.1885
 30
0.0
 11
33.85945
 21
212.1885
 31
0.0
  0
LINE
  5
188
330
1D
100
AcDbEntity
  8
0
100
AcDbLine
 10
32.36605
 20
225.1885
 30
0.0
 11
32.94305
 21
225.1885
 31
0.0
  0
LINE
  5
189
330
1D
100
AcDbEntity
  8
0
100
AcDbLine
 10
33.85945
 20
225.1885
 30
0.0
 11
35.08135
 21
225.1885
 31
0.0
  0
LINE
  5
18A
330
1D
100
AcDbEntity
  8
0
100
AcDbLine
 10
33.85945
 20
225.1885
 30
0.0
 11
33.99515
 21
225.1885
 31
0.0
  0
LINE
  5
18B
330
1D
100
AcDbEntity
  8
0
100
AcDbLine
 10
32.94305
 20
225.1885
 30
0.0
 11
33.85945
 21
225.1885
 31
0.0
  0
LINE
  5
18C
330
1D
100
AcDbEntity
  8
0
100
AcDbLine
 10
34.54955
 20
225.1885
 30
0.0
 11
35.17185
 21
225.1885
 31
0.0
  0
LINE
  5
18D
330
1D
100
AcDbEntity
  8
0
100
AcDbLine
 10
34.14225
 20
225.1885
 30
0.0
 11
34.54955
 21
225.1885
 31
0.0
  0
LINE
  5
18E
330
1D
100
AcDbEntity
  8
0
100
AcDbLine
 10
33.99515
 20
225.1885
 30
0.0
 11
33.99515
 21
212.1885
 31
0.0
  0
LINE
  5
18F
330
1D
100
AcDbEntity
  8
0
100
AcDbLine
 10
33.99515
 20
225.1885
 30
0.0
 11
34.14225
 21
225.1885
 31
0.0
  0
LINE
  5
190
330
1D
100
AcDbEntity
  8
0
100
AcDbLine
 10
33.85945
 20
235.1885
 30
0.0
 11
35.08135
 21
235.1885
 31
0.0
  0
LINE
  5
191
330
1D
100
AcDbEntity
  8
0
100
AcDbLine
 10
32.94305
 20
235.1885
 30
0.0
 11
33.85945
 21
235.1885
 31
0.0
  0
LINE
  5
192
330
1D
100
AcDbEntity
  8
0
100
AcDbLine
 10
32.36605
 20
235.1885
 30
0.0
 11
32.94305
 21
235.1885
 31
0.0
  0
LINE
  5
193
330
1D
100
AcDbEntity
  8
0
100
AcDbLine
 10
32.36605
 20
212.1885
 30
0.0
 11
32.94305
 21
212.1885
 31
0.0
  0
LINE
  5
194
330
1D
100
AcDbEntity
  8
0
100
AcDbLine
 10
32.16235
 20
212.1885
 30
0.0
 11
32.36605
 21
212.1885
 31
0.0
  0
LINE
  5
195
330
1D
100
AcDbEntity
  8
0
100
AcDbLine
 10
32.73935
 20
197.9485
 30
0.0
 11
38.00025
 21
197.9485
 31
0.0
  0
LINE
  5
196
330
1D
100
AcDbEntity
  8
0
100
AcDbLine
 10
32.08155
 20
45.3915
 30
0.0
 11
32.98285
 21
35.0605
 31
0.0
  0
LINE
  5
197
330
1D
100
AcDbEntity
  8
0
100
AcDbLine
 10
32.98285
 20
35.0605
 30
0.0
 11
34.67025
 21
23.8475
 31
0.0
  0
LINE
  5
198
330
1D
100
AcDbEntity
  8
0
100
AcDbLine
 10
35.07255
 20
134.5365
 30
0.0
 11
38.07255
 21
134.5365
 31
0.0
  0
LINE
  5
199
330
1D
100
AcDbEntity
  8
0
100
AcDbLine
 10
36.17255
 20
44.5625
 30
0.0
 11
38.07255
 21
44.5365
 31
0.0
  0
LINE
  5
19A
330
1D
100
AcDbEntity
  8
0
100
AcDbLine
 10
36.17255
 20
104.5365
 30
0.0
 11
38.07255
 21
104.5365
 31
0.0
  0
LINE
  5
19B
330
1D
100
AcDbEntity
  8
0
100
AcDbLine
 10
36.17255
 20
54.3085
 30
0.0
 11
38.07255
 21
54.5365
 31
0.0
  0
LINE
  5
19C
330
1D
100
AcDbEntity
  8
0
100
AcDbLine
 10
35.98385
 20
166.1885
 30
0.0
 11
35.98385
 21
170.1885
 31
0.0
  0
LINE
  5
19D
330
1D
100
AcDbEntity
  8
0
100
AcDbLine
 10
35.98385
 20
166.1885
 30
0.0
 11
36.04845
 21
166.1885
 31
0.0
  0
LINE
  5
19E
330
1D
100
AcDbEntity
  8
0
100
AcDbLine
 10
35.98385
 20
166.1885
 30
0.0
 11
36.04635
 21
166.1885
 31
0.0
  0
LINE
  5
19F
330
1D
100
AcDbEntity
  8
0
100
AcDbLine
 10
36.04845
 20
166.1885
 30
0.0
 11
36.25675
 21
166.1885
 31
0.0
  0
LINE
  5
1A0
330
1D
100
AcDbEntity
  8
0
100
AcDbLine
 10
37.00815
 20
166.1885
 30
0.0
 11
37.51555
 21
166.1885
 31
0.0
  0
LINE
  5
1A1
330
1D
100
AcDbEntity
  8
0
100
AcDbLine
 10
36.57645
 20
166.1885
 30
0.0
 11
37.00815
 21
166.1885
 31
0.0
  0
LINE
  5
1A2
330
1D
100
AcDbEntity
  8
0
100
AcDbLine
 10
36.25675
 20
166.1885
 30
0.0
 11
36.57645
 21
166.1885
 31
0.0
  0
LINE
  5
1A3
330
1D
100
AcDbEntity
  8
0
100
AcDbLine
 10
37.01575
 20
166.1885
 30
0.0
 11
37.50665
 21
166.1885
 31
0.0
  0
LINE
  5
1A4
330
1D
100
AcDbEntity
  8
0
100
AcDbLine
 10
36.58885
 20
166.1885
 30
0.0
 11
37.01575
 21
166.1885
 31
0.0
  0
LINE
  5
1A5
330
1D
100
AcDbEntity
  8
0
100
AcDbLine
 10
36.25195
 20
166.1885
 30
0.0
 11
36.58885
 21
166.1885
 31
0.0
  0
LINE
  5
1A6
330
1D
100
AcDbEntity
  8
0
100
AcDbLine
 10
37.00815
 20
170.1885
 30
0.0
 11
37.51555
 21
170.1885
 31
0.0
  0
LINE
  5
1A7
330
1D
100
AcDbEntity
  8
0
100
AcDbLine
 10
36.57645
 20
170.1885
 30
0.0
 11
37.00815
 21
170.1885
 31
0.0
  0
LINE
  5
1A8
330
1D
100
AcDbEntity
  8
0
100
AcDbLine
 10
36.25675
 20
170.1885
 30
0.0
 11
36.57645
 21
170.1885
 31
0.0
  0
LINE
  5
1A9
330
1D
100
AcDbEntity
  8
0
100
AcDbLine
 10
36.04845
 20
170.1885
 30
0.0
 11
36.25675
 21
170.1885
 31
0.0
  0
LINE
  5
1AA
330
1D
100
AcDbEntity
  8
0
100
AcDbLine
 10
36.04635
 20
166.1885
 30
0.0
 11
36.25195
 21
166.1885
 31
0.0
  0
LINE
  5
1AB
330
1D
100
AcDbEntity
  8
0
100
AcDbLine
 10
35.98385
 20
170.1885
 30
0.0
 11
36.04845
 21
170.1885
 31
0.0
  0
LINE
  5
1AC
330
1D
100
AcDbEntity
  8
0
100
AcDbLine
 10
35.98385
 20
170.1885
 30
0.0
 11
35.98385
 21
166.1885
 31
0.0
  0
LINE
  5
1AD
330
1D
100
AcDbEntity
  8
0
100
AcDbLine
 10
36.66925
 20
170.3355
 30
0.0
 11
36.66925
 21
170.1885
 31
0.0
  0
LINE
  5
1AE
330
1D
100
AcDbEntity
  8
0
100
AcDbLine
 10
36.66925
 20
175.3355
 30
0.0
 11
36.66925
 21
179.1885
 31
0.0
  0
LINE
  5
1AF
330
1D
100
AcDbEntity
  8
0
100
AcDbLine
 10
36.66925
 20
170.1885
 30
0.0
 11
36.66925
 21
170.3355
 31
0.0
  0
LINE
  5
1B0
330
1D
100
AcDbEntity
  8
0
100
AcDbLine
 10
35.88825
 20
170.3355
 30
0.0
 11
38.00025
 21
170.3355
 31
0.0
  0
LINE
  5
1B1
330
1D
100
AcDbEntity
  8
0
100
AcDbLine
 10
36.66925
 20
179.1885
 30
0.0
 11
36.66925
 21
175.3355
 31
0.0
  0
LINE
  5
1B2
330
1D
100
AcDbEntity
  8
0
100
AcDbLine
 10
35.88825
 20
175.3355
 30
0.0
 11
38.00025
 21
175.3355
 31
0.0
  0
LINE
  5
1B3
330
1D
100
AcDbEntity
  8
0
100
AcDbLine
 10
35.25655
 20
134.8965
 30
0.0
 11
38.07255
 21
134.8965
 31
0.0
  0
LINE
  5
1B4
330
1D
100
AcDbEntity
  8
0
100
AcDbLine
 10
35.37255
 20
104.5365
 30
0.0
 11
38.07255
 21
104.5365
 31
0.0
  0
LINE
  5
1B5
330
1D
100
AcDbEntity
  8
0
100
AcDbLine
 10
35.08135
 20
212.1885
 30
0.0
 11
36.47285
 21
212.1885
 31
0.0
  0
LINE
  5
1B6
330
1D
100
AcDbEntity
  8
0
100
AcDbLine
 10
35.17185
 20
225.1885
 30
0.0
 11
35.99775
 21
225.1885
 31
0.0
  0
LINE
  5
1B7
330
1D
100
AcDbEntity
  8
0
100
AcDbLine
 10
35.99775
 20
225.1885
 30
0.0
 11
36.94805
 21
225.1885
 31
0.0
  0
LINE
  5
1B8
330
1D
100
AcDbEntity
  8
0
100
AcDbLine
 10
35.08135
 20
225.1885
 30
0.0
 11
36.47285
 21
225.1885
 31
0.0
  0
LINE
  5
1B9
330
1D
100
AcDbEntity
  8
0
100
AcDbLine
 10
36.47285
 20
225.1885
 30
0.0
 11
38.00025
 21
225.1885
 31
0.0
  0
LINE
  5
1BA
330
1D
100
AcDbEntity
  8
0
100
AcDbLine
 10
35.08135
 20
235.1885
 30
0.0
 11
36.47285
 21
235.1885
 31
0.0
  0
LINE
  5
1BB
330
1D
100
AcDbEntity
  8
0
100
AcDbLine
 10
36.94805
 20
225.1885
 30
0.0
 11
38.00025
 21
225.1885
 31
0.0
  0
LINE
  5
1BC
330
1D
100
AcDbEntity
  8
0
100
AcDbLine
 10
36.47285
 20
235.1885
 30
0.0
 11
38.00025
 21
235.1885
 31
0.0
  0
LINE
  5
1BD
330
1D
100
AcDbEntity
  8
0
100
AcDbLine
 10
36.47285
 20
212.1885
 30
0.0
 11
38.00025
 21
212.1885
 31
0.0
  0
LINE
  5
1BE
330
1D
100
AcDbEntity
  8
0
100
AcDbLine
 10
34.67025
 20
23.8475
 30
0.0
 11
37.00595
 21
12.5435
 31
0.0
  0
LINE
  5
1BF
330
1D
100
AcDbEntity
  8
0
100
AcDbLine
 10
37.00595
 20
12.5435
 30
0.0
 11
37.21845
 21
11.5745
 31
0.0
  0
LINE
  5
1C0
330
1D
100
AcDbEntity
  8
0
100
AcDbLine
 10
37.51555
 20
166.1885
 30
0.0
 11
38.04495
 21
166.1885
 31
0.0
  0
LINE
  5
1C1
330
1D
100
AcDbEntity
  8
0
100
AcDbLine
 10
37.51555
 20
170.1885
 30
0.0
 11
38.04495
 21
170.1885
 31
0.0
  0
LINE
  5
1C2
330
1D
100
AcDbEntity
  8
0
100
AcDbLine
 10
37.50665
 20
166.1885
 30
0.0
 11
38.03605
 21
166.1885
 31
0.0
  0
LINE
  5
1C3
330
1D
100
AcDbEntity
  8
0
100
AcDbLine
 10
38.00025
 20
170.3355
 30
0.0
 11
40.11225
 21
170.3355
 31
0.0
  0
LINE
  5
1C4
330
1D
100
AcDbEntity
  8
0
100
AcDbLine
 10
38.00025
 20
175.3355
 30
0.0
 11
40.11225
 21
175.3355
 31
0.0
  0
LINE
  5
1C5
330
1D
100
AcDbEntity
  8
0
100
AcDbLine
 10
38.00025
 20
191.1885
 30
0.0
 11
44.65625
 21
191.1885
 31
0.0
  0
LINE
  5
1C6
330
1D
100
AcDbEntity
  8
0
100
AcDbLine
 10
38.00025
 20
193.1885
 30
0.0
 11
44.40025
 21
193.1885
 31
0.0
  0
LINE
  5
1C7
330
1D
100
AcDbEntity
  8
0
100
AcDbLine
 10
38.00025
 20
181.1885
 30
0.0
 11
44.40025
 21
181.1885
 31
0.0
  0
LINE
  5
1C8
330
1D
100
AcDbEntity
  8
0
100
AcDbLine
 10
38.00025
 20
179.1885
 30
0.0
 11
44.40025
 21
179.1885
 31
0.0
  0
LINE
  5
1C9
330
1D
100
AcDbEntity
  8
0
100
AcDbLine
 10
38.04495
 20
166.1885
 30
0.0
 11
38.57435
 21
166.1885
 31
0.0
  0
LINE
  5
1CA
330
1D
100
AcDbEntity
  8
0
100
AcDbLine
 10
38.04495
 20
170.1885
 30
0.0
 11
38.57435
 21
170.1885
 31
0.0
  0
LINE
  5
1CB
330
1D
100
AcDbEntity
  8
0
100
AcDbLine
 10
38.03605
 20
166.1885
 30
0.0
 11
38.56535
 21
166.1885
 31
0.0
  0
LINE
  5
1CC
330
1D
100
AcDbEntity
  8
0
100
AcDbLine
 10
38.00025
 20
190.1885
 30
0.0
 11
42.09625
 21
190.1885
 31
0.0
  0
LINE
  5
1CD
330
1D
100
AcDbEntity
  8
0
100
AcDbLine
 10
38.00025
 20
190.1885
 30
0.0
 11
44.65625
 21
190.1885
 31
0.0
  0
LINE
  5
1CE
330
1D
100
AcDbEntity
  8
0
100
AcDbLine
 10
38.00025
 20
140.1885
 30
0.0
 11
42.09625
 21
140.1885
 31
0.0
  0
LINE
  5
1CF
330
1D
100
AcDbEntity
  8
0
100
AcDbLine
 10
38.07255
 20
134.8965
 30
0.0
 11
40.88855
 21
134.8965
 31
0.0
  0
LINE
  5
1D0
330
1D
100
AcDbEntity
  8
0
100
AcDbLine
 10
38.07255
 20
104.5365
 30
0.0
 11
39.97255
 21
104.5365
 31
0.0
  0
LINE
  5
1D1
330
1D
100
AcDbEntity
  8
0
100
AcDbLine
 10
38.07255
 20
104.5365
 30
0.0
 11
40.77255
 21
104.5365
 31
0.0
  0
LINE
  5
1D2
330
1D
100
AcDbEntity
  8
0
100
AcDbLine
 10
38.07255
 20
54.5365
 30
0.0
 11
39.97255
 21
54.3085
 31
0.0
  0
LINE
  5
1D3
330
1D
100
AcDbEntity
  8
0
100
AcDbLine
 10
38.07255
 20
44.5365
 30
0.0
 11
39.97255
 21
44.5625
 31
0.0
  0
LINE
  5
1D4
330
1D
100
AcDbEntity
  8
0
100
AcDbLine
 10
38.56535
 20
166.1885
 30
0.0
 11
39.07345
 21
166.1885
 31
0.0
  0
LINE
  5
1D5
330
1D
100
AcDbEntity
  8
0
100
AcDbLine
 10
38.57435
 20
166.1885
 30
0.0
 11
39.06515
 21
166.1885
 31
0.0
  0
LINE
  5
1D6
330
1D
100
AcDbEntity
  8
0
100
AcDbLine
 10
39.06515
 20
166.1885
 30
0.0
 11
39.49215
 21
166.1885
 31
0.0
  0
LINE
  5
1D7
330
1D
100
AcDbEntity
  8
0
100
AcDbLine
 10
38.57435
 20
170.1885
 30
0.0
 11
39.06515
 21
170.1885
 31
0.0
  0
LINE
  5
1D8
330
1D
100
AcDbEntity
  8
0
100
AcDbLine
 10
39.07345
 20
166.1885
 30
0.0
 11
39.50515
 21
166.1885
 31
0.0
  0
LINE
  5
1D9
330
1D
100
AcDbEntity
  8
0
100
AcDbLine
 10
39.50515
 20
166.1885
 30
0.0
 11
39.82415
 21
166.1885
 31
0.0
  0
LINE
  5
1DA
330
1D
100
AcDbEntity
  8
0
100
AcDbLine
 10
39.82415
 20
166.1885
 30
0.0
 11
40.03315
 21
166.1885
 31
0.0
  0
LINE
  5
1DB
330
1D
100
AcDbEntity
  8
0
100
AcDbLine
 10
39.49215
 20
166.1885
 30
0.0
 11
39.82905
 21
166.1885
 31
0.0
  0
LINE
  5
1DC
330
1D
100
AcDbEntity
  8
0
100
AcDbLine
 10
39.82905
 20
166.1885
 30
0.0
 11
40.03455
 21
166.1885
 31
0.0
  0
LINE
  5
1DD
330
1D
100
AcDbEntity
  8
0
100
AcDbLine
 10
39.06515
 20
170.1885
 30
0.0
 11
39.49215
 21
170.1885
 31
0.0
  0
LINE
  5
1DE
330
1D
100
AcDbEntity
  8
0
100
AcDbLine
 10
39.49215
 20
170.1885
 30
0.0
 11
39.82905
 21
170.1885
 31
0.0
  0
LINE
  5
1DF
330
1D
100
AcDbEntity
  8
0
100
AcDbLine
 10
39.82905
 20
170.1885
 30
0.0
 11
40.03455
 21
170.1885
 31
0.0
  0
LINE
  5
1E0
330
1D
100
AcDbEntity
  8
0
100
AcDbLine
 10
39.41235
 20
170.3355
 30
0.0
 11
39.41235
 21
170.1885
 31
0.0
  0
LINE
  5
1E1
330
1D
100
AcDbEntity
  8
0
100
AcDbLine
 10
39.41235
 20
179.1885
 30
0.0
 11
39.41235
 21
175.3355
 31
0.0
  0
LINE
  5
1E2
330
1D
100
AcDbEntity
  8
0
100
AcDbLine
 10
39.41235
 20
175.3355
 30
0.0
 11
39.41235
 21
179.1885
 31
0.0
  0
LINE
  5
1E3
330
1D
100
AcDbEntity
  8
0
100
AcDbLine
 10
39.41235
 20
170.1885
 30
0.0
 11
39.41235
 21
170.3355
 31
0.0
  0
LINE
  5
1E4
330
1D
100
AcDbEntity
  8
0
100
AcDbLine
 10
38.07255
 20
134.5365
 30
0.0
 11
41.07255
 21
134.5365
 31
0.0
  0
LINE
  5
1E5
330
1D
100
AcDbEntity
  8
0
100
AcDbLine
 10
39.05245
 20
225.1885
 30
0.0
 11
40.00275
 21
225.1885
 31
0.0
  0
LINE
  5
1E6
330
1D
100
AcDbEntity
  8
0
100
AcDbLine
 10
38.00025
 20
225.1885
 30
0.0
 11
39.52765
 21
225.1885
 31
0.0
  0
LINE
  5
1E7
330
1D
100
AcDbEntity
  8
0
100
AcDbLine
 10
38.00025
 20
225.1885
 30
0.0
 11
39.05245
 21
225.1885
 31
0.0
  0
LINE
  5
1E8
330
1D
100
AcDbEntity
  8
0
100
AcDbLine
 10
39.52765
 20
225.1885
 30
0.0
 11
40.91915
 21
225.1885
 31
0.0
  0
LINE
  5
1E9
330
1D
100
AcDbEntity
  8
0
100
AcDbLine
 10
38.00025
 20
235.1885
 30
0.0
 11
39.52765
 21
235.1885
 31
0.0
  0
LINE
  5
1EA
330
1D
100
AcDbEntity
  8
0
100
AcDbLine
 10
39.52765
 20
235.1885
 30
0.0
 11
40.91915
 21
235.1885
 31
0.0
  0
LINE
  5
1EB
330
1D
100
AcDbEntity
  8
0
100
AcDbLine
 10
38.00025
 20
212.1885
 30
0.0
 11
39.52765
 21
212.1885
 31
0.0
  0
LINE
  5
1EC
330
1D
100
AcDbEntity
  8
0
100
AcDbLine
 10
39.52765
 20
212.1885
 30
0.0
 11
40.91915
 21
212.1885
 31
0.0
  0
LINE
  5
1ED
330
1D
100
AcDbEntity
  8
0
100
AcDbLine
 10
38.00025
 20
197.9485
 30
0.0
 11
43.26115
 21
197.9485
 31
0.0
  0
LINE
  5
1EE
330
1D
100
AcDbEntity
  8
0
100
AcDbLine
 10
37.21845
 20
11.5745
 30
0.0
 11
40.04765
 21
2.4145
 31
0.0
  0
LINE
  5
1EF
330
1D
100
AcDbEntity
  8
0
100
AcDbLine
 10
39.76115
 20
3.6545
 30
0.0
 11
39.89745
 21
4.9765
 31
0.0
  0
LINE
  5
1F0
330
1D
100
AcDbEntity
  8
0
100
AcDbLine
 10
39.76115
 20
3.6545
 30
0.0
 11
40.04765
 21
2.4145
 31
0.0
  0
LINE
  5
1F1
330
1D
100
AcDbEntity
  8
0
100
AcDbLine
 10
43.43255
 20
-0.0025
 30
0.0
 11
45.08305
 21
-0.1885
 31
0.0
  0
LINE
  5
1F2
330
1D
100
AcDbEntity
  8
0
100
AcDbLine
 10
41.97665
 20
0.4935
 30
0.0
 11
43.43255
 21
-0.0025
 31
0.0
  0
LINE
  5
1F3
330
1D
100
AcDbEntity
  8
0
100
AcDbLine
 10
40.80095
 20
1.3195
 30
0.0
 11
41.97665
 21
0.4935
 31
0.0
  0
LINE
  5
1F4
330
1D
100
AcDbEntity
  8
0
100
AcDbLine
 10
40.04765
 20
2.4145
 30
0.0
 11
40.80095
 21
1.3195
 31
0.0
  0
LINE
  5
1F5
330
1D
100
AcDbEntity
  8
0
100
AcDbLine
 10
39.97255
 20
104.5365
 30
0.0
 11
41.77255
 21
104.5365
 31
0.0
  0
LINE
  5
1F6
330
1D
100
AcDbEntity
  8
0
100
AcDbLine
 10
40.03455
 20
166.1885
 30
0.0
 11
40.09785
 21
166.1885
 31
0.0
  0
LINE
  5
1F7
330
1D
100
AcDbEntity
  8
0
100
AcDbLine
 10
40.09785
 20
170.1885
 30
0.0
 11
40.09785
 21
166.1885
 31
0.0
  0
LINE
  5
1F8
330
1D
100
AcDbEntity
  8
0
100
AcDbLine
 10
40.03315
 20
166.1885
 30
0.0
 11
40.09785
 21
166.1885
 31
0.0
  0
LINE
  5
1F9
330
1D
100
AcDbEntity
  8
0
100
AcDbLine
 10
40.09785
 20
166.1885
 30
0.0
 11
40.09785
 21
170.1885
 31
0.0
  0
LINE
  5
1FA
330
1D
100
AcDbEntity
  8
0
100
AcDbLine
 10
40.03455
 20
170.1885
 30
0.0
 11
40.09785
 21
170.1885
 31
0.0
  0
LINE
  5
1FB
330
1D
100
AcDbEntity
  8
0
100
AcDbLine
 10
40.11225
 20
170.3355
 30
0.0
 11
42.09225
 21
170.3355
 31
0.0
  0
LINE
  5
1FC
330
1D
100
AcDbEntity
  8
0
100
AcDbLine
 10
40.11225
 20
175.3355
 30
0.0
 11
42.09225
 21
175.3355
 31
0.0
  0
LINE
  5
1FD
330
1D
100
AcDbEntity
  8
0
100
AcDbLine
 10
40.88855
 20
134.8965
 30
0.0
 11
43.52855
 21
134.8965
 31
0.0
  0
LINE
  5
1FE
330
1D
100
AcDbEntity
  8
0
100
AcDbLine
 10
40.77255
 20
104.5365
 30
0.0
 11
43.27255
 21
104.5365
 31
0.0
  0
LINE
  5
1FF
330
1D
100
AcDbEntity
  8
0
100
AcDbLine
 10
39.97255
 20
54.3085
 30
0.0
 11
41.77255
 21
53.5965
 31
0.0
  0
LINE
  5
200
330
1D
100
AcDbEntity
  8
0
100
AcDbLine
 10
39.97255
 20
44.5625
 30
0.0
 11
41.77255
 21
44.6375
 31
0.0
  0
LINE
  5
201
330
1D
100
AcDbEntity
  8
0
100
AcDbLine
 10
41.07255
 20
134.5365
 30
0.0
 11
43.77255
 21
134.5365
 31
0.0
  0
LINE
  5
202
330
1D
100
AcDbEntity
  8
0
100
AcDbLine
 10
40.82865
 20
225.1885
 30
0.0
 11
41.45095
 21
225.1885
 31
0.0
  0
LINE
  5
203
330
1D
100
AcDbEntity
  8
0
100
AcDbLine
 10
40.00275
 20
225.1885
 30
0.0
 11
40.82865
 21
225.1885
 31
0.0
  0
LINE
  5
204
330
1D
100
AcDbEntity
  8
0
100
AcDbLine
 10
40.91915
 20
225.1885
 30
0.0
 11
42.14105
 21
225.1885
 31
0.0
  0
LINE
  5
205
330
1D
100
AcDbEntity
  8
0
100
AcDbLine
 10
41.45095
 20
225.1885
 30
0.0
 11
41.85825
 21
225.1885
 31
0.0
  0
LINE
  5
206
330
1D
100
AcDbEntity
  8
0
100
AcDbLine
 10
40.91915
 20
235.1885
 30
0.0
 11
42.14105
 21
235.1885
 31
0.0
  0
LINE
  5
207
330
1D
100
AcDbEntity
  8
0
100
AcDbLine
 10
40.91915
 20
212.1885
 30
0.0
 11
42.14105
 21
212.1885
 31
0.0
  0
LINE
  5
208
330
1D
100
AcDbEntity
  8
0
100
AcDbLine
 10
41.77255
 20
44.6375
 30
0.0
 11
43.37255
 21
45.0125
 31
0.0
  0
LINE
  5
209
330
1D
100
AcDbEntity
  8
0
100
AcDbLine
 10
41.77255
 20
104.5365
 30
0.0
 11
43.37255
 21
104.5365
 31
0.0
  0
LINE
  5
20A
330
1D
100
AcDbEntity
  8
0
100
AcDbLine
 10
43.27255
 20
104.5365
 30
0.0
 11
45.47255
 21
104.5365
 31
0.0
  0
LINE
  5
20B
330
1D
100
AcDbEntity
  8
0
100
AcDbLine
 10
41.77255
 20
53.5965
 30
0.0
 11
43.37255
 21
52.5465
 31
0.0
  0
LINE
  5
20C
330
1D
100
AcDbEntity
  8
0
100
AcDbLine
 10
42.09225
 20
170.3355
 30
0.0
 11
43.84125
 21
170.3355
 31
0.0
  0
LINE
  5
20D
330
1D
100
AcDbEntity
  8
0
100
AcDbLine
 10
42.09225
 20
175.3355
 30
0.0
 11
43.84125
 21
175.3355
 31
0.0
  0
LINE
  5
20E
330
1D
100
AcDbEntity
  8
0
100
AcDbLine
 10
42.09625
 20
190.1885
 30
0.0
 11
45.93625
 21
190.1885
 31
0.0
  0
LINE
  5
20F
330
1D
100
AcDbEntity
  8
0
100
AcDbLine
 10
42.09625
 20
140.1885
 30
0.0
 11
45.93625
 21
140.1885
 31
0.0
  0
LINE
  5
210
330
1D
100
AcDbEntity
  8
0
100
AcDbLine
 10
43.37255
 20
104.5365
 30
0.0
 11
44.57255
 21
104.5365
 31
0.0
  0
LINE
  5
211
330
1D
100
AcDbEntity
  8
0
100
AcDbLine
 10
43.52855
 20
134.8965
 30
0.0
 11
45.86055
 21
134.8965
 31
0.0
  0
LINE
  5
212
330
1D
100
AcDbEntity
  8
0
100
AcDbLine
 10
43.37255
 20
52.5465
 30
0.0
 11
44.57255
 21
51.3475
 31
0.0
  0
LINE
  5
213
330
1D
100
AcDbEntity
  8
0
100
AcDbLine
 10
43.37255
 20
45.0125
 30
0.0
 11
44.57255
 21
45.6875
 31
0.0
  0
LINE
  5
214
330
1D
100
AcDbEntity
  8
0
100
AcDbLine
 10
43.84125
 20
170.3355
 30
0.0
 11
45.16125
 21
170.3355
 31
0.0
  0
LINE
  5
215
330
1D
100
AcDbEntity
  8
0
100
AcDbLine
 10
43.84125
 20
175.3355
 30
0.0
 11
45.16125
 21
175.3355
 31
0.0
  0
LINE
  5
216
330
1D
100
AcDbEntity
  8
0
100
AcDbLine
 10
44.40025
 20
193.1885
 30
0.0
 11
50.40025
 21
193.1885
 31
0.0
  0
LINE
  5
217
330
1D
100
AcDbEntity
  8
0
100
AcDbLine
 10
44.40025
 20
181.1885
 30
0.0
 11
50.40025
 21
181.1885
 31
0.0
  0
LINE
  5
218
330
1D
100
AcDbEntity
  8
0
100
AcDbLine
 10
44.40025
 20
179.1885
 30
0.0
 11
50.40025
 21
179.1885
 31
0.0
  0
LINE
  5
219
330
1D
100
AcDbEntity
  8
0
100
AcDbLine
 10
43.77255
 20
134.5365
 30
0.0
 11
46.17255
 21
134.5365
 31
0.0
  0
LINE
  5
21A
330
1D
100
AcDbEntity
  8
0
100
AcDbLine
 10
42.00535
 20
212.1885
 30
0.0
 11
42.00535
 21
225.1885
 31
0.0
  0
LINE
  5
21B
330
1D
100
AcDbEntity
  8
0
100
AcDbLine
 10
41.85825
 20
225.1885
 30
0.0
 11
42.00535
 21
225.1885
 31
0.0
  0
LINE
  5
21C
330
1D
100
AcDbEntity
  8
0
100
AcDbLine
 10
42.14105
 20
225.1885
 30
0.0
 11
43.05745
 21
225.1885
 31
0.0
  0
LINE
  5
21D
330
1D
100
AcDbEntity
  8
0
100
AcDbLine
 10
42.14105
 20
235.1885
 30
0.0
 11
43.05745
 21
235.1885
 31
0.0
  0
LINE
  5
21E
330
1D
100
AcDbEntity
  8
0
100
AcDbLine
 10
42.00535
 20
225.1885
 30
0.0
 11
42.14105
 21
225.1885
 31
0.0
  0
LINE
  5
21F
330
1D
100
AcDbEntity
  8
0
100
AcDbLine
 10
42.00535
 20
225.1885
 30
0.0
 11
42.00535
 21
212.1885
 31
0.0
  0
LINE
  5
220
330
1D
100
AcDbEntity
  8
0
100
AcDbLine
 10
44.00785
 20
204.1885
 30
0.0
 11
45.78825
 21
204.1885
 31
0.0
  0
LINE
  5
221
330
1D
100
AcDbEntity
  8
0
100
AcDbLine
 10
44.00785
 20
201.1885
 30
0.0
 11
45.08025
 21
201.1885
 31
0.0
  0
LINE
  5
222
330
1D
100
AcDbEntity
  8
0
100
AcDbLine
 10
44.00785
 20
201.1885
 30
0.0
 11
45.78825
 21
201.1885
 31
0.0
  0
LINE
  5
223
330
1D
100
AcDbEntity
  8
0
100
AcDbLine
 10
44.00785
 20
204.307982963369
 30
0.0
 11
44.90405
 21
204.2605
 31
0.0
  0
LINE
  5
224
330
1D
100
AcDbEntity
  8
0
100
AcDbLine
 10
44.00785
 20
209.069017036631
 30
0.0
 11
44.90405
 21
209.1165
 31
0.0
  0
LINE
  5
225
330
1D
100
AcDbEntity
  8
0
100
AcDbLine
 10
44.00785
 20
209.158272771412
 30
0.0
 11
44.90405
 21
209.1165
 31
0.0
  0
LINE
  5
226
330
1D
100
AcDbEntity
  8
0
100
AcDbLine
 10
44.00785
 20
209.1885
 30
0.0
 11
44.54575
 21
209.1885
 31
0.0
  0
LINE
  5
227
330
1D
100
AcDbEntity
  8
0
100
AcDbLine
 10
43.83815
 20
212.1885
 30
0.0
 11
44.00785
 21
211.5155
 31
0.0
  0
LINE
  5
228
330
1D
100
AcDbEntity
  8
0
100
AcDbLine
 10
43.63445
 20
212.1885
 30
0.0
 11
43.83815
 21
212.1885
 31
0.0
  0
LINE
  5
229
330
1D
100
AcDbEntity
  8
0
100
AcDbLine
 10
43.05745
 20
235.1885
 30
0.0
 11
43.63445
 21
235.1885
 31
0.0
  0
LINE
  5
22A
330
1D
100
AcDbEntity
  8
0
100
AcDbLine
 10
43.83815
 20
225.1885
 30
0.0
 11
44.00785
 21
225.7685
 31
0.0
  0
LINE
  5
22B
330
1D
100
AcDbEntity
  8
0
100
AcDbLine
 10
43.83815
 20
235.1885
 30
0.0
 11
44.00785
 21
234.6085
 31
0.0
  0
LINE
  5
22C
330
1D
100
AcDbEntity
  8
0
100
AcDbLine
 10
43.63445
 20
235.1885
 30
0.0
 11
43.83815
 21
235.1885
 31
0.0
  0
LINE
  5
22D
330
1D
100
AcDbEntity
  8
0
100
AcDbLine
 10
44.00785
 20
225.7685
 30
0.0
 11
44.00785
 21
234.6085
 31
0.0
  0
LINE
  5
22E
330
1D
100
AcDbEntity
  8
0
100
AcDbLine
 10
44.00785
 20
234.6085
 30
0.0
 11
44.00785
 21
225.7685
 31
0.0
  0
LINE
  5
22F
330
1D
100
AcDbEntity
  8
0
100
AcDbLine
 10
43.63445
 20
225.1885
 30
0.0
 11
43.83815
 21
225.1885
 31
0.0
  0
LINE
  5
230
330
1D
100
AcDbEntity
  8
0
100
AcDbLine
 10
43.05745
 20
225.1885
 30
0.0
 11
43.63445
 21
225.1885
 31
0.0
  0
LINE
  5
231
330
1D
100
AcDbEntity
  8
0
100
AcDbLine
 10
43.05745
 20
212.1885
 30
0.0
 11
43.63445
 21
212.1885
 31
0.0
  0
LINE
  5
232
330
1D
100
AcDbEntity
  8
0
100
AcDbLine
 10
42.14105
 20
212.1885
 30
0.0
 11
43.05745
 21
212.1885
 31
0.0
  0
LINE
  5
233
330
1D
100
AcDbEntity
  8
0
100
AcDbLine
 10
44.00785
 20
198.1885
 30
0.0
 11
44.00785
 21
211.5155
 31
0.0
  0
LINE
  5
234
330
1D
100
AcDbEntity
  8
0
100
AcDbLine
 10
44.00785
 20
211.5155
 30
0.0
 11
44.00785
 21
198.1885
 31
0.0
  0
LINE
  5
235
330
1D
100
AcDbEntity
  8
0
100
AcDbLine
 10
43.26115
 20
197.9485
 30
0.0
 11
48.01285
 21
197.9485
 31
0.0
  0
LINE
  5
236
330
1D
100
AcDbEntity
  8
0
100
AcDbLine
 10
44.57255
 20
51.3475
 30
0.0
 11
45.27255
 21
50.1475
 31
0.0
  0
LINE
  5
237
330
1D
100
AcDbEntity
  8
0
100
AcDbLine
 10
45.27255
 20
50.1475
 30
0.0
 11
45.57255
 21
48.7985
 31
0.0
  0
LINE
  5
238
330
1D
100
AcDbEntity
  8
0
100
AcDbLine
 10
44.57255
 20
45.6875
 30
0.0
 11
45.27255
 21
46.8115
 31
0.0
  0
LINE
  5
239
330
1D
100
AcDbEntity
  8
0
100
AcDbLine
 10
45.57255
 20
48.7985
 30
0.0
 11
45.57255
 21
104.5365
 31
0.0
  0
LINE
  5
23A
330
1D
100
AcDbEntity
  8
0
100
AcDbLine
 10
45.27255
 20
46.8115
 30
0.0
 11
45.57255
 21
48.7985
 31
0.0
  0
LINE
  5
23B
330
1D
100
AcDbEntity
  8
0
100
AcDbLine
 10
45.57255
 20
67.625087767468
 30
0.0
 11
46.08915
 21
67.3595
 31
0.0
  0
LINE
  5
23C
330
1D
100
AcDbEntity
  8
0
100
AcDbLine
 10
44.57255
 20
104.5365
 30
0.0
 11
45.27255
 21
104.5365
 31
0.0
  0
LINE
  5
23D
330
1D
100
AcDbEntity
  8
0
100
AcDbLine
 10
45.47255
 20
104.5365
 30
0.0
 11
47.17255
 21
104.5365
 31
0.0
  0
LINE
  5
23E
330
1D
100
AcDbEntity
  8
0
100
AcDbLine
 10
45.27255
 20
104.5365
 30
0.0
 11
45.57255
 21
104.5365
 31
0.0
  0
LINE
  5
23F
330
1D
100
AcDbEntity
  8
0
100
AcDbLine
 10
44.65625
 20
191.1885
 30
0.0
 11
50.89625
 21
191.1885
 31
0.0
  0
LINE
  5
240
330
1D
100
AcDbEntity
  8
0
100
AcDbLine
 10
44.65625
 20
190.1885
 30
0.0
 11
50.89625
 21
190.1885
 31
0.0
  0
LINE
  5
241
330
1D
100
AcDbEntity
  8
0
100
AcDbLine
 10
45.08025
 20
201.1885
 30
0.0
 11
46.68025
 21
201.1885
 31
0.0
  0
LINE
  5
242
330
1D
100
AcDbEntity
  8
0
100
AcDbLine
 10
44.90405
 20
209.1165
 30
0.0
 11
45.99275
 21
209.0395
 31
0.0
  0
LINE
  5
243
330
1D
100
AcDbEntity
  8
0
100
AcDbLine
 10
44.90405
 20
204.2605
 30
0.0
 11
45.28205
 21
204.1885
 31
0.0
  0
LINE
  5
244
330
1D
100
AcDbEntity
  8
0
100
AcDbLine
 10
44.90405
 20
204.2605
 30
0.0
 11
45.99275
 21
204.3385
 31
0.0
  0
LINE
  5
245
330
1D
100
AcDbEntity
  8
0
100
AcDbLine
 10
44.54575
 20
209.1885
 30
0.0
 11
44.90405
 21
209.1165
 31
0.0
  0
LINE
  5
246
330
1D
100
AcDbEntity
  8
0
100
AcDbLine
 10
44.54575
 20
209.1885
 30
0.0
 11
45.28205
 21
209.1885
 31
0.0
  0
LINE
  5
247
330
1D
100
AcDbEntity
  8
0
100
AcDbLine
 10
44.54575
 20
209.1885
 30
0.0
 11
45.99275
 21
209.0395
 31
0.0
  0
LINE
  5
248
330
1D
100
AcDbEntity
  8
0
100
AcDbLine
 10
45.16125
 20
170.3355
 30
0.0
 11
45.95325
 21
170.3355
 31
0.0
  0
LINE
  5
249
330
1D
100
AcDbEntity
  8
0
100
AcDbLine
 10
45.56845
 20
204.1885
 30
0.0
 11
46.18205
 21
204.2955
 31
0.0
  0
LINE
  5
24A
330
1D
100
AcDbEntity
  8
0
100
AcDbLine
 10
45.56845
 20
209.1885
 30
0.0
 11
46.18205
 21
209.0815
 31
0.0
  0
LINE
  5
24B
330
1D
100
AcDbEntity
  8
0
100
AcDbLine
 10
45.28205
 20
209.1885
 30
0.0
 11
45.99275
 21
209.0395
 31
0.0
  0
LINE
  5
24C
330
1D
100
AcDbEntity
  8
0
100
AcDbLine
 10
45.28205
 20
209.1885
 30
0.0
 11
45.56845
 21
209.1885
 31
0.0
  0
LINE
  5
24D
330
1D
100
AcDbEntity
  8
0
100
AcDbLine
 10
45.28205
 20
204.1885
 30
0.0
 11
45.99275
 21
204.3385
 31
0.0
  0
LINE
  5
24E
330
1D
100
AcDbEntity
  8
0
100
AcDbLine
 10
45.16125
 20
175.3355
 30
0.0
 11
45.95325
 21
175.3355
 31
0.0
  0
LINE
  5
24F
330
1D
100
AcDbEntity
  8
0
100
AcDbLine
 10
45.57255
 20
104.5365
 30
0.0
 11
45.57255
 21
48.7985
 31
0.0
  0
LINE
  5
250
330
1D
100
AcDbEntity
  8
0
100
AcDbLine
 10
45.57255
 20
104.5365
 30
0.0
 11
47.17255
 21
104.5365
 31
0.0
  0
LINE
  5
251
330
1D
100
AcDbEntity
  8
0
100
AcDbLine
 10
45.57255
 20
88.1885
 30
0.0
 11
47.997420852018
 21
88.1885
 31
0.0
  0
LINE
  5
252
330
1D
100
AcDbEntity
  8
0
100
AcDbLine
 10
45.57255
 20
79.055103694875
 30
0.0
 11
46.08915
 21
79.0175
 31
0.0
  0
LINE
  5
253
330
1D
100
AcDbEntity
  8
0
100
AcDbLine
 10
45.57255
 20
78.751912232532
 30
0.0
 11
46.08915
 21
79.0175
 31
0.0
  0
LINE
  5
254
330
1D
100
AcDbEntity
  8
0
100
AcDbLine
 10
45.57255
 20
79.005791271347
 30
0.0
 11
46.08915
 21
79.0175
 31
0.0
  0
LINE
  5
255
330
1D
100
AcDbEntity
  8
0
100
AcDbLine
 10
45.57255
 20
67.1885
 30
0.0
 11
45.94045
 21
67.1885
 31
0.0
  0
LINE
  5
256
330
1D
100
AcDbEntity
  8
0
100
AcDbLine
 10
45.57255
 20
67.1885
 30
0.0
 11
46.00345
 21
67.1885
 31
0.0
  0
LINE
  5
257
330
1D
100
AcDbEntity
  8
0
100
AcDbLine
 10
44.52505
 20
9.4605
 30
0.0
 11
46.26285
 21
9.9565
 31
0.0
  0
LINE
  5
258
330
1D
100
AcDbEntity
  8
0
100
AcDbLine
 10
42.87965
 20
8.6335
 30
0.0
 11
44.52505
 21
9.4605
 31
0.0
  0
LINE
  5
259
330
1D
100
AcDbEntity
  8
0
100
AcDbLine
 10
41.50385
 20
7.5385
 30
0.0
 11
42.87965
 21
8.6335
 31
0.0
  0
LINE
  5
25A
330
1D
100
AcDbEntity
  8
0
100
AcDbLine
 10
40.51275
 20
6.2995
 30
0.0
 11
41.50385
 21
7.5385
 31
0.0
  0
LINE
  5
25B
330
1D
100
AcDbEntity
  8
0
100
AcDbLine
 10
39.89745
 20
4.9765
 30
0.0
 11
40.51275
 21
6.2995
 31
0.0
  0
LINE
  5
25C
330
1D
100
AcDbEntity
  8
0
100
AcDbLine
 10
45.08305
 20
-0.1885
 30
0.0
 11
46.83915
 21
-0.0025
 31
0.0
  0
LINE
  5
25D
330
1D
100
AcDbEntity
  8
0
100
AcDbLine
 10
46.83915
 20
-0.0025
 30
0.0
 11
48.57695
 21
0.4935
 31
0.0
  0
LINE
  5
25E
330
1D
100
AcDbEntity
  8
0
100
AcDbLine
 10
48.57695
 20
0.4935
 30
0.0
 11
50.22235
 21
1.3195
 31
0.0
  0
LINE
  5
25F
330
1D
100
AcDbEntity
  8
0
100
AcDbLine
 10
50.22235
 20
1.3195
 30
0.0
 11
51.59815
 21
2.4145
 31
0.0
  0
LINE
  5
260
330
1D
100
AcDbEntity
  8
0
100
AcDbLine
 10
51.59815
 20
2.4145
 30
0.0
 11
52.58915
 21
3.6545
 31
0.0
  0
LINE
  5
261
330
1D
100
AcDbEntity
  8
0
100
AcDbLine
 10
52.58915
 20
3.6545
 30
0.0
 11
53.20425
 21
4.9765
 31
0.0
  0
LINE
  5
262
330
1D
100
AcDbEntity
  8
0
100
AcDbLine
 10
46.26285
 20
9.9565
 30
0.0
 11
48.01895
 21
10.1425
 31
0.0
  0
LINE
  5
263
330
1D
100
AcDbEntity
  8
0
100
AcDbLine
 10
48.01895
 20
10.1425
 30
0.0
 11
49.66945
 21
9.9565
 31
0.0
  0
LINE
  5
264
330
1D
100
AcDbEntity
  8
0
100
AcDbLine
 10
49.66945
 20
9.9565
 30
0.0
 11
51.12535
 21
9.4605
 31
0.0
  0
LINE
  5
265
330
1D
100
AcDbEntity
  8
0
100
AcDbLine
 10
46.89125
 20
35.9295
 30
0.0
 11
48.49665
 21
25.4345
 31
0.0
  0
LINE
  5
266
330
1D
100
AcDbEntity
  8
0
100
AcDbLine
 10
48.49665
 20
25.4345
 30
0.0
 11
50.563467115989
 21
15.478524379402
 31
0.0
  0
LINE
  5
267
330
1D
100
AcDbEntity
  8
0
100
AcDbLine
 10
51.12535
 20
9.4605
 30
0.0
 11
52.30095
 21
8.6335
 31
0.0
  0
LINE
  5
268
330
1D
100
AcDbEntity
  8
0
100
AcDbLine
 10
52.30095
 20
8.6335
 30
0.0
 11
53.05425
 21
7.5385
 31
0.0
  0
LINE
  5
269
330
1D
100
AcDbEntity
  8
0
100
AcDbLine
 10
50.53085
 20
15.5825
 30
0.0
 11
53.05425
 21
7.5385
 31
0.0
  0
LINE
  5
26A
330
1D
100
AcDbEntity
  8
0
100
AcDbLine
 10
53.05425
 20
7.5385
 30
0.0
 11
53.34025
 21
6.2995
 31
0.0
  0
LINE
  5
26B
330
1D
100
AcDbEntity
  8
0
100
AcDbLine
 10
53.20425
 20
4.9765
 30
0.0
 11
53.34025
 21
6.2995
 31
0.0
  0
LINE
  5
26C
330
1D
100
AcDbEntity
  8
0
100
AcDbLine
 10
45.58025
 20
67.1885
 30
0.0
 11
46.99445
 21
67.1885
 31
0.0
  0
LINE
  5
26D
330
1D
100
AcDbEntity
  8
0
100
AcDbLine
 10
45.78825
 20
204.1885
 30
0.0
 11
47.54825
 21
204.1885
 31
0.0
  0
LINE
  5
26E
330
1D
100
AcDbEntity
  8
0
100
AcDbLine
 10
45.78825
 20
201.1885
 30
0.0
 11
47.54825
 21
201.1885
 31
0.0
  0
LINE
  5
26F
330
1D
100
AcDbEntity
  8
0
100
AcDbLine
 10
45.93625
 20
190.1885
 30
0.0
 11
49.32825
 21
190.1885
 31
0.0
  0
LINE
  5
270
330
1D
100
AcDbEntity
  8
0
100
AcDbLine
 10
45.93625
 20
140.1885
 30
0.0
 11
49.32825
 21
140.1885
 31
0.0
  0
LINE
  5
271
330
1D
100
AcDbEntity
  8
0
100
AcDbLine
 10
45.86055
 20
134.8965
 30
0.0
 11
47.62055
 21
134.8965
 31
0.0
  0
LINE
  5
272
330
1D
100
AcDbEntity
  8
0
100
AcDbLine
 10
45.58025
 20
79.1885
 30
0.0
 11
46.08915
 21
79.0175
 31
0.0
  0
LINE
  5
273
330
1D
100
AcDbEntity
  8
0
100
AcDbLine
 10
45.58025
 20
79.1885
 30
0.0
 11
46.99445
 21
79.1885
 31
0.0
  0
LINE
  5
274
330
1D
100
AcDbEntity
  8
0
100
AcDbLine
 10
46.99445
 20
67.1885
 30
0.0
 11
47.75145
 21
67.1885
 31
0.0
  0
LINE
  5
275
330
1D
100
AcDbEntity
  8
0
100
AcDbLine
 10
47.90205
 20
67.1885
 30
0.0
 11
48.67055
 21
67.4025
 31
0.0
  0
LINE
  5
276
330
1D
100
AcDbEntity
  8
0
100
AcDbLine
 10
47.75145
 20
67.1885
 30
0.0
 11
47.90205
 21
67.1885
 31
0.0
  0
LINE
  5
277
330
1D
100
AcDbEntity
  8
0
100
AcDbLine
 10
48.36915
 20
67.3595
 30
0.0
 11
49.42535
 21
67.9025
 31
0.0
  0
LINE
  5
278
330
1D
100
AcDbEntity
  8
0
100
AcDbLine
 10
47.22915
 20
67.2595
 30
0.0
 11
48.36915
 21
67.3595
 31
0.0
  0
LINE
  5
279
330
1D
100
AcDbEntity
  8
0
100
AcDbLine
 10
46.08915
 20
67.3595
 30
0.0
 11
47.22915
 21
67.2595
 31
0.0
  0
LINE
  5
27A
330
1D
100
AcDbEntity
  8
0
100
AcDbLine
 10
48.67055
 20
67.4025
 30
0.0
 11
49.46165
 21
67.9025
 31
0.0
  0
LINE
  5
27B
330
1D
100
AcDbEntity
  8
0
100
AcDbLine
 10
47.17255
 20
104.5365
 30
0.0
 11
48.17255
 21
104.5365
 31
0.0
  0
LINE
  5
27C
330
1D
100
AcDbEntity
  8
0
100
AcDbLine
 10
45.95325
 20
170.3355
 30
0.0
 11
48.91225
 21
170.3355
 31
0.0
  0
LINE
  5
27D
330
1D
100
AcDbEntity
  8
0
100
AcDbLine
 10
46.18205
 20
204.2955
 30
0.0
 11
46.65595
 21
204.5455
 31
0.0
  0
LINE
  5
27E
330
1D
100
AcDbEntity
  8
0
100
AcDbLine
 10
46.18205
 20
204.2955
 30
0.0
 11
46.79575
 21
204.5455
 31
0.0
  0
LINE
  5
27F
330
1D
100
AcDbEntity
  8
0
100
AcDbLine
 10
45.99275
 20
204.3385
 30
0.0
 11
46.65595
 21
204.5455
 31
0.0
  0
LINE
  5
280
330
1D
100
AcDbEntity
  8
0
100
AcDbLine
 10
45.99275
 20
204.3385
 30
0.0
 11
46.18205
 21
204.2955
 31
0.0
  0
LINE
  5
281
330
1D
100
AcDbEntity
  8
0
100
AcDbLine
 10
46.68025
 20
201.1885
 30
0.0
 11
47.64025
 21
201.1885
 31
0.0
  0
LINE
  5
282
330
1D
100
AcDbEntity
  8
0
100
AcDbLine
 10
47.00025
 20
204.9025
 30
0.0
 11
47.00025
 21
208.4745
 31
0.0
  0
LINE
  5
283
330
1D
100
AcDbEntity
  8
0
100
AcDbLine
 10
46.79575
 20
204.5455
 30
0.0
 11
47.00025
 21
204.9025
 31
0.0
  0
LINE
  5
284
330
1D
100
AcDbEntity
  8
0
100
AcDbLine
 10
46.65595
 20
204.5455
 30
0.0
 11
46.93715
 21
204.9025
 31
0.0
  0
LINE
  5
285
330
1D
100
AcDbEntity
  8
0
100
AcDbLine
 10
46.65595
 20
204.5455
 30
0.0
 11
46.79575
 21
204.5455
 31
0.0
  0
LINE
  5
286
330
1D
100
AcDbEntity
  8
0
100
AcDbLine
 10
46.18205
 20
209.0815
 30
0.0
 11
46.79575
 21
208.8315
 31
0.0
  0
LINE
  5
287
330
1D
100
AcDbEntity
  8
0
100
AcDbLine
 10
45.99275
 20
209.0395
 30
0.0
 11
46.65595
 21
208.8315
 31
0.0
  0
LINE
  5
288
330
1D
100
AcDbEntity
  8
0
100
AcDbLine
 10
45.99275
 20
209.0395
 30
0.0
 11
46.79575
 21
208.8315
 31
0.0
  0
LINE
  5
289
330
1D
100
AcDbEntity
  8
0
100
AcDbLine
 10
45.99275
 20
209.0395
 30
0.0
 11
46.18205
 21
209.0815
 31
0.0
  0
LINE
  5
28A
330
1D
100
AcDbEntity
  8
0
100
AcDbLine
 10
46.79575
 20
208.8315
 30
0.0
 11
47.00025
 21
208.4745
 31
0.0
  0
LINE
  5
28B
330
1D
100
AcDbEntity
  8
0
100
AcDbLine
 10
46.65595
 20
208.8315
 30
0.0
 11
46.93715
 21
208.4745
 31
0.0
  0
LINE
  5
28C
330
1D
100
AcDbEntity
  8
0
100
AcDbLine
 10
46.65595
 20
208.8315
 30
0.0
 11
46.79575
 21
208.8315
 31
0.0
  0
LINE
  5
28D
330
1D
100
AcDbEntity
  8
0
100
AcDbLine
 10
47.00025
 20
208.4745
 30
0.0
 11
47.00025
 21
204.9025
 31
0.0
  0
LINE
  5
28E
330
1D
100
AcDbEntity
  8
0
100
AcDbLine
 10
45.95325
 20
175.3355
 30
0.0
 11
48.91225
 21
175.3355
 31
0.0
  0
LINE
  5
28F
330
1D
100
AcDbEntity
  8
0
100
AcDbLine
 10
46.17255
 20
134.5365
 30
0.0
 11
48.07255
 21
134.5365
 31
0.0
  0
LINE
  5
290
330
1D
100
AcDbEntity
  8
0
100
AcDbLine
 10
47.29715
 20
87.1885
 30
0.0
 11
47.64025
 21
87.1885
 31
0.0
  0
LINE
  5
291
330
1D
100
AcDbEntity
  8
0
100
AcDbLine
 10
47.64025
 20
87.1885
 30
0.0
 11
48.00025
 21
87.1885
 31
0.0
  0
LINE
  5
292
330
1D
100
AcDbEntity
  8
0
100
AcDbLine
 10
47.29715
 20
79.1885
 30
0.0
 11
47.29715
 21
88.1885
 31
0.0
  0
LINE
  5
293
330
1D
100
AcDbEntity
  8
0
100
AcDbLine
 10
47.54825
 20
204.1885
 30
0.0
 11
48.60425
 21
204.1885
 31
0.0
  0
LINE
  5
294
330
1D
100
AcDbEntity
  8
0
100
AcDbLine
 10
47.54825
 20
201.1885
 30
0.0
 11
48.60425
 21
201.1885
 31
0.0
  0
LINE
  5
295
330
1D
100
AcDbEntity
  8
0
100
AcDbLine
 10
47.64025
 20
201.1885
 30
0.0
 11
48.00025
 21
201.1885
 31
0.0
  0
LINE
  5
296
330
1D
100
AcDbEntity
  8
0
100
AcDbLine
 10
47.62055
 20
134.8965
 30
0.0
 11
48.67655
 21
134.8965
 31
0.0
  0
LINE
  5
297
330
1D
100
AcDbEntity
  8
0
100
AcDbLine
 10
47.297803371468
 20
90.4965
 30
0.0
 11
47.77745
 21
88.6235
 31
0.0
  0
LINE
  5
298
330
1D
100
AcDbEntity
  8
0
100
AcDbLine
 10
47.29715
 20
88.1885
 30
0.0
 11
47.29715
 21
79.1885
 31
0.0
  0
LINE
  5
299
330
1D
100
AcDbEntity
  8
0
100
AcDbLine
 10
47.29715
 20
88.1885
 30
0.0
 11
47.997420852018
 21
88.1885
 31
0.0
  0
LINE
  5
29A
330
1D
100
AcDbEntity
  8
0
100
AcDbLine
 10
47.22915
 20
79.1175
 30
0.0
 11
48.36915
 21
79.0175
 31
0.0
  0
LINE
  5
29B
330
1D
100
AcDbEntity
  8
0
100
AcDbLine
 10
46.08915
 20
79.0175
 30
0.0
 11
47.22915
 21
79.1175
 31
0.0
  0
LINE
  5
29C
330
1D
100
AcDbEntity
  8
0
100
AcDbLine
 10
48.36915
 20
79.0175
 30
0.0
 11
49.42535
 21
78.4745
 31
0.0
  0
LINE
  5
29D
330
1D
100
AcDbEntity
  8
0
100
AcDbLine
 10
48.00025
 20
87.1885
 30
0.0
 11
48.00025
 21
88.182905261602
 31
0.0
  0
LINE
  5
29E
330
1D
100
AcDbEntity
  8
0
100
AcDbLine
 10
48.00025
 20
88.182905261602
 30
0.0
 11
48.00025
 21
87.1885
 31
0.0
  0
LINE
  5
29F
330
1D
100
AcDbEntity
  8
0
100
AcDbLine
 10
48.17255
 20
104.5365
 30
0.0
 11
48.57255
 21
104.5365
 31
0.0
  0
LINE
  5
2A0
330
1D
100
AcDbEntity
  8
0
100
AcDbLine
 10
48.07255
 20
134.5365
 30
0.0
 11
49.17255
 21
134.5365
 31
0.0
  0
LINE
  5
2A1
330
1D
100
AcDbEntity
  8
0
100
AcDbLine
 10
48.00025
 20
198.1885
 30
0.0
 11
48.00025
 21
201.1885
 31
0.0
  0
LINE
  5
2A2
330
1D
100
AcDbEntity
  8
0
100
AcDbLine
 10
48.00025
 20
201.1885
 30
0.0
 11
48.00025
 21
198.1885
 31
0.0
  0
LINE
  5
2A3
330
1D
100
AcDbEntity
  8
0
100
AcDbLine
 10
48.00025
 20
201.1885
 30
0.0
 11
48.60425
 21
201.1885
 31
0.0
  0
LINE
  5
2A4
330
1D
100
AcDbEntity
  8
0
100
AcDbLine
 10
48.01285
 20
197.9485
 30
0.0
 11
52.14235
 21
197.9485
 31
0.0
  0
LINE
  5
2A5
330
1D
100
AcDbEntity
  8
0
100
AcDbLine
 10
47.77745
 20
88.6235
 30
0.0
 11
48.11575
 21
87.9545
 31
0.0
  0
LINE
  5
2A6
330
1D
100
AcDbEntity
  8
0
100
AcDbLine
 10
48.11575
 20
87.9545
 30
0.0
 11
48.67165
 21
87.2625
 31
0.0
  0
LINE
  5
2A7
330
1D
100
AcDbEntity
  8
0
100
AcDbLine
 10
48.60425
 20
204.1885
 30
0.0
 11
49.00025
 21
204.1885
 31
0.0
  0
LINE
  5
2A8
330
1D
100
AcDbEntity
  8
0
100
AcDbLine
 10
48.60425
 20
201.1885
 30
0.0
 11
49.00025
 21
201.1885
 31
0.0
  0
LINE
  5
2A9
330
1D
100
AcDbEntity
  8
0
100
AcDbLine
 10
48.57255
 20
104.5365
 30
0.0
 11
49.57255
 21
134.5365
 31
0.0
  0
LINE
  5
2AA
330
1D
100
AcDbEntity
  8
0
100
AcDbLine
 10
49.07255
 20
134.8965
 30
0.0
 11
49.07255
 21
140.1885
 31
0.0
  0
LINE
  5
2AB
330
1D
100
AcDbEntity
  8
0
100
AcDbLine
 10
48.80855
 20
134.5365
 30
0.0
 11
49.07255
 21
134.8965
 31
0.0
  0
LINE
  5
2AC
330
1D
100
AcDbEntity
  8
0
100
AcDbLine
 10
48.91225
 20
170.3355
 30
0.0
 11
53.57625
 21
170.3355
 31
0.0
  0
LINE
  5
2AD
330
1D
100
AcDbEntity
  8
0
100
AcDbLine
 10
49.00025
 20
201.1885
 30
0.0
 11
49.00025
 21
204.1885
 31
0.0
  0
LINE
  5
2AE
330
1D
100
AcDbEntity
  8
0
100
AcDbLine
 10
49.00025
 20
204.1885
 30
0.0
 11
49.00025
 21
201.1885
 31
0.0
  0
LINE
  5
2AF
330
1D
100
AcDbEntity
  8
0
100
AcDbLine
 10
48.91225
 20
175.3355
 30
0.0
 11
53.57625
 21
175.3355
 31
0.0
  0
LINE
  5
2B0
330
1D
100
AcDbEntity
  8
0
100
AcDbLine
 10
49.07255
 20
140.1885
 30
0.0
 11
49.07255
 21
134.8965
 31
0.0
  0
LINE
  5
2B1
330
1D
100
AcDbEntity
  8
0
100
AcDbLine
 10
49.07255
 20
140.1885
 30
0.0
 11
49.32825
 21
140.1885
 31
0.0
  0
LINE
  5
2B2
330
1D
100
AcDbEntity
  8
0
100
AcDbLine
 10
48.67655
 20
134.8965
 30
0.0
 11
49.07255
 21
134.8965
 31
0.0
  0
LINE
  5
2B3
330
1D
100
AcDbEntity
  8
0
100
AcDbLine
 10
49.32825
 20
190.1885
 30
0.0
 11
51.88825
 21
190.1885
 31
0.0
  0
LINE
  5
2B4
330
1D
100
AcDbEntity
  8
0
100
AcDbLine
 10
49.32825
 20
140.1885
 30
0.0
 11
51.88825
 21
140.1885
 31
0.0
  0
LINE
  5
2B5
330
1D
100
AcDbEntity
  8
0
100
AcDbLine
 10
49.17255
 20
134.5365
 30
0.0
 11
49.57255
 21
134.5365
 31
0.0
  0
LINE
  5
2B6
330
1D
100
AcDbEntity
  8
0
100
AcDbLine
 10
48.90845
 20
88.5775
 30
0.0
 11
50.01045
 21
89.5955
 31
0.0
  0
LINE
  5
2B7
330
1D
100
AcDbEntity
  8
0
100
AcDbLine
 10
48.67165
 20
87.2625
 30
0.0
 11
49.12455
 21
87.0255
 31
0.0
  0
LINE
  5
2B8
330
1D
100
AcDbEntity
  8
0
100
AcDbLine
 10
49.12455
 20
87.0255
 30
0.0
 11
50.302633039249
 21
86.647224757715
 31
0.0
  0
LINE
  5
2B9
330
1D
100
AcDbEntity
  8
0
100
AcDbLine
 10
48.57235
 20
87.6905
 30
0.0
 11
49.12455
 21
87.0255
 31
0.0
  0
LINE
  5
2BA
330
1D
100
AcDbEntity
  8
0
100
AcDbLine
 10
48.57235
 20
87.6905
 30
0.0
 11
48.90845
 21
88.5775
 31
0.0
  0
LINE
  5
2BB
330
1D
100
AcDbEntity
  8
0
100
AcDbLine
 10
47.90205
 20
79.1885
 30
0.0
 11
48.36915
 21
79.0175
 31
0.0
  0
LINE
  5
2BC
330
1D
100
AcDbEntity
  8
0
100
AcDbLine
 10
47.90205
 20
79.1885
 30
0.0
 11
48.67055
 21
78.9745
 31
0.0
  0
LINE
  5
2BD
330
1D
100
AcDbEntity
  8
0
100
AcDbLine
 10
47.75145
 20
79.1885
 30
0.0
 11
47.90205
 21
79.1885
 31
0.0
  0
LINE
  5
2BE
330
1D
100
AcDbEntity
  8
0
100
AcDbLine
 10
47.75145
 20
79.1885
 30
0.0
 11
48.36915
 21
79.0175
 31
0.0
  0
LINE
  5
2BF
330
1D
100
AcDbEntity
  8
0
100
AcDbLine
 10
48.67055
 20
78.9745
 30
0.0
 11
49.46165
 21
78.4745
 31
0.0
  0
LINE
  5
2C0
330
1D
100
AcDbEntity
  8
0
100
AcDbLine
 10
49.383049795559
 20
78.502520803154
 30
0.0
 11
49.46165
 21
78.4745
 31
0.0
  0
LINE
  5
2C1
330
1D
100
AcDbEntity
  8
0
100
AcDbLine
 10
56.40725
 20
68.3235
 30
0.0
 11
58.13725
 21
68.1885
 31
0.0
  0
LINE
  5
2C2
330
1D
100
AcDbEntity
  8
0
100
AcDbLine
 10
57.69125
 20
68.8405
 30
0.0
 11
59.17425
 21
68.7245
 31
0.0
  0
LINE
  5
2C3
330
1D
100
AcDbEntity
  8
0
100
AcDbLine
 10
55.23725
 20
68.6835
 30
0.0
 11
56.40725
 21
68.3235
 31
0.0
  0
LINE
  5
2C4
330
1D
100
AcDbEntity
  8
0
100
AcDbLine
 10
58.13725
 20
68.1885
 30
0.0
 11
60.38925
 21
68.3235
 31
0.0
  0
LINE
  5
2C5
330
1D
100
AcDbEntity
  8
0
100
AcDbLine
 10
60.38925
 20
68.3235
 30
0.0
 11
62.95325
 21
68.6835
 31
0.0
  0
LINE
  5
2C6
330
1D
100
AcDbEntity
  8
0
100
AcDbLine
 10
62.95325
 20
68.6835
 30
0.0
 11
65.76325
 21
69.2845
 31
0.0
  0
LINE
  5
2C7
330
1D
100
AcDbEntity
  8
0
100
AcDbLine
 10
59.17425
 20
68.7245
 30
0.0
 11
61.10425
 21
68.8405
 31
0.0
  0
LINE
  5
2C8
330
1D
100
AcDbEntity
  8
0
100
AcDbLine
 10
56.68825
 20
69.1495
 30
0.0
 11
57.69125
 21
68.8405
 31
0.0
  0
LINE
  5
2C9
330
1D
100
AcDbEntity
  8
0
100
AcDbLine
 10
56.26925
 20
69.6645
 30
0.0
 11
56.52125
 21
70.3465
 31
0.0
  0
LINE
  5
2CA
330
1D
100
AcDbEntity
  8
0
100
AcDbLine
 10
56.26925
 20
69.6645
 30
0.0
 11
56.68825
 21
69.1495
 31
0.0
  0
LINE
  5
2CB
330
1D
100
AcDbEntity
  8
0
100
AcDbLine
 10
54.74925
 20
69.2845
 30
0.0
 11
55.04225
 21
70.0805
 31
0.0
  0
LINE
  5
2CC
330
1D
100
AcDbEntity
  8
0
100
AcDbLine
 10
54.74925
 20
69.2845
 30
0.0
 11
55.23725
 21
68.6835
 31
0.0
  0
LINE
  5
2CD
330
1D
100
AcDbEntity
  8
0
100
AcDbLine
 10
61.10425
 20
68.8405
 30
0.0
 11
63.30125
 21
69.1495
 31
0.0
  0
LINE
  5
2CE
330
1D
100
AcDbEntity
  8
0
100
AcDbLine
 10
65.76325
 20
69.2845
 30
0.0
 11
68.54525
 21
70.0805
 31
0.0
  0
LINE
  5
2CF
330
1D
100
AcDbEntity
  8
0
100
AcDbLine
 10
63.30125
 20
69.1495
 30
0.0
 11
65.71025
 21
69.6645
 31
0.0
  0
LINE
  5
2D0
330
1D
100
AcDbEntity
  8
0
100
AcDbLine
 10
55.04225
 20
70.0805
 30
0.0
 11
56.03725
 21
70.9815
 31
0.0
  0
LINE
  5
2D1
330
1D
100
AcDbEntity
  8
0
100
AcDbLine
 10
56.52125
 20
70.3465
 30
0.0
 11
57.37325
 21
71.1185
 31
0.0
  0
LINE
  5
2D2
330
1D
100
AcDbEntity
  8
0
100
AcDbLine
 10
57.37325
 20
71.1185
 30
0.0
 11
58.72625
 21
71.9415
 31
0.0
  0
LINE
  5
2D3
330
1D
100
AcDbEntity
  8
0
100
AcDbLine
 10
56.03725
 20
70.9815
 30
0.0
 11
57.61425
 21
71.9415
 31
0.0
  0
LINE
  5
2D4
330
1D
100
AcDbEntity
  8
0
100
AcDbLine
 10
65.71025
 20
69.6645
 30
0.0
 11
68.09525
 21
70.3465
 31
0.0
  0
LINE
  5
2D5
330
1D
100
AcDbEntity
  8
0
100
AcDbLine
 10
68.54525
 20
70.0805
 30
0.0
 11
71.03325
 21
70.9815
 31
0.0
  0
LINE
  5
2D6
330
1D
100
AcDbEntity
  8
0
100
AcDbLine
 10
71.03325
 20
70.9815
 30
0.0
 11
73.17125
 21
71.9415
 31
0.0
  0
LINE
  5
2D7
330
1D
100
AcDbEntity
  8
0
100
AcDbLine
 10
68.09525
 20
70.3465
 30
0.0
 11
70.22825
 21
71.1185
 31
0.0
  0
LINE
  5
2D8
330
1D
100
AcDbEntity
  8
0
100
AcDbLine
 10
57.61425
 20
71.9415
 30
0.0
 11
59.75225
 21
72.9025
 31
0.0
  0
LINE
  5
2D9
330
1D
100
AcDbEntity
  8
0
100
AcDbLine
 10
62.24025
 20
73.8035
 30
0.0
 11
65.02325
 21
74.5995
 31
0.0
  0
LINE
  5
2DA
330
1D
100
AcDbEntity
  8
0
100
AcDbLine
 10
59.75225
 20
72.9025
 30
0.0
 11
62.24025
 21
73.8035
 31
0.0
  0
LINE
  5
2DB
330
1D
100
AcDbEntity
  8
0
100
AcDbLine
 10
65.02325
 20
74.5995
 30
0.0
 11
67.83225
 21
75.1995
 31
0.0
  0
LINE
  5
2DC
330
1D
100
AcDbEntity
  8
0
100
AcDbLine
 10
69.68125
 20
75.0435
 30
0.0
 11
71.61225
 21
75.1595
 31
0.0
  0
LINE
  5
2DD
330
1D
100
AcDbEntity
  8
0
100
AcDbLine
 10
67.48425
 20
74.7345
 30
0.0
 11
69.68125
 21
75.0435
 31
0.0
  0
LINE
  5
2DE
330
1D
100
AcDbEntity
  8
0
100
AcDbLine
 10
65.07625
 20
74.2195
 30
0.0
 11
67.48425
 21
74.7345
 31
0.0
  0
LINE
  5
2DF
330
1D
100
AcDbEntity
  8
0
100
AcDbLine
 10
62.69025
 20
73.5375
 30
0.0
 11
65.07625
 21
74.2195
 31
0.0
  0
LINE
  5
2E0
330
1D
100
AcDbEntity
  8
0
100
AcDbLine
 10
60.55825
 20
72.7655
 30
0.0
 11
62.69025
 21
73.5375
 31
0.0
  0
LINE
  5
2E1
330
1D
100
AcDbEntity
  8
0
100
AcDbLine
 10
58.72625
 20
71.9415
 30
0.0
 11
60.55825
 21
72.7655
 31
0.0
  0
LINE
  5
2E2
330
1D
100
AcDbEntity
  8
0
100
AcDbLine
 10
70.39625
 20
75.5605
 30
0.0
 11
72.64825
 21
75.6955
 31
0.0
  0
LINE
  5
2E3
330
1D
100
AcDbEntity
  8
0
100
AcDbLine
 10
67.83225
 20
75.1995
 30
0.0
 11
70.39625
 21
75.5605
 31
0.0
  0
LINE
  5
2E4
330
1D
100
AcDbEntity
  8
0
100
AcDbLine
 10
71.61225
 20
75.1595
 30
0.0
 11
73.09525
 21
75.0435
 31
0.0
  0
LINE
  5
2E5
330
1D
100
AcDbEntity
  8
0
100
AcDbLine
 10
72.64825
 20
75.6955
 30
0.0
 11
74.37825
 21
75.5605
 31
0.0
  0
LINE
  5
2E6
330
1D
100
AcDbEntity
  8
0
100
AcDbLine
 10
73.09525
 20
75.0435
 30
0.0
 11
74.09825
 21
74.7345
 31
0.0
  0
LINE
  5
2E7
330
1D
100
AcDbEntity
  8
0
100
AcDbLine
 10
74.09825
 20
74.7345
 30
0.0
 11
74.51625
 21
74.2195
 31
0.0
  0
LINE
  5
2E8
330
1D
100
AcDbEntity
  8
0
100
AcDbLine
 10
74.37825
 20
75.5605
 30
0.0
 11
75.54825
 21
75.1995
 31
0.0
  0
LINE
  5
2E9
330
1D
100
AcDbEntity
  8
0
100
AcDbLine
 10
75.54825
 20
75.1995
 30
0.0
 11
76.03625
 21
74.5995
 31
0.0
  0
LINE
  5
2EA
330
1D
100
AcDbEntity
  8
0
100
AcDbLine
 10
75.74325
 20
73.8035
 30
0.0
 11
76.03625
 21
74.5995
 31
0.0
  0
LINE
  5
2EB
330
1D
100
AcDbEntity
  8
0
100
AcDbLine
 10
74.26425
 20
73.5375
 30
0.0
 11
74.51625
 21
74.2195
 31
0.0
  0
LINE
  5
2EC
330
1D
100
AcDbEntity
  8
0
100
AcDbLine
 10
74.74825
 20
72.9025
 30
0.0
 11
75.74325
 21
73.8035
 31
0.0
  0
LINE
  5
2ED
330
1D
100
AcDbEntity
  8
0
100
AcDbLine
 10
73.41225
 20
72.7655
 30
0.0
 11
74.26425
 21
73.5375
 31
0.0
  0
LINE
  5
2EE
330
1D
100
AcDbEntity
  8
0
100
AcDbLine
 10
73.17125
 20
71.9415
 30
0.0
 11
74.74825
 21
72.9025
 31
0.0
  0
LINE
  5
2EF
330
1D
100
AcDbEntity
  8
0
100
AcDbLine
 10
72.06025
 20
71.9415
 30
0.0
 11
73.41225
 21
72.7655
 31
0.0
  0
LINE
  5
2F0
330
1D
100
AcDbEntity
  8
0
100
AcDbLine
 10
70.22825
 20
71.1185
 30
0.0
 11
72.06025
 21
71.9415
 31
0.0
  0
LINE
  5
2F1
330
1D
100
AcDbEntity
  8
0
100
AcDbLine
 10
49.72355
 20
68.6175
 30
0.0
 11
49.72355
 21
77.7595
 31
0.0
  0
LINE
  5
2F2
330
1D
100
AcDbEntity
  8
0
100
AcDbLine
 10
49.72355
 20
77.7595
 30
0.0
 11
49.72355
 21
68.6175
 31
0.0
  0
LINE
  5
2F3
330
1D
100
AcDbEntity
  8
0
100
AcDbLine
 10
49.46165
 20
67.9025
 30
0.0
 11
49.72355
 21
68.6175
 31
0.0
  0
LINE
  5
2F4
330
1D
100
AcDbEntity
  8
0
100
AcDbLine
 10
49.94735
 20
88.0345
 30
0.0
 11
50.24115
 21
88.8295
 31
0.0
  0
LINE
  5
2F5
330
1D
100
AcDbEntity
  8
0
100
AcDbLine
 10
49.94735
 20
88.0345
 30
0.0
 11
54.74925
 21
69.2845
 31
0.0
  0
LINE
  5
2F6
330
1D
100
AcDbEntity
  8
0
100
AcDbLine
 10
50.24115
 20
88.8295
 30
0.0
 11
51.23575
 21
89.7305
 31
0.0
  0
LINE
  5
2F7
330
1D
100
AcDbEntity
  8
0
100
AcDbLine
 10
51.23575
 20
89.7305
 30
0.0
 11
52.81315
 21
90.6915
 31
0.0
  0
LINE
  5
2F8
330
1D
100
AcDbEntity
  8
0
100
AcDbLine
 10
52.81315
 20
90.6915
 30
0.0
 11
54.95025
 21
91.6525
 31
0.0
  0
LINE
  5
2F9
330
1D
100
AcDbEntity
  8
0
100
AcDbLine
 10
51.80445
 20
90.6915
 30
0.0
 11
54.24725
 21
91.7875
 31
0.0
  0
LINE
  5
2FA
330
1D
100
AcDbEntity
  8
0
100
AcDbLine
 10
57.43825
 20
92.5535
 30
0.0
 11
60.22125
 21
93.3485
 31
0.0
  0
LINE
  5
2FB
330
1D
100
AcDbEntity
  8
0
100
AcDbLine
 10
54.95025
 20
91.6525
 30
0.0
 11
57.43825
 21
92.5535
 31
0.0
  0
LINE
  5
2FC
330
1D
100
AcDbEntity
  8
0
100
AcDbLine
 10
54.24725
 20
91.7875
 30
0.0
 11
57.07925
 21
92.8055
 31
0.0
  0
LINE
  5
2FD
330
1D
100
AcDbEntity
  8
0
100
AcDbLine
 10
54.00025
 20
140.1885
 30
0.0
 11
54.00025
 21
170.3355
 31
0.0
  0
LINE
  5
2FE
330
1D
100
AcDbEntity
  8
0
100
AcDbLine
 10
51.88825
 20
140.1885
 30
0.0
 11
53.42425
 21
140.1885
 31
0.0
  0
LINE
  5
2FF
330
1D
100
AcDbEntity
  8
0
100
AcDbLine
 10
53.42425
 20
140.1885
 30
0.0
 11
54.00025
 21
140.1885
 31
0.0
  0
LINE
  5
300
330
1D
100
AcDbEntity
  8
0
100
AcDbLine
 10
56.25025
 20
147.1885
 30
0.0
 11
60.29325
 21
147.1885
 31
0.0
  0
LINE
  5
301
330
1D
100
AcDbEntity
  8
0
100
AcDbLine
 10
55.83425
 20
147.1885
 30
0.0
 11
57.84325
 21
147.1885
 31
0.0
  0
LINE
  5
302
330
1D
100
AcDbEntity
  8
0
100
AcDbLine
 10
57.84325
 20
147.1885
 30
0.0
 11
59.08925
 21
147.1885
 31
0.0
  0
LINE
  5
303
330
1D
100
AcDbEntity
  8
0
100
AcDbLine
 10
59.08925
 20
147.1885
 30
0.0
 11
59.46625
 21
147.1885
 31
0.0
  0
LINE
  5
304
330
1D
100
AcDbEntity
  8
0
100
AcDbLine
 10
60.14725
 20
147.1885
 30
0.0
 11
60.96025
 21
147.1885
 31
0.0
  0
LINE
  5
305
330
1D
100
AcDbEntity
  8
0
100
AcDbLine
 10
59.46625
 20
147.1885
 30
0.0
 11
72.86025
 21
94.8865
 31
0.0
  0
LINE
  5
306
330
1D
100
AcDbEntity
  8
0
100
AcDbLine
 10
59.46625
 20
147.1885
 30
0.0
 11
60.14725
 21
147.1885
 31
0.0
  0
LINE
  5
307
330
1D
100
AcDbEntity
  8
0
100
AcDbLine
 10
57.07925
 20
92.8055
 30
0.0
 11
60.17325
 21
93.6925
 31
0.0
  0
LINE
  5
308
330
1D
100
AcDbEntity
  8
0
100
AcDbLine
 10
50.01045
 20
89.5955
 30
0.0
 11
51.80445
 21
90.6915
 31
0.0
  0
LINE
  5
309
330
1D
100
AcDbEntity
  8
0
100
AcDbLine
 10
54.00025
 20
164.1885
 30
0.0
 11
54.19825
 21
164.1885
 31
0.0
  0
LINE
  5
30A
330
1D
100
AcDbEntity
  8
0
100
AcDbLine
 10
53.57625
 20
170.3355
 30
0.0
 11
57.09625
 21
170.3355
 31
0.0
  0
LINE
  5
30B
330
1D
100
AcDbEntity
  8
0
100
AcDbLine
 10
53.57625
 20
175.3355
 30
0.0
 11
57.09625
 21
175.3355
 31
0.0
  0
LINE
  5
30C
330
1D
100
AcDbEntity
  8
0
100
AcDbLine
 10
50.40025
 20
179.1885
 30
0.0
 11
55.70025
 21
179.1885
 31
0.0
  0
LINE
  5
30D
330
1D
100
AcDbEntity
  8
0
100
AcDbLine
 10
54.00025
 20
175.3355
 30
0.0
 11
54.00025
 21
179.1885
 31
0.0
  0
LINE
  5
30E
330
1D
100
AcDbEntity
  8
0
100
AcDbLine
 10
54.00025
 20
170.3355
 30
0.0
 11
54.00025
 21
140.1885
 31
0.0
  0
LINE
  5
30F
330
1D
100
AcDbEntity
  8
0
100
AcDbLine
 10
54.00025
 20
170.3355
 30
0.0
 11
57.09625
 21
170.3355
 31
0.0
  0
LINE
  5
310
330
1D
100
AcDbEntity
  8
0
100
AcDbLine
 10
50.40025
 20
181.1885
 30
0.0
 11
55.70025
 21
181.1885
 31
0.0
  0
LINE
  5
311
330
1D
100
AcDbEntity
  8
0
100
AcDbLine
 10
54.00025
 20
181.1885
 30
0.0
 11
54.00025
 21
190.1885
 31
0.0
  0
LINE
  5
312
330
1D
100
AcDbEntity
  8
0
100
AcDbLine
 10
54.00025
 20
179.1885
 30
0.0
 11
54.00025
 21
175.3355
 31
0.0
  0
LINE
  5
313
330
1D
100
AcDbEntity
  8
0
100
AcDbLine
 10
54.00025
 20
179.1885
 30
0.0
 11
55.70025
 21
179.1885
 31
0.0
  0
LINE
  5
314
330
1D
100
AcDbEntity
  8
0
100
AcDbLine
 10
54.00025
 20
187.6505
 30
0.0
 11
59.92025
 21
187.6505
 31
0.0
  0
LINE
  5
315
330
1D
100
AcDbEntity
  8
0
100
AcDbLine
 10
50.89625
 20
190.1885
 30
0.0
 11
56.40825
 21
190.1885
 31
0.0
  0
LINE
  5
316
330
1D
100
AcDbEntity
  8
0
100
AcDbLine
 10
51.88825
 20
190.1885
 30
0.0
 11
53.42425
 21
190.1885
 31
0.0
  0
LINE
  5
317
330
1D
100
AcDbEntity
  8
0
100
AcDbLine
 10
50.89625
 20
191.1885
 30
0.0
 11
56.40825
 21
191.1885
 31
0.0
  0
LINE
  5
318
330
1D
100
AcDbEntity
  8
0
100
AcDbLine
 10
50.40025
 20
193.1885
 30
0.0
 11
55.70025
 21
193.1885
 31
0.0
  0
LINE
  5
319
330
1D
100
AcDbEntity
  8
0
100
AcDbLine
 10
53.42425
 20
190.1885
 30
0.0
 11
54.00025
 21
190.1885
 31
0.0
  0
LINE
  5
31A
330
1D
100
AcDbEntity
  8
0
100
AcDbLine
 10
54.00025
 20
190.1885
 30
0.0
 11
54.00025
 21
181.1885
 31
0.0
  0
LINE
  5
31B
330
1D
100
AcDbEntity
  8
0
100
AcDbLine
 10
54.00025
 20
190.1885
 30
0.0
 11
56.40825
 21
190.1885
 31
0.0
  0
LINE
  5
31C
330
1D
100
AcDbEntity
  8
0
100
AcDbLine
 10
52.14235
 20
197.9485
 30
0.0
 11
55.25325
 21
197.9485
 31
0.0
  0
LINE
  5
31D
330
1D
100
AcDbEntity
  8
0
100
AcDbLine
 10
54.00025
 20
189.6505
 30
0.0
 11
59.92025
 21
189.6505
 31
0.0
  0
LINE
  5
31E
330
1D
100
AcDbEntity
  8
0
100
AcDbLine
 10
54.00025
 20
188.7265
 30
0.0
 11
59.92025
 21
188.7265
 31
0.0
  0
LINE
  5
31F
330
1D
100
AcDbEntity
  8
0
100
AcDbLine
 10
54.00025
 20
189.1885
 30
0.0
 11
59.39425
 21
189.1885
 31
0.0
  0
LINE
  5
320
330
1D
100
AcDbEntity
  8
0
100
AcDbLine
 10
54.00025
 20
170.1885
 30
0.0
 11
54.19825
 21
170.1885
 31
0.0
  0
LINE
  5
321
330
1D
100
AcDbEntity
  8
0
100
AcDbLine
 10
54.19825
 20
164.1885
 30
0.0
 11
57.09225
 21
164.1885
 31
0.0
  0
LINE
  5
322
330
1D
100
AcDbEntity
  8
0
100
AcDbLine
 10
56.47525
 20
159.1885
 30
0.0
 11
56.64125
 21
159.1885
 31
0.0
  0
LINE
  5
323
330
1D
100
AcDbEntity
  8
0
100
AcDbLine
 10
56.47525
 20
159.1885
 30
0.0
 11
56.47525
 21
164.1885
 31
0.0
  0
LINE
  5
324
330
1D
100
AcDbEntity
  8
0
100
AcDbLine
 10
56.64125
 20
159.1885
 30
0.0
 11
57.09925
 21
159.1885
 31
0.0
  0
LINE
  5
325
330
1D
100
AcDbEntity
  8
0
100
AcDbLine
 10
57.09925
 20
159.1885
 30
0.0
 11
57.79925
 21
159.1885
 31
0.0
  0
LINE
  5
326
330
1D
100
AcDbEntity
  8
0
100
AcDbLine
 10
57.79925
 20
159.1885
 30
0.0
 11
58.72825
 21
159.1885
 31
0.0
  0
LINE
  5
327
330
1D
100
AcDbEntity
  8
0
100
AcDbLine
 10
58.72825
 20
159.1885
 30
0.0
 11
59.79725
 21
159.1885
 31
0.0
  0
LINE
  5
328
330
1D
100
AcDbEntity
  8
0
100
AcDbLine
 10
56.47525
 20
164.1885
 30
0.0
 11
56.64125
 21
164.1885
 31
0.0
  0
LINE
  5
329
330
1D
100
AcDbEntity
  8
0
100
AcDbLine
 10
56.47525
 20
164.1885
 30
0.0
 11
56.47525
 21
159.1885
 31
0.0
  0
LINE
  5
32A
330
1D
100
AcDbEntity
  8
0
100
AcDbLine
 10
56.64125
 20
164.1885
 30
0.0
 11
57.09925
 21
164.1885
 31
0.0
  0
LINE
  5
32B
330
1D
100
AcDbEntity
  8
0
100
AcDbLine
 10
59.79725
 20
164.1885
 30
0.0
 11
60.98125
 21
164.1885
 31
0.0
  0
LINE
  5
32C
330
1D
100
AcDbEntity
  8
0
100
AcDbLine
 10
58.72825
 20
164.1885
 30
0.0
 11
59.79725
 21
164.1885
 31
0.0
  0
LINE
  5
32D
330
1D
100
AcDbEntity
  8
0
100
AcDbLine
 10
57.79925
 20
164.1885
 30
0.0
 11
58.72825
 21
164.1885
 31
0.0
  0
LINE
  5
32E
330
1D
100
AcDbEntity
  8
0
100
AcDbLine
 10
57.09925
 20
164.1885
 30
0.0
 11
57.79925
 21
164.1885
 31
0.0
  0
LINE
  5
32F
330
1D
100
AcDbEntity
  8
0
100
AcDbLine
 10
59.79725
 20
159.1885
 30
0.0
 11
60.98125
 21
159.1885
 31
0.0
  0
LINE
  5
330
330
1D
100
AcDbEntity
  8
0
100
AcDbLine
 10
59.98525
 20
164.1885
 30
0.0
 11
62.59925
 21
164.1885
 31
0.0
  0
LINE
  5
331
330
1D
100
AcDbEntity
  8
0
100
AcDbLine
 10
57.97725
 20
170.1885
 30
0.0
 11
57.97725
 21
170.3355
 31
0.0
  0
LINE
  5
332
330
1D
100
AcDbEntity
  8
0
100
AcDbLine
 10
57.09225
 20
164.1885
 30
0.0
 11
59.98525
 21
164.1885
 31
0.0
  0
LINE
  5
333
330
1D
100
AcDbEntity
  8
0
100
AcDbLine
 10
59.98525
 20
170.1885
 30
0.0
 11
62.59925
 21
170.1885
 31
0.0
  0
LINE
  5
334
330
1D
100
AcDbEntity
  8
0
100
AcDbLine
 10
57.09625
 20
170.3355
 30
0.0
 11
59.20825
 21
170.3355
 31
0.0
  0
LINE
  5
335
330
1D
100
AcDbEntity
  8
0
100
AcDbLine
 10
57.09625
 20
175.3355
 30
0.0
 11
59.20825
 21
175.3355
 31
0.0
  0
LINE
  5
336
330
1D
100
AcDbEntity
  8
0
100
AcDbLine
 10
56.47525
 20
176.1885
 30
0.0
 11
56.64125
 21
176.1885
 31
0.0
  0
LINE
  5
337
330
1D
100
AcDbEntity
  8
0
100
AcDbLine
 10
56.47525
 20
176.1885
 30
0.0
 11
56.47525
 21
179.1885
 31
0.0
  0
LINE
  5
338
330
1D
100
AcDbEntity
  8
0
100
AcDbLine
 10
56.64125
 20
176.1885
 30
0.0
 11
57.09925
 21
176.1885
 31
0.0
  0
LINE
  5
339
330
1D
100
AcDbEntity
  8
0
100
AcDbLine
 10
57.09925
 20
176.1885
 30
0.0
 11
57.79925
 21
176.1885
 31
0.0
  0
LINE
  5
33A
330
1D
100
AcDbEntity
  8
0
100
AcDbLine
 10
57.79925
 20
176.1885
 30
0.0
 11
57.97725
 21
176.1885
 31
0.0
  0
LINE
  5
33B
330
1D
100
AcDbEntity
  8
0
100
AcDbLine
 10
57.79925
 20
176.1885
 30
0.0
 11
58.72825
 21
176.1885
 31
0.0
  0
LINE
  5
33C
330
1D
100
AcDbEntity
  8
0
100
AcDbLine
 10
57.97725
 20
175.3355
 30
0.0
 11
57.97725
 21
176.1885
 31
0.0
  0
LINE
  5
33D
330
1D
100
AcDbEntity
  8
0
100
AcDbLine
 10
57.97725
 20
170.3355
 30
0.0
 11
57.97725
 21
170.1885
 31
0.0
  0
LINE
  5
33E
330
1D
100
AcDbEntity
  8
0
100
AcDbLine
 10
57.97725
 20
176.1885
 30
0.0
 11
58.08825
 21
176.1885
 31
0.0
  0
LINE
  5
33F
330
1D
100
AcDbEntity
  8
0
100
AcDbLine
 10
57.97725
 20
176.1885
 30
0.0
 11
57.97725
 21
175.3355
 31
0.0
  0
LINE
  5
340
330
1D
100
AcDbEntity
  8
0
100
AcDbLine
 10
55.70025
 20
181.1885
 30
0.0
 11
59.70025
 21
181.1885
 31
0.0
  0
LINE
  5
341
330
1D
100
AcDbEntity
  8
0
100
AcDbLine
 10
55.70025
 20
179.1885
 30
0.0
 11
59.70025
 21
179.1885
 31
0.0
  0
LINE
  5
342
330
1D
100
AcDbEntity
  8
0
100
AcDbLine
 10
56.47525
 20
179.1885
 30
0.0
 11
56.47525
 21
176.1885
 31
0.0
  0
LINE
  5
343
330
1D
100
AcDbEntity
  8
0
100
AcDbLine
 10
58.08825
 20
176.1885
 30
0.0
 11
58.39325
 21
176.1885
 31
0.0
  0
LINE
  5
344
330
1D
100
AcDbEntity
  8
0
100
AcDbLine
 10
59.20825
 20
175.3355
 30
0.0
 11
60.00025
 21
175.3355
 31
0.0
  0
LINE
  5
345
330
1D
100
AcDbEntity
  8
0
100
AcDbLine
 10
59.20825
 20
170.3355
 30
0.0
 11
60.00025
 21
170.3355
 31
0.0
  0
LINE
  5
346
330
1D
100
AcDbEntity
  8
0
100
AcDbLine
 10
58.72825
 20
176.1885
 30
0.0
 11
59.79725
 21
176.1885
 31
0.0
  0
LINE
  5
347
330
1D
100
AcDbEntity
  8
0
100
AcDbLine
 10
60.00025
 20
170.3355
 30
0.0
 11
60.00025
 21
175.3355
 31
0.0
  0
LINE
  5
348
330
1D
100
AcDbEntity
  8
0
100
AcDbLine
 10
60.00025
 20
175.3355
 30
0.0
 11
60.00025
 21
170.3355
 31
0.0
  0
LINE
  5
349
330
1D
100
AcDbEntity
  8
0
100
AcDbLine
 10
59.79725
 20
176.1885
 30
0.0
 11
60.98125
 21
176.1885
 31
0.0
  0
LINE
  5
34A
330
1D
100
AcDbEntity
  8
0
100
AcDbLine
 10
59.47925
 20
176.1885
 30
0.0
 11
60.19225
 21
176.1885
 31
0.0
  0
LINE
  5
34B
330
1D
100
AcDbEntity
  8
0
100
AcDbLine
 10
59.70025
 20
181.1885
 30
0.0
 11
62.10025
 21
181.1885
 31
0.0
  0
LINE
  5
34C
330
1D
100
AcDbEntity
  8
0
100
AcDbLine
 10
59.70025
 20
179.1885
 30
0.0
 11
62.10025
 21
179.1885
 31
0.0
  0
LINE
  5
34D
330
1D
100
AcDbEntity
  8
0
100
AcDbLine
 10
58.86025
 20
176.1885
 30
0.0
 11
59.47925
 21
176.1885
 31
0.0
  0
LINE
  5
34E
330
1D
100
AcDbEntity
  8
0
100
AcDbLine
 10
58.39325
 20
176.1885
 30
0.0
 11
58.86025
 21
176.1885
 31
0.0
  0
LINE
  5
34F
330
1D
100
AcDbEntity
  8
0
100
AcDbLine
 10
57.09225
 20
170.1885
 30
0.0
 11
59.98525
 21
170.1885
 31
0.0
  0
LINE
  5
350
330
1D
100
AcDbEntity
  8
0
100
AcDbLine
 10
54.19825
 20
170.1885
 30
0.0
 11
57.09225
 21
170.1885
 31
0.0
  0
LINE
  5
351
330
1D
100
AcDbEntity
  8
0
100
AcDbLine
 10
56.40825
 20
191.1885
 30
0.0
 11
60.56825
 21
191.1885
 31
0.0
  0
LINE
  5
352
330
1D
100
AcDbEntity
  8
0
100
AcDbLine
 10
56.40825
 20
190.1885
 30
0.0
 11
60.56825
 21
190.1885
 31
0.0
  0
LINE
  5
353
330
1D
100
AcDbEntity
  8
0
100
AcDbLine
 10
55.70025
 20
193.1885
 30
0.0
 11
59.70025
 21
193.1885
 31
0.0
  0
LINE
  5
354
330
1D
100
AcDbEntity
  8
0
100
AcDbLine
 10
58.02525
 20
193.1885
 30
0.0
 11
58.02525
 21
197.9485
 31
0.0
  0
LINE
  5
355
330
1D
100
AcDbEntity
  8
0
100
AcDbLine
 10
57.29025
 20
197.9485
 30
0.0
 11
58.02525
 21
197.9485
 31
0.0
  0
LINE
  5
356
330
1D
100
AcDbEntity
  8
0
100
AcDbLine
 10
58.02525
 20
197.9485
 30
0.0
 11
58.02525
 21
193.1885
 31
0.0
  0
LINE
  5
357
330
1D
100
AcDbEntity
  8
0
100
AcDbLine
 10
57.46025
 20
198.1885
 30
0.0
 11
58.02525
 21
197.9485
 31
0.0
  0
LINE
  5
358
330
1D
100
AcDbEntity
  8
0
100
AcDbLine
 10
55.25325
 20
197.9485
 30
0.0
 11
57.29025
 21
197.9485
 31
0.0
  0
LINE
  5
359
330
1D
100
AcDbEntity
  8
0
100
AcDbLine
 10
59.70025
 20
193.1885
 30
0.0
 11
62.10025
 21
193.1885
 31
0.0
  0
LINE
  5
35A
330
1D
100
AcDbEntity
  8
0
100
AcDbLine
 10
59.92025
 20
189.6505
 30
0.0
 11
64.74325
 21
189.6505
 31
0.0
  0
LINE
  5
35B
330
1D
100
AcDbEntity
  8
0
100
AcDbLine
 10
59.39425
 20
189.1885
 30
0.0
 11
64.12925
 21
189.1885
 31
0.0
  0
LINE
  5
35C
330
1D
100
AcDbEntity
  8
0
100
AcDbLine
 10
59.92025
 20
188.7265
 30
0.0
 11
64.74325
 21
188.7265
 31
0.0
  0
LINE
  5
35D
330
1D
100
AcDbEntity
  8
0
100
AcDbLine
 10
59.92025
 20
187.6505
 30
0.0
 11
64.74325
 21
187.6505
 31
0.0
  0
LINE
  5
35E
330
1D
100
AcDbEntity
  8
0
100
AcDbLine
 10
57.09225
 20
187.1885
 30
0.0
 11
61.30325
 21
187.1885
 31
0.0
  0
LINE
  5
35F
330
1D
100
AcDbEntity
  8
0
100
AcDbLine
 10
54.00025
 20
187.1885
 30
0.0
 11
57.09225
 21
187.1885
 31
0.0
  0
LINE
  5
360
330
1D
100
AcDbEntity
  8
0
100
AcDbLine
 10
54.00025
 20
147.1885
 30
0.0
 11
55.83425
 21
147.1885
 31
0.0
  0
LINE
  5
361
330
1D
100
AcDbEntity
  8
0
100
AcDbLine
 10
54.00025
 20
147.1885
 30
0.0
 11
56.25025
 21
147.1885
 31
0.0
  0
LINE
  5
362
330
1D
100
AcDbEntity
  8
0
100
AcDbLine
 10
71.546453403242
 20
92.133179731851
 30
0.0
 11
72.27425
 21
92.8055
 31
0.0
  0
LINE
  5
363
330
1D
100
AcDbEntity
  8
0
100
AcDbLine
 10
65.59425
 20
94.3095
 30
0.0
 11
67.84725
 21
94.4445
 31
0.0
  0
LINE
  5
364
330
1D
100
AcDbEntity
  8
0
100
AcDbLine
 10
63.03125
 20
93.9495
 30
0.0
 11
65.59425
 21
94.3095
 31
0.0
  0
LINE
  5
365
330
1D
100
AcDbEntity
  8
0
100
AcDbLine
 10
60.22125
 20
93.3485
 30
0.0
 11
63.03125
 21
93.9495
 31
0.0
  0
LINE
  5
366
330
1D
100
AcDbEntity
  8
0
100
AcDbLine
 10
69.57725
 20
94.3095
 30
0.0
 11
70.74725
 21
93.9495
 31
0.0
  0
LINE
  5
367
330
1D
100
AcDbEntity
  8
0
100
AcDbLine
 10
71.23525
 20
93.3485
 30
0.0
 11
76.03625
 21
74.5995
 31
0.0
  0
LINE
  5
368
330
1D
100
AcDbEntity
  8
0
100
AcDbLine
 10
70.74725
 20
93.9495
 30
0.0
 11
71.23525
 21
93.3485
 31
0.0
  0
LINE
  5
369
330
1D
100
AcDbEntity
  8
0
100
AcDbLine
 10
71.546453403242
 20
92.133179731851
 30
0.0
 11
72.27425
 21
92.8055
 31
0.0
  0
LINE
  5
36A
330
1D
100
AcDbEntity
  8
0
100
AcDbLine
 10
72.55325
 20
93.2245
 30
0.0
 11
72.88525
 21
94.1375
 31
0.0
  0
LINE
  5
36B
330
1D
100
AcDbEntity
  8
0
100
AcDbLine
 10
72.27425
 20
92.8055
 30
0.0
 11
72.61025
 21
93.6925
 31
0.0
  0
LINE
  5
36C
330
1D
100
AcDbEntity
  8
0
100
AcDbLine
 10
72.27425
 20
92.8055
 30
0.0
 11
72.55325
 21
93.2245
 31
0.0
  0
LINE
  5
36D
330
1D
100
AcDbEntity
  8
0
100
AcDbLine
 10
72.05825
 20
94.3575
 30
0.0
 11
72.61025
 21
93.6925
 31
0.0
  0
LINE
  5
36E
330
1D
100
AcDbEntity
  8
0
100
AcDbLine
 10
60.96025
 20
141.354605121696
 30
0.0
 11
60.96025
 21
147.1885
 31
0.0
  0
LINE
  5
36F
330
1D
100
AcDbEntity
  8
0
100
AcDbLine
 10
60.96025
 20
147.1885
 30
0.0
 11
62.87625
 21
147.1885
 31
0.0
  0
LINE
  5
370
330
1D
100
AcDbEntity
  8
0
100
AcDbLine
 10
60.96025
 20
147.1885
 30
0.0
 11
60.96025
 21
141.354605121696
 31
0.0
  0
LINE
  5
371
330
1D
100
AcDbEntity
  8
0
100
AcDbLine
 10
63.83025
 20
147.1885
 30
0.0
 11
64.61625
 21
147.9575
 31
0.0
  0
LINE
  5
372
330
1D
100
AcDbEntity
  8
0
100
AcDbLine
 10
60.29325
 20
147.1885
 30
0.0
 11
62.87625
 21
147.1885
 31
0.0
  0
LINE
  5
373
330
1D
100
AcDbEntity
  8
0
100
AcDbLine
 10
60.98125
 20
164.1885
 30
0.0
 11
62.16525
 21
164.1885
 31
0.0
  0
LINE
  5
374
330
1D
100
AcDbEntity
  8
0
100
AcDbLine
 10
60.98125
 20
159.1885
 30
0.0
 11
62.16525
 21
159.1885
 31
0.0
  0
LINE
  5
375
330
1D
100
AcDbEntity
  8
0
100
AcDbLine
 10
60.98125
 20
176.1885
 30
0.0
 11
61.77025
 21
176.1885
 31
0.0
  0
LINE
  5
376
330
1D
100
AcDbEntity
  8
0
100
AcDbLine
 10
60.98125
 20
176.1885
 30
0.0
 11
62.16525
 21
176.1885
 31
0.0
  0
LINE
  5
377
330
1D
100
AcDbEntity
  8
0
100
AcDbLine
 10
60.19225
 20
176.1885
 30
0.0
 11
60.98125
 21
176.1885
 31
0.0
  0
LINE
  5
378
330
1D
100
AcDbEntity
  8
0
100
AcDbLine
 10
62.16525
 20
164.1885
 30
0.0
 11
63.23425
 21
164.1885
 31
0.0
  0
LINE
  5
379
330
1D
100
AcDbEntity
  8
0
100
AcDbLine
 10
62.16525
 20
159.1885
 30
0.0
 11
63.23425
 21
159.1885
 31
0.0
  0
LINE
  5
37A
330
1D
100
AcDbEntity
  8
0
100
AcDbLine
 10
63.23425
 20
159.1885
 30
0.0
 11
64.16325
 21
159.1885
 31
0.0
  0
LINE
  5
37B
330
1D
100
AcDbEntity
  8
0
100
AcDbLine
 10
63.23425
 20
164.1885
 30
0.0
 11
64.16325
 21
164.1885
 31
0.0
  0
LINE
  5
37C
330
1D
100
AcDbEntity
  8
0
100
AcDbLine
 10
64.16325
 20
159.1885
 30
0.0
 11
64.86325
 21
159.1885
 31
0.0
  0
LINE
  5
37D
330
1D
100
AcDbEntity
  8
0
100
AcDbLine
 10
64.16325
 20
164.1885
 30
0.0
 11
64.86325
 21
164.1885
 31
0.0
  0
LINE
  5
37E
330
1D
100
AcDbEntity
  8
0
100
AcDbLine
 10
63.98525
 20
170.1885
 30
0.0
 11
63.98525
 21
176.1885
 31
0.0
  0
LINE
  5
37F
330
1D
100
AcDbEntity
  8
0
100
AcDbLine
 10
62.59925
 20
164.1885
 30
0.0
 11
64.87025
 21
164.1885
 31
0.0
  0
LINE
  5
380
330
1D
100
AcDbEntity
  8
0
100
AcDbLine
 10
62.16525
 20
176.1885
 30
0.0
 11
63.23425
 21
176.1885
 31
0.0
  0
LINE
  5
381
330
1D
100
AcDbEntity
  8
0
100
AcDbLine
 10
62.48325
 20
176.1885
 30
0.0
 11
63.10225
 21
176.1885
 31
0.0
  0
LINE
  5
382
330
1D
100
AcDbEntity
  8
0
100
AcDbLine
 10
61.77025
 20
176.1885
 30
0.0
 11
62.48325
 21
176.1885
 31
0.0
  0
LINE
  5
383
330
1D
100
AcDbEntity
  8
0
100
AcDbLine
 10
63.23425
 20
176.1885
 30
0.0
 11
64.16325
 21
176.1885
 31
0.0
  0
LINE
  5
384
330
1D
100
AcDbEntity
  8
0
100
AcDbLine
 10
63.10225
 20
176.1885
 30
0.0
 11
63.56925
 21
176.1885
 31
0.0
  0
LINE
  5
385
330
1D
100
AcDbEntity
  8
0
100
AcDbLine
 10
63.00025
 20
179.1885
 30
0.0
 11
63.00025
 21
181.1885
 31
0.0
  0
LINE
  5
386
330
1D
100
AcDbEntity
  8
0
100
AcDbLine
 10
62.10025
 20
181.1885
 30
0.0
 11
63.00025
 21
181.1885
 31
0.0
  0
LINE
  5
387
330
1D
100
AcDbEntity
  8
0
100
AcDbLine
 10
62.10025
 20
179.1885
 30
0.0
 11
63.00025
 21
179.1885
 31
0.0
  0
LINE
  5
388
330
1D
100
AcDbEntity
  8
0
100
AcDbLine
 10
63.23425
 20
181.1885
 30
0.0
 11
64.16325
 21
181.1885
 31
0.0
  0
LINE
  5
389
330
1D
100
AcDbEntity
  8
0
100
AcDbLine
 10
63.00025
 20
181.1885
 30
0.0
 11
63.23425
 21
181.1885
 31
0.0
  0
LINE
  5
38A
330
1D
100
AcDbEntity
  8
0
100
AcDbLine
 10
63.00025
 20
181.1885
 30
0.0
 11
63.00025
 21
179.1885
 31
0.0
  0
LINE
  5
38B
330
1D
100
AcDbEntity
  8
0
100
AcDbLine
 10
63.56925
 20
176.1885
 30
0.0
 11
63.87425
 21
176.1885
 31
0.0
  0
LINE
  5
38C
330
1D
100
AcDbEntity
  8
0
100
AcDbLine
 10
64.16325
 20
176.1885
 30
0.0
 11
64.86325
 21
176.1885
 31
0.0
  0
LINE
  5
38D
330
1D
100
AcDbEntity
  8
0
100
AcDbLine
 10
64.16325
 20
181.1885
 30
0.0
 11
64.86325
 21
181.1885
 31
0.0
  0
LINE
  5
38E
330
1D
100
AcDbEntity
  8
0
100
AcDbLine
 10
63.98525
 20
176.1885
 30
0.0
 11
63.98525
 21
170.1885
 31
0.0
  0
LINE
  5
38F
330
1D
100
AcDbEntity
  8
0
100
AcDbLine
 10
63.98525
 20
176.1885
 30
0.0
 11
64.16325
 21
176.1885
 31
0.0
  0
LINE
  5
390
330
1D
100
AcDbEntity
  8
0
100
AcDbLine
 10
63.87425
 20
176.1885
 30
0.0
 11
63.98525
 21
176.1885
 31
0.0
  0
LINE
  5
391
330
1D
100
AcDbEntity
  8
0
100
AcDbLine
 10
62.59925
 20
170.1885
 30
0.0
 11
64.87025
 21
170.1885
 31
0.0
  0
LINE
  5
392
330
1D
100
AcDbEntity
  8
0
100
AcDbLine
 10
61.30325
 20
187.1885
 30
0.0
 11
63.99925
 21
187.1885
 31
0.0
  0
LINE
  5
393
330
1D
100
AcDbEntity
  8
0
100
AcDbLine
 10
60.56825
 20
191.1885
 30
0.0
 11
63.06425
 21
191.1885
 31
0.0
  0
LINE
  5
394
330
1D
100
AcDbEntity
  8
0
100
AcDbLine
 10
63.06425
 20
191.1885
 30
0.0
 11
64.00025
 21
191.1885
 31
0.0
  0
LINE
  5
395
330
1D
100
AcDbEntity
  8
0
100
AcDbLine
 10
60.56825
 20
190.1885
 30
0.0
 11
63.06425
 21
190.1885
 31
0.0
  0
LINE
  5
396
330
1D
100
AcDbEntity
  8
0
100
AcDbLine
 10
64.00025
 20
190.1885
 30
0.0
 11
64.00025
 21
191.1885
 31
0.0
  0
LINE
  5
397
330
1D
100
AcDbEntity
  8
0
100
AcDbLine
 10
63.06425
 20
190.1885
 30
0.0
 11
64.00025
 21
190.1885
 31
0.0
  0
LINE
  5
398
330
1D
100
AcDbEntity
  8
0
100
AcDbLine
 10
63.00025
 20
191.1885
 30
0.0
 11
63.00025
 21
193.1885
 31
0.0
  0
LINE
  5
399
330
1D
100
AcDbEntity
  8
0
100
AcDbLine
 10
64.00025
 20
190.7265
 30
0.0
 11
64.74325
 21
190.7265
 31
0.0
  0
LINE
  5
39A
330
1D
100
AcDbEntity
  8
0
100
AcDbLine
 10
62.10025
 20
193.1885
 30
0.0
 11
63.00025
 21
193.1885
 31
0.0
  0
LINE
  5
39B
330
1D
100
AcDbEntity
  8
0
100
AcDbLine
 10
63.00025
 20
193.1885
 30
0.0
 11
63.00025
 21
191.1885
 31
0.0
  0
LINE
  5
39C
330
1D
100
AcDbEntity
  8
0
100
AcDbLine
 10
63.00025
 20
192.7265
 30
0.0
 11
64.74325
 21
192.7265
 31
0.0
  0
LINE
  5
39D
330
1D
100
AcDbEntity
  8
0
100
AcDbLine
 10
63.00025
 20
191.6505
 30
0.0
 11
64.74325
 21
191.6505
 31
0.0
  0
LINE
  5
39E
330
1D
100
AcDbEntity
  8
0
100
AcDbLine
 10
64.12925
 20
189.1885
 30
0.0
 11
67.11025
 21
189.1885
 31
0.0
  0
LINE
  5
39F
330
1D
100
AcDbEntity
  8
0
100
AcDbLine
 10
64.12925
 20
191.1885
 30
0.0
 11
67.11025
 21
191.1885
 31
0.0
  0
LINE
  5
3A0
330
1D
100
AcDbEntity
  8
0
100
AcDbLine
 10
64.12925
 20
191.1885
 30
0.0
 11
64.74325
 21
191.6505
 31
0.0
  0
LINE
  5
3A1
330
1D
100
AcDbEntity
  8
0
100
AcDbLine
 10
64.00025
 20
191.1885
 30
0.0
 11
64.12925
 21
191.1885
 31
0.0
  0
LINE
  5
3A2
330
1D
100
AcDbEntity
  8
0
100
AcDbLine
 10
64.00025
 20
191.1885
 30
0.0
 11
64.00025
 21
190.1885
 31
0.0
  0
LINE
  5
3A3
330
1D
100
AcDbEntity
  8
0
100
AcDbLine
 10
63.99925
 20
187.1885
 30
0.0
 11
64.95325
 21
187.1885
 31
0.0
  0
LINE
  5
3A4
330
1D
100
AcDbEntity
  8
0
100
AcDbLine
 10
64.86325
 20
159.1885
 30
0.0
 11
65.32125
 21
159.1885
 31
0.0
  0
LINE
  5
3A5
330
1D
100
AcDbEntity
  8
0
100
AcDbLine
 10
64.86325
 20
164.1885
 30
0.0
 11
65.32125
 21
164.1885
 31
0.0
  0
LINE
  5
3A6
330
1D
100
AcDbEntity
  8
0
100
AcDbLine
 10
64.86325
 20
176.1885
 30
0.0
 11
65.32125
 21
176.1885
 31
0.0
  0
LINE
  5
3A7
330
1D
100
AcDbEntity
  8
0
100
AcDbLine
 10
64.87025
 20
164.1885
 30
0.0
 11
66.58125
 21
164.1885
 31
0.0
  0
LINE
  5
3A8
330
1D
100
AcDbEntity
  8
0
100
AcDbLine
 10
64.87025
 20
170.1885
 30
0.0
 11
66.58125
 21
170.1885
 31
0.0
  0
LINE
  5
3A9
330
1D
100
AcDbEntity
  8
0
100
AcDbLine
 10
64.86325
 20
181.1885
 30
0.0
 11
65.32125
 21
181.1885
 31
0.0
  0
LINE
  5
3AA
330
1D
100
AcDbEntity
  8
0
100
AcDbLine
 10
64.95325
 20
176.1885
 30
0.0
 11
64.95325
 21
170.1885
 31
0.0
  0
LINE
  5
3AB
330
1D
100
AcDbEntity
  8
0
100
AcDbLine
 10
64.95325
 20
159.1885
 30
0.0
 11
64.95325
 21
149.4965
 31
0.0
  0
LINE
  5
3AC
330
1D
100
AcDbEntity
  8
0
100
AcDbLine
 10
64.74325
 20
190.7265
 30
0.0
 11
67.89925
 21
190.7265
 31
0.0
  0
LINE
  5
3AD
330
1D
100
AcDbEntity
  8
0
100
AcDbLine
 10
64.74325
 20
189.6505
 30
0.0
 11
67.89925
 21
189.6505
 31
0.0
  0
LINE
  5
3AE
330
1D
100
AcDbEntity
  8
0
100
AcDbLine
 10
64.74325
 20
188.7265
 30
0.0
 11
67.89925
 21
188.7265
 31
0.0
  0
LINE
  5
3AF
330
1D
100
AcDbEntity
  8
0
100
AcDbLine
 10
64.74325
 20
187.6505
 30
0.0
 11
67.89925
 21
187.6505
 31
0.0
  0
LINE
  5
3B0
330
1D
100
AcDbEntity
  8
0
100
AcDbLine
 10
64.74325
 20
192.7265
 30
0.0
 11
67.89925
 21
192.7265
 31
0.0
  0
LINE
  5
3B1
330
1D
100
AcDbEntity
  8
0
100
AcDbLine
 10
64.74325
 20
191.6505
 30
0.0
 11
67.89925
 21
191.6505
 31
0.0
  0
LINE
  5
3B2
330
1D
100
AcDbEntity
  8
0
100
AcDbLine
 10
64.95325
 20
187.1885
 30
0.0
 11
64.95325
 21
181.1885
 31
0.0
  0
LINE
  5
3B3
330
1D
100
AcDbEntity
  8
0
100
AcDbLine
 10
64.95325
 20
187.1885
 30
0.0
 11
67.11025
 21
187.1885
 31
0.0
  0
LINE
  5
3B4
330
1D
100
AcDbEntity
  8
0
100
AcDbLine
 10
64.95325
 20
181.1885
 30
0.0
 11
64.95325
 21
187.1885
 31
0.0
  0
LINE
  5
3B5
330
1D
100
AcDbEntity
  8
0
100
AcDbLine
 10
65.32125
 20
159.1885
 30
0.0
 11
65.48725
 21
159.1885
 31
0.0
  0
LINE
  5
3B6
330
1D
100
AcDbEntity
  8
0
100
AcDbLine
 10
65.48725
 20
159.1885
 30
0.0
 11
65.48725
 21
164.1885
 31
0.0
  0
LINE
  5
3B7
330
1D
100
AcDbEntity
  8
0
100
AcDbLine
 10
65.32125
 20
164.1885
 30
0.0
 11
65.48725
 21
164.1885
 31
0.0
  0
LINE
  5
3B8
330
1D
100
AcDbEntity
  8
0
100
AcDbLine
 10
65.71425
 20
164.1885
 30
0.0
 11
65.97025
 21
164.1885
 31
0.0
  0
LINE
  5
3B9
330
1D
100
AcDbEntity
  8
0
100
AcDbLine
 10
65.71425
 20
164.1885
 30
0.0
 11
66.58125
 21
164.1885
 31
0.0
  0
LINE
  5
3BA
330
1D
100
AcDbEntity
  8
0
100
AcDbLine
 10
65.97025
 20
164.1885
 30
0.0
 11
67.03725
 21
164.1885
 31
0.0
  0
LINE
  5
3BB
330
1D
100
AcDbEntity
  8
0
100
AcDbLine
 10
65.32125
 20
176.1885
 30
0.0
 11
65.48725
 21
176.1885
 31
0.0
  0
LINE
  5
3BC
330
1D
100
AcDbEntity
  8
0
100
AcDbLine
 10
65.48725
 20
176.1885
 30
0.0
 11
65.48725
 21
181.1885
 31
0.0
  0
LINE
  5
3BD
330
1D
100
AcDbEntity
  8
0
100
AcDbLine
 10
65.48725
 20
181.1885
 30
0.0
 11
65.48725
 21
176.1885
 31
0.0
  0
LINE
  5
3BE
330
1D
100
AcDbEntity
  8
0
100
AcDbLine
 10
65.32125
 20
181.1885
 30
0.0
 11
65.48725
 21
181.1885
 31
0.0
  0
LINE
  5
3BF
330
1D
100
AcDbEntity
  8
0
100
AcDbLine
 10
65.48725
 20
164.1885
 30
0.0
 11
65.97025
 21
164.1885
 31
0.0
  0
LINE
  5
3C0
330
1D
100
AcDbEntity
  8
0
100
AcDbLine
 10
65.48725
 20
164.1885
 30
0.0
 11
65.48725
 21
159.1885
 31
0.0
  0
LINE
  5
3C1
330
1D
100
AcDbEntity
  8
0
100
AcDbLine
 10
64.95325
 20
170.1885
 30
0.0
 11
64.95325
 21
176.1885
 31
0.0
  0
LINE
  5
3C2
330
1D
100
AcDbEntity
  8
0
100
AcDbLine
 10
64.95325
 20
149.4965
 30
0.0
 11
64.95325
 21
159.1885
 31
0.0
  0
LINE
  5
3C3
330
1D
100
AcDbEntity
  8
0
100
AcDbLine
 10
64.61625
 20
147.9575
 30
0.0
 11
64.95325
 21
149.4965
 31
0.0
  0
LINE
  5
3C4
330
1D
100
AcDbEntity
  8
0
100
AcDbLine
 10
62.87625
 20
147.1885
 30
0.0
 11
63.83025
 21
147.1885
 31
0.0
  0
LINE
  5
3C5
330
1D
100
AcDbEntity
  8
0
100
AcDbLine
 10
67.84725
 20
94.4445
 30
0.0
 11
69.57725
 21
94.3095
 31
0.0
  0
LINE
  5
3C6
330
1D
100
AcDbEntity
  8
0
100
AcDbLine
 10
66.58125
 20
164.1885
 30
0.0
 11
67.70125
 21
164.1885
 31
0.0
  0
LINE
  5
3C7
330
1D
100
AcDbEntity
  8
0
100
AcDbLine
 10
68.10625
 20
164.1885
 30
0.0
 11
68.10625
 21
170.1885
 31
0.0
  0
LINE
  5
3C8
330
1D
100
AcDbEntity
  8
0
100
AcDbLine
 10
68.10625
 20
170.1885
 30
0.0
 11
68.10625
 21
164.1885
 31
0.0
  0
LINE
  5
3C9
330
1D
100
AcDbEntity
  8
0
100
AcDbLine
 10
67.70125
 20
164.1885
 30
0.0
 11
68.10625
 21
164.1885
 31
0.0
  0
LINE
  5
3CA
330
1D
100
AcDbEntity
  8
0
100
AcDbLine
 10
66.58125
 20
170.1885
 30
0.0
 11
67.70125
 21
170.1885
 31
0.0
  0
LINE
  5
3CB
330
1D
100
AcDbEntity
  8
0
100
AcDbLine
 10
67.11025
 20
189.1885
 30
0.0
 11
68.16225
 21
189.1885
 31
0.0
  0
LINE
  5
3CC
330
1D
100
AcDbEntity
  8
0
100
AcDbLine
 10
67.11025
 20
187.1885
 30
0.0
 11
68.16225
 21
187.1885
 31
0.0
  0
LINE
  5
3CD
330
1D
100
AcDbEntity
  8
0
100
AcDbLine
 10
68.16225
 20
187.1885
 30
0.0
 11
69.03925
 21
187.6505
 31
0.0
  0
LINE
  5
3CE
330
1D
100
AcDbEntity
  8
0
100
AcDbLine
 10
67.89925
 20
190.7265
 30
0.0
 11
69.03925
 21
190.7265
 31
0.0
  0
LINE
  5
3CF
330
1D
100
AcDbEntity
  8
0
100
AcDbLine
 10
67.89925
 20
189.6505
 30
0.0
 11
69.03925
 21
189.6505
 31
0.0
  0
LINE
  5
3D0
330
1D
100
AcDbEntity
  8
0
100
AcDbLine
 10
68.16225
 20
189.1885
 30
0.0
 11
69.03925
 21
188.7265
 31
0.0
  0
LINE
  5
3D1
330
1D
100
AcDbEntity
  8
0
100
AcDbLine
 10
68.16225
 20
189.1885
 30
0.0
 11
69.03925
 21
189.6505
 31
0.0
  0
LINE
  5
3D2
330
1D
100
AcDbEntity
  8
0
100
AcDbLine
 10
67.89925
 20
188.7265
 30
0.0
 11
69.03925
 21
188.7265
 31
0.0
  0
LINE
  5
3D3
330
1D
100
AcDbEntity
  8
0
100
AcDbLine
 10
67.89925
 20
187.6505
 30
0.0
 11
69.03925
 21
187.6505
 31
0.0
  0
LINE
  5
3D4
330
1D
100
AcDbEntity
  8
0
100
AcDbLine
 10
68.16225
 20
191.1885
 30
0.0
 11
69.03925
 21
191.6505
 31
0.0
  0
LINE
  5
3D5
330
1D
100
AcDbEntity
  8
0
100
AcDbLine
 10
68.16225
 20
191.1885
 30
0.0
 11
69.03925
 21
190.7265
 31
0.0
  0
LINE
  5
3D6
330
1D
100
AcDbEntity
  8
0
100
AcDbLine
 10
68.16225
 20
193.1885
 30
0.0
 11
69.03925
 21
192.7265
 31
0.0
  0
LINE
  5
3D7
330
1D
100
AcDbEntity
  8
0
100
AcDbLine
 10
67.89925
 20
192.7265
 30
0.0
 11
69.03925
 21
192.7265
 31
0.0
  0
LINE
  5
3D8
330
1D
100
AcDbEntity
  8
0
100
AcDbLine
 10
67.89925
 20
191.6505
 30
0.0
 11
69.03925
 21
191.6505
 31
0.0
  0
LINE
  5
3D9
330
1D
100
AcDbEntity
  8
0
100
AcDbLine
 10
67.11025
 20
191.1885
 30
0.0
 11
68.16225
 21
191.1885
 31
0.0
  0
LINE
  5
3DA
330
1D
100
AcDbEntity
  8
0
100
AcDbLine
 10
67.11025
 20
191.1885
 30
0.0
 11
67.89925
 21
191.6505
 31
0.0
  0
LINE
  5
3DB
330
1D
100
AcDbEntity
  8
0
100
AcDbLine
 10
67.70125
 20
170.1885
 30
0.0
 11
68.10625
 21
170.1885
 31
0.0
  0
LINE
  5
3DC
330
1D
100
AcDbEntity
  8
0
100
AcDbLine
 10
69.03925
 20
189.6505
 30
0.0
 11
69.03925
 21
190.7265
 31
0.0
  0
LINE
  5
3DD
330
1D
100
AcDbEntity
  8
0
100
AcDbLine
 10
69.03925
 20
190.7265
 30
0.0
 11
69.03925
 21
189.6505
 31
0.0
  0
LINE
  5
3DE
330
1D
100
AcDbEntity
  8
0
100
AcDbLine
 10
69.03925
 20
187.6505
 30
0.0
 11
69.03925
 21
188.7265
 31
0.0
  0
LINE
  5
3DF
330
1D
100
AcDbEntity
  8
0
100
AcDbLine
 10
69.03925
 20
188.7265
 30
0.0
 11
69.03925
 21
187.6505
 31
0.0
  0
LINE
  5
3E0
330
1D
100
AcDbEntity
  8
0
100
AcDbLine
 10
69.03925
 20
191.6505
 30
0.0
 11
69.03925
 21
192.7265
 31
0.0
  0
LINE
  5
3E1
330
1D
100
AcDbEntity
  8
0
100
AcDbLine
 10
69.03925
 20
192.7265
 30
0.0
 11
69.03925
 21
191.6505
 31
0.0
  0
LINE
  5
3E2
330
1D
100
AcDbEntity
  8
0
100
AcDbLine
 10
72.86025
 20
94.8865
 30
0.0
 11
72.88525
 21
94.1375
 31
0.0
  0
LINE
  5
3E3
330
1D
100
AcDbEntity
  8
0
100
AcDbLine
 10
68.78825
 20
94.9315
 30
0.0
 11
70.75625
 21
94.7755
 31
0.0
  0
LINE
  5
3E4
330
1D
100
AcDbEntity
  8
0
100
AcDbLine
 10
70.75625
 20
94.7755
 30
0.0
 11
72.05825
 21
94.3575
 31
0.0
  0
LINE
  5
3E5
330
1D
100
AcDbEntity
  8
0
100
AcDbLine
 10
66.21425
 20
94.7755
 30
0.0
 11
68.78825
 21
94.9315
 31
0.0
  0
LINE
  5
3E6
330
1D
100
AcDbEntity
  8
0
100
AcDbLine
 10
63.29825
 20
94.3575
 30
0.0
 11
66.21425
 21
94.7755
 31
0.0
  0
LINE
  5
3E7
330
1D
100
AcDbEntity
  8
0
100
AcDbLine
 10
60.17325
 20
93.6925
 30
0.0
 11
63.29825
 21
94.3575
 31
0.0
  0
LINE
  5
3E8
330
1D
100
AcDbEntity
  8
0
100
AcDbLine
 10
49.46165
 20
78.4745
 30
0.0
 11
49.72355
 21
77.7595
 31
0.0
  0
LINE
  5
3E9
330
1D
100
AcDbEntity
  8
0
100
AcDbLine
 10
49.42535
 20
78.4745
 30
0.0
 11
49.72355
 21
77.7595
 31
0.0
  0
LINE
  5
3EA
330
1D
100
AcDbEntity
  8
0
100
AcDbLine
 10
46.00345
 20
67.1885
 30
0.0
 11
46.16525
 21
67.1885
 31
0.0
  0
LINE
  5
3EB
330
1D
100
AcDbEntity
  8
0
100
AcDbLine
 10
45.94045
 20
67.1885
 30
0.0
 11
46.16525
 21
67.1885
 31
0.0
  0
LINE
  5
3EC
330
1D
100
AcDbEntity
  8
0
100
AcDbLine
 10
46.01315
 20
45.8695
 30
0.0
 11
46.89125
 21
35.9295
 31
0.0
  0
LINE
  5
3ED
330
1D
100
AcDbEntity
  8
0
100
AcDbLine
 10
45.57255
 20
53.967538581665
 30
0.0
 11
46.01315
 21
45.8695
 31
0.0
  0
ENDSEC
  0
SECTION
  2
OBJECTS
  0
DICTIONARY
  5
C
330
0
100
AcDbDictionary
281
     1
  3
ACAD_GROUP
350
D
  3
ACAD_LAYOUT
350
1A
  3
ACAD_MLEADERSTYLE
350
417
  3
ACAD_MLINESTYLE
350
17
  3
ACAD_PLOTSETTINGS
350
19
  3
ACAD_PLOTSTYLENAME
350
E
  3
ACAD_SCALELIST
350
3F3
  3
AcDbVariableDictionary
350
415
  3
DWGPROPS
350
41A
  0
DICTIONARY
  5
D
102
{ACAD_REACTORS
330
C
102
}
330
C
100
AcDbDictionary
281
     1
  0
DICTIONARY
  5
1A
102
{ACAD_REACTORS
330
C
102
}
330
C
100
AcDbDictionary
281
     1
  3
Layout1
350
1C
  3
Model
350
1E
  0
DICTIONARY
  5
417
102
{ACAD_REACTORS
330
C
102
}
330
C
100
AcDbDictionary
281
     1
  0
DICTIONARY
  5
17
102
{ACAD_REACTORS
330
C
102
}
330
C
100
AcDbDictionary
281
     1
  3
Standard
350
18
  0
DICTIONARY
  5
19
102
{ACAD_REACTORS
330
C
102
}
330
C
100
AcDbDictionary
281
     1
  0
ACDBDICTIONARYWDFLT
  5
E
102
{ACAD_REACTORS
330
C
102
}
330
C
100
AcDbDictionary
281
     1
  3
Normal
350
F
100
AcDbDictionaryWithDefault
340
F
  0
DICTIONARY
  5
3F3
102
{ACAD_REACTORS
330
C
102
}
330
C
100
AcDbDictionary
281
     1
  3
A0
350
3F4
  3
A1
350
3F5
  3
A2
350
3F6
  3
A3
350
3F7
  3
A4
350
3F8
  3
A5
350
3F9
  3
A6
350
3FA
  3
A7
350
3FB
  3
A8
350
3FC
  3
A9
350
3FD
  3
B0
350
3FE
  3
B1
350
3FF
  3
B2
350
400
  3
B3
350
401
  3
B4
350
402
  3
B5
350
403
  3
B6
350
404
  3
B7
350
405
  3
B8
350
406
  3
B9
350
407
  3
C0
350
408
  3
C1
350
409
  3
C2
350
40A
  3
C3
350
40B
  3
C4
350
40C
  3
C5
350
40D
  3
C6
350
40E
  3
C7
350
40F
  3
C8
350
410
  3
C9
350
411
  3
D0
350
412
  3
D1
350
413
  3
D2
350
414
  0
DICTIONARY
  5
415
102
{ACAD_REACTORS
330
C
102
}
330
C
100
AcDbDictionary
281
     1
  3
CANNOSCALE
350
418
  0
XRECORD
  5
41A
102
{ACAD_REACTORS
330
C
102
}
330
C
100
AcDbXrecord
280
     1
  1
DWGPROPS COOKIE
  2

  3

  4

  6

  7

  8
MARTIN
  9

300
=
301
=
302
=
303
=
304
=
305
=
306
=
307
=
308
=
309
=
 40
0.0
 41
2456646.619492188
 42
2456646.619637222
  1

 90
        0
  0
LAYOUT
  5
1C
102
{ACAD_REACTORS
330
1A
102
}
330
1A
100
AcDbPlotSettings
  1

  2
none_device
  4

  6

 40
0.0
 41
0.0
 42
0.0
 43
0.0
 44
0.0
 45
0.0
 46
0.0
 47
0.0
 48
0.0
 49
0.0
140
0.0
141
0.0
142
1.0
143
1.0
 70
   688
 72
     0
 73
     0
 74
     5
  7

 75
    16
147
1.0
148
0.0
149
0.0
100
AcDbLayout
  1
Layout1
 70
     1
 71
     1
 10
0.0
 20
0.0
 11
12.0
 21
9.0
 12
0.0
 22
0.0
 32
0.0
 14
1.000000000000E+20
 24
1.000000000000E+20
 34
1.000000000000E+20
 15
-1.000000000000E+20
 25
-1.000000000000E+20
 35
-1.000000000000E+20
146
0.0
 13
0.0
 23
0.0
 33
0.0
 16
1.0
 26
0.0
 36
0.0
 17
0.0
 27
1.0
 37
0.0
 76
     0
330
1B
  0
LAYOUT
  5
1E
102
{ACAD_REACTORS
330
1A
102
}
330
1A
100
AcDbPlotSettings
  1

  2
none_device
  4

  6

 40
0.0
 41
0.0
 42
0.0
 43
0.0
 44
0.0
 45
0.0
 46
0.0
 47
0.0
 48
0.0
 49
0.0
140
0.0
141
0.0
142
1.0
143
1.0
 70
  1712
 72
     0
 73
     0
 74
     0
  7

 75
     0
147
1.0
148
0.0
149
0.0
100
AcDbLayout
  1
Model
 70
     1
 71
     0
 10
0.0
 20
0.0
 11
12.0
 21
9.0
 12
0.0
 22
0.0
 32
0.0
 14
-0.03625
 24
-0.1885
 34
0.0
 15
76.03625
 25
235.1885
 35
0.0
146
0.0
 13
0.0
 23
0.0
 33
0.0
 16
1.0
 26
0.0
 36
0.0
 17
0.0
 27
1.0
 37
0.0
 76
     0
330
1D
331
3EE
  0
MLINESTYLE
  5
18
102
{ACAD_REACTORS
330
17
102
}
330
17
100
AcDbMlineStyle
  2
Standard
 70
     0
  3

 62
   256
 51
90.0
 52
90.0
 71
     2
 49
0.5
 62
   256
  6
BYLAYER
 49
-0.5
 62
   256
  6
BYLAYER
  0
ACDBPLACEHOLDER
  5
F
102
{ACAD_REACTORS
330
E
102
}
330
E
  0
SCALE
  5
3F4
102
{ACAD_REACTORS
330
3F3
102
}
330
3F3
100
AcDbScale
 70
     0
300
1:1
140
1.0
141
1.0
290
     1
  0
SCALE
  5
3F5
102
{ACAD_REACTORS
330
3F3
102
}
330
3F3
100
AcDbScale
 70
     0
300
1:2
140
1.0
141
2.0
290
     0
  0
SCALE
  5
3F6
102
{ACAD_REACTORS
330
3F3
102
}
330
3F3
100
AcDbScale
 70
     0
300
1:4
140
1.0
141
4.0
290
     0
  0
SCALE
  5
3F7
102
{ACAD_REACTORS
330
3F3
102
}
330
3F3
100
AcDbScale
 70
     0
300
1:5
140
1.0
141
5.0
290
     0
  0
SCALE
  5
3F8
102
{ACAD_REACTORS
330
3F3
102
}
330
3F3
100
AcDbScale
 70
     0
300
1:8
140
1.0
141
8.0
290
     0
  0
SCALE
  5
3F9
102
{ACAD_REACTORS
330
3F3
102
}
330
3F3
100
AcDbScale
 70
     0
300
1:10
140
1.0
141
10.0
290
     0
  0
SCALE
  5
3FA
102
{ACAD_REACTORS
330
3F3
102
}
330
3F3
100
AcDbScale
 70
     0
300
1:16
140
1.0
141
16.0
290
     0
  0
SCALE
  5
3FB
102
{ACAD_REACTORS
330
3F3
102
}
330
3F3
100
AcDbScale
 70
     0
300
1:20
140
1.0
141
20.0
290
     0
  0
SCALE
  5
3FC
102
{ACAD_REACTORS
330
3F3
102
}
330
3F3
100
AcDbScale
 70
     0
300
1:30
140
1.0
141
30.0
290
     0
  0
SCALE
  5
3FD
102
{ACAD_REACTORS
330
3F3
102
}
330
3F3
100
AcDbScale
 70
     0
300
1:40
140
1.0
141
40.0
290
     0
  0
SCALE
  5
3FE
102
{ACAD_REACTORS
330
3F3
102
}
330
3F3
100
AcDbScale
 70
     0
300
1:50
140
1.0
141
50.0
290
     0
  0
SCALE
  5
3FF
102
{ACAD_REACTORS
330
3F3
102
}
330
3F3
100
AcDbScale
 70
     0
300
1:100
140
1.0
141
100.0
290
     0
  0
SCALE
  5
400
102
{ACAD_REACTORS
330
3F3
102
}
330
3F3
100
AcDbScale
 70
     0
300
2:1
140
2.0
141
1.0
290
     0
  0
SCALE
  5
401
102
{ACAD_REACTORS
330
3F3
102
}
330
3F3
100
AcDbScale
 70
     0
300
4:1
140
4.0
141
1.0
290
     0
  0
SCALE
  5
402
102
{ACAD_REACTORS
330
3F3
102
}
330
3F3
100
AcDbScale
 70
     0
300
8:1
140
8.0
141
1.0
290
     0
  0
SCALE
  5
403
102
{ACAD_REACTORS
330
3F3
102
}
330
3F3
100
AcDbScale
 70
     0
300
10:1
140
10.0
141
1.0
290
     0
  0
SCALE
  5
404
102
{ACAD_REACTORS
330
3F3
102
}
330
3F3
100
AcDbScale
 70
     0
300
100:1
140
100.0
141
1.0
290
     0
  0
SCALE
  5
405
102
{ACAD_REACTORS
330
3F3
102
}
330
3F3
100
AcDbScale
 70
     0
300
1/128" = 1'-0"
140
0.0078125
141
12.0
290
     0
  0
SCALE
  5
406
102
{ACAD_REACTORS
330
3F3
102
}
330
3F3
100
AcDbScale
 70
     0
300
1/64" = 1'-0"
140
0.015625
141
12.0
290
     0
  0
SCALE
  5
407
102
{ACAD_REACTORS
330
3F3
102
}
330
3F3
100
AcDbScale
 70
     0
300
1/32" = 1'-0"
140
0.03125
141
12.0
290
     0
  0
SCALE
  5
408
102
{ACAD_REACTORS
330
3F3
102
}
330
3F3
100
AcDbScale
 70
     0
300
1/16" = 1'-0"
140
0.0625
141
12.0
290
     0
  0
SCALE
  5
409
102
{ACAD_REACTORS
330
3F3
102
}
330
3F3
100
AcDbScale
 70
     0
300
3/32" = 1'-0"
140
0.09375
141
12.0
290
     0
  0
SCALE
  5
40A
102
{ACAD_REACTORS
330
3F3
102
}
330
3F3
100
AcDbScale
 70
     0
300
1/8" = 1'-0"
140
0.125
141
12.0
290
     0
  0
SCALE
  5
40B
102
{ACAD_REACTORS
330
3F3
102
}
330
3F3
100
AcDbScale
 70
     0
300
3/16" = 1'-0"
140
0.1875
141
12.0
290
     0
  0
SCALE
  5
40C
102
{ACAD_REACTORS
330
3F3
102
}
330
3F3
100
AcDbScale
 70
     0
300
1/4" = 1'-0"
140
0.25
141
12.0
290
     0
  0
SCALE
  5
40D
102
{ACAD_REACTORS
330
3F3
102
}
330
3F3
100
AcDbScale
 70
     0
300
3/8" = 1'-0"
140
0.375
141
12.0
290
     0
  0
SCALE
  5
40E
102
{ACAD_REACTORS
330
3F3
102
}
330
3F3
100
AcDbScale
 70
     0
300
1/2" = 1'-0"
140
0.5
141
12.0
290
     0
  0
SCALE
  5
40F
102
{ACAD_REACTORS
330
3F3
102
}
330
3F3
100
AcDbScale
 70
     0
300
3/4" = 1'-0"
140
0.75
141
12.0
290
     0
  0
SCALE
  5
410
102
{ACAD_REACTORS
330
3F3
102
}
330
3F3
100
AcDbScale
 70
     0
300
1" = 1'-0"
140
1.0
141
12.0
290
     0
  0
SCALE
  5
411
102
{ACAD_REACTORS
330
3F3
102
}
330
3F3
100
AcDbScale
 70
     0
300
1-1/2" = 1'-0"
140
1.5
141
12.0
290
     0
  0
SCALE
  5
412
102
{ACAD_REACTORS
330
3F3
102
}
330
3F3
100
AcDbScale
 70
     0
300
3" = 1'-0"
140
3.0
141
12.0
290
     0
  0
SCALE
  5
413
102
{ACAD_REACTORS
330
3F3
102
}
330
3F3
100
AcDbScale
 70
     0
300
6" = 1'-0"
140
6.0
141
12.0
290
     0
  0
SCALE
  5
414
102
{ACAD_REACTORS
330
3F3
102
}
330
3F3
100
AcDbScale
 70
     0
300
1'-0" = 1'-0"
140
12.0
141
12.0
290
     0
  0
DICTIONARYVAR
  5
418
102
{ACAD_REACTORS
330
415
102
}
330
415
100
DictionaryVariables
280
     0
  1
1:1
  0
ENDSEC
  0
SECTION
  2
THUMBNAILIMAGE
 90
    16364
310
28000000B40000005500000001000800000000000000000000000000000000000000000000000000FFFFFF000000FF0000FFFF0000FF0000FFFF0000FF000000FF00FF000000000080808000C0C0C0000000FF007F7FFF000000A5005252A50000007F003F3F7F0000004C0026264C000000260013132600003FFF007F9FFF
310
000029A5005267A500001F7F003F4F7F0000134C00262F4C000009260013172600007FFF007FBFFF000052A500527CA500003F7F003F5F7F0000264C0026394C0000132600131C260000BFFF007FDFFF00007CA5005291A500005F7F003F6F7F0000394C0026424C00001C26001321260000FFFF007FFFFF0000A5A50052A5
310
A500007F7F003F7F7F00004C4C00264C4C00002626001326260000FFBF007FFFDF0000A57C0052A59100007F5F003F7F6F00004C3900264C420000261C001326210000FF7F007FFFBF0000A5520052A57C00007F3F003F7F5F00004C2600264C39000026130013261C0000FF3F007FFF9F0000A5290052A56700007F1F003F
310
7F4F00004C1300264C2F00002609001326170000FF00007FFF7F0000A5000052A55200007F00003F7F3F00004C0000264C260000260000132613003FFF00009FFF7F0029A5000067A552001F7F00004F7F3F00134C00002F4C260009260000172613007FFF0000BFFF7F0052A500007CA552003F7F00005F7F3F00264C0000
310
394C2600132600001C261300BFFF0000DFFF7F007CA5000091A552005F7F00006F7F3F00394C0000424C26001C26000021261300FFFF0000FFFF7F00A5A50000A5A552007F7F00007F7F3F004C4C00004C4C26002626000026261300FFBF0000FFDF7F00A57C0000A59152007F5F00007F6F3F004C3900004C422600261C00
310
0026211300FF7F0000FFBF7F00A5520000A57C52007F3F00007F5F3F004C2600004C39260026130000261C1300FF3F0000FF9F7F00A5290000A56752007F1F00007F4F3F004C1300004C2F26002609000026171300FF000000FF7F7F00A5000000A55252007F0000007F3F3F004C0000004C2626002600000026131300FF00
310
3F00FF7F9F00A5002900A55267007F001F007F3F4F004C0013004C262F002600090026131700FF007F00FF7FBF00A5005200A5527C007F003F007F3F5F004C0026004C2639002600130026131C00FF00BF00FF7FDF00A5007C00A55291007F005F007F3F6F004C0039004C26420026001C0026132100FF00FF00FF7FFF00A5
310
00A500A552A5007F007F007F3F7F004C004C004C264C002600260026132600BF00FF00DF7FFF007C00A5009152A5005F007F006F3F7F0039004C0042264C001C002600211326007F00FF00BF7FFF005200A5007C52A5003F007F005F3F7F0026004C0039264C00130026001C1326003F00FF009F7FFF002900A5006752A500
310
1F007F004F3F7F0013004C002F264C000900260017132600000000002D2D2D005B5B5B0089898900B7B7B700B3B3B30000000000000000000000000000000000000000000000000000000000000000000000000000000000000000000000000000000000000000000000000000000000000000000000000000000000000000
310
00000000000000000000000007070707000000000000000000000000000000000000000000000000000000000000000000000000000000000000000000000000000000000000000000000000000000000000000000000000000000000000000000000000000000000000000000000000000000000000000000000000000000
310
00000000000000000000000000000000000000000000000000000000000000000000000000000000000000000000000000000000000000000000000000000000000700000007000000000000000000000000000000000000000000000000000000000000000000000000000000000000000000000000000000000000000000
310
00000000000000000000000000000000000000000000000000000000000000000000000000000000000000000000000000000000000000000000000000000000000000000000000000000000000000000000000000000000000000000000000000000000000000000000000000000000000000000000070000000700000000
310
00000000000000000000000000000000000000000000000000000000000000000000000000000000000000000000000000000000000000000000000000000000000000000000000000000000000000000000000000000000000000000000000000000000000000000000000000000000000000000000000000000000000000
310
00000000000000000000000000000000000000000000000000000000000000000000000000000000000000070707070707000000000000000000000000000000000000000000000000000000000000000000000000000000000000000000000000000000000000000000000000000000000000000000000000000000000000
310
00000000000000000000000000000000000000000000000000000000000000000000000000000000000000000000000000000000000000000000000000000000000000000000000000000000000000000000000000000000000000000000000007000000070000000000000000000000000000000000000000000000000000
310
00000000000000000000000000000000000000000000000000000000000000000000000000000000000000000000000000000000000000000000000000000000000000000000000000000000000000000000000000000000000000000000000000000000000000000000000000000000000000000000000000000000000000
310
00000000000000000000000000000000000000000000070000000700000000000000000000000000000000000000000000000000000000000000000000000000000000000000000000000000000000000000000000000000000000000000000000000000000000000000000000000000000000000000000000000000000000
310
00000000000000000000000000000000000000000000000000000000000000000000000000000000000000000000000000000000000000000000000000000000000000000000000000000700000000070000000000000000000000000000000000000000000000000000000000000000000000000000000000000000000000
310
00000000000000000000000000000000000000000000000000000000000000000000000000000000000000000000000000000000000000000000000000000000000000000000000000000000000000000000000000000000000000000000000000000000000000000000000000000000000000000000000000000000000000
310
07000000000700000000000000000000000000000000000000000000000000000000000000000000000000000000000000000000000000000000000000000000000000000000000000000000000000000000000000000000000000000000000000000000000000000000000000000000000000000000000000000000000000
310
00000000000000000000000000000000000000000000000000000000000000000000000000000000000000000000000000000000000700000000070000000000000000000000000000000000000000000000000000000000000000000000000000000000000000000000000000000000000000000000000000000000000000
310
00000000000000000000000000000000000000000000000000000000000000000000000000000000000000000000000000000000000000000000000000000000000000000000000000000000000000000000000000000000000000000000000000000000000000000000070000000007000000000000000000000000000000
310
00000000000000000000000000000000000000000000000000000000000000000000000000000000000000000000000000000000000000000000000000000000000000000000000000000000000000000000000000000000000000000000000000000000000000000000000000000000000000000000000000000000000000
310
00000000000000000000000000000000000000000000000000000000000000070000000000070000000000000000000000000000000000000000000000000000000000000000000000000000000000000000000000000000000000000000000000000000000000000000000000000000000000000000000000000000000000
310
00000000000000000000000000000000000000000000000000000000000000000000000000000000000000000000000000000000000000000000000000000000000000000000000000000000000000000000000007000000000700000000000000000000000000000000000000000000000000000000000000000000000000
310
00000000000000000000000000000000000000000000000000000000000000000000000000000000000000000000000000000000000000000000000000000000000000000000000000000000000000000000000000000000000000000000000000000000000000000000000000000000000000000000000000000000000000
310
00000000000000000000070000000007000000000000000000000000000000000000000000000000000000000000000000000000000000000000000000000000000000000000000000000000000000000000000000000000000000000000000000000000000000000000000000000000000000000000000000000000000000
310
00000000000000000000000000000000000000000000000000000000000000000000000000000000000000000000000000000000000000000000000000000007000000000700000000000000000000000000000000000000000000000000000000000000000000000000000000000000000000000000000000000000000000
310
00000000000000000000000000000000000000000000000000000000000000000000000000000000000000000000000000000000000000000000000000000000000000000000000000000000000000000000000000000000000000000000000000000000000000000000000000000000000000000700000000070000000000
310
00000000000000000000000000000000000000000000000000000000000000000000000000000000000000000000000000000000000000000000000000000000000000000000000000000000000000000000000000000000000000000000000000000000000000000000000000000000000000000000000000000000000000
310
00000000000000000000000000000000000000000000000000000000000000000000000000000000000007000000000700000000000000000000000000000000000000000000000000000000000000000000000000000000000000000000000000000000000000000000000000000000000000000000000000000000000000
310
00000000000000000000000000000000000000000000000000000000000000000000000000000000000000000000000000000000000000000000000000000000000000000000000000000000000000000000000000000000000000000000070707070707070000000000000000000000000000000000000000000000000000
310
00000000000000000000000000000000000000000000000000000000000000000000000000000000000000000000000000000000000000000000000000000000000000000000000000000000000000000000000000000000000000000000000000000000000000000000000000000000000000000000000000000000000000
310
00000000000000000000000000000000000000000700000000000700000000000000000000000000000000000000000000000000000000000000000000000000000000000000000000000000000000000000000000000000000000000000000000000000000000000000000000000000000000000000000000000000000000
310
00000000000000000000000000000000000000000000000000000000000000000000000000000000000000000000000000000000000000000000000000000000000000000000000000070700000007070000000000000000000000000000000000000000000000000000000000000000000000000000000000000000000000
310
00000000000000000000000000000000000000000000000000000000000000000000000000000000000000000000000000000000000000000000000000000000000000000000000000000000000000000000000000000000000000000000000000000000000000000000000000000000000000000000000000000000000007
310
07070707070700000000000000000000000000000000000000000000000000000000000000000000000000000000000000000000000000000000000000000000000000000000000000000000000000000000000000000000000000000000000000000000000000000000000000000000000000000000000000000000000000
310
00000000000000000000000000000000000000000000000000000000000000000000000000000000000000000000000000000000070000000000070000000000000000000000000000000000000000000000000000000000000000000000000000000000000000000000000000000000000000000000000000000000000000
310
00000000000000000000000000000000000000000000000000000000000000000000000000000000000000000000000000000000000000000000000000000000000000000000000000000000000000000000000000000000000000000000000000000000000000000007000000000007000000000000000000000000000000
310
00000000000000000000000000000000000000000000000000000000000000000000000000000000000000000000000000000000000000000000000000000000000000000000000000000000000000000000000000000000000000000000000000000000000000000000000000000000000000000000000000000000000000
310
00000000000000000000000000000000000000000000000000000000000000070000000000070000000000000000000000000000000000000000000000000000000000000000000000000000000000000000000000000000000000000000000000000000000000000000000000000000000000000000000000000000000000
310
00000000000000000000000000000000000000000000000000000000000000000000000000000000000000000000000000000000000000000000000000000000000000000000000000000000000000000000000007000000000007000000000000000000000000000000000000000000000000000000000000000000000000
310
00000000000000000000000000000000000000000000000000000000000000000000000000000000000000000000000000000000000000000000000000000000000000000000000000000000000000000000000000000000000000000000000000000000000000000000000000000000000000000000000000000000000000
310
00000007070707070007070000000000070700070707070700000000000000000000000000000000000000000000000000000000000000000000000000000000000000000000000000000000000000000000000000000000000000000000000000000000000000000000000000000000000000000000000000000000000000
310
00000000000000000000000000000000000000000000000000000000000000000000000000000000000000000000000000000000000007070000000007000707000000000007070007070000070707000000000000000000000000000000000000000000000000000000000000000000000000000000000000000000000000
310
00000000000000000000000000000000000000000000000000000000000000000000000000000000000000000000000000000000000000000000000000000000000000000000000000000000000000000000000000000000000000000000000000000000000000000000070000000000000007070700000000000707070000
310
07070707070700000000000000000000000000000000000000000000000000000000000000000000000000000000000000000000000000000000000000000000000000000000000000000000000000000000000000000000000000000000000000000000000000000000000000000000000000000000000000000000000000
310
00000000000000000000000000000000000000000000000000000000000000000700000000000000070707000000000007070700000000000707070000000000000000000000000000000000000000000000000000000000000000000000000000000000000000000000000000000000000000000000000000000000000000
310
00000000000000000000000000000000000000000000000000000000000000000000000000000000000000000000000000000000000000000000000000000000000000000000000000000000000000000000000000070000000000000007070700000000000707070000000000000007000000000000000000000000000000
310
00000000000000000000000000000000000000000000000000000000000000000000000000000000000000000000000000000000000000000000000000000000000000000000000000000000000000000000000000000000000000000000000000000000000000000000000000000000000000000000000000000000000000
310
00000000000000000000000700000000000000070007000000000007000700000000000000070000000000000000000000000000000000000000000000000000000000000000000000000000000000000000000000000000000000000000000000000000000000000000000000000000000000000000000000000000000000
310
00000000000000000000000000000000000000000000000000000000000000000000000000000000000000000000000000000000000000000000000000000000000700000000000000070700000000000707000000000000000700000000000000000000000000000000000000000000000000000000000000000000000000
310
00000000000000000000000000000000000000000000000000000000000000000000000000000000000000000000000000000000000000000000000000000000000000000000000000000000000000000000000000000000000000000000000000000000000000000000000000000000000000000000070000070707070707
310
07000000000007070000000000000007000000000000000000000000000000000000000000000000000000000000000000000000000000000000000000000000000000000000000000000000000000000000000000000000000000000000000000000000000000000000000000000000000000000000000000000000000000
310
00000000000000000000000000000000000000000000000000000000000000000000000000000000000000000707070007000000000700000000000707070700000000000700000000000000000000000000000000000000000000000000000000000000000000000000000000000000000000000000000000000000000000
310
00000000000000000000000000000000000000000000000000000000000000000000000000000000000000000000000000000000000000000000000000000000000000000000000000000000000000000000000000000000000000000000000000070000000700000000070000000000070000000707070707070000000000
310
00000000000000000000000000000000000000000000000000000000000000000000000000000000000000000000000000000000000000000000000000000000000000000000000000000000000000000000000000000000000000000000000000000000000000000000000000000000000000000000000000000000000000
310
00000000000000000000000000000000000000000000000700000007000000000700000000000700000000000000070700000000000000000000000000000000000000000000000000000000000000000000000000000000000000000000000000000000000000000000000000000000000000000000000000000000000000
310
00000000000000000000000000000000000000000000000000000000000000000000000000000000000000000000000000000000000000000000000000000000000000000000000000000000070000000700000000070000000000070000000000000000070000000000000000000000000000000000000000000000000000
310
00000000000000000000000000000000000000000000000000000000000000000000000000000000000000000000000000000000000000000000000000000000000000000000000000000000000000000000000000000000000000000000000000000000000000000000000000000000000000000000000000000000000000
310
00000007000007000000000700000000000700000000000000070000000000000000000000000000000000000000000000000000000000000000000000000000000000000000000000000000000000000000000000000000000000000000000000000000000000000000000000000000000000000000000000000000000000
310
00000000000000000000000000000000000000000000000000000000000000000000000000000000000000000000000000000000000000000700000700000007070707070707070700000000000007000000000000000000000000000000000000000000000000000000000000000000000000000000000000000000000000
310
00000000000000000000000000000000000000000000000000000000000000000000000000000000000000000000000000000000000000000000000000000000000000000000000000000000000000000000000000000000000000000000000000000000000000000000000000070000070000000700000000000000070000
310
00000000070000000000000000000000000000000000000000000000000000000000000000000000000000000000000000000000000000000000000000000000000000000000000000000000000000000000000000000000000000000000000000000000000000000000000000000000000000000000000000000000000000
310
00000000000000000000000000000000000000000000000000000000000000000000000700000700000007000000000000000700000000000007000000000000000000000000000000000000000000000000000000000000000000000000000000000000000000000000000000000000000000000000000000000000000000
310
00000000000000000000000000000000000000000000000000000000000000000000000000000000000000000000000000000000000000000000000000000000000000000000000000000000000000000000000000000000000700070000000700000000000000070000000000000700000000000000000000000000000000
310
00000000000000000000000000000000000000000000000000000000000000000000000000000000000000000000000000000000000000000000000000000000000000000000000000000000000000000000000000000000000000000000000000000000000000000000000000000000000000000000000000000000000000
310
00000000000000000000000000000007000700000007000000000000000700000000000700000000000000000000000000000000000000000000000000000000000000000000000000000000000000000000000000000000000000000000000000000000000000000000000000000000000000000000000000000000000000
310
00000000000000000000000000000000000000000000000000000000000000000000000000000000000000000000000000000000000000000000000000000000000000000700070000000700000000000000070000000000070000000000000000000000000000000000000000000000000000000000000000000000000000
310
00000000000000000000000000000000000000000000000000000000000000000000000000000000000000000000000000000000000000000000000000000000000000000000000000000000000000000000000000000000000000000000000000000000000000000000000000000000000000000000000000070007000000
310
07000000000000000700000000000700000000000000000000000000000000000000000000000000000000000000000000000000000000000000000000000000000000000000000000000000000000000000000000000000000000000000000000000000000000000000000000000000000000000000000000000000000000
310
00000000000000000000000000000000000000000000000000000000000000000000000000000000000000000000000007070000000700000000000000070000000000070000000000000000000000000000000000000000000000000000000000000000000000000000000000000000000000000000000000000000000000
310
00000000000000000000000000000000000000000000000000000000000000000000000000000000000000000000000000000000000000000000000000000000000000000000000000000000000000000000000000000000000000000000000000000000000707000000070000000000000007000000000700000000000000
310
00000000000000000000000000000000000000000000000000000000000000000000000000000000000000000000000000000000000000000000000000000000000000000000000000000000000000000000000000000000000000000000000000000000000000000000000000000000000000000000000000000000000000
310
00000000000000000000000000000000000000000000000000000007070000000700000000000000070000000007000000000000000000000000000000000000000000000000000000000000000000000000000000000000000000000000000000000000000000000000000000000000000000000000000000000000000000
310
00000000000000000000000000000000000000000000000000000000000000000000000000000000000000000000000000000000000000000000000000000000000000000000000000000000000000000707000000070000000000000007000000000700000000000000000000000000000000000000000000000000000000
310
00000000000000000000000000000000000000000000000000000000000000000000000000000000000000000000000000000000000000000000000000000000000000000000000000000000000000000000000000000000000000000000000000000000000000000000000000000000000000000000000000000000000000
310
00000000000000070000000707070707070707070000000007000000000000000000000000000000000000000000000000000000000000000000000000000000000000000000000000000000000000000000000000000000000000000000000000000000000000000000000000000000000000000000000000000000000000
310
00000000000000000000000000000000000000000000000000000000000000000000000000000000000000000000000000000000000000000000000007000000070000000000000007000000000700000000000000000000000000000000000000000000000000000000000000000000000000000000000000000000000000
310
00000000000000000000000000000000000000000000000000000000000000000000000000000000000000000000000000000000000000000000000000000000000000000000000000000000000000000000000000000000000000000000000000000000000000000000000000000000000700070707070707070707070707
310
07000700000000000000000000000000000000000000000000000000000000000000000000000000000000000000000000000000000000000000000000000000000000000000000000000000000000000000000000000000000000000000000000000000000000000000000000000000000000000000000000000000000000
310
00000000000000000000000000000000000000000000000000000000000000000000000000000007000700000000000000000000000700070000000000000000000000000000000000000000000000000000000000000000000000000000000000000000000000000000000000000000000000000000000000000000000000
310
00000000000000000000000000000000000000000000000000000000000000000000000000000000000000000000000000000000000000000000000000000000000000000000000000000000000000000000000000000000000000070707070000000000000000000000070707070000000000000000000000000000000000
310
00000000000000000000000000000000000000000000000000000000000000000000000000000000000000000000000000000000000000000000000000000000000000000000000000000000000000000000000000000000000000000000000000000000000000000000000000000000000000000000000000000000000000
310
00000000000000000000000000000000070000000700000000000000000000000700000007000000000000000000000000000000000000000000000000000000000000000000000000000000000000000000000000000000000000000000000000000000000000000000000000000000000000000000000000000000000000
310
00000000000000000000000000000000000000000000000000000000000000000000000000000000000000000000000000000000000000000000000000000000000000000007000000070000000000000000000000070000000700000000000000000000000000000000000000000000000000000000000000000000000000
310
00000000000000000000000000000000000000000000000000000000000000000000000000000000000000000000000000000000000000000000000000000000000000000000000000000000000000000000000000000000000000000000000000000000000000000000000000000000000000000000000000000700000007
310
00000000000000000000000700000007000000000000000000000000000000000000000000000000000000000000000000000000000000000000000000000000000000000000000000000000000000000000000000000000000000000000000000000000000000000000000000000000000000000000000000000000000000
310
00000000000000000000000000000000000000000000000000000000000000000000000000000000000000000000000007000000070000000000000000000000070707070700000000000000000000000000000000000000000000000000000000000000000000000000000000000000000000000000000000000000000000
310
00000000000000000000000000000000000000000000000000000000000000000000000000000000000000000000000000000000000000000000000000000000000000000000000000000000000000000000000000000000000000000000000000000000000700000007000000000000000000000007070000070000000000
310
00000000000000000000000000000000000000000000000000000000000000000000000000000000000000000000000000000000000000000000000000000000000000000000000000000000000000000000000000000000000000000000000000000000000000000000000000000000000000000000000000000000000000
310
00000000000000000000000000000000000000000000000000000707070707070000000000000000000000070707070707000000000000000000000000000000000000000000000000000000000000000000000000000000000000000000000000000000000000000000000000000000000000000000000000000000000000
310
00000000000000000000000000000000000000000000000000000000000000000000000000000000000000000000000000000000000000000000000000000000000000000000000000000000000000070700000007000000000707070000000007000000000700000000000000000000000000000000000000000000000000
310
00000000000000000000000000000000000000000000000000000000000000000000000000000000000000000000000000000000000000000000000000000000000000000000000000000000000000000000000000000000000000000000000000000000000000000000000000000000000000000000000000000000000000
310
00000000000707070707070707070707070707070707070707070707000000000000000000000000000000000000000000000000000000000000000000000000000000000000000000000000000000000000000000000000000000000000000000000000000000000000000000000000000000000000000000000000000000
310
00000000000000000000000000000000000000000000000000000000000000000000000000000000000000000000000000000000000000000000000700070000000000000000000000000000000707070000000000000000000000000000000000000000000000000000000000000000000000000000000000000000000000
310
00000000000000000000000000000000000000000000000000000000000000000000000000000000000000000000000000000000000000000000000000000000000000000000000000000000000000000000000000000000000000000000000000000000000000000000000000000000070007070707070707070707070707
310
07070707070700000000000000000000000000000000000000000000000000000000000000000000000000000000000000000000000000000000000000000000000000000000000000000000000000000000000000000000000000000000000000000000000000000000000000000000000000000000000000000000000000
310
00000000000000000000000000000000000000000000000000000000000000000000000000000707070707070707070707070707070707070707070000000000000000000000000000000000000000000000000000000000000000000000000000000000000000000000000000000000000000000000000000000000000000
310
00000000000000000000000000000000000000000000000000000000000000000000000000000000000000000000000000000000000000000000000000000000000000000000000000000000000000000000000000000000000000070707070707070707070707070707070707070707000000000000000000000000000000
310
00000000000000000000000000000000000000000000000000000000000000000000000000000000000000000000000000000000000000000000000000000000000000000000000000000000000000000000000000000000000000000000000000000000000000000000000000000000000000000000000000000000000000
310
00000000000000000000000000000000000700000007000000000000000000000007000000070000000000000000000000000000000000000000000000000000000000000000000000000000000000000000000000000000000000000000000000000000000000000000000000000000000000000000000000000000000000
310
00000000000000000000000000000000000000000000000000000000000000000000000000000000000000000000000000000000000000000000000000000000000000000007070707070700000000000000000000000707070707070000000000000000000000000000000000000000000000000000000000000000000000
310
00000000000000000000000000000000000000000000000000000000000000000000000000000000000000000000000000000000000000000000000000000000000000000000000000000000000000000000000000000000000000000000000000000000000000000000000000000000000000000000000000000707070707
310
07070707070707070707070707070707070700000000000000000000000000000000000000000000000000000000000000000000000000000000000000000000000000000000000000000000000000000000000000000000000000000000000000000000000000000000000000000000000000000000000000000000000000
310
00000000000000000000000000000000000000000000000000000000000000000000000000000000000000000000000007070707070707070707070707070707070707070707070000000000000000000000000000000000000000000000000000000000000000000000000000000000000000000000000000000000000000
310
00000000000000000000000000000000000000000000000000000000000000000000000000000000000000000000000000000000000000000000000000000000000000000000000000000000000000000000000000000000000000000000000000000000000000000007000000000000000000000000000700000000000000
310
00000000000000000000000000000000000000000000000000000000000000000000000000000000000000000000000000000000000000000000000000000000000000000000000000000000000000000000000000000000000000000000000000000000000000000000000000000000000000000000000000000000000000
310
00000000000000000000000000000000000000000000000000000000000000070707070707070707070707070707000000000000000000000000000000000000000000000000000000000000000000000000000000000000000000000000000000000000000000000000000000000000000000000000000000000000000000
310
00000000000000000000000000000000000000000000000000000000000000000000000000000000000000000000000000000000000000000000000000000000000000000000000000000000000000000000000000000007070700000007070700000000000000000000000000000000000000000000000000000000000000
310
00000000000000000000000000000000000000000000000000000000000000000000000000000000000000000000000000000000000000000000000000000000000000000000000000000000000000000000000000000000000000000000000000000000000000000000000000000000000000000000000000000000000000
310
00000000000000000000000000070707000000070707000000000000000000000000000000000000000000000000000000000000000000000000000000000000000000000000000000000000000000000000000000000000000000000000000000000000000000000000000000000000000000000000000000000000000000
310
00000000000000000000000000000000000000000000000000000000000000000000000000000000000000000000000000000000000000000000000000000000000000070700000007070000000000000000000000000000000000000000000000000000000000000000000000000000000000000000000000000000000000
310
00000000000000000000000000000000000000000000000000000000000000000000000000000000000000000000000000000000000000000000000000000000000000000000000000000000000000000000000000000000000000000000000000000000000000000000000000000000000000000000000007070000000707
310
00000000000000000000000000000000000000000000000000000000000000000000000000000000000000000000000000000000000000000000000000000000000000000000000000000000000000000000000000000000000000000000000000000000000000000000000000000000000000000000000000000000000000
310
00000000000000000000000000000000000000000000000000000000000000000000000000000000000000000000000707070707000000000000000000000000000000000000000000000000000000000000000000000000000000000000000000000000000000000000000000000000000000000000000000000000000000
310
00000000000000000000000000000000000000000000000000000000000000000000000000000000000000000000000000000000000000000000000000000000000000000000000000000000000000000000000000000000000000000000000000000000000700070000000000000000000000000000000000000000000000
310
00000000000000000000000000000000000000000000000000000000000000000000000000000000000000000000000000000000000000000000000000000000000000000000000000000000000000000000000000000000000000000000000000000000000000000000000000000000000000000000000000000000000000
310
00000000000000000000000000000000000000000000000000000007000700000000000000000000000000000000000000000000000000000000000000000000000000000000000000000000000000000000000000000000000000000000000000000000000000000000000000000000000000000000000000000000000000
310
00000000000000000000000000000000000000000000000000000000000000000000000000000000000000000000000000000000000000000000000000000000000000000000000000000000000000000700070000000000000000000000000000000000000000000000000000000000000000000000000000000000000000
310
00000000000000000000000000000000000000000000000000000000000000000000000000000000000000000000000000000000000000000000000000000000000000000000000000000000000000000000000000000000000000000000000000000000000000000000000000000000000000000000000000000000000000
310
00000000000007000700000000000000000000000000000000000000000000000000000000000000000000000000000000000000000000000000000000000000000000000000000000000000000000000000000000000000000000000000000000000000000000000000000000000000000000000000000000000000000000
310
00000000000000000000000000000000000000000000000000000000000000000000000000000000000000000000000000000000000000000000070707070700000000000000000000000000000000000000000000000000000000000000000000000000000000000000000000000000000000000000000000000000000000
310
00000000000000000000000000000000000000000000000000000000000000000000000000000000000000000000000000000000000000000000000000000000000000000000000000000000000000000000000000000000000000000000000000000000000000000000000000000007000000070000000000000000000000
310
00000000000000000000000000000000000000000000000000000000000000000000000000000000000000000000000000000000000000000000000000000000000000000000000000000000000000000000000000000000000000000000000000000000000000000000000000000000000000000000000000000000000000
310
00000000000000000000000000000000000000000000000000000000000000000000000000070000000700000000000000000000000000000000000000000000000000000000000000000000000000000000000000000000000000000000000000000000000000000000000000000000000000000000000000000000000000
310
00000000000000000000000000000000000000000000000000000000000000000000000000000000000000000000000000000000000000000000000000000000000000000000000000000000000000000000000000000000000007070707070000000000000000000000000000000000000000000000000000000000000000
310
00000000000000000000000000000000000000000000000000000000000000000000000000000000000000000000000000000000000000000000000000000000000000000000000000000000000000000000000000000000000000000000000000000000000000000000000000000000000000000000000000000000000000
310
000000000000000000000000000000000000000000000000000000000000000000000000000000000000000000000000000000000000000000000000000000000000000000000000000000000000000000000000000000000000000000000000000000000000000000000000
  0
ENDSEC
  0
EOF
