  0
SECTION
  2
HEADER
  9
$ACADVER
  1
AC1015
  9
$ACADMAINTVER
 70
     6
  9
$DWGCODEPAGE
  3
ANSI_1252
  9
$INSBASE
 10
0.0
 20
0.0
 30
0.0
  9
$EXTMIN
 10
0.0
 20
-0.1885
 30
0.0
  9
$EXTMAX
 10
287.0
 20
235.1885
 30
0.0
  9
$LIMMIN
 10
0.0
 20
0.0
  9
$LIMMAX
 10
12.0
 20
9.0
  9
$ORTHOMODE
 70
     0
  9
$REGENMODE
 70
     1
  9
$FILLMODE
 70
     1
  9
$QTEXTMODE
 70
     0
  9
$MIRRTEXT
 70
     1
  9
$LTSCALE
 40
1.0
  9
$ATTMODE
 70
     1
  9
$TEXTSIZE
 40
0.2
  9
$TRACEWID
 40
0.05
  9
$TEXTSTYLE
  7
Standard
  9
$CLAYER
  8
0
  9
$CELTYPE
  6
ByBlock
  9
$CECOLOR
 62
   256
  9
$CELTSCALE
 40
1.0
  9
$DISPSILH
 70
     0
  9
$DIMSCALE
 40
1.0
  9
$DIMASZ
 40
0.18
  9
$DIMEXO
 40
0.0625
  9
$DIMDLI
 40
0.38
  9
$DIMRND
 40
0.0
  9
$DIMDLE
 40
0.0
  9
$DIMEXE
 40
0.18
  9
$DIMTP
 40
0.0
  9
$DIMTM
 40
0.0
  9
$DIMTXT
 40
0.18
  9
$DIMCEN
 40
0.09
  9
$DIMTSZ
 40
0.0
  9
$DIMTOL
 70
     0
  9
$DIMLIM
 70
     0
  9
$DIMTIH
 70
     1
  9
$DIMTOH
 70
     1
  9
$DIMSE1
 70
     0
  9
$DIMSE2
 70
     0
  9
$DIMTAD
 70
     0
  9
$DIMZIN
 70
     0
  9
$DIMBLK
  1

  9
$DIMASO
 70
     1
  9
$DIMSHO
 70
     1
  9
$DIMPOST
  1

  9
$DIMAPOST
  1

  9
$DIMALT
 70
     0
  9
$DIMALTD
 70
     2
  9
$DIMALTF
 40
25.4
  9
$DIMLFAC
 40
1.0
  9
$DIMTOFL
 70
     0
  9
$DIMTVP
 40
0.0
  9
$DIMTIX
 70
     0
  9
$DIMSOXD
 70
     0
  9
$DIMSAH
 70
     0
  9
$DIMBLK1
  1

  9
$DIMBLK2
  1

  9
$DIMSTYLE
  2
Standard
  9
$DIMCLRD
 70
     0
  9
$DIMCLRE
 70
     0
  9
$DIMCLRT
 70
     0
  9
$DIMTFAC
 40
1.0
  9
$DIMGAP
 40
0.09
  9
$DIMJUST
 70
     0
  9
$DIMSD1
 70
     0
  9
$DIMSD2
 70
     0
  9
$DIMTOLJ
 70
     1
  9
$DIMTZIN
 70
     0
  9
$DIMALTZ
 70
     0
  9
$DIMALTTZ
 70
     0
  9
$DIMUPT
 70
     0
  9
$DIMDEC
 70
     4
  9
$DIMTDEC
 70
     4
  9
$DIMALTU
 70
     2
  9
$DIMALTTD
 70
     2
  9
$DIMTXSTY
  7
Standard
  9
$DIMAUNIT
 70
     0
  9
$DIMADEC
 70
     0
  9
$DIMALTRND
 40
0.0
  9
$DIMAZIN
 70
     0
  9
$DIMDSEP
 70
    46
  9
$DIMATFIT
 70
     3
  9
$DIMFRAC
 70
     0
  9
$DIMLDRBLK
  1

  9
$DIMLUNIT
 70
     2
  9
$DIMLWD
 70
    -2
  9
$DIMLWE
 70
    -2
  9
$DIMTMOVE
 70
     2
  9
$LUNITS
 70
     2
  9
$LUPREC
 70
     4
  9
$SKETCHINC
 40
0.1
  9
$FILLETRAD
 40
0.5
  9
$AUNITS
 70
     0
  9
$AUPREC
 70
     0
  9
$MENU
  1
.
  9
$ELEVATION
 40
0.0
  9
$PELEVATION
 40
0.0
  9
$THICKNESS
 40
0.0
  9
$LIMCHECK
 70
     0
  9
$CHAMFERA
 40
0.5
  9
$CHAMFERB
 40
0.5
  9
$CHAMFERC
 40
1.0
  9
$CHAMFERD
 40
0.0
  9
$SKPOLY
 70
     0
  9
$TDCREATE
 40
2456646.661156678
  9
$TDUCREATE
 40
2456646.619490012
  9
$TDUPDATE
 40
2456646.663319942
  9
$TDUUPDATE
 40
2456646.621653276
  9
$TDINDWG
 40
0.0021629167
  9
$TDUSRTIMER
 40
0.0021629167
  9
$USRTIMER
 70
     1
  9
$ANGBASE
 50
0.0
  9
$ANGDIR
 70
     0
  9
$PDMODE
 70
     0
  9
$PDSIZE
 40
0.0
  9
$PLINEWID
 40
0.0
  9
$SPLFRAME
 70
     0
  9
$SPLINETYPE
 70
     6
  9
$SPLINESEGS
 70
     8
  9
$HANDSEED
  5
B69
  9
$SURFTAB1
 70
     6
  9
$SURFTAB2
 70
     6
  9
$SURFTYPE
 70
     6
  9
$SURFU
 70
     6
  9
$SURFV
 70
     6
  9
$UCSBASE
  2

  9
$UCSNAME
  2

  9
$UCSORG
 10
0.0
 20
0.0
 30
0.0
  9
$UCSXDIR
 10
1.0
 20
0.0
 30
0.0
  9
$UCSYDIR
 10
0.0
 20
1.0
 30
0.0
  9
$UCSORTHOREF
  2

  9
$UCSORTHOVIEW
 70
     0
  9
$UCSORGTOP
 10
0.0
 20
0.0
 30
0.0
  9
$UCSORGBOTTOM
 10
0.0
 20
0.0
 30
0.0
  9
$UCSORGLEFT
 10
0.0
 20
0.0
 30
0.0
  9
$UCSORGRIGHT
 10
0.0
 20
0.0
 30
0.0
  9
$UCSORGFRONT
 10
0.0
 20
0.0
 30
0.0
  9
$UCSORGBACK
 10
0.0
 20
0.0
 30
0.0
  9
$PUCSBASE
  2

  9
$PUCSNAME
  2

  9
$PUCSORG
 10
0.0
 20
0.0
 30
0.0
  9
$PUCSXDIR
 10
1.0
 20
0.0
 30
0.0
  9
$PUCSYDIR
 10
0.0
 20
1.0
 30
0.0
  9
$PUCSORTHOREF
  2

  9
$PUCSORTHOVIEW
 70
     0
  9
$PUCSORGTOP
 10
0.0
 20
0.0
 30
0.0
  9
$PUCSORGBOTTOM
 10
0.0
 20
0.0
 30
0.0
  9
$PUCSORGLEFT
 10
0.0
 20
0.0
 30
0.0
  9
$PUCSORGRIGHT
 10
0.0
 20
0.0
 30
0.0
  9
$PUCSORGFRONT
 10
0.0
 20
0.0
 30
0.0
  9
$PUCSORGBACK
 10
0.0
 20
0.0
 30
0.0
  9
$USERI1
 70
     0
  9
$USERI2
 70
     0
  9
$USERI3
 70
     0
  9
$USERI4
 70
     0
  9
$USERI5
 70
     0
  9
$USERR1
 40
0.0
  9
$USERR2
 40
0.0
  9
$USERR3
 40
0.0
  9
$USERR4
 40
0.0
  9
$USERR5
 40
0.0
  9
$WORLDVIEW
 70
     1
  9
$SHADEDGE
 70
     3
  9
$SHADEDIF
 70
    70
  9
$TILEMODE
 70
     1
  9
$MAXACTVP
 70
    64
  9
$PINSBASE
 10
0.0
 20
0.0
 30
0.0
  9
$PLIMCHECK
 70
     0
  9
$PEXTMIN
 10
1.000000000000E+20
 20
1.000000000000E+20
 30
1.000000000000E+20
  9
$PEXTMAX
 10
-1.000000000000E+20
 20
-1.000000000000E+20
 30
-1.000000000000E+20
  9
$PLIMMIN
 10
0.0
 20
0.0
  9
$PLIMMAX
 10
12.0
 20
9.0
  9
$UNITMODE
 70
     0
  9
$VISRETAIN
 70
     1
  9
$PLINEGEN
 70
     0
  9
$PSLTSCALE
 70
     1
  9
$TREEDEPTH
 70
  3020
  9
$CMLSTYLE
  2
Standard
  9
$CMLJUST
 70
     0
  9
$CMLSCALE
 40
1.0
  9
$PROXYGRAPHICS
 70
     1
  9
$MEASUREMENT
 70
     0
  9
$CELWEIGHT
370
    -1
  9
$ENDCAPS
280
     0
  9
$JOINSTYLE
280
     0
  9
$LWDISPLAY
290
     0
  9
$INSUNITS
 70
     0
  9
$HYPERLINKBASE
  1

  9
$STYLESHEET
  1

  9
$XEDIT
290
     1
  9
$CEPSNTYPE
380
     0
  9
$PSTYLEMODE
290
     1
  9
$FINGERPRINTGUID
  2
{172B7A44-8C59-475D-914B-56CE56DEA393}
  9
$VERSIONGUID
  2
{FAEB1C32-E019-11D5-929B-00C0DF256EC4}
  9
$EXTNAMES
290
     1
  9
$PSVPSCALE
 40
0.0
  9
$OLESTARTUP
290
     0
  0
ENDSEC
  0
SECTION
  2
CLASSES
  0
CLASS
  1
ACDBDICTIONARYWDFLT
  2
AcDbDictionaryWithDefault
  3
ObjectDBX Classes
 90
        0
280
     0
281
     0
  0
CLASS
  1
SCALE
  2
AcDbScale
  3
ObjectDBX Classes
 90
     1153
280
     0
281
     0
  0
CLASS
  1
DICTIONARYVAR
  2
AcDbDictionaryVar
  3
ObjectDBX Classes
 90
        0
280
     0
281
     0
  0
CLASS
  1
ACDBPLACEHOLDER
  2
AcDbPlaceHolder
  3
ObjectDBX Classes
 90
        0
280
     0
281
     0
  0
CLASS
  1
LAYOUT
  2
AcDbLayout
  3
ObjectDBX Classes
 90
        0
280
     0
281
     0
  0
ENDSEC
  0
SECTION
  2
TABLES
  0
TABLE
  2
VPORT
  5
8
330
0
100
AcDbSymbolTable
 70
     1
  0
VPORT
  5
832
330
8
100
AcDbSymbolTableRecord
100
AcDbViewportTableRecord
  2
*Active
 70
     0
 10
0.0
 20
0.0
 11
1.0
 21
1.0
 12
143.5
 22
117.5
 13
0.0
 23
0.0
 14
0.5
 24
0.5
 15
0.5
 25
0.5
 16
0.0
 26
0.0
 36
1.0
 17
0.0
 27
0.0
 37
0.0
 40
240.08454
 41
1.319001386963
 42
50.0
 43
0.0
 44
0.0
 50
0.0
 51
0.0
 71
    16
 72
   100
 73
     1
 74
     3
 75
     0
 76
     0
 77
     0
 78
     0
281
     0
 65
     1
110
0.0
120
0.0
130
0.0
111
1.0
121
0.0
131
0.0
112
0.0
122
1.0
132
0.0
 79
     0
146
0.0
  0
ENDTAB
  0
TABLE
  2
LTYPE
  5
5
330
0
100
AcDbSymbolTable
 70
     1
  0
LTYPE
  5
14
330
5
100
AcDbSymbolTableRecord
100
AcDbLinetypeTableRecord
  2
ByBlock
 70
     0
  3

 72
    65
 73
     0
 40
0.0
  0
LTYPE
  5
15
330
5
100
AcDbSymbolTableRecord
100
AcDbLinetypeTableRecord
  2
ByLayer
 70
     0
  3

 72
    65
 73
     0
 40
0.0
  0
LTYPE
  5
16
330
5
100
AcDbSymbolTableRecord
100
AcDbLinetypeTableRecord
  2
Continuous
 70
     0
  3
Solid line
 72
    65
 73
     0
 40
0.0
  0
ENDTAB
  0
TABLE
  2
LAYER
  5
2
330
0
100
AcDbSymbolTable
 70
     1
  0
LAYER
  5
10
330
2
100
AcDbSymbolTableRecord
100
AcDbLayerTableRecord
  2
0
 70
     0
 62
     7
  6
Continuous
370
    -3
390
F
  0
ENDTAB
  0
TABLE
  2
STYLE
  5
3
330
0
100
AcDbSymbolTable
 70
     1
  0
STYLE
  5
11
330
3
100
AcDbSymbolTableRecord
100
AcDbTextStyleTableRecord
  2
Standard
 70
     0
 40
0.0
 41
1.0
 50
0.0
 71
     0
 42
0.2
  3
txt
  4

  0
ENDTAB
  0
TABLE
  2
VIEW
  5
6
330
0
100
AcDbSymbolTable
 70
     0
  0
ENDTAB
  0
TABLE
  2
UCS
  5
7
330
0
100
AcDbSymbolTable
 70
     0
  0
ENDTAB
  0
TABLE
  2
APPID
  5
9
330
0
100
AcDbSymbolTable
 70
     1
  0
APPID
  5
12
330
9
100
AcDbSymbolTableRecord
100
AcDbRegAppTableRecord
  2
ACAD
 70
     0
  0
ENDTAB
  0
TABLE
  2
DIMSTYLE
  5
A
330
0
100
AcDbSymbolTable
 70
     1
100
AcDbDimStyleTable
  0
DIMSTYLE
105
20
330
A
100
AcDbSymbolTableRecord
100
AcDbDimStyleTableRecord
  2
Standard
 70
     0
340
11
  0
ENDTAB
  0
TABLE
  2
BLOCK_RECORD
  5
1
330
0
100
AcDbSymbolTable
 70
     1
  0
BLOCK_RECORD
  5
1D
330
1
100
AcDbSymbolTableRecord
100
AcDbBlockTableRecord
  2
*Model_Space
340
1E
  0
BLOCK_RECORD
  5
1B
330
1
100
AcDbSymbolTableRecord
100
AcDbBlockTableRecord
  2
*Paper_Space
340
1C
  0
ENDTAB
  0
ENDSEC
  0
SECTION
  2
BLOCKS
  0
BLOCK
  5
835
330
1D
100
AcDbEntity
  8
0
100
AcDbBlockBegin
  2
*Model_Space
 70
     0
 10
0.0
 20
0.0
 30
0.0
  3
*Model_Space
  1
*Model_Space
  0
ENDBLK
  5
836
330
1D
100
AcDbEntity
  8
0
100
AcDbBlockEnd
  0
BLOCK
  5
833
330
1B
100
AcDbEntity
 67
     1
  8
0
100
AcDbBlockBegin
  2
*Paper_Space
 70
     0
 10
0.0
 20
0.0
 30
0.0
  3
*Paper_Space
  1
*Paper_Space
  0
ENDBLK
  5
834
330
1B
100
AcDbEntity
 67
     1
  8
0
100
AcDbBlockEnd
  0
ENDSEC
  0
SECTION
  2
ENTITIES
  0
LINE
  5
21
330
1D
100
AcDbEntity
  8
0
100
AcDbLine
 10
141.87
 20
67.1885
 30
0.0
 11
142.701
 21
67.1885
 31
0.0
  0
LINE
  5
22
330
1D
100
AcDbEntity
  8
0
100
AcDbLine
 10
141.625
 20
67.1885
 30
0.0
 11
141.87
 21
67.1885
 31
0.0
  0
LINE
  5
23
330
1D
100
AcDbEntity
  8
0
100
AcDbLine
 10
142.701
 20
67.1885
 30
0.0
 11
143.98
 21
67.1885
 31
0.0
  0
LINE
  5
24
330
1D
100
AcDbEntity
  8
0
100
AcDbLine
 10
143.368
 20
67.1885
 30
0.0
 11
144.436
 21
67.1885
 31
0.0
  0
LINE
  5
25
330
1D
100
AcDbEntity
  8
0
100
AcDbLine
 10
142.942
 20
67.1885
 30
0.0
 11
143.129
 21
67.1885
 31
0.0
  0
LINE
  5
26
330
1D
100
AcDbEntity
  8
0
100
AcDbLine
 10
142.942
 20
67.1885
 30
0.0
 11
143.368
 21
67.1885
 31
0.0
  0
LINE
  5
27
330
1D
100
AcDbEntity
  8
0
100
AcDbLine
 10
143.129
 20
67.1885
 30
0.0
 11
143.791
 21
67.1885
 31
0.0
  0
LINE
  5
28
330
1D
100
AcDbEntity
  8
0
100
AcDbLine
 10
143.791
 20
67.1885
 30
0.0
 11
143.98
 21
67.1885
 31
0.0
  0
LINE
  5
29
330
1D
100
AcDbEntity
  8
0
100
AcDbLine
 10
113.452
 20
75.1995
 30
0.0
 11
114.622
 21
75.5605
 31
0.0
  0
LINE
  5
2A
330
1D
100
AcDbEntity
  8
0
100
AcDbLine
 10
112.963
 20
74.5995
 30
0.0
 11
113.257
 21
73.8035
 31
0.0
  0
LINE
  5
2B
330
1D
100
AcDbEntity
  8
0
100
AcDbLine
 10
112.963
 20
74.5995
 30
0.0
 11
113.452
 21
75.1995
 31
0.0
  0
LINE
  5
2C
330
1D
100
AcDbEntity
  8
0
100
AcDbLine
 10
112.963
 20
74.5995
 30
0.0
 11
117.765
 21
93.3485
 31
0.0
  0
LINE
  5
2D
330
1D
100
AcDbEntity
  8
0
100
AcDbLine
 10
114.622
 20
75.5605
 30
0.0
 11
116.352
 21
75.6955
 31
0.0
  0
LINE
  5
2E
330
1D
100
AcDbEntity
  8
0
100
AcDbLine
 10
114.484
 20
74.2195
 30
0.0
 11
114.736
 21
73.5375
 31
0.0
  0
LINE
  5
2F
330
1D
100
AcDbEntity
  8
0
100
AcDbLine
 10
114.484
 20
74.2195
 30
0.0
 11
114.902
 21
74.7345
 31
0.0
  0
LINE
  5
30
330
1D
100
AcDbEntity
  8
0
100
AcDbLine
 10
113.257
 20
73.8035
 30
0.0
 11
114.252
 21
72.9025
 31
0.0
  0
LINE
  5
31
330
1D
100
AcDbEntity
  8
0
100
AcDbLine
 10
114.902
 20
74.7345
 30
0.0
 11
115.905
 21
75.0435
 31
0.0
  0
LINE
  5
32
330
1D
100
AcDbEntity
  8
0
100
AcDbLine
 10
114.736
 20
73.5375
 30
0.0
 11
115.588
 21
72.7655
 31
0.0
  0
LINE
  5
33
330
1D
100
AcDbEntity
  8
0
100
AcDbLine
 10
114.252
 20
72.9025
 30
0.0
 11
115.829
 21
71.9415
 31
0.0
  0
LINE
  5
34
330
1D
100
AcDbEntity
  8
0
100
AcDbLine
 10
116.352
 20
75.6955
 30
0.0
 11
118.604
 21
75.5605
 31
0.0
  0
LINE
  5
35
330
1D
100
AcDbEntity
  8
0
100
AcDbLine
 10
115.905
 20
75.0435
 30
0.0
 11
117.388
 21
75.1595
 31
0.0
  0
LINE
  5
36
330
1D
100
AcDbEntity
  8
0
100
AcDbLine
 10
115.588
 20
72.7655
 30
0.0
 11
116.94
 21
71.9415
 31
0.0
  0
LINE
  5
37
330
1D
100
AcDbEntity
  8
0
100
AcDbLine
 10
115.829
 20
71.9415
 30
0.0
 11
117.967
 21
70.9815
 31
0.0
  0
LINE
  5
38
330
1D
100
AcDbEntity
  8
0
100
AcDbLine
 10
120.455
 20
70.0805
 30
0.0
 11
123.237
 21
69.2845
 31
0.0
  0
LINE
  5
39
330
1D
100
AcDbEntity
  8
0
100
AcDbLine
 10
117.967
 20
70.9815
 30
0.0
 11
120.455
 21
70.0805
 31
0.0
  0
LINE
  5
3A
330
1D
100
AcDbEntity
  8
0
100
AcDbLine
 10
123.237
 20
69.2845
 30
0.0
 11
126.047
 21
68.6835
 31
0.0
  0
LINE
  5
3B
330
1D
100
AcDbEntity
  8
0
100
AcDbLine
 10
130.863
 20
68.1885
 30
0.0
 11
132.593
 21
68.3235
 31
0.0
  0
LINE
  5
3C
330
1D
100
AcDbEntity
  8
0
100
AcDbLine
 10
132.593
 20
68.3235
 30
0.0
 11
133.763
 21
68.6835
 31
0.0
  0
LINE
  5
3D
330
1D
100
AcDbEntity
  8
0
100
AcDbLine
 10
129.827
 20
68.7245
 30
0.0
 11
131.309
 21
68.8405
 31
0.0
  0
LINE
  5
3E
330
1D
100
AcDbEntity
  8
0
100
AcDbLine
 10
131.309
 20
68.8405
 30
0.0
 11
132.312
 21
69.1495
 31
0.0
  0
LINE
  5
3F
330
1D
100
AcDbEntity
  8
0
100
AcDbLine
 10
133.763
 20
68.6835
 30
0.0
 11
134.251
 21
69.2845
 31
0.0
  0
LINE
  5
40
330
1D
100
AcDbEntity
  8
0
100
AcDbLine
 10
128.611
 20
68.3235
 30
0.0
 11
130.863
 21
68.1885
 31
0.0
  0
LINE
  5
41
330
1D
100
AcDbEntity
  8
0
100
AcDbLine
 10
126.047
 20
68.6835
 30
0.0
 11
128.611
 21
68.3235
 31
0.0
  0
LINE
  5
42
330
1D
100
AcDbEntity
  8
0
100
AcDbLine
 10
134.251
 20
69.2845
 30
0.0
 11
139.053
 21
88.0345
 31
0.0
  0
LINE
  5
43
330
1D
100
AcDbEntity
  8
0
100
AcDbLine
 10
132.312
 20
69.1495
 30
0.0
 11
132.731
 21
69.6645
 31
0.0
  0
LINE
  5
44
330
1D
100
AcDbEntity
  8
0
100
AcDbLine
 10
127.896
 20
68.8405
 30
0.0
 11
129.827
 21
68.7245
 31
0.0
  0
LINE
  5
45
330
1D
100
AcDbEntity
  8
0
100
AcDbLine
 10
125.699
 20
69.1495
 30
0.0
 11
127.896
 21
68.8405
 31
0.0
  0
LINE
  5
46
330
1D
100
AcDbEntity
  8
0
100
AcDbLine
 10
132.479
 20
70.3465
 30
0.0
 11
132.731
 21
69.6645
 31
0.0
  0
LINE
  5
47
330
1D
100
AcDbEntity
  8
0
100
AcDbLine
 10
131.626
 20
71.1185
 30
0.0
 11
132.479
 21
70.3465
 31
0.0
  0
LINE
  5
48
330
1D
100
AcDbEntity
  8
0
100
AcDbLine
 10
133.958
 20
70.0805
 30
0.0
 11
134.251
 21
69.2845
 31
0.0
  0
LINE
  5
49
330
1D
100
AcDbEntity
  8
0
100
AcDbLine
 10
132.963
 20
70.9815
 30
0.0
 11
133.958
 21
70.0805
 31
0.0
  0
LINE
  5
4A
330
1D
100
AcDbEntity
  8
0
100
AcDbLine
 10
123.29
 20
69.6645
 30
0.0
 11
125.699
 21
69.1495
 31
0.0
  0
LINE
  5
4B
330
1D
100
AcDbEntity
  8
0
100
AcDbLine
 10
120.905
 20
70.3465
 30
0.0
 11
123.29
 21
69.6645
 31
0.0
  0
LINE
  5
4C
330
1D
100
AcDbEntity
  8
0
100
AcDbLine
 10
118.604
 20
75.5605
 30
0.0
 11
121.168
 21
75.1995
 31
0.0
  0
LINE
  5
4D
330
1D
100
AcDbEntity
  8
0
100
AcDbLine
 10
117.388
 20
75.1595
 30
0.0
 11
119.319
 21
75.0435
 31
0.0
  0
LINE
  5
4E
330
1D
100
AcDbEntity
  8
0
100
AcDbLine
 10
121.168
 20
75.1995
 30
0.0
 11
123.977
 21
74.5995
 31
0.0
  0
LINE
  5
4F
330
1D
100
AcDbEntity
  8
0
100
AcDbLine
 10
119.319
 20
75.0435
 30
0.0
 11
121.516
 21
74.7345
 31
0.0
  0
LINE
  5
50
330
1D
100
AcDbEntity
  8
0
100
AcDbLine
 10
121.516
 20
74.7345
 30
0.0
 11
123.924
 21
74.2195
 31
0.0
  0
LINE
  5
51
330
1D
100
AcDbEntity
  8
0
100
AcDbLine
 10
123.977
 20
74.5995
 30
0.0
 11
126.76
 21
73.8035
 31
0.0
  0
LINE
  5
52
330
1D
100
AcDbEntity
  8
0
100
AcDbLine
 10
126.76
 20
73.8035
 30
0.0
 11
129.248
 21
72.9025
 31
0.0
  0
LINE
  5
53
330
1D
100
AcDbEntity
  8
0
100
AcDbLine
 10
123.924
 20
74.2195
 30
0.0
 11
126.31
 21
73.5375
 31
0.0
  0
LINE
  5
54
330
1D
100
AcDbEntity
  8
0
100
AcDbLine
 10
126.31
 20
73.5375
 30
0.0
 11
128.442
 21
72.7655
 31
0.0
  0
LINE
  5
55
330
1D
100
AcDbEntity
  8
0
100
AcDbLine
 10
130.274
 20
71.9415
 30
0.0
 11
131.626
 21
71.1185
 31
0.0
  0
LINE
  5
56
330
1D
100
AcDbEntity
  8
0
100
AcDbLine
 10
131.386
 20
71.9415
 30
0.0
 11
132.963
 21
70.9815
 31
0.0
  0
LINE
  5
57
330
1D
100
AcDbEntity
  8
0
100
AcDbLine
 10
129.248
 20
72.9025
 30
0.0
 11
131.386
 21
71.9415
 31
0.0
  0
LINE
  5
58
330
1D
100
AcDbEntity
  8
0
100
AcDbLine
 10
128.442
 20
72.7655
 30
0.0
 11
130.274
 21
71.9415
 31
0.0
  0
LINE
  5
59
330
1D
100
AcDbEntity
  8
0
100
AcDbLine
 10
118.773
 20
71.1185
 30
0.0
 11
120.905
 21
70.3465
 31
0.0
  0
LINE
  5
5A
330
1D
100
AcDbEntity
  8
0
100
AcDbLine
 10
116.94
 20
71.9415
 30
0.0
 11
118.773
 21
71.1185
 31
0.0
  0
LINE
  5
5B
330
1D
100
AcDbEntity
  8
0
100
AcDbLine
 10
31.0
 20
87.1885
 30
0.0
 11
31.36
 21
87.1885
 31
0.0
  0
LINE
  5
5D
330
1D
100
AcDbEntity
  8
0
100
AcDbLine
 10
31.36
 20
87.1885
 30
0.0
 11
32.32
 21
87.1885
 31
0.0
  0
LINE
  5
5E
330
1D
100
AcDbEntity
  8
0
100
AcDbLine
 10
32.32
 20
87.1885
 30
0.0
 11
33.92
 21
87.1885
 31
0.0
  0
LINE
  5
5F
330
1D
100
AcDbEntity
  8
0
100
AcDbLine
 10
33.92
 20
87.1885
 30
0.0
 11
36.04
 21
87.1885
 31
0.0
  0
LINE
  5
60
330
1D
100
AcDbEntity
  8
0
100
AcDbLine
 10
36.04
 20
87.1885
 30
0.0
 11
38.44
 21
87.1885
 31
0.0
  0
LINE
  5
69
330
1D
100
AcDbEntity
  8
0
100
AcDbLine
 10
116.115
 20
94.1375
 30
0.0
 11
116.14
 21
94.8865
 31
0.0
  0
LINE
  5
6A
330
1D
100
AcDbEntity
  8
0
100
AcDbLine
 10
116.115
 20
94.1375
 30
0.0
 11
116.447
 21
93.2245
 31
0.0
  0
LINE
  5
6B
330
1D
100
AcDbEntity
  8
0
100
AcDbLine
 10
116.447
 20
93.2245
 30
0.0
 11
116.726
 21
92.8055
 31
0.0
  0
LINE
  5
6C
330
1D
100
AcDbEntity
  8
0
100
AcDbLine
 10
123.406
 20
94.3095
 30
0.0
 11
125.969
 21
93.9495
 31
0.0
  0
LINE
  5
6D
330
1D
100
AcDbEntity
  8
0
100
AcDbLine
 10
119.423
 20
94.3095
 30
0.0
 11
121.153
 21
94.4445
 31
0.0
  0
LINE
  5
6E
330
1D
100
AcDbEntity
  8
0
100
AcDbLine
 10
118.253
 20
93.9495
 30
0.0
 11
119.423
 21
94.3095
 31
0.0
  0
LINE
  5
6F
330
1D
100
AcDbEntity
  8
0
100
AcDbLine
 10
117.765
 20
93.3485
 30
0.0
 11
118.253
 21
93.9495
 31
0.0
  0
LINE
  5
70
330
1D
100
AcDbEntity
  8
0
100
AcDbLine
 10
116.726
 20
92.8055
 30
0.0
 11
117.453744178299
 21
92.133228154711
 31
0.0
  0
LINE
  5
71
330
1D
100
AcDbEntity
  8
0
100
AcDbLine
 10
116.726
 20
92.8055
 30
0.0
 11
117.453744178299
 21
92.133228154711
 31
0.0
  0
LINE
  5
72
330
1D
100
AcDbEntity
  8
0
100
AcDbLine
 10
121.153
 20
94.4445
 30
0.0
 11
123.406
 21
94.3095
 31
0.0
  0
LINE
  5
73
330
1D
100
AcDbEntity
  8
0
100
AcDbLine
 10
118.244
 20
94.7755
 30
0.0
 11
120.212
 21
94.9315
 31
0.0
  0
LINE
  5
74
330
1D
100
AcDbEntity
  8
0
100
AcDbLine
 10
116.942
 20
94.3575
 30
0.0
 11
118.244
 21
94.7755
 31
0.0
  0
LINE
  5
75
330
1D
100
AcDbEntity
  8
0
100
AcDbLine
 10
116.39
 20
93.6925
 30
0.0
 11
116.942
 21
94.3575
 31
0.0
  0
LINE
  5
76
330
1D
100
AcDbEntity
  8
0
100
AcDbLine
 10
116.39
 20
93.6925
 30
0.0
 11
116.726
 21
92.8055
 31
0.0
  0
LINE
  5
250
330
1D
100
AcDbEntity
  8
0
100
AcDbLine
 10
21.0
 20
175.3355
 30
0.0
 11
21.0
 21
170.3355
 31
0.0
  0
LINE
  5
251
330
1D
100
AcDbEntity
  8
0
100
AcDbLine
 10
21.0
 20
175.3355
 30
0.0
 11
21.216
 21
175.3355
 31
0.0
  0
LINE
  5
252
330
1D
100
AcDbEntity
  8
0
100
AcDbLine
 10
21.0
 20
170.3355
 30
0.0
 11
21.216
 21
170.3355
 31
0.0
  0
LINE
  5
253
330
1D
100
AcDbEntity
  8
0
100
AcDbLine
 10
21.0
 20
170.3355
 30
0.0
 11
21.0
 21
175.3355
 31
0.0
  0
LINE
  5
254
330
1D
100
AcDbEntity
  8
0
100
AcDbLine
 10
21.216
 20
170.3355
 30
0.0
 11
21.792
 21
170.3355
 31
0.0
  0
LINE
  5
255
330
1D
100
AcDbEntity
  8
0
100
AcDbLine
 10
22.434
 20
166.1885
 30
0.0
 11
22.434
 21
170.1885
 31
0.0
  0
LINE
  5
256
330
1D
100
AcDbEntity
  8
0
100
AcDbLine
 10
22.48
 20
166.1885
 30
0.0
 11
22.63
 21
166.1885
 31
0.0
  0
LINE
  5
257
330
1D
100
AcDbEntity
  8
0
100
AcDbLine
 10
22.63
 20
166.1885
 30
0.0
 11
22.875
 21
166.1885
 31
0.0
  0
LINE
  5
258
330
1D
100
AcDbEntity
  8
0
100
AcDbLine
 10
22.482
 20
166.1885
 30
0.0
 11
22.633
 21
166.1885
 31
0.0
  0
LINE
  5
259
330
1D
100
AcDbEntity
  8
0
100
AcDbLine
 10
22.633
 20
166.1885
 30
0.0
 11
22.865
 21
166.1885
 31
0.0
  0
LINE
  5
25A
330
1D
100
AcDbEntity
  8
0
100
AcDbLine
 10
22.875
 20
166.1885
 30
0.0
 11
23.185
 21
166.1885
 31
0.0
  0
LINE
  5
25B
330
1D
100
AcDbEntity
  8
0
100
AcDbLine
 10
23.185
 20
166.1885
 30
0.0
 11
23.542
 21
166.1885
 31
0.0
  0
LINE
  5
25C
330
1D
100
AcDbEntity
  8
0
100
AcDbLine
 10
23.542
 20
166.1885
 30
0.0
 11
23.927
 21
166.1885
 31
0.0
  0
LINE
  5
25D
330
1D
100
AcDbEntity
  8
0
100
AcDbLine
 10
22.865
 20
166.1885
 30
0.0
 11
23.179
 21
166.1885
 31
0.0
  0
LINE
  5
25E
330
1D
100
AcDbEntity
  8
0
100
AcDbLine
 10
22.434
 20
170.1885
 30
0.0
 11
22.434
 21
166.1885
 31
0.0
  0
LINE
  5
25F
330
1D
100
AcDbEntity
  8
0
100
AcDbLine
 10
22.48
 20
170.1885
 30
0.0
 11
22.63
 21
170.1885
 31
0.0
  0
LINE
  5
260
330
1D
100
AcDbEntity
  8
0
100
AcDbLine
 10
22.63
 20
170.1885
 30
0.0
 11
22.875
 21
170.1885
 31
0.0
  0
LINE
  5
261
330
1D
100
AcDbEntity
  8
0
100
AcDbLine
 10
22.875
 20
170.1885
 30
0.0
 11
23.185
 21
170.1885
 31
0.0
  0
LINE
  5
262
330
1D
100
AcDbEntity
  8
0
100
AcDbLine
 10
23.185
 20
170.1885
 30
0.0
 11
23.542
 21
170.1885
 31
0.0
  0
LINE
  5
263
330
1D
100
AcDbEntity
  8
0
100
AcDbLine
 10
23.542
 20
170.1885
 30
0.0
 11
23.927
 21
170.1885
 31
0.0
  0
LINE
  5
264
330
1D
100
AcDbEntity
  8
0
100
AcDbLine
 10
23.179
 20
166.1885
 30
0.0
 11
23.549
 21
166.1885
 31
0.0
  0
LINE
  5
265
330
1D
100
AcDbEntity
  8
0
100
AcDbLine
 10
23.549
 20
166.1885
 30
0.0
 11
23.934
 21
166.1885
 31
0.0
  0
LINE
  5
266
330
1D
100
AcDbEntity
  8
0
100
AcDbLine
 10
22.933
 20
170.3355
 30
0.0
 11
22.933
 21
170.1885
 31
0.0
  0
LINE
  5
267
330
1D
100
AcDbEntity
  8
0
100
AcDbLine
 10
22.933
 20
170.1885
 30
0.0
 11
22.933
 21
170.3355
 31
0.0
  0
LINE
  5
268
330
1D
100
AcDbEntity
  8
0
100
AcDbLine
 10
21.792
 20
170.3355
 30
0.0
 11
22.752
 21
170.3355
 31
0.0
  0
LINE
  5
269
330
1D
100
AcDbEntity
  8
0
100
AcDbLine
 10
21.216
 20
175.3355
 30
0.0
 11
21.792
 21
175.3355
 31
0.0
  0
LINE
  5
26A
330
1D
100
AcDbEntity
  8
0
100
AcDbLine
 10
21.792
 20
175.3355
 30
0.0
 11
22.752
 21
175.3355
 31
0.0
  0
LINE
  5
26B
330
1D
100
AcDbEntity
  8
0
100
AcDbLine
 10
22.752
 20
175.3355
 30
0.0
 11
24.024
 21
175.3355
 31
0.0
  0
LINE
  5
26C
330
1D
100
AcDbEntity
  8
0
100
AcDbLine
 10
22.933
 20
179.1885
 30
0.0
 11
22.933
 21
175.3355
 31
0.0
  0
LINE
  5
26D
330
1D
100
AcDbEntity
  8
0
100
AcDbLine
 10
22.933
 20
175.3355
 30
0.0
 11
22.933
 21
179.1885
 31
0.0
  0
LINE
  5
26E
330
1D
100
AcDbEntity
  8
0
100
AcDbLine
 10
22.752
 20
170.3355
 30
0.0
 11
22.933
 21
170.3355
 31
0.0
  0
LINE
  5
26F
330
1D
100
AcDbEntity
  8
0
100
AcDbLine
 10
22.752
 20
170.3355
 30
0.0
 11
24.024
 21
170.3355
 31
0.0
  0
LINE
  5
270
330
1D
100
AcDbEntity
  8
0
100
AcDbLine
 10
21.0
 20
179.1885
 30
0.0
 11
21.72
 21
179.1885
 31
0.0
  0
LINE
  5
271
330
1D
100
AcDbEntity
  8
0
100
AcDbLine
 10
21.0
 20
179.1885
 30
0.0
 11
21.0
 21
181.1885
 31
0.0
  0
LINE
  5
272
330
1D
100
AcDbEntity
  8
0
100
AcDbLine
 10
21.72
 20
179.1885
 30
0.0
 11
23.64
 21
179.1885
 31
0.0
  0
LINE
  5
273
330
1D
100
AcDbEntity
  8
0
100
AcDbLine
 10
21.72
 20
179.1885
 30
0.0
 11
22.933
 21
179.1885
 31
0.0
  0
LINE
  5
274
330
1D
100
AcDbEntity
  8
0
100
AcDbLine
 10
23.927
 20
166.1885
 30
0.0
 11
24.312
 21
166.1885
 31
0.0
  0
LINE
  5
275
330
1D
100
AcDbEntity
  8
0
100
AcDbLine
 10
23.927
 20
170.1885
 30
0.0
 11
24.312
 21
170.1885
 31
0.0
  0
LINE
  5
276
330
1D
100
AcDbEntity
  8
0
100
AcDbLine
 10
24.312
 20
166.1885
 30
0.0
 11
24.681
 21
166.1885
 31
0.0
  0
LINE
  5
277
330
1D
100
AcDbEntity
  8
0
100
AcDbLine
 10
24.681
 20
166.1885
 30
0.0
 11
24.995
 21
166.1885
 31
0.0
  0
LINE
  5
278
330
1D
100
AcDbEntity
  8
0
100
AcDbLine
 10
24.676
 20
166.1885
 30
0.0
 11
24.986
 21
166.1885
 31
0.0
  0
LINE
  5
279
330
1D
100
AcDbEntity
  8
0
100
AcDbLine
 10
24.681
 20
170.1885
 30
0.0
 11
24.995
 21
170.1885
 31
0.0
  0
LINE
  5
27A
330
1D
100
AcDbEntity
  8
0
100
AcDbLine
 10
24.312
 20
170.1885
 30
0.0
 11
24.681
 21
170.1885
 31
0.0
  0
LINE
  5
27B
330
1D
100
AcDbEntity
  8
0
100
AcDbLine
 10
24.319
 20
166.1885
 30
0.0
 11
24.676
 21
166.1885
 31
0.0
  0
LINE
  5
27C
330
1D
100
AcDbEntity
  8
0
100
AcDbLine
 10
23.934
 20
166.1885
 30
0.0
 11
24.319
 21
166.1885
 31
0.0
  0
LINE
  5
27D
330
1D
100
AcDbEntity
  8
0
100
AcDbLine
 10
24.024
 20
170.3355
 30
0.0
 11
25.464
 21
170.3355
 31
0.0
  0
LINE
  5
27E
330
1D
100
AcDbEntity
  8
0
100
AcDbLine
 10
24.928
 20
170.1885
 30
0.0
 11
24.928
 21
170.3355
 31
0.0
  0
LINE
  5
27F
330
1D
100
AcDbEntity
  8
0
100
AcDbLine
 10
25.228
 20
166.1885
 30
0.0
 11
25.379
 21
166.1885
 31
0.0
  0
LINE
  5
280
330
1D
100
AcDbEntity
  8
0
100
AcDbLine
 10
24.995
 20
166.1885
 30
0.0
 11
25.228
 21
166.1885
 31
0.0
  0
LINE
  5
281
330
1D
100
AcDbEntity
  8
0
100
AcDbLine
 10
25.427
 20
166.1885
 30
0.0
 11
25.427
 21
170.1885
 31
0.0
  0
LINE
  5
282
330
1D
100
AcDbEntity
  8
0
100
AcDbLine
 10
25.228
 20
170.1885
 30
0.0
 11
25.379
 21
170.1885
 31
0.0
  0
LINE
  5
283
330
1D
100
AcDbEntity
  8
0
100
AcDbLine
 10
24.995
 20
170.1885
 30
0.0
 11
25.228
 21
170.1885
 31
0.0
  0
LINE
  5
284
330
1D
100
AcDbEntity
  8
0
100
AcDbLine
 10
25.427
 20
170.1885
 30
0.0
 11
25.427
 21
166.1885
 31
0.0
  0
LINE
  5
285
330
1D
100
AcDbEntity
  8
0
100
AcDbLine
 10
25.231
 20
166.1885
 30
0.0
 11
25.381
 21
166.1885
 31
0.0
  0
LINE
  5
286
330
1D
100
AcDbEntity
  8
0
100
AcDbLine
 10
24.986
 20
166.1885
 30
0.0
 11
25.231
 21
166.1885
 31
0.0
  0
LINE
  5
287
330
1D
100
AcDbEntity
  8
0
100
AcDbLine
 10
24.928
 20
170.3355
 30
0.0
 11
25.464
 21
170.3355
 31
0.0
  0
LINE
  5
288
330
1D
100
AcDbEntity
  8
0
100
AcDbLine
 10
24.928
 20
170.3355
 30
0.0
 11
24.928
 21
170.1885
 31
0.0
  0
LINE
  5
289
330
1D
100
AcDbEntity
  8
0
100
AcDbLine
 10
25.464
 20
170.3355
 30
0.0
 11
27.0
 21
170.3355
 31
0.0
  0
LINE
  5
28A
330
1D
100
AcDbEntity
  8
0
100
AcDbLine
 10
25.464
 20
170.3355
 30
0.0
 11
27.112
 21
170.3355
 31
0.0
  0
LINE
  5
28C
330
1D
100
AcDbEntity
  8
0
100
AcDbLine
 10
24.024
 20
175.3355
 30
0.0
 11
25.464
 21
175.3355
 31
0.0
  0
LINE
  5
28D
330
1D
100
AcDbEntity
  8
0
100
AcDbLine
 10
25.464
 20
175.3355
 30
0.0
 11
27.112
 21
175.3355
 31
0.0
  0
LINE
  5
28E
330
1D
100
AcDbEntity
  8
0
100
AcDbLine
 10
24.928
 20
175.3355
 30
0.0
 11
24.928
 21
179.1885
 31
0.0
  0
LINE
  5
28F
330
1D
100
AcDbEntity
  8
0
100
AcDbLine
 10
27.0
 20
175.3355
 30
0.0
 11
27.0
 21
179.1885
 31
0.0
  0
LINE
  5
291
330
1D
100
AcDbEntity
  8
0
100
AcDbLine
 10
27.112
 20
170.3355
 30
0.0
 11
29.672
 21
170.3355
 31
0.0
  0
LINE
  5
292
330
1D
100
AcDbEntity
  8
0
100
AcDbLine
 10
29.672
 20
170.3355
 30
0.0
 11
33.064
 21
170.3355
 31
0.0
  0
LINE
  5
293
330
1D
100
AcDbEntity
  8
0
100
AcDbLine
 10
27.112
 20
175.3355
 30
0.0
 11
29.672
 21
175.3355
 31
0.0
  0
LINE
  5
294
330
1D
100
AcDbEntity
  8
0
100
AcDbLine
 10
29.672
 20
175.3355
 30
0.0
 11
33.064
 21
175.3355
 31
0.0
  0
LINE
  5
295
330
1D
100
AcDbEntity
  8
0
100
AcDbLine
 10
27.0
 20
179.1885
 30
0.0
 11
27.0
 21
175.3355
 31
0.0
  0
LINE
  5
296
330
1D
100
AcDbEntity
  8
0
100
AcDbLine
 10
24.928
 20
179.1885
 30
0.0
 11
26.84
 21
179.1885
 31
0.0
  0
LINE
  5
297
330
1D
100
AcDbEntity
  8
0
100
AcDbLine
 10
24.928
 20
179.1885
 30
0.0
 11
24.928
 21
175.3355
 31
0.0
  0
LINE
  5
298
330
1D
100
AcDbEntity
  8
0
100
AcDbLine
 10
23.64
 20
179.1885
 30
0.0
 11
26.84
 21
179.1885
 31
0.0
  0
LINE
  5
299
330
1D
100
AcDbEntity
  8
0
100
AcDbLine
 10
26.84
 20
179.1885
 30
0.0
 11
31.08
 21
179.1885
 31
0.0
  0
LINE
  5
29A
330
1D
100
AcDbEntity
  8
0
100
AcDbLine
 10
26.84
 20
179.1885
 30
0.0
 11
27.0
 21
179.1885
 31
0.0
  0
LINE
  5
29B
330
1D
100
AcDbEntity
  8
0
100
AcDbLine
 10
33.064
 20
170.3355
 30
0.0
 11
36.904
 21
170.3355
 31
0.0
  0
LINE
  5
29C
330
1D
100
AcDbEntity
  8
0
100
AcDbLine
 10
45.096
 20
170.3355
 30
0.0
 11
48.936
 21
170.3355
 31
0.0
  0
LINE
  5
29D
330
1D
100
AcDbEntity
  8
0
100
AcDbLine
 10
41.0
 20
170.3355
 30
0.0
 11
45.096
 21
170.3355
 31
0.0
  0
LINE
  5
29E
330
1D
100
AcDbEntity
  8
0
100
AcDbLine
 10
45.096
 20
175.3355
 30
0.0
 11
48.936
 21
175.3355
 31
0.0
  0
LINE
  5
29F
330
1D
100
AcDbEntity
  8
0
100
AcDbLine
 10
41.0
 20
175.3355
 30
0.0
 11
45.096
 21
175.3355
 31
0.0
  0
LINE
  5
2A0
330
1D
100
AcDbEntity
  8
0
100
AcDbLine
 10
36.904
 20
170.3355
 30
0.0
 11
41.0
 21
170.3355
 31
0.0
  0
LINE
  5
2A1
330
1D
100
AcDbEntity
  8
0
100
AcDbLine
 10
33.064
 20
175.3355
 30
0.0
 11
36.904
 21
175.3355
 31
0.0
  0
LINE
  5
2A2
330
1D
100
AcDbEntity
  8
0
100
AcDbLine
 10
36.904
 20
175.3355
 30
0.0
 11
41.0
 21
175.3355
 31
0.0
  0
LINE
  5
2A3
330
1D
100
AcDbEntity
  8
0
100
AcDbLine
 10
52.328
 20
170.3355
 30
0.0
 11
54.888
 21
170.3355
 31
0.0
  0
LINE
  5
2A4
330
1D
100
AcDbEntity
  8
0
100
AcDbLine
 10
48.936
 20
170.3355
 30
0.0
 11
52.328
 21
170.3355
 31
0.0
  0
LINE
  5
2A5
330
1D
100
AcDbEntity
  8
0
100
AcDbLine
 10
54.888
 20
170.3355
 30
0.0
 11
56.536
 21
170.3355
 31
0.0
  0
LINE
  5
2A6
330
1D
100
AcDbEntity
  8
0
100
AcDbLine
 10
54.888
 20
175.3355
 30
0.0
 11
56.536
 21
175.3355
 31
0.0
  0
LINE
  5
2A7
330
1D
100
AcDbEntity
  8
0
100
AcDbLine
 10
52.328
 20
175.3355
 30
0.0
 11
54.888
 21
175.3355
 31
0.0
  0
LINE
  5
2A8
330
1D
100
AcDbEntity
  8
0
100
AcDbLine
 10
48.936
 20
175.3355
 30
0.0
 11
52.328
 21
175.3355
 31
0.0
  0
LINE
  5
2AA
330
1D
100
AcDbEntity
  8
0
100
AcDbLine
 10
55.0
 20
170.3355
 30
0.0
 11
56.536
 21
170.3355
 31
0.0
  0
LINE
  5
2AB
330
1D
100
AcDbEntity
  8
0
100
AcDbLine
 10
55.0
 20
175.3355
 30
0.0
 11
55.0
 21
179.1885
 31
0.0
  0
LINE
  5
2AE
330
1D
100
AcDbEntity
  8
0
100
AcDbLine
 10
55.0
 20
179.1885
 30
0.0
 11
55.16
 21
179.1885
 31
0.0
  0
LINE
  5
2AF
330
1D
100
AcDbEntity
  8
0
100
AcDbLine
 10
55.0
 20
179.1885
 30
0.0
 11
55.0
 21
175.3355
 31
0.0
  0
LINE
  5
2B0
330
1D
100
AcDbEntity
  8
0
100
AcDbLine
 10
56.536
 20
170.3355
 30
0.0
 11
57.976
 21
170.3355
 31
0.0
  0
LINE
  5
2B1
330
1D
100
AcDbEntity
  8
0
100
AcDbLine
 10
56.536
 20
170.3355
 30
0.0
 11
57.072
 21
170.3355
 31
0.0
  0
LINE
  5
2B2
330
1D
100
AcDbEntity
  8
0
100
AcDbLine
 10
56.573
 20
166.1885
 30
0.0
 11
56.573
 21
170.1885
 31
0.0
  0
LINE
  5
2B3
330
1D
100
AcDbEntity
  8
0
100
AcDbLine
 10
56.621
 20
166.1885
 30
0.0
 11
56.772
 21
166.1885
 31
0.0
  0
LINE
  5
2B4
330
1D
100
AcDbEntity
  8
0
100
AcDbLine
 10
56.619
 20
166.1885
 30
0.0
 11
56.769
 21
166.1885
 31
0.0
  0
LINE
  5
2B5
330
1D
100
AcDbEntity
  8
0
100
AcDbLine
 10
56.772
 20
166.1885
 30
0.0
 11
57.005
 21
166.1885
 31
0.0
  0
LINE
  5
2B6
330
1D
100
AcDbEntity
  8
0
100
AcDbLine
 10
57.005
 20
166.1885
 30
0.0
 11
57.319
 21
166.1885
 31
0.0
  0
LINE
  5
2B7
330
1D
100
AcDbEntity
  8
0
100
AcDbLine
 10
56.769
 20
166.1885
 30
0.0
 11
57.014
 21
166.1885
 31
0.0
  0
LINE
  5
2B8
330
1D
100
AcDbEntity
  8
0
100
AcDbLine
 10
56.621
 20
170.1885
 30
0.0
 11
56.772
 21
170.1885
 31
0.0
  0
LINE
  5
2B9
330
1D
100
AcDbEntity
  8
0
100
AcDbLine
 10
56.772
 20
170.1885
 30
0.0
 11
57.005
 21
170.1885
 31
0.0
  0
LINE
  5
2BA
330
1D
100
AcDbEntity
  8
0
100
AcDbLine
 10
57.005
 20
170.1885
 30
0.0
 11
57.319
 21
170.1885
 31
0.0
  0
LINE
  5
2BB
330
1D
100
AcDbEntity
  8
0
100
AcDbLine
 10
57.014
 20
166.1885
 30
0.0
 11
57.324
 21
166.1885
 31
0.0
  0
LINE
  5
2BC
330
1D
100
AcDbEntity
  8
0
100
AcDbLine
 10
56.573
 20
170.1885
 30
0.0
 11
56.573
 21
166.1885
 31
0.0
  0
LINE
  5
2BD
330
1D
100
AcDbEntity
  8
0
100
AcDbLine
 10
57.072
 20
170.3355
 30
0.0
 11
57.072
 21
170.1885
 31
0.0
  0
LINE
  5
2BE
330
1D
100
AcDbEntity
  8
0
100
AcDbLine
 10
57.319
 20
166.1885
 30
0.0
 11
57.688
 21
166.1885
 31
0.0
  0
LINE
  5
2BF
330
1D
100
AcDbEntity
  8
0
100
AcDbLine
 10
57.319
 20
170.1885
 30
0.0
 11
57.688
 21
170.1885
 31
0.0
  0
LINE
  5
2C0
330
1D
100
AcDbEntity
  8
0
100
AcDbLine
 10
57.324
 20
166.1885
 30
0.0
 11
57.681
 21
166.1885
 31
0.0
  0
LINE
  5
2C1
330
1D
100
AcDbEntity
  8
0
100
AcDbLine
 10
57.688
 20
166.1885
 30
0.0
 11
58.073
 21
166.1885
 31
0.0
  0
LINE
  5
2C2
330
1D
100
AcDbEntity
  8
0
100
AcDbLine
 10
58.073
 20
166.1885
 30
0.0
 11
58.458
 21
166.1885
 31
0.0
  0
LINE
  5
2C3
330
1D
100
AcDbEntity
  8
0
100
AcDbLine
 10
59.125
 20
166.1885
 30
0.0
 11
59.37
 21
166.1885
 31
0.0
  0
LINE
  5
2C4
330
1D
100
AcDbEntity
  8
0
100
AcDbLine
 10
58.815
 20
166.1885
 30
0.0
 11
59.125
 21
166.1885
 31
0.0
  0
LINE
  5
2C5
330
1D
100
AcDbEntity
  8
0
100
AcDbLine
 10
58.458
 20
166.1885
 30
0.0
 11
58.815
 21
166.1885
 31
0.0
  0
LINE
  5
2C6
330
1D
100
AcDbEntity
  8
0
100
AcDbLine
 10
59.135
 20
166.1885
 30
0.0
 11
59.367
 21
166.1885
 31
0.0
  0
LINE
  5
2C7
330
1D
100
AcDbEntity
  8
0
100
AcDbLine
 10
58.821
 20
166.1885
 30
0.0
 11
59.135
 21
166.1885
 31
0.0
  0
LINE
  5
2C8
330
1D
100
AcDbEntity
  8
0
100
AcDbLine
 10
58.451
 20
166.1885
 30
0.0
 11
58.821
 21
166.1885
 31
0.0
  0
LINE
  5
2C9
330
1D
100
AcDbEntity
  8
0
100
AcDbLine
 10
57.688
 20
170.1885
 30
0.0
 11
58.073
 21
170.1885
 31
0.0
  0
LINE
  5
2CA
330
1D
100
AcDbEntity
  8
0
100
AcDbLine
 10
59.125
 20
170.1885
 30
0.0
 11
59.37
 21
170.1885
 31
0.0
  0
LINE
  5
2CB
330
1D
100
AcDbEntity
  8
0
100
AcDbLine
 10
58.815
 20
170.1885
 30
0.0
 11
59.125
 21
170.1885
 31
0.0
  0
LINE
  5
2CC
330
1D
100
AcDbEntity
  8
0
100
AcDbLine
 10
58.458
 20
170.1885
 30
0.0
 11
58.815
 21
170.1885
 31
0.0
  0
LINE
  5
2CD
330
1D
100
AcDbEntity
  8
0
100
AcDbLine
 10
58.073
 20
170.1885
 30
0.0
 11
58.458
 21
170.1885
 31
0.0
  0
LINE
  5
2CE
330
1D
100
AcDbEntity
  8
0
100
AcDbLine
 10
58.066
 20
166.1885
 30
0.0
 11
58.451
 21
166.1885
 31
0.0
  0
LINE
  5
2CF
330
1D
100
AcDbEntity
  8
0
100
AcDbLine
 10
57.681
 20
166.1885
 30
0.0
 11
58.066
 21
166.1885
 31
0.0
  0
LINE
  5
2D0
330
1D
100
AcDbEntity
  8
0
100
AcDbLine
 10
59.067
 20
170.1885
 30
0.0
 11
59.067
 21
170.3355
 31
0.0
  0
LINE
  5
2D1
330
1D
100
AcDbEntity
  8
0
100
AcDbLine
 10
57.072
 20
170.1885
 30
0.0
 11
57.072
 21
170.3355
 31
0.0
  0
LINE
  5
2D2
330
1D
100
AcDbEntity
  8
0
100
AcDbLine
 10
59.067
 20
170.3355
 30
0.0
 11
59.248
 21
170.3355
 31
0.0
  0
LINE
  5
2D3
330
1D
100
AcDbEntity
  8
0
100
AcDbLine
 10
59.067
 20
170.3355
 30
0.0
 11
59.067
 21
170.1885
 31
0.0
  0
LINE
  5
2D4
330
1D
100
AcDbEntity
  8
0
100
AcDbLine
 10
59.248
 20
170.3355
 30
0.0
 11
60.208
 21
170.3355
 31
0.0
  0
LINE
  5
2D5
330
1D
100
AcDbEntity
  8
0
100
AcDbLine
 10
59.067
 20
175.3355
 30
0.0
 11
59.067
 21
179.1885
 31
0.0
  0
LINE
  5
2D6
330
1D
100
AcDbEntity
  8
0
100
AcDbLine
 10
57.072
 20
175.3355
 30
0.0
 11
57.072
 21
179.1885
 31
0.0
  0
LINE
  5
2D7
330
1D
100
AcDbEntity
  8
0
100
AcDbLine
 10
57.976
 20
170.3355
 30
0.0
 11
59.248
 21
170.3355
 31
0.0
  0
LINE
  5
2D8
330
1D
100
AcDbEntity
  8
0
100
AcDbLine
 10
59.566
 20
166.1885
 30
0.0
 11
59.566
 21
170.1885
 31
0.0
  0
LINE
  5
2D9
330
1D
100
AcDbEntity
  8
0
100
AcDbLine
 10
59.37
 20
166.1885
 30
0.0
 11
59.52
 21
166.1885
 31
0.0
  0
LINE
  5
2DA
330
1D
100
AcDbEntity
  8
0
100
AcDbLine
 10
59.566
 20
170.1885
 30
0.0
 11
59.566
 21
166.1885
 31
0.0
  0
LINE
  5
2DB
330
1D
100
AcDbEntity
  8
0
100
AcDbLine
 10
59.37
 20
170.1885
 30
0.0
 11
59.52
 21
170.1885
 31
0.0
  0
LINE
  5
2DC
330
1D
100
AcDbEntity
  8
0
100
AcDbLine
 10
59.367
 20
166.1885
 30
0.0
 11
59.518
 21
166.1885
 31
0.0
  0
LINE
  5
2DD
330
1D
100
AcDbEntity
  8
0
100
AcDbLine
 10
60.208
 20
170.3355
 30
0.0
 11
60.784
 21
170.3355
 31
0.0
  0
LINE
  5
2DE
330
1D
100
AcDbEntity
  8
0
100
AcDbLine
 10
60.208
 20
175.3355
 30
0.0
 11
60.784
 21
175.3355
 31
0.0
  0
LINE
  5
2DF
330
1D
100
AcDbEntity
  8
0
100
AcDbLine
 10
59.248
 20
175.3355
 30
0.0
 11
60.208
 21
175.3355
 31
0.0
  0
LINE
  5
2E0
330
1D
100
AcDbEntity
  8
0
100
AcDbLine
 10
57.072
 20
179.1885
 30
0.0
 11
57.072
 21
175.3355
 31
0.0
  0
LINE
  5
2E1
330
1D
100
AcDbEntity
  8
0
100
AcDbLine
 10
57.976
 20
175.3355
 30
0.0
 11
59.248
 21
175.3355
 31
0.0
  0
LINE
  5
2E2
330
1D
100
AcDbEntity
  8
0
100
AcDbLine
 10
56.536
 20
175.3355
 30
0.0
 11
57.976
 21
175.3355
 31
0.0
  0
LINE
  5
2E3
330
1D
100
AcDbEntity
  8
0
100
AcDbLine
 10
59.067
 20
179.1885
 30
0.0
 11
60.28
 21
179.1885
 31
0.0
  0
LINE
  5
2E4
330
1D
100
AcDbEntity
  8
0
100
AcDbLine
 10
59.067
 20
179.1885
 30
0.0
 11
59.067
 21
175.3355
 31
0.0
  0
LINE
  5
2E5
330
1D
100
AcDbEntity
  8
0
100
AcDbLine
 10
60.784
 20
170.3355
 30
0.0
 11
61.0
 21
170.3355
 31
0.0
  0
LINE
  5
2E6
330
1D
100
AcDbEntity
  8
0
100
AcDbLine
 10
61.0
 20
170.3355
 30
0.0
 11
61.0
 21
175.3355
 31
0.0
  0
LINE
  5
2E7
330
1D
100
AcDbEntity
  8
0
100
AcDbLine
 10
61.0
 20
175.3355
 30
0.0
 11
61.0
 21
170.3355
 31
0.0
  0
LINE
  5
2E8
330
1D
100
AcDbEntity
  8
0
100
AcDbLine
 10
60.784
 20
175.3355
 30
0.0
 11
61.0
 21
175.3355
 31
0.0
  0
LINE
  5
2EC
330
1D
100
AcDbEntity
  8
0
100
AcDbLine
 10
61.0
 20
179.1885
 30
0.0
 11
61.0
 21
181.1885
 31
0.0
  0
LINE
  5
2ED
330
1D
100
AcDbEntity
  8
0
100
AcDbLine
 10
60.28
 20
179.1885
 30
0.0
 11
61.0
 21
179.1885
 31
0.0
  0
LINE
  5
2EE
330
1D
100
AcDbEntity
  8
0
100
AcDbLine
 10
58.36
 20
179.1885
 30
0.0
 11
60.28
 21
179.1885
 31
0.0
  0
LINE
  5
2EF
330
1D
100
AcDbEntity
  8
0
100
AcDbLine
 10
55.16
 20
179.1885
 30
0.0
 11
58.36
 21
179.1885
 31
0.0
  0
LINE
  5
2F0
330
1D
100
AcDbEntity
  8
0
100
AcDbLine
 10
55.16
 20
179.1885
 30
0.0
 11
57.072
 21
179.1885
 31
0.0
  0
LINE
  5
2F1
330
1D
100
AcDbEntity
  8
0
100
AcDbLine
 10
50.92
 20
179.1885
 30
0.0
 11
55.16
 21
179.1885
 31
0.0
  0
LINE
  5
2F2
330
1D
100
AcDbEntity
  8
0
100
AcDbLine
 10
46.12
 20
179.1885
 30
0.0
 11
50.92
 21
179.1885
 31
0.0
  0
LINE
  5
2F3
330
1D
100
AcDbEntity
  8
0
100
AcDbLine
 10
41.0
 20
179.1885
 30
0.0
 11
46.12
 21
179.1885
 31
0.0
  0
LINE
  5
2F4
330
1D
100
AcDbEntity
  8
0
100
AcDbLine
 10
31.08
 20
179.1885
 30
0.0
 11
35.88
 21
179.1885
 31
0.0
  0
LINE
  5
2F5
330
1D
100
AcDbEntity
  8
0
100
AcDbLine
 10
21.0
 20
181.1885
 30
0.0
 11
21.0
 21
179.1885
 31
0.0
  0
LINE
  5
2F6
330
1D
100
AcDbEntity
  8
0
100
AcDbLine
 10
21.0
 20
181.1885
 30
0.0
 11
21.72
 21
181.1885
 31
0.0
  0
LINE
  5
2F7
330
1D
100
AcDbEntity
  8
0
100
AcDbLine
 10
21.72
 20
181.1885
 30
0.0
 11
23.64
 21
181.1885
 31
0.0
  0
LINE
  5
2F8
330
1D
100
AcDbEntity
  8
0
100
AcDbLine
 10
23.64
 20
181.1885
 30
0.0
 11
26.84
 21
181.1885
 31
0.0
  0
LINE
  5
2F9
330
1D
100
AcDbEntity
  8
0
100
AcDbLine
 10
27.0
 20
181.1885
 30
0.0
 11
27.0
 21
190.1885
 31
0.0
  0
LINE
  5
2FA
330
1D
100
AcDbEntity
  8
0
100
AcDbLine
 10
26.84
 20
181.1885
 30
0.0
 11
31.08
 21
181.1885
 31
0.0
  0
LINE
  5
2FB
330
1D
100
AcDbEntity
  8
0
100
AcDbLine
 10
31.08
 20
181.1885
 30
0.0
 11
35.88
 21
181.1885
 31
0.0
  0
LINE
  5
2FC
330
1D
100
AcDbEntity
  8
0
100
AcDbLine
 10
55.0
 20
181.1885
 30
0.0
 11
55.0
 21
190.1885
 31
0.0
  0
LINE
  5
2FD
330
1D
100
AcDbEntity
  8
0
100
AcDbLine
 10
61.0
 20
181.1885
 30
0.0
 11
61.0
 21
179.1885
 31
0.0
  0
LINE
  5
2FE
330
1D
100
AcDbEntity
  8
0
100
AcDbLine
 10
60.28
 20
181.1885
 30
0.0
 11
61.0
 21
181.1885
 31
0.0
  0
LINE
  5
2FF
330
1D
100
AcDbEntity
  8
0
100
AcDbLine
 10
58.36
 20
181.1885
 30
0.0
 11
60.28
 21
181.1885
 31
0.0
  0
LINE
  5
300
330
1D
100
AcDbEntity
  8
0
100
AcDbLine
 10
55.16
 20
181.1885
 30
0.0
 11
58.36
 21
181.1885
 31
0.0
  0
LINE
  5
301
330
1D
100
AcDbEntity
  8
0
100
AcDbLine
 10
50.92
 20
181.1885
 30
0.0
 11
55.16
 21
181.1885
 31
0.0
  0
LINE
  5
302
330
1D
100
AcDbEntity
  8
0
100
AcDbLine
 10
46.12
 20
181.1885
 30
0.0
 11
50.92
 21
181.1885
 31
0.0
  0
LINE
  5
303
330
1D
100
AcDbEntity
  8
0
100
AcDbLine
 10
41.0
 20
181.1885
 30
0.0
 11
46.12
 21
181.1885
 31
0.0
  0
LINE
  5
304
330
1D
100
AcDbEntity
  8
0
100
AcDbLine
 10
35.88
 20
181.1885
 30
0.0
 11
41.0
 21
181.1885
 31
0.0
  0
LINE
  5
305
330
1D
100
AcDbEntity
  8
0
100
AcDbLine
 10
35.88
 20
179.1885
 30
0.0
 11
41.0
 21
179.1885
 31
0.0
  0
LINE
  5
312
330
1D
100
AcDbEntity
  8
0
100
AcDbLine
 10
20.0
 20
190.1885
 30
0.0
 11
20.756
 21
190.1885
 31
0.0
  0
LINE
  5
313
330
1D
100
AcDbEntity
  8
0
100
AcDbLine
 10
20.0
 20
190.1885
 30
0.0
 11
20.0
 21
191.1885
 31
0.0
  0
LINE
  5
314
330
1D
100
AcDbEntity
  8
0
100
AcDbLine
 10
20.756
 20
190.1885
 30
0.0
 11
22.772
 21
190.1885
 31
0.0
  0
LINE
  5
315
330
1D
100
AcDbEntity
  8
0
100
AcDbLine
 10
22.772
 20
190.1885
 30
0.0
 11
26.132
 21
190.1885
 31
0.0
  0
LINE
  5
316
330
1D
100
AcDbEntity
  8
0
100
AcDbLine
 10
26.132
 20
190.1885
 30
0.0
 11
30.584
 21
190.1885
 31
0.0
  0
LINE
  5
317
330
1D
100
AcDbEntity
  8
0
100
AcDbLine
 10
26.132
 20
190.1885
 30
0.0
 11
27.0
 21
190.1885
 31
0.0
  0
LINE
  5
318
330
1D
100
AcDbEntity
  8
0
100
AcDbLine
 10
30.584
 20
190.1885
 30
0.0
 11
35.624
 21
190.1885
 31
0.0
  0
LINE
  5
319
330
1D
100
AcDbEntity
  8
0
100
AcDbLine
 10
62.0
 20
190.1885
 30
0.0
 11
62.0
 21
191.1885
 31
0.0
  0
LINE
  5
31A
330
1D
100
AcDbEntity
  8
0
100
AcDbLine
 10
61.244
 20
190.1885
 30
0.0
 11
62.0
 21
190.1885
 31
0.0
  0
LINE
  5
31B
330
1D
100
AcDbEntity
  8
0
100
AcDbLine
 10
59.228
 20
190.1885
 30
0.0
 11
61.244
 21
190.1885
 31
0.0
  0
LINE
  5
31C
330
1D
100
AcDbEntity
  8
0
100
AcDbLine
 10
55.868
 20
190.1885
 30
0.0
 11
59.228
 21
190.1885
 31
0.0
  0
LINE
  5
31D
330
1D
100
AcDbEntity
  8
0
100
AcDbLine
 10
51.416
 20
190.1885
 30
0.0
 11
55.868
 21
190.1885
 31
0.0
  0
LINE
  5
31E
330
1D
100
AcDbEntity
  8
0
100
AcDbLine
 10
46.376
 20
190.1885
 30
0.0
 11
51.416
 21
190.1885
 31
0.0
  0
LINE
  5
31F
330
1D
100
AcDbEntity
  8
0
100
AcDbLine
 10
41.0
 20
190.1885
 30
0.0
 11
46.376
 21
190.1885
 31
0.0
  0
LINE
  5
320
330
1D
100
AcDbEntity
  8
0
100
AcDbLine
 10
35.624
 20
190.1885
 30
0.0
 11
41.0
 21
190.1885
 31
0.0
  0
LINE
  5
321
330
1D
100
AcDbEntity
  8
0
100
AcDbLine
 10
55.0
 20
190.1885
 30
0.0
 11
55.0
 21
181.1885
 31
0.0
  0
LINE
  5
322
330
1D
100
AcDbEntity
  8
0
100
AcDbLine
 10
55.0
 20
190.1885
 30
0.0
 11
55.868
 21
190.1885
 31
0.0
  0
LINE
  5
323
330
1D
100
AcDbEntity
  8
0
100
AcDbLine
 10
27.0
 20
190.1885
 30
0.0
 11
27.0
 21
181.1885
 31
0.0
  0
LINE
  5
324
330
1D
100
AcDbEntity
  8
0
100
AcDbLine
 10
20.0
 20
191.1885
 30
0.0
 11
20.756
 21
191.1885
 31
0.0
  0
LINE
  5
325
330
1D
100
AcDbEntity
  8
0
100
AcDbLine
 10
20.0
 20
191.1885
 30
0.0
 11
20.0
 21
190.1885
 31
0.0
  0
LINE
  5
326
330
1D
100
AcDbEntity
  8
0
100
AcDbLine
 10
20.756
 20
191.1885
 30
0.0
 11
22.772
 21
191.1885
 31
0.0
  0
LINE
  5
327
330
1D
100
AcDbEntity
  8
0
100
AcDbLine
 10
22.772
 20
191.1885
 30
0.0
 11
26.132
 21
191.1885
 31
0.0
  0
LINE
  5
328
330
1D
100
AcDbEntity
  8
0
100
AcDbLine
 10
26.132
 20
191.1885
 30
0.0
 11
30.584
 21
191.1885
 31
0.0
  0
LINE
  5
329
330
1D
100
AcDbEntity
  8
0
100
AcDbLine
 10
30.584
 20
191.1885
 30
0.0
 11
35.624
 21
191.1885
 31
0.0
  0
LINE
  5
32A
330
1D
100
AcDbEntity
  8
0
100
AcDbLine
 10
59.228
 20
191.1885
 30
0.0
 11
61.244
 21
191.1885
 31
0.0
  0
LINE
  5
32B
330
1D
100
AcDbEntity
  8
0
100
AcDbLine
 10
55.868
 20
191.1885
 30
0.0
 11
59.228
 21
191.1885
 31
0.0
  0
LINE
  5
32C
330
1D
100
AcDbEntity
  8
0
100
AcDbLine
 10
51.416
 20
191.1885
 30
0.0
 11
55.868
 21
191.1885
 31
0.0
  0
LINE
  5
32D
330
1D
100
AcDbEntity
  8
0
100
AcDbLine
 10
46.376
 20
191.1885
 30
0.0
 11
51.416
 21
191.1885
 31
0.0
  0
LINE
  5
32E
330
1D
100
AcDbEntity
  8
0
100
AcDbLine
 10
41.0
 20
191.1885
 30
0.0
 11
46.376
 21
191.1885
 31
0.0
  0
LINE
  5
32F
330
1D
100
AcDbEntity
  8
0
100
AcDbLine
 10
35.624
 20
191.1885
 30
0.0
 11
41.0
 21
191.1885
 31
0.0
  0
LINE
  5
330
330
1D
100
AcDbEntity
  8
0
100
AcDbLine
 10
21.0
 20
191.1885
 30
0.0
 11
21.0
 21
193.1885
 31
0.0
  0
LINE
  5
331
330
1D
100
AcDbEntity
  8
0
100
AcDbLine
 10
61.244
 20
191.1885
 30
0.0
 11
62.0
 21
191.1885
 31
0.0
  0
LINE
  5
332
330
1D
100
AcDbEntity
  8
0
100
AcDbLine
 10
62.0
 20
191.1885
 30
0.0
 11
62.0
 21
190.1885
 31
0.0
  0
LINE
  5
333
330
1D
100
AcDbEntity
  8
0
100
AcDbLine
 10
61.0
 20
191.1885
 30
0.0
 11
61.0
 21
193.1885
 31
0.0
  0
LINE
  5
334
330
1D
100
AcDbEntity
  8
0
100
AcDbLine
 10
119.961
 20
190.7265
 30
0.0
 11
121.101
 21
190.7265
 31
0.0
  0
LINE
  5
335
330
1D
100
AcDbEntity
  8
0
100
AcDbLine
 10
119.961
 20
190.7265
 30
0.0
 11
119.961
 21
189.6505
 31
0.0
  0
LINE
  5
336
330
1D
100
AcDbEntity
  8
0
100
AcDbLine
 10
119.961
 20
190.7265
 30
0.0
 11
120.838
 21
191.1885
 31
0.0
  0
LINE
  5
337
330
1D
100
AcDbEntity
  8
0
100
AcDbLine
 10
119.961
 20
189.6505
 30
0.0
 11
121.101
 21
189.6505
 31
0.0
  0
LINE
  5
338
330
1D
100
AcDbEntity
  8
0
100
AcDbLine
 10
119.961
 20
189.6505
 30
0.0
 11
120.838
 21
189.1885
 31
0.0
  0
LINE
  5
339
330
1D
100
AcDbEntity
  8
0
100
AcDbLine
 10
119.961
 20
189.6505
 30
0.0
 11
119.961
 21
190.7265
 31
0.0
  0
LINE
  5
33A
330
1D
100
AcDbEntity
  8
0
100
AcDbLine
 10
119.961
 20
188.7265
 30
0.0
 11
121.101
 21
188.7265
 31
0.0
  0
LINE
  5
33B
330
1D
100
AcDbEntity
  8
0
100
AcDbLine
 10
119.961
 20
188.7265
 30
0.0
 11
119.961
 21
187.6505
 31
0.0
  0
LINE
  5
33C
330
1D
100
AcDbEntity
  8
0
100
AcDbLine
 10
119.961
 20
188.7265
 30
0.0
 11
120.838
 21
189.1885
 31
0.0
  0
LINE
  5
33D
330
1D
100
AcDbEntity
  8
0
100
AcDbLine
 10
119.961
 20
187.6505
 30
0.0
 11
121.101
 21
187.6505
 31
0.0
  0
LINE
  5
33E
330
1D
100
AcDbEntity
  8
0
100
AcDbLine
 10
119.961
 20
187.6505
 30
0.0
 11
120.838
 21
187.1885
 31
0.0
  0
LINE
  5
33F
330
1D
100
AcDbEntity
  8
0
100
AcDbLine
 10
119.961
 20
187.6505
 30
0.0
 11
119.961
 21
188.7265
 31
0.0
  0
LINE
  5
340
330
1D
100
AcDbEntity
  8
0
100
AcDbLine
 10
21.0
 20
193.1885
 30
0.0
 11
21.0
 21
191.1885
 31
0.0
  0
LINE
  5
341
330
1D
100
AcDbEntity
  8
0
100
AcDbLine
 10
21.0
 20
193.1885
 30
0.0
 11
21.72
 21
193.1885
 31
0.0
  0
LINE
  5
342
330
1D
100
AcDbEntity
  8
0
100
AcDbLine
 10
26.0
 20
193.1885
 30
0.0
 11
26.0
 21
195.1885
 31
0.0
  0
LINE
  5
343
330
1D
100
AcDbEntity
  8
0
100
AcDbLine
 10
21.72
 20
193.1885
 30
0.0
 11
23.64
 21
193.1885
 31
0.0
  0
LINE
  5
344
330
1D
100
AcDbEntity
  8
0
100
AcDbLine
 10
23.64
 20
193.1885
 30
0.0
 11
26.84
 21
193.1885
 31
0.0
  0
LINE
  5
345
330
1D
100
AcDbEntity
  8
0
100
AcDbLine
 10
26.84
 20
193.1885
 30
0.0
 11
31.08
 21
193.1885
 31
0.0
  0
LINE
  5
346
330
1D
100
AcDbEntity
  8
0
100
AcDbLine
 10
26.0
 20
195.1885
 30
0.0
 11
26.54
 21
195.1885
 31
0.0
  0
LINE
  5
347
330
1D
100
AcDbEntity
  8
0
100
AcDbLine
 10
26.0
 20
195.1885
 30
0.0
 11
26.0
 21
193.1885
 31
0.0
  0
LINE
  5
348
330
1D
100
AcDbEntity
  8
0
100
AcDbLine
 10
26.54
 20
195.1885
 30
0.0
 11
27.98
 21
195.1885
 31
0.0
  0
LINE
  5
349
330
1D
100
AcDbEntity
  8
0
100
AcDbLine
 10
27.98
 20
195.1885
 30
0.0
 11
30.38
 21
195.1885
 31
0.0
  0
LINE
  5
34A
330
1D
100
AcDbEntity
  8
0
100
AcDbLine
 10
30.38
 20
195.1885
 30
0.0
 11
33.56
 21
195.1885
 31
0.0
  0
LINE
  5
34B
330
1D
100
AcDbEntity
  8
0
100
AcDbLine
 10
30.0
 20
198.1885
 30
0.0
 11
30.396
 21
198.1885
 31
0.0
  0
LINE
  5
34C
330
1D
100
AcDbEntity
  8
0
100
AcDbLine
 10
30.0
 20
198.1885
 30
0.0
 11
30.0
 21
195.1885
 31
0.0
  0
LINE
  5
34D
330
1D
100
AcDbEntity
  8
0
100
AcDbLine
 10
30.0
 20
195.1885
 30
0.0
 11
30.0
 21
198.1885
 31
0.0
  0
LINE
  5
34E
330
1D
100
AcDbEntity
  8
0
100
AcDbLine
 10
30.396
 20
198.1885
 30
0.0
 11
31.452
 21
198.1885
 31
0.0
  0
LINE
  5
34F
330
1D
100
AcDbEntity
  8
0
100
AcDbLine
 10
30.0
 20
201.1885
 30
0.0
 11
30.396
 21
201.1885
 31
0.0
  0
LINE
  5
350
330
1D
100
AcDbEntity
  8
0
100
AcDbLine
 10
30.0
 20
201.1885
 30
0.0
 11
30.0
 21
204.1885
 31
0.0
  0
LINE
  5
351
330
1D
100
AcDbEntity
  8
0
100
AcDbLine
 10
30.396
 20
201.1885
 30
0.0
 11
31.452
 21
201.1885
 31
0.0
  0
LINE
  5
352
330
1D
100
AcDbEntity
  8
0
100
AcDbLine
 10
30.396
 20
201.1885
 30
0.0
 11
31.0
 21
201.1885
 31
0.0
  0
LINE
  5
353
330
1D
100
AcDbEntity
  8
0
100
AcDbLine
 10
31.0
 20
201.1885
 30
0.0
 11
31.36
 21
201.1885
 31
0.0
  0
LINE
  5
354
330
1D
100
AcDbEntity
  8
0
100
AcDbLine
 10
31.0
 20
201.1885
 30
0.0
 11
31.0
 21
198.1885
 31
0.0
  0
LINE
  5
355
330
1D
100
AcDbEntity
  8
0
100
AcDbLine
 10
31.452
 20
198.1885
 30
0.0
 11
33.212
 21
198.1885
 31
0.0
  0
LINE
  5
356
330
1D
100
AcDbEntity
  8
0
100
AcDbLine
 10
31.452
 20
201.1885
 30
0.0
 11
33.212
 21
201.1885
 31
0.0
  0
LINE
  5
357
330
1D
100
AcDbEntity
  8
0
100
AcDbLine
 10
31.0
 20
198.1885
 30
0.0
 11
31.0
 21
201.1885
 31
0.0
  0
LINE
  5
358
330
1D
100
AcDbEntity
  8
0
100
AcDbLine
 10
30.0
 20
204.1885
 30
0.0
 11
30.396
 21
204.1885
 31
0.0
  0
LINE
  5
359
330
1D
100
AcDbEntity
  8
0
100
AcDbLine
 10
30.0
 20
204.1885
 30
0.0
 11
30.0
 21
201.1885
 31
0.0
  0
LINE
  5
35A
330
1D
100
AcDbEntity
  8
0
100
AcDbLine
 10
30.396
 20
204.1885
 30
0.0
 11
31.452
 21
204.1885
 31
0.0
  0
LINE
  5
35B
330
1D
100
AcDbEntity
  8
0
100
AcDbLine
 10
31.452
 20
204.1885
 30
0.0
 11
33.212
 21
204.1885
 31
0.0
  0
LINE
  5
35C
330
1D
100
AcDbEntity
  8
0
100
AcDbLine
 10
31.36
 20
201.1885
 30
0.0
 11
32.32
 21
201.1885
 31
0.0
  0
LINE
  5
35D
330
1D
100
AcDbEntity
  8
0
100
AcDbLine
 10
32.32
 20
201.1885
 30
0.0
 11
33.92
 21
201.1885
 31
0.0
  0
LINE
  5
35E
330
1D
100
AcDbEntity
  8
0
100
AcDbLine
 10
33.0
 20
204.5455
 30
0.0
 11
33.0
 21
204.2745
 31
0.0
  0
LINE
  5
35F
330
1D
100
AcDbEntity
  8
0
100
AcDbLine
 10
33.0
 20
204.5455
 30
0.0
 11
33.0
 21
204.9025
 31
0.0
  0
LINE
  5
361
330
1D
100
AcDbEntity
  8
0
100
AcDbLine
 10
33.0
 20
208.8315
 30
0.0
 11
33.0
 21
209.1025
 31
0.0
  0
LINE
  5
363
330
1D
100
AcDbEntity
  8
0
100
AcDbLine
 10
33.0
 20
208.8315
 30
0.0
 11
33.0
 21
208.4745
 31
0.0
  0
LINE
  5
364
330
1D
100
AcDbEntity
  8
0
100
AcDbLine
 10
33.0
 20
204.9025
 30
0.0
 11
33.0
 21
204.5455
 31
0.0
  0
LINE
  5
365
330
1D
100
AcDbEntity
  8
0
100
AcDbLine
 10
33.0
 20
204.9025
 30
0.0
 11
33.0
 21
208.4745
 31
0.0
  0
LINE
  5
366
330
1D
100
AcDbEntity
  8
0
100
AcDbLine
 10
33.0
 20
208.4745
 30
0.0
 11
33.0
 21
208.8315
 31
0.0
  0
LINE
  5
367
330
1D
100
AcDbEntity
  8
0
100
AcDbLine
 10
33.0
 20
208.4745
 30
0.0
 11
33.0
 21
204.9025
 31
0.0
  0
LINE
  5
36B
330
1D
100
AcDbEntity
  8
0
100
AcDbLine
 10
33.0
 20
204.2745
 30
0.0
 11
33.0
 21
204.2245
 31
0.0
  0
LINE
  5
36C
330
1D
100
AcDbEntity
  8
0
100
AcDbLine
 10
33.0
 20
204.2745
 30
0.0
 11
33.0
 21
204.5455
 31
0.0
  0
LINE
  5
36D
330
1D
100
AcDbEntity
  8
0
100
AcDbLine
 10
33.0
 20
204.2245
 30
0.0
 11
33.21
 21
204.1885
 31
0.0
  0
LINE
  5
36E
330
1D
100
AcDbEntity
  8
0
100
AcDbLine
 10
33.0
 20
204.2245
 30
0.0
 11
33.0
 21
204.2745
 31
0.0
  0
LINE
  5
372
330
1D
100
AcDbEntity
  8
0
100
AcDbLine
 10
33.0
 20
209.1025
 30
0.0
 11
33.0
 21
208.8315
 31
0.0
  0
LINE
  5
379
330
1D
100
AcDbEntity
  8
0
100
AcDbLine
 10
33.56
 20
195.1885
 30
0.0
 11
37.16
 21
195.1885
 31
0.0
  0
LINE
  5
37A
330
1D
100
AcDbEntity
  8
0
100
AcDbLine
 10
33.212
 20
198.1885
 30
0.0
 11
35.544
 21
198.1885
 31
0.0
  0
LINE
  5
37B
330
1D
100
AcDbEntity
  8
0
100
AcDbLine
 10
33.212
 20
204.1885
 30
0.0
 11
35.544
 21
204.1885
 31
0.0
  0
LINE
  5
37C
330
1D
100
AcDbEntity
  8
0
100
AcDbLine
 10
33.212
 20
201.1885
 30
0.0
 11
35.544
 21
201.1885
 31
0.0
  0
LINE
  5
37F
330
1D
100
AcDbEntity
  8
0
100
AcDbLine
 10
33.21
 20
209.1885
 30
0.0
 11
33.505
 21
209.1885
 31
0.0
  0
LINE
  5
381
330
1D
100
AcDbEntity
  8
0
100
AcDbLine
 10
33.92
 20
201.1885
 30
0.0
 11
36.04
 21
201.1885
 31
0.0
  0
LINE
  5
383
330
1D
100
AcDbEntity
  8
0
100
AcDbLine
 10
35.544
 20
198.1885
 30
0.0
 11
38.184
 21
198.1885
 31
0.0
  0
LINE
  5
384
330
1D
100
AcDbEntity
  8
0
100
AcDbLine
 10
35.544
 20
204.1885
 30
0.0
 11
38.184
 21
204.1885
 31
0.0
  0
LINE
  5
385
330
1D
100
AcDbEntity
  8
0
100
AcDbLine
 10
35.544
 20
201.1885
 30
0.0
 11
38.184
 21
201.1885
 31
0.0
  0
LINE
  5
388
330
1D
100
AcDbEntity
  8
0
100
AcDbLine
 10
35.484
 20
209.1885
 30
0.0
 11
37.126
 21
209.1885
 31
0.0
  0
LINE
  5
38C
330
1D
100
AcDbEntity
  8
0
100
AcDbLine
 10
33.505
 20
209.1885
 30
0.0
 11
34.263
 21
209.1885
 31
0.0
  0
LINE
  5
38E
330
1D
100
AcDbEntity
  8
0
100
AcDbLine
 10
34.263
 20
209.1885
 30
0.0
 11
35.484
 21
209.1885
 31
0.0
  0
LINE
  5
38F
330
1D
100
AcDbEntity
  8
0
100
AcDbLine
 10
33.0
 20
209.1525
 30
0.0
 11
33.21
 21
209.1885
 31
0.0
  0
LINE
  5
390
330
1D
100
AcDbEntity
  8
0
100
AcDbLine
 10
31.08
 20
193.1885
 30
0.0
 11
35.88
 21
193.1885
 31
0.0
  0
LINE
  5
391
330
1D
100
AcDbEntity
  8
0
100
AcDbLine
 10
56.0
 20
193.1885
 30
0.0
 11
56.0
 21
195.1885
 31
0.0
  0
LINE
  5
392
330
1D
100
AcDbEntity
  8
0
100
AcDbLine
 10
61.0
 20
193.1885
 30
0.0
 11
61.0
 21
191.1885
 31
0.0
  0
LINE
  5
393
330
1D
100
AcDbEntity
  8
0
100
AcDbLine
 10
60.28
 20
193.1885
 30
0.0
 11
61.0
 21
193.1885
 31
0.0
  0
LINE
  5
394
330
1D
100
AcDbEntity
  8
0
100
AcDbLine
 10
58.36
 20
193.1885
 30
0.0
 11
60.28
 21
193.1885
 31
0.0
  0
LINE
  5
395
330
1D
100
AcDbEntity
  8
0
100
AcDbLine
 10
55.16
 20
193.1885
 30
0.0
 11
58.36
 21
193.1885
 31
0.0
  0
LINE
  5
396
330
1D
100
AcDbEntity
  8
0
100
AcDbLine
 10
50.92
 20
193.1885
 30
0.0
 11
55.16
 21
193.1885
 31
0.0
  0
LINE
  5
397
330
1D
100
AcDbEntity
  8
0
100
AcDbLine
 10
46.12
 20
193.1885
 30
0.0
 11
50.92
 21
193.1885
 31
0.0
  0
LINE
  5
398
330
1D
100
AcDbEntity
  8
0
100
AcDbLine
 10
36.04
 20
201.1885
 30
0.0
 11
38.44
 21
201.1885
 31
0.0
  0
LINE
  5
399
330
1D
100
AcDbEntity
  8
0
100
AcDbLine
 10
37.16
 20
195.1885
 30
0.0
 11
41.0
 21
195.1885
 31
0.0
  0
LINE
  5
39C
330
1D
100
AcDbEntity
  8
0
100
AcDbLine
 10
37.126
 20
209.1885
 30
0.0
 11
38.979
 21
209.1885
 31
0.0
  0
LINE
  5
3A0
330
1D
100
AcDbEntity
  8
0
100
AcDbLine
 10
38.184
 20
198.1885
 30
0.0
 11
41.0
 21
198.1885
 31
0.0
  0
LINE
  5
3A1
330
1D
100
AcDbEntity
  8
0
100
AcDbLine
 10
38.184
 20
204.1885
 30
0.0
 11
41.0
 21
204.1885
 31
0.0
  0
LINE
  5
3A2
330
1D
100
AcDbEntity
  8
0
100
AcDbLine
 10
38.184
 20
201.1885
 30
0.0
 11
41.0
 21
201.1885
 31
0.0
  0
LINE
  5
3A3
330
1D
100
AcDbEntity
  8
0
100
AcDbLine
 10
38.0
 20
212.1885
 30
0.0
 11
38.108
 21
212.1885
 31
0.0
  0
LINE
  5
3A4
330
1D
100
AcDbEntity
  8
0
100
AcDbLine
 10
38.0
 20
212.1885
 30
0.0
 11
38.0
 21
222.1885
 31
0.0
  0
LINE
  5
3A5
330
1D
100
AcDbEntity
  8
0
100
AcDbLine
 10
38.108
 20
212.1885
 30
0.0
 11
38.396
 21
212.1885
 31
0.0
  0
LINE
  5
3A6
330
1D
100
AcDbEntity
  8
0
100
AcDbLine
 10
38.44
 20
201.1885
 30
0.0
 11
41.0
 21
201.1885
 31
0.0
  0
LINE
  5
3A9
330
1D
100
AcDbEntity
  8
0
100
AcDbLine
 10
38.979
 20
209.1885
 30
0.0
 11
41.0
 21
209.1885
 31
0.0
  0
LINE
  5
3AE
330
1D
100
AcDbEntity
  8
0
100
AcDbLine
 10
38.396
 20
212.1885
 30
0.0
 11
38.876
 21
212.1885
 31
0.0
  0
LINE
  5
3AF
330
1D
100
AcDbEntity
  8
0
100
AcDbLine
 10
38.876
 20
212.1885
 30
0.0
 11
39.512
 21
212.1885
 31
0.0
  0
LINE
  5
3B0
330
1D
100
AcDbEntity
  8
0
100
AcDbLine
 10
38.876
 20
212.1885
 30
0.0
 11
39.0
 21
212.1885
 31
0.0
  0
LINE
  5
3B1
330
1D
100
AcDbEntity
  8
0
100
AcDbLine
 10
39.0
 20
209.1885
 30
0.0
 11
39.0
 21
212.1885
 31
0.0
  0
LINE
  5
3B2
330
1D
100
AcDbEntity
  8
0
100
AcDbLine
 10
39.0
 20
212.1885
 30
0.0
 11
39.0
 21
209.1885
 31
0.0
  0
LINE
  5
3B3
330
1D
100
AcDbEntity
  8
0
100
AcDbLine
 10
39.0
 20
212.1885
 30
0.0
 11
39.072
 21
212.1885
 31
0.0
  0
LINE
  5
3B4
330
1D
100
AcDbEntity
  8
0
100
AcDbLine
 10
39.512
 20
212.1885
 30
0.0
 11
40.232
 21
212.1885
 31
0.0
  0
LINE
  5
3B5
330
1D
100
AcDbEntity
  8
0
100
AcDbLine
 10
39.072
 20
212.1885
 30
0.0
 11
39.264
 21
212.1885
 31
0.0
  0
LINE
  5
3B6
330
1D
100
AcDbEntity
  8
0
100
AcDbLine
 10
39.264
 20
212.1885
 30
0.0
 11
39.584
 21
212.1885
 31
0.0
  0
LINE
  5
3BC
330
1D
100
AcDbEntity
  8
0
100
AcDbLine
 10
40.232
 20
212.1885
 30
0.0
 11
41.0
 21
212.1885
 31
0.0
  0
LINE
  5
3BD
330
1D
100
AcDbEntity
  8
0
100
AcDbLine
 10
39.584
 20
212.1885
 30
0.0
 11
40.008
 21
212.1885
 31
0.0
  0
LINE
  5
3BE
330
1D
100
AcDbEntity
  8
0
100
AcDbLine
 10
38.0
 20
222.1885
 30
0.0
 11
38.108
 21
222.1885
 31
0.0
  0
LINE
  5
3BF
330
1D
100
AcDbEntity
  8
0
100
AcDbLine
 10
38.0
 20
222.1885
 30
0.0
 11
38.0
 21
212.1885
 31
0.0
  0
LINE
  5
3C0
330
1D
100
AcDbEntity
  8
0
100
AcDbLine
 10
38.108
 20
222.1885
 30
0.0
 11
38.396
 21
222.1885
 31
0.0
  0
LINE
  5
3C1
330
1D
100
AcDbEntity
  8
0
100
AcDbLine
 10
38.396
 20
222.1885
 30
0.0
 11
38.876
 21
222.1885
 31
0.0
  0
LINE
  5
3C2
330
1D
100
AcDbEntity
  8
0
100
AcDbLine
 10
38.876
 20
222.1885
 30
0.0
 11
39.512
 21
222.1885
 31
0.0
  0
LINE
  5
3C3
330
1D
100
AcDbEntity
  8
0
100
AcDbLine
 10
39.512
 20
222.1885
 30
0.0
 11
40.232
 21
222.1885
 31
0.0
  0
LINE
  5
3C4
330
1D
100
AcDbEntity
  8
0
100
AcDbLine
 10
40.232
 20
222.1885
 30
0.0
 11
41.0
 21
222.1885
 31
0.0
  0
LINE
  5
3C5
330
1D
100
AcDbEntity
  8
0
100
AcDbLine
 10
40.008
 20
212.1885
 30
0.0
 11
40.488
 21
212.1885
 31
0.0
  0
LINE
  5
3C6
330
1D
100
AcDbEntity
  8
0
100
AcDbLine
 10
41.0
 20
195.1885
 30
0.0
 11
44.84
 21
195.1885
 31
0.0
  0
LINE
  5
3C7
330
1D
100
AcDbEntity
  8
0
100
AcDbLine
 10
41.0
 20
198.1885
 30
0.0
 11
43.816
 21
198.1885
 31
0.0
  0
LINE
  5
3C8
330
1D
100
AcDbEntity
  8
0
100
AcDbLine
 10
41.0
 20
204.1885
 30
0.0
 11
43.816
 21
204.1885
 31
0.0
  0
LINE
  5
3C9
330
1D
100
AcDbEntity
  8
0
100
AcDbLine
 10
41.0
 20
201.1885
 30
0.0
 11
43.56
 21
201.1885
 31
0.0
  0
LINE
  5
3CA
330
1D
100
AcDbEntity
  8
0
100
AcDbLine
 10
41.0
 20
201.1885
 30
0.0
 11
43.816
 21
201.1885
 31
0.0
  0
LINE
  5
3D5
330
1D
100
AcDbEntity
  8
0
100
AcDbLine
 10
41.0
 20
209.1885
 30
0.0
 11
43.021
 21
209.1885
 31
0.0
  0
LINE
  5
3DB
330
1D
100
AcDbEntity
  8
0
100
AcDbLine
 10
41.768
 20
212.1885
 30
0.0
 11
42.488
 21
212.1885
 31
0.0
  0
LINE
  5
3DC
330
1D
100
AcDbEntity
  8
0
100
AcDbLine
 10
42.488
 20
212.1885
 30
0.0
 11
43.124
 21
212.1885
 31
0.0
  0
LINE
  5
3DD
330
1D
100
AcDbEntity
  8
0
100
AcDbLine
 10
43.0
 20
212.1885
 30
0.0
 11
43.0
 21
209.1885
 31
0.0
  0
LINE
  5
3DE
330
1D
100
AcDbEntity
  8
0
100
AcDbLine
 10
43.0
 20
212.1885
 30
0.0
 11
43.124
 21
212.1885
 31
0.0
  0
LINE
  5
3DF
330
1D
100
AcDbEntity
  8
0
100
AcDbLine
 10
42.928
 20
212.1885
 30
0.0
 11
43.0
 21
212.1885
 31
0.0
  0
LINE
  5
3E0
330
1D
100
AcDbEntity
  8
0
100
AcDbLine
 10
43.56
 20
201.1885
 30
0.0
 11
45.96
 21
201.1885
 31
0.0
  0
LINE
  5
3E4
330
1D
100
AcDbEntity
  8
0
100
AcDbLine
 10
43.021
 20
209.1885
 30
0.0
 11
44.874
 21
209.1885
 31
0.0
  0
LINE
  5
3E8
330
1D
100
AcDbEntity
  8
0
100
AcDbLine
 10
43.816
 20
198.1885
 30
0.0
 11
46.456
 21
198.1885
 31
0.0
  0
LINE
  5
3E9
330
1D
100
AcDbEntity
  8
0
100
AcDbLine
 10
43.816
 20
204.1885
 30
0.0
 11
46.456
 21
204.1885
 31
0.0
  0
LINE
  5
3EA
330
1D
100
AcDbEntity
  8
0
100
AcDbLine
 10
43.816
 20
201.1885
 30
0.0
 11
46.456
 21
201.1885
 31
0.0
  0
LINE
  5
3EB
330
1D
100
AcDbEntity
  8
0
100
AcDbLine
 10
44.84
 20
195.1885
 30
0.0
 11
48.44
 21
195.1885
 31
0.0
  0
LINE
  5
3EC
330
1D
100
AcDbEntity
  8
0
100
AcDbLine
 10
46.456
 20
198.1885
 30
0.0
 11
48.788
 21
198.1885
 31
0.0
  0
LINE
  5
3ED
330
1D
100
AcDbEntity
  8
0
100
AcDbLine
 10
48.44
 20
195.1885
 30
0.0
 11
51.62
 21
195.1885
 31
0.0
  0
LINE
  5
3EE
330
1D
100
AcDbEntity
  8
0
100
AcDbLine
 10
48.788
 20
198.1885
 30
0.0
 11
50.548
 21
198.1885
 31
0.0
  0
LINE
  5
3EF
330
1D
100
AcDbEntity
  8
0
100
AcDbLine
 10
48.788
 20
201.1885
 30
0.0
 11
50.548
 21
201.1885
 31
0.0
  0
LINE
  5
3F0
330
1D
100
AcDbEntity
  8
0
100
AcDbLine
 10
46.456
 20
201.1885
 30
0.0
 11
48.788
 21
201.1885
 31
0.0
  0
LINE
  5
3F1
330
1D
100
AcDbEntity
  8
0
100
AcDbLine
 10
48.08
 20
201.1885
 30
0.0
 11
49.68
 21
201.1885
 31
0.0
  0
LINE
  5
3F2
330
1D
100
AcDbEntity
  8
0
100
AcDbLine
 10
45.96
 20
201.1885
 30
0.0
 11
48.08
 21
201.1885
 31
0.0
  0
LINE
  5
3F4
330
1D
100
AcDbEntity
  8
0
100
AcDbLine
 10
50.548
 20
198.1885
 30
0.0
 11
51.604
 21
198.1885
 31
0.0
  0
LINE
  5
3F5
330
1D
100
AcDbEntity
  8
0
100
AcDbLine
 10
50.548
 20
201.1885
 30
0.0
 11
51.604
 21
201.1885
 31
0.0
  0
LINE
  5
3F6
330
1D
100
AcDbEntity
  8
0
100
AcDbLine
 10
51.62
 20
195.1885
 30
0.0
 11
54.02
 21
195.1885
 31
0.0
  0
LINE
  5
3F7
330
1D
100
AcDbEntity
  8
0
100
AcDbLine
 10
52.0
 20
195.1885
 30
0.0
 11
52.0
 21
198.1885
 31
0.0
  0
LINE
  5
3F8
330
1D
100
AcDbEntity
  8
0
100
AcDbLine
 10
51.604
 20
198.1885
 30
0.0
 11
52.0
 21
198.1885
 31
0.0
  0
LINE
  5
3F9
330
1D
100
AcDbEntity
  8
0
100
AcDbLine
 10
55.46
 20
195.1885
 30
0.0
 11
56.0
 21
195.1885
 31
0.0
  0
LINE
  5
3FA
330
1D
100
AcDbEntity
  8
0
100
AcDbLine
 10
56.0
 20
195.1885
 30
0.0
 11
56.0
 21
193.1885
 31
0.0
  0
LINE
  5
3FB
330
1D
100
AcDbEntity
  8
0
100
AcDbLine
 10
54.02
 20
195.1885
 30
0.0
 11
55.46
 21
195.1885
 31
0.0
  0
LINE
  5
3FC
330
1D
100
AcDbEntity
  8
0
100
AcDbLine
 10
52.0
 20
198.1885
 30
0.0
 11
52.0
 21
195.1885
 31
0.0
  0
LINE
  5
3FD
330
1D
100
AcDbEntity
  8
0
100
AcDbLine
 10
52.0
 20
201.1885
 30
0.0
 11
52.0
 21
204.1885
 31
0.0
  0
LINE
  5
3FE
330
1D
100
AcDbEntity
  8
0
100
AcDbLine
 10
51.604
 20
201.1885
 30
0.0
 11
52.0
 21
201.1885
 31
0.0
  0
LINE
  5
3FF
330
1D
100
AcDbEntity
  8
0
100
AcDbLine
 10
51.0
 20
198.1885
 30
0.0
 11
51.0
 21
201.1885
 31
0.0
  0
LINE
  5
400
330
1D
100
AcDbEntity
  8
0
100
AcDbLine
 10
50.64
 20
201.1885
 30
0.0
 11
51.0
 21
201.1885
 31
0.0
  0
LINE
  5
401
330
1D
100
AcDbEntity
  8
0
100
AcDbLine
 10
51.604
 20
204.1885
 30
0.0
 11
52.0
 21
204.1885
 31
0.0
  0
LINE
  5
402
330
1D
100
AcDbEntity
  8
0
100
AcDbLine
 10
52.0
 20
204.1885
 30
0.0
 11
52.0
 21
201.1885
 31
0.0
  0
LINE
  5
403
330
1D
100
AcDbEntity
  8
0
100
AcDbLine
 10
50.548
 20
204.1885
 30
0.0
 11
51.604
 21
204.1885
 31
0.0
  0
LINE
  5
404
330
1D
100
AcDbEntity
  8
0
100
AcDbLine
 10
51.0
 20
201.1885
 30
0.0
 11
51.0
 21
198.1885
 31
0.0
  0
LINE
  5
405
330
1D
100
AcDbEntity
  8
0
100
AcDbLine
 10
51.0
 20
201.1885
 30
0.0
 11
51.604
 21
201.1885
 31
0.0
  0
LINE
  5
406
330
1D
100
AcDbEntity
  8
0
100
AcDbLine
 10
49.68
 20
201.1885
 30
0.0
 11
50.64
 21
201.1885
 31
0.0
  0
LINE
  5
407
330
1D
100
AcDbEntity
  8
0
100
AcDbLine
 10
48.789
 20
204.1885
 30
0.0
 11
49.0
 21
204.2245
 31
0.0
  0
LINE
  5
408
330
1D
100
AcDbEntity
  8
0
100
AcDbLine
 10
48.788
 20
204.1885
 30
0.0
 11
50.548
 21
204.1885
 31
0.0
  0
LINE
  5
413
330
1D
100
AcDbEntity
  8
0
100
AcDbLine
 10
44.874
 20
209.1885
 30
0.0
 11
46.516
 21
209.1885
 31
0.0
  0
LINE
  5
415
330
1D
100
AcDbEntity
  8
0
100
AcDbLine
 10
46.516
 20
209.1885
 30
0.0
 11
47.737
 21
209.1885
 31
0.0
  0
LINE
  5
416
330
1D
100
AcDbEntity
  8
0
100
AcDbLine
 10
47.737
 20
209.1885
 30
0.0
 11
48.495
 21
209.1885
 31
0.0
  0
LINE
  5
420
330
1D
100
AcDbEntity
  8
0
100
AcDbLine
 10
49.0
 20
204.2245
 30
0.0
 11
49.0
 21
204.2745
 31
0.0
  0
LINE
  5
421
330
1D
100
AcDbEntity
  8
0
100
AcDbLine
 10
49.0
 20
204.5455
 30
0.0
 11
49.0
 21
204.2745
 31
0.0
  0
LINE
  5
422
330
1D
100
AcDbEntity
  8
0
100
AcDbLine
 10
49.0
 20
204.5455
 30
0.0
 11
49.0
 21
204.9025
 31
0.0
  0
LINE
  5
424
330
1D
100
AcDbEntity
  8
0
100
AcDbLine
 10
49.0
 20
208.4745
 30
0.0
 11
49.0
 21
204.9025
 31
0.0
  0
LINE
  5
425
330
1D
100
AcDbEntity
  8
0
100
AcDbLine
 10
49.0
 20
208.4745
 30
0.0
 11
49.0
 21
208.8315
 31
0.0
  0
LINE
  5
426
330
1D
100
AcDbEntity
  8
0
100
AcDbLine
 10
49.0
 20
204.9025
 30
0.0
 11
49.0
 21
204.5455
 31
0.0
  0
LINE
  5
427
330
1D
100
AcDbEntity
  8
0
100
AcDbLine
 10
49.0
 20
204.9025
 30
0.0
 11
49.0
 21
208.4745
 31
0.0
  0
LINE
  5
428
330
1D
100
AcDbEntity
  8
0
100
AcDbLine
 10
49.0
 20
208.8315
 30
0.0
 11
49.0
 21
208.4745
 31
0.0
  0
LINE
  5
429
330
1D
100
AcDbEntity
  8
0
100
AcDbLine
 10
49.0
 20
208.8315
 30
0.0
 11
49.0
 21
209.1025
 31
0.0
  0
LINE
  5
42D
330
1D
100
AcDbEntity
  8
0
100
AcDbLine
 10
49.0
 20
204.2745
 30
0.0
 11
49.0
 21
204.2245
 31
0.0
  0
LINE
  5
42E
330
1D
100
AcDbEntity
  8
0
100
AcDbLine
 10
49.0
 20
204.2745
 30
0.0
 11
49.0
 21
204.5455
 31
0.0
  0
LINE
  5
42F
330
1D
100
AcDbEntity
  8
0
100
AcDbLine
 10
48.789
 20
209.1885
 30
0.0
 11
49.0
 21
209.1525
 31
0.0
  0
LINE
  5
431
330
1D
100
AcDbEntity
  8
0
100
AcDbLine
 10
48.495
 20
209.1885
 30
0.0
 11
48.789
 21
209.1885
 31
0.0
  0
LINE
  5
432
330
1D
100
AcDbEntity
  8
0
100
AcDbLine
 10
49.0
 20
209.1025
 30
0.0
 11
49.0
 21
208.8315
 31
0.0
  0
LINE
  5
433
330
1D
100
AcDbEntity
  8
0
100
AcDbLine
 10
46.456
 20
204.1885
 30
0.0
 11
48.788
 21
204.1885
 31
0.0
  0
LINE
  5
434
330
1D
100
AcDbEntity
  8
0
100
AcDbLine
 10
44.0
 20
212.1885
 30
0.0
 11
44.0
 21
222.1885
 31
0.0
  0
LINE
  5
435
330
1D
100
AcDbEntity
  8
0
100
AcDbLine
 10
43.892
 20
212.1885
 30
0.0
 11
44.0
 21
212.1885
 31
0.0
  0
LINE
  5
436
330
1D
100
AcDbEntity
  8
0
100
AcDbLine
 10
43.604
 20
212.1885
 30
0.0
 11
43.892
 21
212.1885
 31
0.0
  0
LINE
  5
437
330
1D
100
AcDbEntity
  8
0
100
AcDbLine
 10
43.124
 20
212.1885
 30
0.0
 11
43.604
 21
212.1885
 31
0.0
  0
LINE
  5
438
330
1D
100
AcDbEntity
  8
0
100
AcDbLine
 10
43.0
 20
209.1885
 30
0.0
 11
43.0
 21
212.1885
 31
0.0
  0
LINE
  5
439
330
1D
100
AcDbEntity
  8
0
100
AcDbLine
 10
42.736
 20
212.1885
 30
0.0
 11
42.928
 21
212.1885
 31
0.0
  0
LINE
  5
43A
330
1D
100
AcDbEntity
  8
0
100
AcDbLine
 10
42.416
 20
212.1885
 30
0.0
 11
42.736
 21
212.1885
 31
0.0
  0
LINE
  5
43B
330
1D
100
AcDbEntity
  8
0
100
AcDbLine
 10
41.992
 20
212.1885
 30
0.0
 11
42.416
 21
212.1885
 31
0.0
  0
LINE
  5
43C
330
1D
100
AcDbEntity
  8
0
100
AcDbLine
 10
41.512
 20
212.1885
 30
0.0
 11
41.992
 21
212.1885
 31
0.0
  0
LINE
  5
43D
330
1D
100
AcDbEntity
  8
0
100
AcDbLine
 10
43.892
 20
222.1885
 30
0.0
 11
44.0
 21
222.1885
 31
0.0
  0
LINE
  5
43E
330
1D
100
AcDbEntity
  8
0
100
AcDbLine
 10
44.0
 20
222.1885
 30
0.0
 11
44.0
 21
212.1885
 31
0.0
  0
LINE
  5
43F
330
1D
100
AcDbEntity
  8
0
100
AcDbLine
 10
43.604
 20
222.1885
 30
0.0
 11
43.892
 21
222.1885
 31
0.0
  0
LINE
  5
440
330
1D
100
AcDbEntity
  8
0
100
AcDbLine
 10
43.124
 20
222.1885
 30
0.0
 11
43.604
 21
222.1885
 31
0.0
  0
LINE
  5
441
330
1D
100
AcDbEntity
  8
0
100
AcDbLine
 10
42.488
 20
222.1885
 30
0.0
 11
43.124
 21
222.1885
 31
0.0
  0
LINE
  5
442
330
1D
100
AcDbEntity
  8
0
100
AcDbLine
 10
41.768
 20
222.1885
 30
0.0
 11
42.488
 21
222.1885
 31
0.0
  0
LINE
  5
443
330
1D
100
AcDbEntity
  8
0
100
AcDbLine
 10
41.0
 20
222.1885
 30
0.0
 11
41.768
 21
222.1885
 31
0.0
  0
LINE
  5
444
330
1D
100
AcDbEntity
  8
0
100
AcDbLine
 10
41.0
 20
212.1885
 30
0.0
 11
41.512
 21
212.1885
 31
0.0
  0
LINE
  5
445
330
1D
100
AcDbEntity
  8
0
100
AcDbLine
 10
41.0
 20
212.1885
 30
0.0
 11
41.768
 21
212.1885
 31
0.0
  0
LINE
  5
446
330
1D
100
AcDbEntity
  8
0
100
AcDbLine
 10
40.488
 20
212.1885
 30
0.0
 11
41.0
 21
212.1885
 31
0.0
  0
LINE
  5
447
330
1D
100
AcDbEntity
  8
0
100
AcDbLine
 10
41.0
 20
193.1885
 30
0.0
 11
46.12
 21
193.1885
 31
0.0
  0
LINE
  5
448
330
1D
100
AcDbEntity
  8
0
100
AcDbLine
 10
35.88
 20
193.1885
 30
0.0
 11
41.0
 21
193.1885
 31
0.0
  0
LINE
  5
449
330
1D
100
AcDbEntity
  8
0
100
AcDbLine
 10
119.961
 20
192.7265
 30
0.0
 11
121.101
 21
192.7265
 31
0.0
  0
LINE
  5
44A
330
1D
100
AcDbEntity
  8
0
100
AcDbLine
 10
119.961
 20
192.7265
 30
0.0
 11
119.961
 21
191.6505
 31
0.0
  0
LINE
  5
44B
330
1D
100
AcDbEntity
  8
0
100
AcDbLine
 10
119.961
 20
192.7265
 30
0.0
 11
120.838
 21
193.1885
 31
0.0
  0
LINE
  5
44C
330
1D
100
AcDbEntity
  8
0
100
AcDbLine
 10
119.961
 20
191.6505
 30
0.0
 11
121.101
 21
191.6505
 31
0.0
  0
LINE
  5
44D
330
1D
100
AcDbEntity
  8
0
100
AcDbLine
 10
119.961
 20
191.6505
 30
0.0
 11
120.838
 21
191.1885
 31
0.0
  0
LINE
  5
44E
330
1D
100
AcDbEntity
  8
0
100
AcDbLine
 10
119.961
 20
191.6505
 30
0.0
 11
119.961
 21
192.7265
 31
0.0
  0
LINE
  5
44F
330
1D
100
AcDbEntity
  8
0
100
AcDbLine
 10
116.14
 20
94.8865
 30
0.0
 11
129.534
 21
147.1885
 31
0.0
  0
LINE
  5
450
330
1D
100
AcDbEntity
  8
0
100
AcDbLine
 10
123.513
 20
159.1885
 30
0.0
 11
123.679
 21
159.1885
 31
0.0
  0
LINE
  5
451
330
1D
100
AcDbEntity
  8
0
100
AcDbLine
 10
123.513
 20
159.1885
 30
0.0
 11
123.513
 21
164.1885
 31
0.0
  0
LINE
  5
452
330
1D
100
AcDbEntity
  8
0
100
AcDbLine
 10
123.679
 20
159.1885
 30
0.0
 11
124.137
 21
159.1885
 31
0.0
  0
LINE
  5
453
330
1D
100
AcDbEntity
  8
0
100
AcDbLine
 10
120.894
 20
164.1885
 30
0.0
 11
120.894
 21
170.1885
 31
0.0
  0
LINE
  5
454
330
1D
100
AcDbEntity
  8
0
100
AcDbLine
 10
120.894
 20
164.1885
 30
0.0
 11
121.299
 21
164.1885
 31
0.0
  0
LINE
  5
455
330
1D
100
AcDbEntity
  8
0
100
AcDbLine
 10
121.299
 20
164.1885
 30
0.0
 11
122.419
 21
164.1885
 31
0.0
  0
LINE
  5
456
330
1D
100
AcDbEntity
  8
0
100
AcDbLine
 10
122.419
 20
164.1885
 30
0.0
 11
123.286
 21
164.1885
 31
0.0
  0
LINE
  5
457
330
1D
100
AcDbEntity
  8
0
100
AcDbLine
 10
122.419
 20
164.1885
 30
0.0
 11
124.13
 21
164.1885
 31
0.0
  0
LINE
  5
458
330
1D
100
AcDbEntity
  8
0
100
AcDbLine
 10
122.419
 20
170.1885
 30
0.0
 11
124.13
 21
170.1885
 31
0.0
  0
LINE
  5
459
330
1D
100
AcDbEntity
  8
0
100
AcDbLine
 10
121.299
 20
170.1885
 30
0.0
 11
122.419
 21
170.1885
 31
0.0
  0
LINE
  5
45A
330
1D
100
AcDbEntity
  8
0
100
AcDbLine
 10
120.894
 20
170.1885
 30
0.0
 11
121.299
 21
170.1885
 31
0.0
  0
LINE
  5
45B
330
1D
100
AcDbEntity
  8
0
100
AcDbLine
 10
120.894
 20
170.1885
 30
0.0
 11
120.894
 21
164.1885
 31
0.0
  0
LINE
  5
45C
330
1D
100
AcDbEntity
  8
0
100
AcDbLine
 10
121.963
 20
164.1885
 30
0.0
 11
123.03
 21
164.1885
 31
0.0
  0
LINE
  5
45D
330
1D
100
AcDbEntity
  8
0
100
AcDbLine
 10
123.513
 20
164.1885
 30
0.0
 11
123.679
 21
164.1885
 31
0.0
  0
LINE
  5
45E
330
1D
100
AcDbEntity
  8
0
100
AcDbLine
 10
123.513
 20
164.1885
 30
0.0
 11
123.513
 21
159.1885
 31
0.0
  0
LINE
  5
45F
330
1D
100
AcDbEntity
  8
0
100
AcDbLine
 10
123.679
 20
164.1885
 30
0.0
 11
124.137
 21
164.1885
 31
0.0
  0
LINE
  5
460
330
1D
100
AcDbEntity
  8
0
100
AcDbLine
 10
123.513
 20
176.1885
 30
0.0
 11
123.679
 21
176.1885
 31
0.0
  0
LINE
  5
461
330
1D
100
AcDbEntity
  8
0
100
AcDbLine
 10
123.513
 20
176.1885
 30
0.0
 11
123.513
 21
181.1885
 31
0.0
  0
LINE
  5
462
330
1D
100
AcDbEntity
  8
0
100
AcDbLine
 10
123.679
 20
176.1885
 30
0.0
 11
124.137
 21
176.1885
 31
0.0
  0
LINE
  5
463
330
1D
100
AcDbEntity
  8
0
100
AcDbLine
 10
123.679
 20
181.1885
 30
0.0
 11
124.137
 21
181.1885
 31
0.0
  0
LINE
  5
464
330
1D
100
AcDbEntity
  8
0
100
AcDbLine
 10
123.513
 20
181.1885
 30
0.0
 11
123.679
 21
181.1885
 31
0.0
  0
LINE
  5
465
330
1D
100
AcDbEntity
  8
0
100
AcDbLine
 10
123.513
 20
181.1885
 30
0.0
 11
123.513
 21
176.1885
 31
0.0
  0
LINE
  5
466
330
1D
100
AcDbEntity
  8
0
100
AcDbLine
 10
123.03
 20
164.1885
 30
0.0
 11
123.513
 21
164.1885
 31
0.0
  0
LINE
  5
467
330
1D
100
AcDbEntity
  8
0
100
AcDbLine
 10
123.03
 20
164.1885
 30
0.0
 11
123.286
 21
164.1885
 31
0.0
  0
LINE
  5
468
330
1D
100
AcDbEntity
  8
0
100
AcDbLine
 10
124.047
 20
159.1885
 30
0.0
 11
124.047
 21
149.4965
 31
0.0
  0
LINE
  5
469
330
1D
100
AcDbEntity
  8
0
100
AcDbLine
 10
124.047
 20
176.1885
 30
0.0
 11
124.047
 21
170.1885
 31
0.0
  0
LINE
  5
46A
330
1D
100
AcDbEntity
  8
0
100
AcDbLine
 10
120.838
 20
189.1885
 30
0.0
 11
121.89
 21
189.1885
 31
0.0
  0
LINE
  5
46B
330
1D
100
AcDbEntity
  8
0
100
AcDbLine
 10
120.838
 20
187.1885
 30
0.0
 11
121.89
 21
187.1885
 31
0.0
  0
LINE
  5
46C
330
1D
100
AcDbEntity
  8
0
100
AcDbLine
 10
121.101
 20
190.7265
 30
0.0
 11
124.257
 21
190.7265
 31
0.0
  0
LINE
  5
46D
330
1D
100
AcDbEntity
  8
0
100
AcDbLine
 10
121.101
 20
189.6505
 30
0.0
 11
124.257
 21
189.6505
 31
0.0
  0
LINE
  5
46E
330
1D
100
AcDbEntity
  8
0
100
AcDbLine
 10
121.101
 20
188.7265
 30
0.0
 11
124.257
 21
188.7265
 31
0.0
  0
LINE
  5
46F
330
1D
100
AcDbEntity
  8
0
100
AcDbLine
 10
121.89
 20
189.1885
 30
0.0
 11
124.871
 21
189.1885
 31
0.0
  0
LINE
  5
470
330
1D
100
AcDbEntity
  8
0
100
AcDbLine
 10
121.101
 20
187.6505
 30
0.0
 11
124.257
 21
187.6505
 31
0.0
  0
LINE
  5
471
330
1D
100
AcDbEntity
  8
0
100
AcDbLine
 10
121.89
 20
187.1885
 30
0.0
 11
124.047
 21
187.1885
 31
0.0
  0
LINE
  5
472
330
1D
100
AcDbEntity
  8
0
100
AcDbLine
 10
120.838
 20
191.1885
 30
0.0
 11
121.89
 21
191.1885
 31
0.0
  0
LINE
  5
473
330
1D
100
AcDbEntity
  8
0
100
AcDbLine
 10
120.838
 20
193.1885
 30
0.0
 11
121.89
 21
193.1885
 31
0.0
  0
LINE
  5
474
330
1D
100
AcDbEntity
  8
0
100
AcDbLine
 10
121.101
 20
192.7265
 30
0.0
 11
124.257
 21
192.7265
 31
0.0
  0
LINE
  5
475
330
1D
100
AcDbEntity
  8
0
100
AcDbLine
 10
121.89
 20
193.1885
 30
0.0
 11
124.871
 21
193.1885
 31
0.0
  0
LINE
  5
476
330
1D
100
AcDbEntity
  8
0
100
AcDbLine
 10
121.101
 20
191.6505
 30
0.0
 11
124.257
 21
191.6505
 31
0.0
  0
LINE
  5
477
330
1D
100
AcDbEntity
  8
0
100
AcDbLine
 10
121.101
 20
191.6505
 30
0.0
 11
121.89
 21
191.1885
 31
0.0
  0
LINE
  5
478
330
1D
100
AcDbEntity
  8
0
100
AcDbLine
 10
121.89
 20
191.1885
 30
0.0
 11
124.871
 21
191.1885
 31
0.0
  0
LINE
  5
479
330
1D
100
AcDbEntity
  8
0
100
AcDbLine
 10
124.047
 20
187.1885
 30
0.0
 11
124.047
 21
181.1885
 31
0.0
  0
LINE
  5
47A
330
1D
100
AcDbEntity
  8
0
100
AcDbLine
 10
124.047
 20
187.1885
 30
0.0
 11
125.001
 21
187.1885
 31
0.0
  0
LINE
  5
47B
330
1D
100
AcDbEntity
  8
0
100
AcDbLine
 10
124.047
 20
181.1885
 30
0.0
 11
124.047
 21
187.1885
 31
0.0
  0
LINE
  5
47C
330
1D
100
AcDbEntity
  8
0
100
AcDbLine
 10
124.137
 20
159.1885
 30
0.0
 11
124.837
 21
159.1885
 31
0.0
  0
LINE
  5
47D
330
1D
100
AcDbEntity
  8
0
100
AcDbLine
 10
124.137
 20
164.1885
 30
0.0
 11
124.837
 21
164.1885
 31
0.0
  0
LINE
  5
47E
330
1D
100
AcDbEntity
  8
0
100
AcDbLine
 10
124.13
 20
164.1885
 30
0.0
 11
126.401
 21
164.1885
 31
0.0
  0
LINE
  5
47F
330
1D
100
AcDbEntity
  8
0
100
AcDbLine
 10
124.137
 20
176.1885
 30
0.0
 11
124.837
 21
176.1885
 31
0.0
  0
LINE
  5
480
330
1D
100
AcDbEntity
  8
0
100
AcDbLine
 10
124.257
 20
190.7265
 30
0.0
 11
129.08
 21
190.7265
 31
0.0
  0
LINE
  5
481
330
1D
100
AcDbEntity
  8
0
100
AcDbLine
 10
124.257
 20
189.6505
 30
0.0
 11
129.08
 21
189.6505
 31
0.0
  0
LINE
  5
482
330
1D
100
AcDbEntity
  8
0
100
AcDbLine
 10
124.257
 20
188.7265
 30
0.0
 11
129.08
 21
188.7265
 31
0.0
  0
LINE
  5
483
330
1D
100
AcDbEntity
  8
0
100
AcDbLine
 10
124.257
 20
187.6505
 30
0.0
 11
129.08
 21
187.6505
 31
0.0
  0
LINE
  5
484
330
1D
100
AcDbEntity
  8
0
100
AcDbLine
 10
124.257
 20
192.7265
 30
0.0
 11
129.08
 21
192.7265
 31
0.0
  0
LINE
  5
485
330
1D
100
AcDbEntity
  8
0
100
AcDbLine
 10
124.257
 20
191.6505
 30
0.0
 11
129.08
 21
191.6505
 31
0.0
  0
LINE
  5
486
330
1D
100
AcDbEntity
  8
0
100
AcDbLine
 10
124.257
 20
191.6505
 30
0.0
 11
124.871
 21
191.1885
 31
0.0
  0
LINE
  5
487
330
1D
100
AcDbEntity
  8
0
100
AcDbLine
 10
124.137
 20
181.1885
 30
0.0
 11
124.837
 21
181.1885
 31
0.0
  0
LINE
  5
488
330
1D
100
AcDbEntity
  8
0
100
AcDbLine
 10
124.13
 20
170.1885
 30
0.0
 11
126.401
 21
170.1885
 31
0.0
  0
LINE
  5
489
330
1D
100
AcDbEntity
  8
0
100
AcDbLine
 10
124.047
 20
170.1885
 30
0.0
 11
124.047
 21
176.1885
 31
0.0
  0
LINE
  5
48A
330
1D
100
AcDbEntity
  8
0
100
AcDbLine
 10
124.047
 20
149.4965
 30
0.0
 11
124.384
 21
147.9575
 31
0.0
  0
LINE
  5
48B
330
1D
100
AcDbEntity
  8
0
100
AcDbLine
 10
124.047
 20
149.4965
 30
0.0
 11
124.047
 21
159.1885
 31
0.0
  0
LINE
  5
48C
330
1D
100
AcDbEntity
  8
0
100
AcDbLine
 10
124.837
 20
164.1885
 30
0.0
 11
125.766
 21
164.1885
 31
0.0
  0
LINE
  5
48D
330
1D
100
AcDbEntity
  8
0
100
AcDbLine
 10
124.837
 20
159.1885
 30
0.0
 11
125.766
 21
159.1885
 31
0.0
  0
LINE
  5
48E
330
1D
100
AcDbEntity
  8
0
100
AcDbLine
 10
124.837
 20
181.1885
 30
0.0
 11
125.766
 21
181.1885
 31
0.0
  0
LINE
  5
48F
330
1D
100
AcDbEntity
  8
0
100
AcDbLine
 10
125.015
 20
170.1885
 30
0.0
 11
125.015
 21
176.1885
 31
0.0
  0
LINE
  5
490
330
1D
100
AcDbEntity
  8
0
100
AcDbLine
 10
125.431
 20
176.1885
 30
0.0
 11
125.898
 21
176.1885
 31
0.0
  0
LINE
  5
491
330
1D
100
AcDbEntity
  8
0
100
AcDbLine
 10
125.126
 20
176.1885
 30
0.0
 11
125.431
 21
176.1885
 31
0.0
  0
LINE
  5
492
330
1D
100
AcDbEntity
  8
0
100
AcDbLine
 10
125.015
 20
176.1885
 30
0.0
 11
125.126
 21
176.1885
 31
0.0
  0
LINE
  5
493
330
1D
100
AcDbEntity
  8
0
100
AcDbLine
 10
125.015
 20
176.1885
 30
0.0
 11
125.015
 21
170.1885
 31
0.0
  0
LINE
  5
494
330
1D
100
AcDbEntity
  8
0
100
AcDbLine
 10
124.837
 20
176.1885
 30
0.0
 11
125.015
 21
176.1885
 31
0.0
  0
LINE
  5
495
330
1D
100
AcDbEntity
  8
0
100
AcDbLine
 10
124.837
 20
176.1885
 30
0.0
 11
125.766
 21
176.1885
 31
0.0
  0
LINE
  5
496
330
1D
100
AcDbEntity
  8
0
100
AcDbLine
 10
124.871
 20
189.1885
 30
0.0
 11
129.606
 21
189.1885
 31
0.0
  0
LINE
  5
497
330
1D
100
AcDbEntity
  8
0
100
AcDbLine
 10
124.871
 20
191.1885
 30
0.0
 11
129.606
 21
191.1885
 31
0.0
  0
LINE
  5
498
330
1D
100
AcDbEntity
  8
0
100
AcDbLine
 10
125.001
 20
187.1885
 30
0.0
 11
127.697
 21
187.1885
 31
0.0
  0
LINE
  5
499
330
1D
100
AcDbEntity
  8
0
100
AcDbLine
 10
124.384
 20
147.9575
 30
0.0
 11
125.17
 21
147.1885
 31
0.0
  0
LINE
  5
49A
330
1D
100
AcDbEntity
  8
0
100
AcDbLine
 10
125.17
 20
147.1885
 30
0.0
 11
126.124
 21
147.1885
 31
0.0
  0
LINE
  5
49B
330
1D
100
AcDbEntity
  8
0
100
AcDbLine
 10
120.212
 20
94.9315
 30
0.0
 11
122.786
 21
94.7755
 31
0.0
  0
LINE
  5
49C
330
1D
100
AcDbEntity
  8
0
100
AcDbLine
 10
122.786
 20
94.7755
 30
0.0
 11
125.702
 21
94.3575
 31
0.0
  0
LINE
  5
49D
330
1D
100
AcDbEntity
  8
0
100
AcDbLine
 10
128.04
 20
147.1885
 30
0.0
 11
128.04
 21
141.354605121696
 31
0.0
  0
LINE
  5
49E
330
1D
100
AcDbEntity
  8
0
100
AcDbLine
 10
128.04
 20
147.1885
 30
0.0
 11
128.853
 21
147.1885
 31
0.0
  0
LINE
  5
49F
330
1D
100
AcDbEntity
  8
0
100
AcDbLine
 10
128.04
 20
141.354605121696
 30
0.0
 11
128.04
 21
147.1885
 31
0.0
  0
LINE
  5
4A0
330
1D
100
AcDbEntity
  8
0
100
AcDbLine
 10
128.707
 20
147.1885
 30
0.0
 11
132.75
 21
147.1885
 31
0.0
  0
LINE
  5
4A1
330
1D
100
AcDbEntity
  8
0
100
AcDbLine
 10
126.124
 20
147.1885
 30
0.0
 11
128.04
 21
147.1885
 31
0.0
  0
LINE
  5
4A2
330
1D
100
AcDbEntity
  8
0
100
AcDbLine
 10
126.124
 20
147.1885
 30
0.0
 11
128.707
 21
147.1885
 31
0.0
  0
LINE
  5
4A3
330
1D
100
AcDbEntity
  8
0
100
AcDbLine
 10
125.969
 20
93.9495
 30
0.0
 11
128.779
 21
93.3485
 31
0.0
  0
LINE
  5
4A4
330
1D
100
AcDbEntity
  8
0
100
AcDbLine
 10
128.779
 20
93.3485
 30
0.0
 11
131.562
 21
92.5535
 31
0.0
  0
LINE
  5
4A5
330
1D
100
AcDbEntity
  8
0
100
AcDbLine
 10
131.562
 20
92.5535
 30
0.0
 11
134.05
 21
91.6525
 31
0.0
  0
LINE
  5
4A6
330
1D
100
AcDbEntity
  8
0
100
AcDbLine
 10
134.05
 20
91.6525
 30
0.0
 11
136.187
 21
90.6915
 31
0.0
  0
LINE
  5
4A7
330
1D
100
AcDbEntity
  8
0
100
AcDbLine
 10
134.753
 20
91.7875
 30
0.0
 11
137.196
 21
90.6915
 31
0.0
  0
LINE
  5
4A8
330
1D
100
AcDbEntity
  8
0
100
AcDbLine
 10
128.853
 20
147.1885
 30
0.0
 11
129.534
 21
147.1885
 31
0.0
  0
LINE
  5
4A9
330
1D
100
AcDbEntity
  8
0
100
AcDbLine
 10
132.75
 20
147.1885
 30
0.0
 11
138.141
 21
147.1885
 31
0.0
  0
LINE
  5
4AA
330
1D
100
AcDbEntity
  8
0
100
AcDbLine
 10
131.157
 20
147.1885
 30
0.0
 11
133.166
 21
147.1885
 31
0.0
  0
LINE
  5
4AB
330
1D
100
AcDbEntity
  8
0
100
AcDbLine
 10
129.911
 20
147.1885
 30
0.0
 11
131.157
 21
147.1885
 31
0.0
  0
LINE
  5
4AC
330
1D
100
AcDbEntity
  8
0
100
AcDbLine
 10
129.534
 20
147.1885
 30
0.0
 11
129.911
 21
147.1885
 31
0.0
  0
LINE
  5
4AD
330
1D
100
AcDbEntity
  8
0
100
AcDbLine
 10
131.92
 20
92.8055
 30
0.0
 11
134.753
 21
91.7875
 31
0.0
  0
LINE
  5
4AE
330
1D
100
AcDbEntity
  8
0
100
AcDbLine
 10
128.827
 20
93.6925
 30
0.0
 11
131.92
 21
92.8055
 31
0.0
  0
LINE
  5
4AF
330
1D
100
AcDbEntity
  8
0
100
AcDbLine
 10
133.166
 20
147.1885
 30
0.0
 11
135.861
 21
147.1885
 31
0.0
  0
LINE
  5
4B0
330
1D
100
AcDbEntity
  8
0
100
AcDbLine
 10
138.697707196309
 20
86.647215520781
 30
0.0
 11
139.876
 21
87.0255
 31
0.0
  0
LINE
  5
4B1
330
1D
100
AcDbEntity
  8
0
100
AcDbLine
 10
138.759
 20
88.8295
 30
0.0
 11
139.053
 21
88.0345
 31
0.0
  0
LINE
  5
4B2
330
1D
100
AcDbEntity
  8
0
100
AcDbLine
 10
137.765
 20
89.7305
 30
0.0
 11
138.759
 21
88.8295
 31
0.0
  0
LINE
  5
4B3
330
1D
100
AcDbEntity
  8
0
100
AcDbLine
 10
136.187
 20
90.6915
 30
0.0
 11
137.765
 21
89.7305
 31
0.0
  0
LINE
  5
4B4
330
1D
100
AcDbEntity
  8
0
100
AcDbLine
 10
138.141
 20
147.1885
 30
0.0
 11
144.318
 21
147.1885
 31
0.0
  0
LINE
  5
4B5
330
1D
100
AcDbEntity
  8
0
100
AcDbLine
 10
137.196
 20
90.6915
 30
0.0
 11
138.99
 21
89.5955
 31
0.0
  0
LINE
  5
4B6
330
1D
100
AcDbEntity
  8
0
100
AcDbLine
 10
138.99
 20
89.5955
 30
0.0
 11
140.092
 21
88.5775
 31
0.0
  0
LINE
  5
4B7
330
1D
100
AcDbEntity
  8
0
100
AcDbLine
 10
140.092
 20
88.5775
 30
0.0
 11
140.428
 21
87.6905
 31
0.0
  0
LINE
  5
4B8
330
1D
100
AcDbEntity
  8
0
100
AcDbLine
 10
140.884
 20
87.9545
 30
0.0
 11
141.223
 21
88.6235
 31
0.0
  0
LINE
  5
4B9
330
1D
100
AcDbEntity
  8
0
100
AcDbLine
 10
140.329
 20
87.2625
 30
0.0
 11
140.884
 21
87.9545
 31
0.0
  0
LINE
  5
4BA
330
1D
100
AcDbEntity
  8
0
100
AcDbLine
 10
139.876
 20
87.0255
 30
0.0
 11
140.428
 21
87.6905
 31
0.0
  0
LINE
  5
4BB
330
1D
100
AcDbEntity
  8
0
100
AcDbLine
 10
139.876
 20
87.0255
 30
0.0
 11
140.329
 21
87.2625
 31
0.0
  0
LINE
  5
4BC
330
1D
100
AcDbEntity
  8
0
100
AcDbLine
 10
135.861
 20
147.1885
 30
0.0
 11
139.049
 21
147.1885
 31
0.0
  0
LINE
  5
4BD
330
1D
100
AcDbEntity
  8
0
100
AcDbLine
 10
125.766
 20
164.1885
 30
0.0
 11
126.835
 21
164.1885
 31
0.0
  0
LINE
  5
4BE
330
1D
100
AcDbEntity
  8
0
100
AcDbLine
 10
125.766
 20
159.1885
 30
0.0
 11
126.835
 21
159.1885
 31
0.0
  0
LINE
  5
4BF
330
1D
100
AcDbEntity
  8
0
100
AcDbLine
 10
126.835
 20
164.1885
 30
0.0
 11
128.019
 21
164.1885
 31
0.0
  0
LINE
  5
4C0
330
1D
100
AcDbEntity
  8
0
100
AcDbLine
 10
126.835
 20
159.1885
 30
0.0
 11
128.019
 21
159.1885
 31
0.0
  0
LINE
  5
4C1
330
1D
100
AcDbEntity
  8
0
100
AcDbLine
 10
126.401
 20
164.1885
 30
0.0
 11
129.015
 21
164.1885
 31
0.0
  0
LINE
  5
4C2
330
1D
100
AcDbEntity
  8
0
100
AcDbLine
 10
125.898
 20
176.1885
 30
0.0
 11
126.517
 21
176.1885
 31
0.0
  0
LINE
  5
4C3
330
1D
100
AcDbEntity
  8
0
100
AcDbLine
 10
126.517
 20
176.1885
 30
0.0
 11
127.23
 21
176.1885
 31
0.0
  0
LINE
  5
4C4
330
1D
100
AcDbEntity
  8
0
100
AcDbLine
 10
125.766
 20
176.1885
 30
0.0
 11
126.835
 21
176.1885
 31
0.0
  0
LINE
  5
4C5
330
1D
100
AcDbEntity
  8
0
100
AcDbLine
 10
126.835
 20
176.1885
 30
0.0
 11
128.019
 21
176.1885
 31
0.0
  0
LINE
  5
4C6
330
1D
100
AcDbEntity
  8
0
100
AcDbLine
 10
125.766
 20
181.1885
 30
0.0
 11
126.835
 21
181.1885
 31
0.0
  0
LINE
  5
4C7
330
1D
100
AcDbEntity
  8
0
100
AcDbLine
 10
127.23
 20
176.1885
 30
0.0
 11
128.019
 21
176.1885
 31
0.0
  0
LINE
  5
4C8
330
1D
100
AcDbEntity
  8
0
100
AcDbLine
 10
126.835
 20
181.1885
 30
0.0
 11
128.019
 21
181.1885
 31
0.0
  0
LINE
  5
4C9
330
1D
100
AcDbEntity
  8
0
100
AcDbLine
 10
126.401
 20
170.1885
 30
0.0
 11
129.015
 21
170.1885
 31
0.0
  0
LINE
  5
4CA
330
1D
100
AcDbEntity
  8
0
100
AcDbLine
 10
128.019
 20
164.1885
 30
0.0
 11
129.203
 21
164.1885
 31
0.0
  0
LINE
  5
4CB
330
1D
100
AcDbEntity
  8
0
100
AcDbLine
 10
128.019
 20
159.1885
 30
0.0
 11
129.203
 21
159.1885
 31
0.0
  0
LINE
  5
4CC
330
1D
100
AcDbEntity
  8
0
100
AcDbLine
 10
129.015
 20
164.1885
 30
0.0
 11
131.908
 21
164.1885
 31
0.0
  0
LINE
  5
4CD
330
1D
100
AcDbEntity
  8
0
100
AcDbLine
 10
131.901
 20
159.1885
 30
0.0
 11
132.359
 21
159.1885
 31
0.0
  0
LINE
  5
4CE
330
1D
100
AcDbEntity
  8
0
100
AcDbLine
 10
131.201
 20
159.1885
 30
0.0
 11
131.901
 21
159.1885
 31
0.0
  0
LINE
  5
4CF
330
1D
100
AcDbEntity
  8
0
100
AcDbLine
 10
130.272
 20
159.1885
 30
0.0
 11
131.201
 21
159.1885
 31
0.0
  0
LINE
  5
4D0
330
1D
100
AcDbEntity
  8
0
100
AcDbLine
 10
129.203
 20
164.1885
 30
0.0
 11
130.272
 21
164.1885
 31
0.0
  0
LINE
  5
4D1
330
1D
100
AcDbEntity
  8
0
100
AcDbLine
 10
130.272
 20
164.1885
 30
0.0
 11
131.201
 21
164.1885
 31
0.0
  0
LINE
  5
4D2
330
1D
100
AcDbEntity
  8
0
100
AcDbLine
 10
131.901
 20
164.1885
 30
0.0
 11
132.359
 21
164.1885
 31
0.0
  0
LINE
  5
4D3
330
1D
100
AcDbEntity
  8
0
100
AcDbLine
 10
131.201
 20
164.1885
 30
0.0
 11
131.901
 21
164.1885
 31
0.0
  0
LINE
  5
4D4
330
1D
100
AcDbEntity
  8
0
100
AcDbLine
 10
129.203
 20
159.1885
 30
0.0
 11
130.272
 21
159.1885
 31
0.0
  0
LINE
  5
4D5
330
1D
100
AcDbEntity
  8
0
100
AcDbLine
 10
132.525
 20
159.1885
 30
0.0
 11
132.525
 21
164.1885
 31
0.0
  0
LINE
  5
4D6
330
1D
100
AcDbEntity
  8
0
100
AcDbLine
 10
132.525
 20
164.1885
 30
0.0
 11
132.525
 21
159.1885
 31
0.0
  0
LINE
  5
4D7
330
1D
100
AcDbEntity
  8
0
100
AcDbLine
 10
132.359
 20
159.1885
 30
0.0
 11
132.525
 21
159.1885
 31
0.0
  0
LINE
  5
4D8
330
1D
100
AcDbEntity
  8
0
100
AcDbLine
 10
132.359
 20
164.1885
 30
0.0
 11
132.525
 21
164.1885
 31
0.0
  0
LINE
  5
4D9
330
1D
100
AcDbEntity
  8
0
100
AcDbLine
 10
131.908
 20
164.1885
 30
0.0
 11
134.802
 21
164.1885
 31
0.0
  0
LINE
  5
4DA
330
1D
100
AcDbEntity
  8
0
100
AcDbLine
 10
131.023
 20
170.1885
 30
0.0
 11
131.023
 21
176.1885
 31
0.0
  0
LINE
  5
4DB
330
1D
100
AcDbEntity
  8
0
100
AcDbLine
 10
134.802
 20
164.1885
 30
0.0
 11
137.415
 21
164.1885
 31
0.0
  0
LINE
  5
4DC
330
1D
100
AcDbEntity
  8
0
100
AcDbLine
 10
129.015
 20
170.1885
 30
0.0
 11
131.908
 21
170.1885
 31
0.0
  0
LINE
  5
4DD
330
1D
100
AcDbEntity
  8
0
100
AcDbLine
 10
131.908
 20
170.1885
 30
0.0
 11
134.802
 21
170.1885
 31
0.0
  0
LINE
  5
4DE
330
1D
100
AcDbEntity
  8
0
100
AcDbLine
 10
137.415
 20
164.1885
 30
0.0
 11
140.491
 21
164.1885
 31
0.0
  0
LINE
  5
4DF
330
1D
100
AcDbEntity
  8
0
100
AcDbLine
 10
134.802
 20
170.1885
 30
0.0
 11
137.415
 21
170.1885
 31
0.0
  0
LINE
  5
4E0
330
1D
100
AcDbEntity
  8
0
100
AcDbLine
 10
128.808
 20
176.1885
 30
0.0
 11
129.521
 21
176.1885
 31
0.0
  0
LINE
  5
4E1
330
1D
100
AcDbEntity
  8
0
100
AcDbLine
 10
128.019
 20
176.1885
 30
0.0
 11
129.203
 21
176.1885
 31
0.0
  0
LINE
  5
4E2
330
1D
100
AcDbEntity
  8
0
100
AcDbLine
 10
128.019
 20
176.1885
 30
0.0
 11
128.808
 21
176.1885
 31
0.0
  0
LINE
  5
4E3
330
1D
100
AcDbEntity
  8
0
100
AcDbLine
 10
129.203
 20
176.1885
 30
0.0
 11
130.272
 21
176.1885
 31
0.0
  0
LINE
  5
4E4
330
1D
100
AcDbEntity
  8
0
100
AcDbLine
 10
128.019
 20
181.1885
 30
0.0
 11
129.203
 21
181.1885
 31
0.0
  0
LINE
  5
4E5
330
1D
100
AcDbEntity
  8
0
100
AcDbLine
 10
129.521
 20
176.1885
 30
0.0
 11
130.14
 21
176.1885
 31
0.0
  0
LINE
  5
4E6
330
1D
100
AcDbEntity
  8
0
100
AcDbLine
 10
130.913
 20
176.1885
 30
0.0
 11
131.023
 21
176.1885
 31
0.0
  0
LINE
  5
4E7
330
1D
100
AcDbEntity
  8
0
100
AcDbLine
 10
130.607
 20
176.1885
 30
0.0
 11
130.913
 21
176.1885
 31
0.0
  0
LINE
  5
4E8
330
1D
100
AcDbEntity
  8
0
100
AcDbLine
 10
130.14
 20
176.1885
 30
0.0
 11
130.607
 21
176.1885
 31
0.0
  0
LINE
  5
4E9
330
1D
100
AcDbEntity
  8
0
100
AcDbLine
 10
130.272
 20
176.1885
 30
0.0
 11
131.201
 21
176.1885
 31
0.0
  0
LINE
  5
4EA
330
1D
100
AcDbEntity
  8
0
100
AcDbLine
 10
129.203
 20
181.1885
 30
0.0
 11
130.272
 21
181.1885
 31
0.0
  0
LINE
  5
4EB
330
1D
100
AcDbEntity
  8
0
100
AcDbLine
 10
130.272
 20
181.1885
 30
0.0
 11
131.201
 21
181.1885
 31
0.0
  0
LINE
  5
4EC
330
1D
100
AcDbEntity
  8
0
100
AcDbLine
 10
131.901
 20
176.1885
 30
0.0
 11
132.359
 21
176.1885
 31
0.0
  0
LINE
  5
4ED
330
1D
100
AcDbEntity
  8
0
100
AcDbLine
 10
131.201
 20
176.1885
 30
0.0
 11
131.901
 21
176.1885
 31
0.0
  0
LINE
  5
4EE
330
1D
100
AcDbEntity
  8
0
100
AcDbLine
 10
132.525
 20
176.1885
 30
0.0
 11
132.525
 21
181.1885
 31
0.0
  0
LINE
  5
4EF
330
1D
100
AcDbEntity
  8
0
100
AcDbLine
 10
132.525
 20
181.1885
 30
0.0
 11
132.525
 21
176.1885
 31
0.0
  0
LINE
  5
4F0
330
1D
100
AcDbEntity
  8
0
100
AcDbLine
 10
132.359
 20
176.1885
 30
0.0
 11
132.525
 21
176.1885
 31
0.0
  0
LINE
  5
4F1
330
1D
100
AcDbEntity
  8
0
100
AcDbLine
 10
132.359
 20
181.1885
 30
0.0
 11
132.525
 21
181.1885
 31
0.0
  0
LINE
  5
4F2
330
1D
100
AcDbEntity
  8
0
100
AcDbLine
 10
131.901
 20
181.1885
 30
0.0
 11
132.359
 21
181.1885
 31
0.0
  0
LINE
  5
4F3
330
1D
100
AcDbEntity
  8
0
100
AcDbLine
 10
131.201
 20
181.1885
 30
0.0
 11
131.901
 21
181.1885
 31
0.0
  0
LINE
  5
4F4
330
1D
100
AcDbEntity
  8
0
100
AcDbLine
 10
131.023
 20
176.1885
 30
0.0
 11
131.201
 21
176.1885
 31
0.0
  0
LINE
  5
4F5
330
1D
100
AcDbEntity
  8
0
100
AcDbLine
 10
131.023
 20
176.1885
 30
0.0
 11
131.023
 21
170.1885
 31
0.0
  0
LINE
  5
4F6
330
1D
100
AcDbEntity
  8
0
100
AcDbLine
 10
137.415
 20
170.1885
 30
0.0
 11
140.344
 21
170.1885
 31
0.0
  0
LINE
  5
4F7
330
1D
100
AcDbEntity
  8
0
100
AcDbLine
 10
127.697
 20
187.1885
 30
0.0
 11
131.908
 21
187.1885
 31
0.0
  0
LINE
  5
4F8
330
1D
100
AcDbEntity
  8
0
100
AcDbLine
 10
129.08
 20
187.6505
 30
0.0
 11
135.48
 21
187.6505
 31
0.0
  0
LINE
  5
4F9
330
1D
100
AcDbEntity
  8
0
100
AcDbLine
 10
129.08
 20
189.6505
 30
0.0
 11
135.48
 21
189.6505
 31
0.0
  0
LINE
  5
4FA
330
1D
100
AcDbEntity
  8
0
100
AcDbLine
 10
129.08
 20
190.7265
 30
0.0
 11
135.48
 21
190.7265
 31
0.0
  0
LINE
  5
4FB
330
1D
100
AcDbEntity
  8
0
100
AcDbLine
 10
129.08
 20
188.7265
 30
0.0
 11
135.48
 21
188.7265
 31
0.0
  0
LINE
  5
4FC
330
1D
100
AcDbEntity
  8
0
100
AcDbLine
 10
129.606
 20
189.1885
 30
0.0
 11
135.919
 21
189.1885
 31
0.0
  0
LINE
  5
4FD
330
1D
100
AcDbEntity
  8
0
100
AcDbLine
 10
129.08
 20
191.6505
 30
0.0
 11
135.48
 21
191.6505
 31
0.0
  0
LINE
  5
4FE
330
1D
100
AcDbEntity
  8
0
100
AcDbLine
 10
129.08
 20
191.6505
 30
0.0
 11
129.606
 21
191.1885
 31
0.0
  0
LINE
  5
4FF
330
1D
100
AcDbEntity
  8
0
100
AcDbLine
 10
129.606
 20
191.1885
 30
0.0
 11
135.919
 21
191.1885
 31
0.0
  0
LINE
  5
500
330
1D
100
AcDbEntity
  8
0
100
AcDbLine
 10
129.08
 20
192.7265
 30
0.0
 11
135.48
 21
192.7265
 31
0.0
  0
LINE
  5
501
330
1D
100
AcDbEntity
  8
0
100
AcDbLine
 10
135.48
 20
189.6505
 30
0.0
 11
142.846
 21
189.6505
 31
0.0
  0
LINE
  5
502
330
1D
100
AcDbEntity
  8
0
100
AcDbLine
 10
135.48
 20
190.7265
 30
0.0
 11
142.846
 21
190.7265
 31
0.0
  0
LINE
  5
503
330
1D
100
AcDbEntity
  8
0
100
AcDbLine
 10
135.48
 20
187.6505
 30
0.0
 11
142.846
 21
187.6505
 31
0.0
  0
LINE
  5
504
330
1D
100
AcDbEntity
  8
0
100
AcDbLine
 10
135.48
 20
188.7265
 30
0.0
 11
142.846
 21
188.7265
 31
0.0
  0
LINE
  5
505
330
1D
100
AcDbEntity
  8
0
100
AcDbLine
 10
130.975
 20
193.1885
 30
0.0
 11
130.975
 21
197.9485
 31
0.0
  0
LINE
  5
506
330
1D
100
AcDbEntity
  8
0
100
AcDbLine
 10
135.48
 20
191.6505
 30
0.0
 11
135.919
 21
191.1885
 31
0.0
  0
LINE
  5
507
330
1D
100
AcDbEntity
  8
0
100
AcDbLine
 10
135.48
 20
191.6505
 30
0.0
 11
142.846
 21
191.6505
 31
0.0
  0
LINE
  5
508
330
1D
100
AcDbEntity
  8
0
100
AcDbLine
 10
135.919
 20
189.1885
 30
0.0
 11
143.109
 21
189.1885
 31
0.0
  0
LINE
  5
509
330
1D
100
AcDbEntity
  8
0
100
AcDbLine
 10
135.919
 20
191.1885
 30
0.0
 11
143.109
 21
191.1885
 31
0.0
  0
LINE
  5
50A
330
1D
100
AcDbEntity
  8
0
100
AcDbLine
 10
135.48
 20
192.7265
 30
0.0
 11
142.846
 21
192.7265
 31
0.0
  0
LINE
  5
50B
330
1D
100
AcDbEntity
  8
0
100
AcDbLine
 10
130.975
 20
197.9485
 30
0.0
 11
131.71
 21
197.9485
 31
0.0
  0
LINE
  5
50C
330
1D
100
AcDbEntity
  8
0
100
AcDbLine
 10
130.975
 20
197.9485
 30
0.0
 11
130.975
 21
193.1885
 31
0.0
  0
LINE
  5
50D
330
1D
100
AcDbEntity
  8
0
100
AcDbLine
 10
130.975
 20
197.9485
 30
0.0
 11
131.54
 21
198.1885
 31
0.0
  0
LINE
  5
50E
330
1D
100
AcDbEntity
  8
0
100
AcDbLine
 10
131.71
 20
197.9485
 30
0.0
 11
133.747
 21
197.9485
 31
0.0
  0
LINE
  5
50F
330
1D
100
AcDbEntity
  8
0
100
AcDbLine
 10
131.54
 20
198.1885
 30
0.0
 11
134.143
 21
198.1885
 31
0.0
  0
LINE
  5
510
330
1D
100
AcDbEntity
  8
0
100
AcDbLine
 10
134.143
 20
198.1885
 30
0.0
 11
141.27
 21
198.1885
 31
0.0
  0
LINE
  5
511
330
1D
100
AcDbEntity
  8
0
100
AcDbLine
 10
133.747
 20
197.9485
 30
0.0
 11
136.858
 21
197.9485
 31
0.0
  0
LINE
  5
512
330
1D
100
AcDbEntity
  8
0
100
AcDbLine
 10
136.858
 20
197.9485
 30
0.0
 11
140.987
 21
197.9485
 31
0.0
  0
LINE
  5
513
330
1D
100
AcDbEntity
  8
0
100
AcDbLine
 10
135.919
 20
193.1885
 30
0.0
 11
143.109
 21
193.1885
 31
0.0
  0
LINE
  5
514
330
1D
100
AcDbEntity
  8
0
100
AcDbLine
 10
129.606
 20
193.1885
 30
0.0
 11
135.919
 21
193.1885
 31
0.0
  0
LINE
  5
515
330
1D
100
AcDbEntity
  8
0
100
AcDbLine
 10
131.908
 20
187.1885
 30
0.0
 11
137.467
 21
187.1885
 31
0.0
  0
LINE
  5
516
330
1D
100
AcDbEntity
  8
0
100
AcDbLine
 10
140.491
 20
164.1885
 30
0.0
 11
143.372
 21
164.1885
 31
0.0
  0
LINE
  5
517
330
1D
100
AcDbEntity
  8
0
100
AcDbLine
 10
140.344
 20
170.1885
 30
0.0
 11
143.372
 21
170.1885
 31
0.0
  0
LINE
  5
518
330
1D
100
AcDbEntity
  8
0
100
AcDbLine
 10
137.467
 20
187.1885
 30
0.0
 11
143.981
 21
187.1885
 31
0.0
  0
LINE
  5
519
330
1D
100
AcDbEntity
  8
0
100
AcDbLine
 10
139.049
 20
147.1885
 30
0.0
 11
142.511
 21
147.1885
 31
0.0
  0
LINE
  5
51A
330
1D
100
AcDbEntity
  8
0
100
AcDbLine
 10
125.702
 20
94.3575
 30
0.0
 11
128.827
 21
93.6925
 31
0.0
  0
LINE
  5
51C
330
1D
100
AcDbEntity
  8
0
100
AcDbLine
 10
140.948
 20
78.410653846154
 30
0.0
 11
140.948
 21
68.6175
 31
0.0
  0
LINE
  5
51D
330
1D
100
AcDbEntity
  8
0
100
AcDbLine
 10
140.956
 20
67.9025
 30
0.0
 11
141.008
 21
67.9025
 31
0.0
  0
LINE
  5
51E
330
1D
100
AcDbEntity
  8
0
100
AcDbLine
 10
140.956
 20
67.9025
 30
0.0
 11
141.008
 21
67.878336431227
 31
0.0
  0
LINE
  5
51F
330
1D
100
AcDbEntity
  8
0
100
AcDbLine
 10
140.956
 20
67.9025
 30
0.0
 11
141.008
 21
67.4875
 31
0.0
  0
LINE
  5
520
330
1D
100
AcDbEntity
  8
0
100
AcDbLine
 10
141.008
 20
67.4875
 30
0.0
 11
141.122
 21
67.3325
 31
0.0
  0
LINE
  5
521
330
1D
100
AcDbEntity
  8
0
100
AcDbLine
 10
141.122
 20
67.3325
 30
0.0
 11
141.625
 21
67.1885
 31
0.0
  0
LINE
  5
522
330
1D
100
AcDbEntity
  8
0
100
AcDbLine
 10
141.122
 20
67.3325
 30
0.0
 11
141.238
 21
67.4485
 31
0.0
  0
LINE
  5
524
330
1D
100
AcDbEntity
  8
0
100
AcDbLine
 10
141.238
 20
67.4485
 30
0.0
 11
141.318
 21
67.9025
 31
0.0
  0
LINE
  5
527
330
1D
100
AcDbEntity
  8
0
100
AcDbLine
 10
141.509
 20
68.6175
 30
0.0
 11
141.509
 21
77.7595
 31
0.0
  0
LINE
  5
528
330
1D
100
AcDbEntity
  8
0
100
AcDbLine
 10
141.318
 20
67.9025
 30
0.0
 11
141.751
 21
67.9025
 31
0.0
  0
LINE
  5
52A
330
1D
100
AcDbEntity
  8
0
100
AcDbLine
 10
142.097
 20
67.9025
 30
0.0
 11
144.179
 21
67.3595
 31
0.0
  0
LINE
  5
52B
330
1D
100
AcDbEntity
  8
0
100
AcDbLine
 10
142.097
 20
78.4745
 30
0.0
 11
144.179
 21
79.0175
 31
0.0
  0
LINE
  5
52C
330
1D
100
AcDbEntity
  8
0
100
AcDbLine
 10
141.751
 20
67.9025
 30
0.0
 11
142.097
 21
67.9025
 31
0.0
  0
LINE
  5
52E
330
1D
100
AcDbEntity
  8
0
100
AcDbLine
 10
141.751
 20
78.4745
 30
0.0
 11
142.097
 21
78.4745
 31
0.0
  0
LINE
  5
532
330
1D
100
AcDbEntity
  8
0
100
AcDbLine
 10
141.509
 20
77.7595
 30
0.0
 11
141.509
 21
68.6175
 31
0.0
  0
LINE
  5
533
330
1D
100
AcDbEntity
  8
0
100
AcDbLine
 10
140.987
 20
197.9485
 30
0.0
 11
145.739
 21
197.9485
 31
0.0
  0
LINE
  5
534
330
1D
100
AcDbEntity
  8
0
100
AcDbLine
 10
141.002573991031
 20
88.1885
 30
0.0
 11
145.308
 21
88.1885
 31
0.0
  0
LINE
  5
535
330
1D
100
AcDbEntity
  8
0
100
AcDbLine
 10
141.002573991031
 20
88.1885
 30
0.0
 11
141.965
 21
88.1885
 31
0.0
  0
LINE
  5
536
330
1D
100
AcDbEntity
  8
0
100
AcDbLine
 10
141.223
 20
88.6235
 30
0.0
 11
141.702627439597
 21
90.4965
 31
0.0
  0
LINE
  5
537
330
1D
100
AcDbEntity
  8
0
100
AcDbLine
 10
141.122
 20
79.0445
 30
0.0
 11
141.625
 21
79.1885
 31
0.0
  0
LINE
  5
538
330
1D
100
AcDbEntity
  8
0
100
AcDbLine
 10
141.122
 20
79.0445
 30
0.0
 11
141.238
 21
78.9285
 31
0.0
  0
LINE
  5
53A
330
1D
100
AcDbEntity
  8
0
100
AcDbLine
 10
141.008
 20
78.8895
 30
0.0
 11
141.122
 21
79.0445
 31
0.0
  0
LINE
  5
53B
330
1D
100
AcDbEntity
  8
0
100
AcDbLine
 10
141.965
 20
79.1885
 30
0.0
 11
141.965
 21
88.1885
 31
0.0
  0
LINE
  5
53C
330
1D
100
AcDbEntity
  8
0
100
AcDbLine
 10
141.27
 20
198.1885
 30
0.0
 11
145.909
 21
198.1885
 31
0.0
  0
LINE
  5
53D
330
1D
100
AcDbEntity
  8
0
100
AcDbLine
 10
141.965
 20
88.1885
 30
0.0
 11
141.965
 21
79.1885
 31
0.0
  0
LINE
  5
53E
330
1D
100
AcDbEntity
  8
0
100
AcDbLine
 10
141.625
 20
79.1885
 30
0.0
 11
141.99
 21
79.1885
 31
0.0
  0
LINE
  5
53F
330
1D
100
AcDbEntity
  8
0
100
AcDbLine
 10
143.372
 20
164.1885
 30
0.0
 11
151.0
 21
164.1885
 31
0.0
  0
LINE
  5
540
330
1D
100
AcDbEntity
  8
0
100
AcDbLine
 10
142.846
 20
187.6505
 30
0.0
 11
151.0
 21
187.6505
 31
0.0
  0
LINE
  5
541
330
1D
100
AcDbEntity
  8
0
100
AcDbLine
 10
142.846
 20
189.6505
 30
0.0
 11
151.0
 21
189.6505
 31
0.0
  0
LINE
  5
542
330
1D
100
AcDbEntity
  8
0
100
AcDbLine
 10
142.846
 20
190.7265
 30
0.0
 11
151.0
 21
190.7265
 31
0.0
  0
LINE
  5
543
330
1D
100
AcDbEntity
  8
0
100
AcDbLine
 10
142.846
 20
188.7265
 30
0.0
 11
151.0
 21
188.7265
 31
0.0
  0
LINE
  5
544
330
1D
100
AcDbEntity
  8
0
100
AcDbLine
 10
143.109
 20
189.1885
 30
0.0
 11
151.0
 21
189.1885
 31
0.0
  0
LINE
  5
545
330
1D
100
AcDbEntity
  8
0
100
AcDbLine
 10
142.846
 20
191.6505
 30
0.0
 11
143.109
 21
191.1885
 31
0.0
  0
LINE
  5
546
330
1D
100
AcDbEntity
  8
0
100
AcDbLine
 10
142.846
 20
191.6505
 30
0.0
 11
151.0
 21
191.6505
 31
0.0
  0
LINE
  5
547
330
1D
100
AcDbEntity
  8
0
100
AcDbLine
 10
143.109
 20
191.1885
 30
0.0
 11
151.0
 21
191.1885
 31
0.0
  0
LINE
  5
548
330
1D
100
AcDbEntity
  8
0
100
AcDbLine
 10
142.846
 20
192.7265
 30
0.0
 11
151.0
 21
192.7265
 31
0.0
  0
LINE
  5
549
330
1D
100
AcDbEntity
  8
0
100
AcDbLine
 10
143.109
 20
193.1885
 30
0.0
 11
151.0
 21
193.1885
 31
0.0
  0
LINE
  5
54A
330
1D
100
AcDbEntity
  8
0
100
AcDbLine
 10
143.372
 20
170.1885
 30
0.0
 11
151.0
 21
170.1885
 31
0.0
  0
LINE
  5
54B
330
1D
100
AcDbEntity
  8
0
100
AcDbLine
 10
142.511
 20
147.1885
 30
0.0
 11
145.021
 21
147.1885
 31
0.0
  0
LINE
  5
54D
330
1D
100
AcDbEntity
  8
0
100
AcDbLine
 10
143.039
 20
79.1885
 30
0.0
 11
144.571
 21
79.1885
 31
0.0
  0
LINE
  5
54E
330
1D
100
AcDbEntity
  8
0
100
AcDbLine
 10
141.99
 20
79.1885
 30
0.0
 11
143.039
 21
79.1885
 31
0.0
  0
LINE
  5
554
330
1D
100
AcDbEntity
  8
0
100
AcDbLine
 10
141.238
 20
78.9285
 30
0.0
 11
141.318
 21
78.4745
 31
0.0
  0
LINE
  5
557
330
1D
100
AcDbEntity
  8
0
100
AcDbLine
 10
141.318
 20
78.4745
 30
0.0
 11
141.751
 21
78.4745
 31
0.0
  0
LINE
  5
558
330
1D
100
AcDbEntity
  8
0
100
AcDbLine
 10
140.948
 20
68.6175
 30
0.0
 11
140.948
 21
78.410653846154
 31
0.0
  0
LINE
  5
559
330
1D
100
AcDbEntity
  8
0
100
AcDbLine
 10
140.948
 20
68.6175
 30
0.0
 11
140.956
 21
67.9025
 31
0.0
  0
LINE
  5
55A
330
1D
100
AcDbEntity
  8
0
100
AcDbLine
 10
143.98
 20
67.1885
 30
0.0
 11
143.98
 21
65.1885
 31
0.0
  0
LINE
  5
55B
330
1D
100
AcDbEntity
  8
0
100
AcDbLine
 10
171.271
 20
-0.0025
 30
0.0
 11
171.666
 21
-0.1885
 31
0.0
  0
LINE
  5
55C
330
1D
100
AcDbEntity
  8
0
100
AcDbLine
 10
171.666
 20
-0.1885
 30
0.0
 11
172.385
 21
-0.0025
 31
0.0
  0
LINE
  5
55D
330
1D
100
AcDbEntity
  8
0
100
AcDbLine
 10
172.385
 20
-0.0025
 30
0.0
 11
173.338
 21
0.4935
 31
0.0
  0
LINE
  5
55E
330
1D
100
AcDbEntity
  8
0
100
AcDbLine
 10
173.338
 20
0.4935
 30
0.0
 11
174.518
 21
1.3195
 31
0.0
  0
LINE
  5
55F
330
1D
100
AcDbEntity
  8
0
100
AcDbLine
 10
174.518
 20
1.3195
 30
0.0
 11
175.818
 21
2.4145
 31
0.0
  0
LINE
  5
560
330
1D
100
AcDbEntity
  8
0
100
AcDbLine
 10
160.117
 20
46.5305
 30
0.0
 11
162.704
 21
37.1305
 31
0.0
  0
LINE
  5
561
330
1D
100
AcDbEntity
  8
0
100
AcDbLine
 10
149.145
 20
33.8595
 30
0.0
 11
154.654
 21
21.6525
 31
0.0
  0
LINE
  5
562
330
1D
100
AcDbEntity
  8
0
100
AcDbLine
 10
154.654
 20
21.6525
 30
0.0
 11
162.176
 21
9.6835
 31
0.0
  0
LINE
  5
563
330
1D
100
AcDbEntity
  8
0
100
AcDbLine
 10
175.818
 20
2.4145
 30
0.0
 11
177.104
 21
3.6545
 31
0.0
  0
LINE
  5
564
330
1D
100
AcDbEntity
  8
0
100
AcDbLine
 10
177.104
 20
3.6545
 30
0.0
 11
178.332
 21
4.9765
 31
0.0
  0
LINE
  5
565
330
1D
100
AcDbEntity
  8
0
100
AcDbLine
 10
162.704
 20
37.1305
 30
0.0
 11
167.269
 21
27.6295
 31
0.0
  0
LINE
  5
566
330
1D
100
AcDbEntity
  8
0
100
AcDbLine
 10
167.269
 20
27.6295
 30
0.0
 11
173.764
 21
17.4735
 31
0.0
  0
LINE
  5
567
330
1D
100
AcDbEntity
  8
0
100
AcDbLine
 10
173.764
 20
17.4735
 30
0.0
 11
181.043
 21
9.9565
 31
0.0
  0
LINE
  5
568
330
1D
100
AcDbEntity
  8
0
100
AcDbLine
 10
253.863
 20
44.5625
 30
0.0
 11
254.538
 21
44.6375
 31
0.0
  0
LINE
  5
569
330
1D
100
AcDbEntity
  8
0
100
AcDbLine
 10
254.538
 20
44.6375
 30
0.0
 11
255.776
 21
45.0125
 31
0.0
  0
LINE
  5
56A
330
1D
100
AcDbEntity
  8
0
100
AcDbLine
 10
255.776
 20
45.0125
 30
0.0
 11
257.277
 21
45.6875
 31
0.0
  0
LINE
  5
56B
330
1D
100
AcDbEntity
  8
0
100
AcDbLine
 10
257.277
 20
45.6875
 30
0.0
 11
259.077
 21
46.8115
 31
0.0
  0
LINE
  5
56C
330
1D
100
AcDbEntity
  8
0
100
AcDbLine
 10
259.077
 20
46.8115
 30
0.0
 11
261.028
 21
48.7985
 31
0.0
  0
LINE
  5
56D
330
1D
100
AcDbEntity
  8
0
100
AcDbLine
 10
268.5
 20
54.5365
 30
0.0
 11
268.5
 21
104.5365
 31
0.0
  0
LINE
  5
56E
330
1D
100
AcDbEntity
  8
0
100
AcDbLine
 10
268.231
 20
54.3085
 30
0.0
 11
268.5
 21
54.5365
 31
0.0
  0
LINE
  5
56F
330
1D
100
AcDbEntity
  8
0
100
AcDbLine
 10
267.518
 20
53.5965
 30
0.0
 11
268.231
 21
54.3085
 31
0.0
  0
LINE
  5
570
330
1D
100
AcDbEntity
  8
0
100
AcDbLine
 10
266.43
 20
52.5465
 30
0.0
 11
267.518
 21
53.5965
 31
0.0
  0
LINE
  5
571
330
1D
100
AcDbEntity
  8
0
100
AcDbLine
 10
264.629
 20
51.3475
 30
0.0
 11
266.43
 21
52.5465
 31
0.0
  0
LINE
  5
572
330
1D
100
AcDbEntity
  8
0
100
AcDbLine
 10
262.791
 20
50.1475
 30
0.0
 11
264.629
 21
51.3475
 31
0.0
  0
LINE
  5
573
330
1D
100
AcDbEntity
  8
0
100
AcDbLine
 10
261.028
 20
48.7985
 30
0.0
 11
262.791
 21
50.1475
 31
0.0
  0
LINE
  5
574
330
1D
100
AcDbEntity
  8
0
100
AcDbLine
 10
253.5
 20
44.5365
 30
0.0
 11
253.5
 21
104.5365
 31
0.0
  0
LINE
  5
575
330
1D
100
AcDbEntity
  8
0
100
AcDbLine
 10
253.5
 20
44.5365
 30
0.0
 11
253.863
 21
44.5625
 31
0.0
  0
LINE
  5
576
330
1D
100
AcDbEntity
  8
0
100
AcDbLine
 10
181.043
 20
9.9565
 30
0.0
 11
181.134
 21
9.4605
 31
0.0
  0
LINE
  5
577
330
1D
100
AcDbEntity
  8
0
100
AcDbLine
 10
180.876
 20
8.6335
 30
0.0
 11
181.134
 21
9.4605
 31
0.0
  0
LINE
  5
578
330
1D
100
AcDbEntity
  8
0
100
AcDbLine
 10
180.272
 20
7.5385
 30
0.0
 11
180.876
 21
8.6335
 31
0.0
  0
LINE
  5
579
330
1D
100
AcDbEntity
  8
0
100
AcDbLine
 10
179.403
 20
6.2995
 30
0.0
 11
180.272
 21
7.5385
 31
0.0
  0
LINE
  5
57A
330
1D
100
AcDbEntity
  8
0
100
AcDbLine
 10
178.332
 20
4.9765
 30
0.0
 11
179.403
 21
6.2995
 31
0.0
  0
LINE
  5
57B
330
1D
100
AcDbEntity
  8
0
100
AcDbLine
 10
162.176
 20
9.6835
 30
0.0
 11
171.271
 21
-0.0025
 31
0.0
  0
LINE
  5
57C
330
1D
100
AcDbEntity
  8
0
100
AcDbLine
 10
146.29
 20
44.7295
 30
0.0
 11
149.145
 21
33.8595
 31
0.0
  0
LINE
  5
57E
330
1D
100
AcDbEntity
  8
0
100
AcDbLine
 10
156.784
 20
67.1885
 30
0.0
 11
158.127
 21
67.1885
 31
0.0
  0
LINE
  5
57F
330
1D
100
AcDbEntity
  8
0
100
AcDbLine
 10
155.232
 20
67.1885
 30
0.0
 11
156.784
 21
67.1885
 31
0.0
  0
LINE
  5
580
330
1D
100
AcDbEntity
  8
0
100
AcDbLine
 10
153.157
 20
67.1885
 30
0.0
 11
155.232
 21
67.1885
 31
0.0
  0
LINE
  5
581
330
1D
100
AcDbEntity
  8
0
100
AcDbLine
 10
150.956
 20
67.1885
 30
0.0
 11
153.157
 21
67.1885
 31
0.0
  0
LINE
  5
582
330
1D
100
AcDbEntity
  8
0
100
AcDbLine
 10
149.064
 20
67.1885
 30
0.0
 11
150.956
 21
67.1885
 31
0.0
  0
LINE
  5
583
330
1D
100
AcDbEntity
  8
0
100
AcDbLine
 10
147.283
 20
67.1885
 30
0.0
 11
149.064
 21
67.1885
 31
0.0
  0
LINE
  5
584
330
1D
100
AcDbEntity
  8
0
100
AcDbLine
 10
145.756
 20
67.1885
 30
0.0
 11
147.283
 21
67.1885
 31
0.0
  0
LINE
  5
585
330
1D
100
AcDbEntity
  8
0
100
AcDbLine
 10
143.981
 20
187.1885
 30
0.0
 11
151.0
 21
187.1885
 31
0.0
  0
LINE
  5
586
330
1D
100
AcDbEntity
  8
0
100
AcDbLine
 10
144.179
 20
67.3595
 30
0.0
 11
146.427
 21
67.2595
 31
0.0
  0
LINE
  5
587
330
1D
100
AcDbEntity
  8
0
100
AcDbLine
 10
146.427
 20
67.2595
 30
0.0
 11
148.674
 21
67.3595
 31
0.0
  0
LINE
  5
588
330
1D
100
AcDbEntity
  8
0
100
AcDbLine
 10
148.674
 20
67.3595
 30
0.0
 11
150.756
 21
67.9025
 31
0.0
  0
LINE
  5
589
330
1D
100
AcDbEntity
  8
0
100
AcDbLine
 10
150.756
 20
67.9025
 30
0.0
 11
151.293
 21
67.9025
 31
0.0
  0
LINE
  5
58C
330
1D
100
AcDbEntity
  8
0
100
AcDbLine
 10
151.344
 20
68.6175
 30
0.0
 11
151.344
 21
77.7595
 31
0.0
  0
LINE
  5
58D
330
1D
100
AcDbEntity
  8
0
100
AcDbLine
 10
151.293
 20
67.9025
 30
0.0
 11
152.311
 21
67.9025
 31
0.0
  0
LINE
  5
58E
330
1D
100
AcDbEntity
  8
0
100
AcDbLine
 10
150.756
 20
78.4745
 30
0.0
 11
151.293
 21
78.4745
 31
0.0
  0
LINE
  5
590
330
1D
100
AcDbEntity
  8
0
100
AcDbLine
 10
146.427
 20
79.1175
 30
0.0
 11
148.674
 21
79.0175
 31
0.0
  0
LINE
  5
591
330
1D
100
AcDbEntity
  8
0
100
AcDbLine
 10
146.546
 20
79.1885
 30
0.0
 11
148.853
 21
79.1885
 31
0.0
  0
LINE
  5
592
330
1D
100
AcDbEntity
  8
0
100
AcDbLine
 10
148.853
 20
79.1885
 30
0.0
 11
151.243
 21
79.1885
 31
0.0
  0
LINE
  5
593
330
1D
100
AcDbEntity
  8
0
100
AcDbLine
 10
148.674
 20
79.0175
 30
0.0
 11
150.756
 21
78.4745
 31
0.0
  0
LINE
  5
599
330
1D
100
AcDbEntity
  8
0
100
AcDbLine
 10
151.293
 20
78.4745
 30
0.0
 11
152.311
 21
78.4745
 31
0.0
  0
LINE
  5
59C
330
1D
100
AcDbEntity
  8
0
100
AcDbLine
 10
152.311
 20
67.9025
 30
0.0
 11
153.902
 21
67.4485
 31
0.0
  0
LINE
  5
59D
330
1D
100
AcDbEntity
  8
0
100
AcDbLine
 10
153.902
 20
67.4485
 30
0.0
 11
156.173
 21
67.3325
 31
0.0
  0
LINE
  5
59E
330
1D
100
AcDbEntity
  8
0
100
AcDbLine
 10
152.311
 20
78.4745
 30
0.0
 11
153.902
 21
78.9285
 31
0.0
  0
LINE
  5
59F
330
1D
100
AcDbEntity
  8
0
100
AcDbLine
 10
153.902
 20
78.9285
 30
0.0
 11
156.173
 21
79.0445
 31
0.0
  0
LINE
  5
5A0
330
1D
100
AcDbEntity
  8
0
100
AcDbLine
 10
156.173
 20
79.0445
 30
0.0
 11
158.432
 21
78.8895
 31
0.0
  0
LINE
  5
5A1
330
1D
100
AcDbEntity
  8
0
100
AcDbLine
 10
156.173
 20
67.3325
 30
0.0
 11
158.432
 21
67.4875
 31
0.0
  0
LINE
  5
5A4
330
1D
100
AcDbEntity
  8
0
100
AcDbLine
 10
155.895
 20
79.1885
 30
0.0
 11
157.745
 21
79.1885
 31
0.0
  0
LINE
  5
5A6
330
1D
100
AcDbEntity
  8
0
100
AcDbLine
 10
153.673
 20
79.1885
 30
0.0
 11
155.895
 21
79.1885
 31
0.0
  0
LINE
  5
5AB
330
1D
100
AcDbEntity
  8
0
100
AcDbLine
 10
151.344
 20
77.7595
 30
0.0
 11
151.344
 21
68.6175
 31
0.0
  0
LINE
  5
5AC
330
1D
100
AcDbEntity
  8
0
100
AcDbLine
 10
151.243
 20
79.1885
 30
0.0
 11
153.673
 21
79.1885
 31
0.0
  0
LINE
  5
5AF
330
1D
100
AcDbEntity
  8
0
100
AcDbLine
 10
151.0
 20
88.1885
 30
0.0
 11
156.692
 21
88.1885
 31
0.0
  0
LINE
  5
5B0
330
1D
100
AcDbEntity
  8
0
100
AcDbLine
 10
145.021
 20
147.1885
 30
0.0
 11
151.0
 21
147.1885
 31
0.0
  0
LINE
  5
5B1
330
1D
100
AcDbEntity
  8
0
100
AcDbLine
 10
145.308
 20
88.1885
 30
0.0
 11
151.0
 21
88.1885
 31
0.0
  0
LINE
  5
5B2
330
1D
100
AcDbEntity
  8
0
100
AcDbLine
 10
156.979
 20
147.1885
 30
0.0
 11
162.528
 21
147.1885
 31
0.0
  0
LINE
  5
5B3
330
1D
100
AcDbEntity
  8
0
100
AcDbLine
 10
156.692
 20
88.1885
 30
0.0
 11
161.954
 21
88.1885
 31
0.0
  0
LINE
  5
5B4
330
1D
100
AcDbEntity
  8
0
100
AcDbLine
 10
151.0
 20
147.1885
 30
0.0
 11
157.682
 21
147.1885
 31
0.0
  0
LINE
  5
5B5
330
1D
100
AcDbEntity
  8
0
100
AcDbLine
 10
151.0
 20
147.1885
 30
0.0
 11
156.979
 21
147.1885
 31
0.0
  0
LINE
  5
5B6
330
1D
100
AcDbEntity
  8
0
100
AcDbLine
 10
151.0
 20
164.1885
 30
0.0
 11
158.628
 21
164.1885
 31
0.0
  0
LINE
  5
5B7
330
1D
100
AcDbEntity
  8
0
100
AcDbLine
 10
151.0
 20
187.6505
 30
0.0
 11
159.154
 21
187.6505
 31
0.0
  0
LINE
  5
5B8
330
1D
100
AcDbEntity
  8
0
100
AcDbLine
 10
151.0
 20
189.6505
 30
0.0
 11
159.154
 21
189.6505
 31
0.0
  0
LINE
  5
5B9
330
1D
100
AcDbEntity
  8
0
100
AcDbLine
 10
151.0
 20
190.7265
 30
0.0
 11
159.154
 21
190.7265
 31
0.0
  0
LINE
  5
5BA
330
1D
100
AcDbEntity
  8
0
100
AcDbLine
 10
151.0
 20
188.7265
 30
0.0
 11
159.154
 21
188.7265
 31
0.0
  0
LINE
  5
5BB
330
1D
100
AcDbEntity
  8
0
100
AcDbLine
 10
151.0
 20
189.1885
 30
0.0
 11
158.891
 21
189.1885
 31
0.0
  0
LINE
  5
5BC
330
1D
100
AcDbEntity
  8
0
100
AcDbLine
 10
151.0
 20
191.6505
 30
0.0
 11
151.0
 21
191.1885
 31
0.0
  0
LINE
  5
5BD
330
1D
100
AcDbEntity
  8
0
100
AcDbLine
 10
151.0
 20
191.6505
 30
0.0
 11
159.154
 21
191.6505
 31
0.0
  0
LINE
  5
5BE
330
1D
100
AcDbEntity
  8
0
100
AcDbLine
 10
151.0
 20
191.1885
 30
0.0
 11
158.891
 21
191.1885
 31
0.0
  0
LINE
  5
5BF
330
1D
100
AcDbEntity
  8
0
100
AcDbLine
 10
151.0
 20
191.1885
 30
0.0
 11
151.0
 21
191.6505
 31
0.0
  0
LINE
  5
5C0
330
1D
100
AcDbEntity
  8
0
100
AcDbLine
 10
144.992
 20
234.6085
 30
0.0
 11
144.992
 21
225.7685
 31
0.0
  0
LINE
  5
5C1
330
1D
100
AcDbEntity
  8
0
100
AcDbLine
 10
144.992
 20
234.6085
 30
0.0
 11
145.162
 21
235.1885
 31
0.0
  0
LINE
  5
5C2
330
1D
100
AcDbEntity
  8
0
100
AcDbLine
 10
144.992
 20
225.7685
 30
0.0
 11
145.162
 21
225.1885
 31
0.0
  0
LINE
  5
5C3
330
1D
100
AcDbEntity
  8
0
100
AcDbLine
 10
144.992
 20
225.7685
 30
0.0
 11
144.992
 21
234.6085
 31
0.0
  0
LINE
  5
5C4
330
1D
100
AcDbEntity
  8
0
100
AcDbLine
 10
144.992
 20
211.5155
 30
0.0
 11
144.992
 21
198.1885
 31
0.0
  0
LINE
  5
5C5
330
1D
100
AcDbEntity
  8
0
100
AcDbLine
 10
144.992
 20
211.5155
 30
0.0
 11
145.162
 21
212.1885
 31
0.0
  0
LINE
  5
5C6
330
1D
100
AcDbEntity
  8
0
100
AcDbLine
 10
145.162
 20
212.1885
 30
0.0
 11
145.366
 21
212.1885
 31
0.0
  0
LINE
  5
5C7
330
1D
100
AcDbEntity
  8
0
100
AcDbLine
 10
145.162
 20
235.1885
 30
0.0
 11
145.366
 21
235.1885
 31
0.0
  0
LINE
  5
5C8
330
1D
100
AcDbEntity
  8
0
100
AcDbLine
 10
145.366
 20
235.1885
 30
0.0
 11
145.943
 21
235.1885
 31
0.0
  0
LINE
  5
5C9
330
1D
100
AcDbEntity
  8
0
100
AcDbLine
 10
145.162
 20
225.1885
 30
0.0
 11
145.366
 21
225.1885
 31
0.0
  0
LINE
  5
5CA
330
1D
100
AcDbEntity
  8
0
100
AcDbLine
 10
145.366
 20
225.1885
 30
0.0
 11
145.943
 21
225.1885
 31
0.0
  0
LINE
  5
5CB
330
1D
100
AcDbEntity
  8
0
100
AcDbLine
 10
145.366
 20
212.1885
 30
0.0
 11
145.943
 21
212.1885
 31
0.0
  0
LINE
  5
5CC
330
1D
100
AcDbEntity
  8
0
100
AcDbLine
 10
144.992
 20
198.1885
 30
0.0
 11
144.992
 21
211.5155
 31
0.0
  0
LINE
  5
5CD
330
1D
100
AcDbEntity
  8
0
100
AcDbLine
 10
145.739
 20
197.9485
 30
0.0
 11
151.0
 21
197.9485
 31
0.0
  0
LINE
  5
5CE
330
1D
100
AcDbEntity
  8
0
100
AcDbLine
 10
151.0
 20
197.9485
 30
0.0
 11
156.261
 21
197.9485
 31
0.0
  0
LINE
  5
5CF
330
1D
100
AcDbEntity
  8
0
100
AcDbLine
 10
145.943
 20
225.1885
 30
0.0
 11
146.859
 21
225.1885
 31
0.0
  0
LINE
  5
5D0
330
1D
100
AcDbEntity
  8
0
100
AcDbLine
 10
145.943
 20
235.1885
 30
0.0
 11
146.859
 21
235.1885
 31
0.0
  0
LINE
  5
5D1
330
1D
100
AcDbEntity
  8
0
100
AcDbLine
 10
146.859
 20
225.1885
 30
0.0
 11
148.081
 21
225.1885
 31
0.0
  0
LINE
  5
5D2
330
1D
100
AcDbEntity
  8
0
100
AcDbLine
 10
146.859
 20
225.1885
 30
0.0
 11
146.995
 21
225.1885
 31
0.0
  0
LINE
  5
5D3
330
1D
100
AcDbEntity
  8
0
100
AcDbLine
 10
146.859
 20
235.1885
 30
0.0
 11
148.081
 21
235.1885
 31
0.0
  0
LINE
  5
5D4
330
1D
100
AcDbEntity
  8
0
100
AcDbLine
 10
145.943
 20
212.1885
 30
0.0
 11
146.859
 21
212.1885
 31
0.0
  0
LINE
  5
5D5
330
1D
100
AcDbEntity
  8
0
100
AcDbLine
 10
146.995
 20
212.1885
 30
0.0
 11
146.995
 21
225.1885
 31
0.0
  0
LINE
  5
5D6
330
1D
100
AcDbEntity
  8
0
100
AcDbLine
 10
151.0
 20
212.1885
 30
0.0
 11
152.527
 21
212.1885
 31
0.0
  0
LINE
  5
5D7
330
1D
100
AcDbEntity
  8
0
100
AcDbLine
 10
149.473
 20
212.1885
 30
0.0
 11
151.0
 21
212.1885
 31
0.0
  0
LINE
  5
5D8
330
1D
100
AcDbEntity
  8
0
100
AcDbLine
 10
146.995
 20
225.1885
 30
0.0
 11
147.142
 21
225.1885
 31
0.0
  0
LINE
  5
5D9
330
1D
100
AcDbEntity
  8
0
100
AcDbLine
 10
146.995
 20
225.1885
 30
0.0
 11
146.995
 21
212.1885
 31
0.0
  0
LINE
  5
5DA
330
1D
100
AcDbEntity
  8
0
100
AcDbLine
 10
147.142
 20
225.1885
 30
0.0
 11
147.549
 21
225.1885
 31
0.0
  0
LINE
  5
5DB
330
1D
100
AcDbEntity
  8
0
100
AcDbLine
 10
147.549
 20
225.1885
 30
0.0
 11
148.172
 21
225.1885
 31
0.0
  0
LINE
  5
5DC
330
1D
100
AcDbEntity
  8
0
100
AcDbLine
 10
148.081
 20
225.1885
 30
0.0
 11
149.473
 21
225.1885
 31
0.0
  0
LINE
  5
5DD
330
1D
100
AcDbEntity
  8
0
100
AcDbLine
 10
149.948
 20
225.1885
 30
0.0
 11
151.0
 21
225.1885
 31
0.0
  0
LINE
  5
5DE
330
1D
100
AcDbEntity
  8
0
100
AcDbLine
 10
148.997
 20
225.1885
 30
0.0
 11
149.948
 21
225.1885
 31
0.0
  0
LINE
  5
5DF
330
1D
100
AcDbEntity
  8
0
100
AcDbLine
 10
148.172
 20
225.1885
 30
0.0
 11
148.997
 21
225.1885
 31
0.0
  0
LINE
  5
5E0
330
1D
100
AcDbEntity
  8
0
100
AcDbLine
 10
151.0
 20
225.1885
 30
0.0
 11
152.527
 21
225.1885
 31
0.0
  0
LINE
  5
5E1
330
1D
100
AcDbEntity
  8
0
100
AcDbLine
 10
151.0
 20
225.1885
 30
0.0
 11
152.052
 21
225.1885
 31
0.0
  0
LINE
  5
5E2
330
1D
100
AcDbEntity
  8
0
100
AcDbLine
 10
149.473
 20
225.1885
 30
0.0
 11
151.0
 21
225.1885
 31
0.0
  0
LINE
  5
5E3
330
1D
100
AcDbEntity
  8
0
100
AcDbLine
 10
151.0
 20
235.1885
 30
0.0
 11
152.527
 21
235.1885
 31
0.0
  0
LINE
  5
5E4
330
1D
100
AcDbEntity
  8
0
100
AcDbLine
 10
149.473
 20
235.1885
 30
0.0
 11
151.0
 21
235.1885
 31
0.0
  0
LINE
  5
5E5
330
1D
100
AcDbEntity
  8
0
100
AcDbLine
 10
148.081
 20
235.1885
 30
0.0
 11
149.473
 21
235.1885
 31
0.0
  0
LINE
  5
5E6
330
1D
100
AcDbEntity
  8
0
100
AcDbLine
 10
148.081
 20
212.1885
 30
0.0
 11
149.473
 21
212.1885
 31
0.0
  0
LINE
  5
5E7
330
1D
100
AcDbEntity
  8
0
100
AcDbLine
 10
146.859
 20
212.1885
 30
0.0
 11
148.081
 21
212.1885
 31
0.0
  0
LINE
  5
5E8
330
1D
100
AcDbEntity
  8
0
100
AcDbLine
 10
151.0
 20
198.1885
 30
0.0
 11
156.091
 21
198.1885
 31
0.0
  0
LINE
  5
5E9
330
1D
100
AcDbEntity
  8
0
100
AcDbLine
 10
145.909
 20
198.1885
 30
0.0
 11
151.0
 21
198.1885
 31
0.0
  0
LINE
  5
5EA
330
1D
100
AcDbEntity
  8
0
100
AcDbLine
 10
151.0
 20
192.7265
 30
0.0
 11
159.154
 21
192.7265
 31
0.0
  0
LINE
  5
5EB
330
1D
100
AcDbEntity
  8
0
100
AcDbLine
 10
151.0
 20
193.1885
 30
0.0
 11
158.891
 21
193.1885
 31
0.0
  0
LINE
  5
5EC
330
1D
100
AcDbEntity
  8
0
100
AcDbLine
 10
151.0
 20
170.1885
 30
0.0
 11
158.628
 21
170.1885
 31
0.0
  0
LINE
  5
5ED
330
1D
100
AcDbEntity
  8
0
100
AcDbLine
 10
157.008
 20
198.1885
 30
0.0
 11
157.008
 21
211.5155
 31
0.0
  0
LINE
  5
5EE
330
1D
100
AcDbEntity
  8
0
100
AcDbLine
 10
156.261
 20
197.9485
 30
0.0
 11
161.013
 21
197.9485
 31
0.0
  0
LINE
  5
5EF
330
1D
100
AcDbEntity
  8
0
100
AcDbLine
 10
152.052
 20
225.1885
 30
0.0
 11
153.003
 21
225.1885
 31
0.0
  0
LINE
  5
5F0
330
1D
100
AcDbEntity
  8
0
100
AcDbLine
 10
152.527
 20
225.1885
 30
0.0
 11
153.919
 21
225.1885
 31
0.0
  0
LINE
  5
5F1
330
1D
100
AcDbEntity
  8
0
100
AcDbLine
 10
152.527
 20
235.1885
 30
0.0
 11
153.919
 21
235.1885
 31
0.0
  0
LINE
  5
5F2
330
1D
100
AcDbEntity
  8
0
100
AcDbLine
 10
155.005
 20
212.1885
 30
0.0
 11
155.005
 21
225.1885
 31
0.0
  0
LINE
  5
5F3
330
1D
100
AcDbEntity
  8
0
100
AcDbLine
 10
155.141
 20
212.1885
 30
0.0
 11
156.057
 21
212.1885
 31
0.0
  0
LINE
  5
5F4
330
1D
100
AcDbEntity
  8
0
100
AcDbLine
 10
156.057
 20
212.1885
 30
0.0
 11
156.634
 21
212.1885
 31
0.0
  0
LINE
  5
5F5
330
1D
100
AcDbEntity
  8
0
100
AcDbLine
 10
157.008
 20
211.5155
 30
0.0
 11
157.008
 21
198.1885
 31
0.0
  0
LINE
  5
5F6
330
1D
100
AcDbEntity
  8
0
100
AcDbLine
 10
156.838
 20
212.1885
 30
0.0
 11
157.008
 21
211.5155
 31
0.0
  0
LINE
  5
5F7
330
1D
100
AcDbEntity
  8
0
100
AcDbLine
 10
156.634
 20
212.1885
 30
0.0
 11
156.838
 21
212.1885
 31
0.0
  0
LINE
  5
5F8
330
1D
100
AcDbEntity
  8
0
100
AcDbLine
 10
153.828
 20
225.1885
 30
0.0
 11
154.451
 21
225.1885
 31
0.0
  0
LINE
  5
5F9
330
1D
100
AcDbEntity
  8
0
100
AcDbLine
 10
153.003
 20
225.1885
 30
0.0
 11
153.828
 21
225.1885
 31
0.0
  0
LINE
  5
5FA
330
1D
100
AcDbEntity
  8
0
100
AcDbLine
 10
153.919
 20
225.1885
 30
0.0
 11
155.141
 21
225.1885
 31
0.0
  0
LINE
  5
5FB
330
1D
100
AcDbEntity
  8
0
100
AcDbLine
 10
154.451
 20
225.1885
 30
0.0
 11
154.858
 21
225.1885
 31
0.0
  0
LINE
  5
5FC
330
1D
100
AcDbEntity
  8
0
100
AcDbLine
 10
154.858
 20
225.1885
 30
0.0
 11
155.005
 21
225.1885
 31
0.0
  0
LINE
  5
5FD
330
1D
100
AcDbEntity
  8
0
100
AcDbLine
 10
155.005
 20
225.1885
 30
0.0
 11
155.141
 21
225.1885
 31
0.0
  0
LINE
  5
5FE
330
1D
100
AcDbEntity
  8
0
100
AcDbLine
 10
155.005
 20
225.1885
 30
0.0
 11
155.005
 21
212.1885
 31
0.0
  0
LINE
  5
5FF
330
1D
100
AcDbEntity
  8
0
100
AcDbLine
 10
156.057
 20
225.1885
 30
0.0
 11
156.634
 21
225.1885
 31
0.0
  0
LINE
  5
600
330
1D
100
AcDbEntity
  8
0
100
AcDbLine
 10
155.141
 20
225.1885
 30
0.0
 11
156.057
 21
225.1885
 31
0.0
  0
LINE
  5
601
330
1D
100
AcDbEntity
  8
0
100
AcDbLine
 10
155.141
 20
235.1885
 30
0.0
 11
156.057
 21
235.1885
 31
0.0
  0
LINE
  5
602
330
1D
100
AcDbEntity
  8
0
100
AcDbLine
 10
157.008
 20
234.6085
 30
0.0
 11
157.008
 21
225.7685
 31
0.0
  0
LINE
  5
603
330
1D
100
AcDbEntity
  8
0
100
AcDbLine
 10
157.008
 20
225.7685
 30
0.0
 11
157.008
 21
234.6085
 31
0.0
  0
LINE
  5
604
330
1D
100
AcDbEntity
  8
0
100
AcDbLine
 10
156.838
 20
225.1885
 30
0.0
 11
157.008
 21
225.7685
 31
0.0
  0
LINE
  5
605
330
1D
100
AcDbEntity
  8
0
100
AcDbLine
 10
156.634
 20
225.1885
 30
0.0
 11
156.838
 21
225.1885
 31
0.0
  0
LINE
  5
606
330
1D
100
AcDbEntity
  8
0
100
AcDbLine
 10
156.838
 20
235.1885
 30
0.0
 11
157.008
 21
234.6085
 31
0.0
  0
LINE
  5
607
330
1D
100
AcDbEntity
  8
0
100
AcDbLine
 10
156.057
 20
235.1885
 30
0.0
 11
156.634
 21
235.1885
 31
0.0
  0
LINE
  5
608
330
1D
100
AcDbEntity
  8
0
100
AcDbLine
 10
156.634
 20
235.1885
 30
0.0
 11
156.838
 21
235.1885
 31
0.0
  0
LINE
  5
609
330
1D
100
AcDbEntity
  8
0
100
AcDbLine
 10
153.919
 20
235.1885
 30
0.0
 11
155.141
 21
235.1885
 31
0.0
  0
LINE
  5
60A
330
1D
100
AcDbEntity
  8
0
100
AcDbLine
 10
153.919
 20
212.1885
 30
0.0
 11
155.141
 21
212.1885
 31
0.0
  0
LINE
  5
60B
330
1D
100
AcDbEntity
  8
0
100
AcDbLine
 10
152.527
 20
212.1885
 30
0.0
 11
153.919
 21
212.1885
 31
0.0
  0
LINE
  5
60C
330
1D
100
AcDbEntity
  8
0
100
AcDbLine
 10
156.091
 20
198.1885
 30
0.0
 11
160.73
 21
198.1885
 31
0.0
  0
LINE
  5
60D
330
1D
100
AcDbEntity
  8
0
100
AcDbLine
 10
151.0
 20
187.1885
 30
0.0
 11
158.019
 21
187.1885
 31
0.0
  0
LINE
  5
60E
330
1D
100
AcDbEntity
  8
0
100
AcDbLine
 10
144.318
 20
147.1885
 30
0.0
 11
151.0
 21
147.1885
 31
0.0
  0
LINE
  5
60F
330
1D
100
AcDbEntity
  8
0
100
AcDbLine
 10
157.682
 20
147.1885
 30
0.0
 11
163.859
 21
147.1885
 31
0.0
  0
LINE
  5
610
330
1D
100
AcDbEntity
  8
0
100
AcDbLine
 10
144.571
 20
79.1885
 30
0.0
 11
146.546
 21
79.1885
 31
0.0
  0
LINE
  5
611
330
1D
100
AcDbEntity
  8
0
100
AcDbLine
 10
144.179
 20
79.0175
 30
0.0
 11
146.427
 21
79.1175
 31
0.0
  0
LINE
  5
613
330
1D
100
AcDbEntity
  8
0
100
AcDbLine
 10
144.436
 20
67.1885
 30
0.0
 11
145.756
 21
67.1885
 31
0.0
  0
LINE
  5
614
330
1D
100
AcDbEntity
  8
0
100
AcDbLine
 10
158.127
 20
67.1885
 30
0.0
 11
158.788
 21
67.1885
 31
0.0
  0
LINE
  5
615
330
1D
100
AcDbEntity
  8
0
100
AcDbLine
 10
158.019
 20
187.1885
 30
0.0
 11
164.533
 21
187.1885
 31
0.0
  0
LINE
  5
616
330
1D
100
AcDbEntity
  8
0
100
AcDbLine
 10
158.432
 20
67.4875
 30
0.0
 11
159.826
 21
67.9025
 31
0.0
  0
LINE
  5
619
330
1D
100
AcDbEntity
  8
0
100
AcDbLine
 10
158.432
 20
78.8895
 30
0.0
 11
159.826
 21
78.4745
 31
0.0
  0
LINE
  5
61A
330
1D
100
AcDbEntity
  8
0
100
AcDbLine
 10
158.361
 20
67.1885
 30
0.0
 11
158.956
 21
67.1885
 31
0.0
  0
LINE
  5
61B
330
1D
100
AcDbEntity
  8
0
100
AcDbLine
 10
157.921
 20
67.1885
 30
0.0
 11
157.921
 21
65.1885
 31
0.0
  0
LINE
  5
61C
330
1D
100
AcDbEntity
  8
0
100
AcDbLine
 10
157.921
 20
67.1885
 30
0.0
 11
158.361
 21
67.1885
 31
0.0
  0
LINE
  5
61D
330
1D
100
AcDbEntity
  8
0
100
AcDbLine
 10
157.921
 20
67.1885
 30
0.0
 11
158.862
 21
67.1885
 31
0.0
  0
LINE
  5
61E
330
1D
100
AcDbEntity
  8
0
100
AcDbLine
 10
157.921
 20
65.1885
 30
0.0
 11
158.49
 21
56.0635
 31
0.0
  0
LINE
  5
61F
330
1D
100
AcDbEntity
  8
0
100
AcDbLine
 10
157.921
 20
65.1885
 30
0.0
 11
157.921
 21
67.1885
 31
0.0
  0
LINE
  5
620
330
1D
100
AcDbEntity
  8
0
100
AcDbLine
 10
159.2
 20
67.1885
 30
0.0
 11
160.031
 21
67.1885
 31
0.0
  0
LINE
  5
621
330
1D
100
AcDbEntity
  8
0
100
AcDbLine
 10
159.911
 20
67.1885
 30
0.0
 11
160.276
 21
67.1885
 31
0.0
  0
LINE
  5
623
330
1D
100
AcDbEntity
  8
0
100
AcDbLine
 10
160.031
 20
67.1885
 30
0.0
 11
160.276
 21
67.1885
 31
0.0
  0
LINE
  5
625
330
1D
100
AcDbEntity
  8
0
100
AcDbLine
 10
160.276
 20
67.1885
 30
0.0
 11
160.779
 21
67.3325
 31
0.0
  0
LINE
  5
626
330
1D
100
AcDbEntity
  8
0
100
AcDbLine
 10
158.862
 20
67.1885
 30
0.0
 11
159.911
 21
67.1885
 31
0.0
  0
LINE
  5
627
330
1D
100
AcDbEntity
  8
0
100
AcDbLine
 10
159.826
 20
67.9025
 30
0.0
 11
160.537
 21
67.9025
 31
0.0
  0
LINE
  5
629
330
1D
100
AcDbEntity
  8
0
100
AcDbLine
 10
159.826
 20
78.4745
 30
0.0
 11
160.537
 21
78.4745
 31
0.0
  0
LINE
  5
62C
330
1D
100
AcDbEntity
  8
0
100
AcDbLine
 10
159.936
 20
79.1885
 30
0.0
 11
159.936
 21
88.1885
 31
0.0
  0
LINE
  5
630
330
1D
100
AcDbEntity
  8
0
100
AcDbLine
 10
157.689453411943
 20
79.1885
 30
0.0
 11
160.031
 21
79.1885
 31
0.0
  0
LINE
  5
631
330
1D
100
AcDbEntity
  8
0
100
AcDbLine
 10
160.537
 20
67.9025
 30
0.0
 11
160.945
 21
67.9025
 31
0.0
  0
LINE
  5
632
330
1D
100
AcDbEntity
  8
0
100
AcDbLine
 10
160.537
 20
78.4745
 30
0.0
 11
160.945
 21
78.4745
 31
0.0
  0
LINE
  5
634
330
1D
100
AcDbEntity
  8
0
100
AcDbLine
 10
160.893
 20
67.4875
 30
0.0
 11
160.945
 21
67.9025
 31
0.0
  0
LINE
  5
635
330
1D
100
AcDbEntity
  8
0
100
AcDbLine
 10
160.953
 20
77.7595
 30
0.0
 11
160.953
 21
68.6175
 31
0.0
  0
LINE
  5
636
330
1D
100
AcDbEntity
  8
0
100
AcDbLine
 10
160.945
 20
67.9025
 30
0.0
 11
160.953
 21
68.6175
 31
0.0
  0
LINE
  5
637
330
1D
100
AcDbEntity
  8
0
100
AcDbLine
 10
160.893
 20
78.8895
 30
0.0
 11
160.945
 21
78.4745
 31
0.0
  0
LINE
  5
638
330
1D
100
AcDbEntity
  8
0
100
AcDbLine
 10
160.945
 20
78.4745
 30
0.0
 11
160.953
 21
77.7595
 31
0.0
  0
LINE
  5
639
330
1D
100
AcDbEntity
  8
0
100
AcDbLine
 10
160.779
 20
67.3325
 30
0.0
 11
160.893
 21
67.4875
 31
0.0
  0
LINE
  5
63A
330
1D
100
AcDbEntity
  8
0
100
AcDbLine
 10
160.779
 20
79.0445
 30
0.0
 11
160.893
 21
78.8895
 31
0.0
  0
LINE
  5
63C
330
1D
100
AcDbEntity
  8
0
100
AcDbLine
 10
160.276
 20
79.1885
 30
0.0
 11
160.779
 21
79.0445
 31
0.0
  0
LINE
  5
63D
330
1D
100
AcDbEntity
  8
0
100
AcDbLine
 10
158.628
 20
164.1885
 30
0.0
 11
165.518
 21
164.1885
 31
0.0
  0
LINE
  5
63E
330
1D
100
AcDbEntity
  8
0
100
AcDbLine
 10
158.891
 20
189.1885
 30
0.0
 11
166.081
 21
189.1885
 31
0.0
  0
LINE
  5
63F
330
1D
100
AcDbEntity
  8
0
100
AcDbLine
 10
158.891
 20
191.1885
 30
0.0
 11
166.081
 21
191.1885
 31
0.0
  0
LINE
  5
640
330
1D
100
AcDbEntity
  8
0
100
AcDbLine
 10
158.891
 20
191.1885
 30
0.0
 11
159.154
 21
191.6505
 31
0.0
  0
LINE
  5
641
330
1D
100
AcDbEntity
  8
0
100
AcDbLine
 10
159.154
 20
187.6505
 30
0.0
 11
166.52
 21
187.6505
 31
0.0
  0
LINE
  5
642
330
1D
100
AcDbEntity
  8
0
100
AcDbLine
 10
159.154
 20
189.6505
 30
0.0
 11
166.52
 21
189.6505
 31
0.0
  0
LINE
  5
643
330
1D
100
AcDbEntity
  8
0
100
AcDbLine
 10
159.154
 20
190.7265
 30
0.0
 11
166.52
 21
190.7265
 31
0.0
  0
LINE
  5
644
330
1D
100
AcDbEntity
  8
0
100
AcDbLine
 10
159.154
 20
188.7265
 30
0.0
 11
166.52
 21
188.7265
 31
0.0
  0
LINE
  5
645
330
1D
100
AcDbEntity
  8
0
100
AcDbLine
 10
159.154
 20
191.6505
 30
0.0
 11
166.52
 21
191.6505
 31
0.0
  0
LINE
  5
646
330
1D
100
AcDbEntity
  8
0
100
AcDbLine
 10
159.154
 20
192.7265
 30
0.0
 11
166.52
 21
192.7265
 31
0.0
  0
LINE
  5
647
330
1D
100
AcDbEntity
  8
0
100
AcDbLine
 10
158.891
 20
193.1885
 30
0.0
 11
166.081
 21
193.1885
 31
0.0
  0
LINE
  5
648
330
1D
100
AcDbEntity
  8
0
100
AcDbLine
 10
158.628
 20
170.1885
 30
0.0
 11
165.518
 21
170.1885
 31
0.0
  0
LINE
  5
649
330
1D
100
AcDbEntity
  8
0
100
AcDbLine
 10
160.73
 20
198.1885
 30
0.0
 11
164.803
 21
198.1885
 31
0.0
  0
LINE
  5
64A
330
1D
100
AcDbEntity
  8
0
100
AcDbLine
 10
159.936
 20
88.1885
 30
0.0
 11
159.936
 21
79.1885
 31
0.0
  0
LINE
  5
64B
330
1D
100
AcDbEntity
  8
0
100
AcDbLine
 10
159.936
 20
88.1885
 30
0.0
 11
161.271767821289
 21
88.1885
 31
0.0
  0
LINE
  5
64C
330
1D
100
AcDbEntity
  8
0
100
AcDbLine
 10
160.031
 20
79.1885
 30
0.0
 11
160.276
 21
79.1885
 31
0.0
  0
LINE
  5
64E
330
1D
100
AcDbEntity
  8
0
100
AcDbLine
 10
163.426
 20
86.6075
 30
0.0
 11
165.395
 21
86.4515
 31
0.0
  0
LINE
  5
64F
330
1D
100
AcDbEntity
  8
0
100
AcDbLine
 10
169.407
 20
68.3235
 30
0.0
 11
171.137
 21
68.1885
 31
0.0
  0
LINE
  5
650
330
1D
100
AcDbEntity
  8
0
100
AcDbLine
 10
168.237
 20
68.6835
 30
0.0
 11
169.407
 21
68.3235
 31
0.0
  0
LINE
  5
651
330
1D
100
AcDbEntity
  8
0
100
AcDbLine
 10
167.749
 20
69.2845
 30
0.0
 11
168.237
 21
68.6835
 31
0.0
  0
LINE
  5
652
330
1D
100
AcDbEntity
  8
0
100
AcDbLine
 10
165.395
 20
86.4515
 30
0.0
 11
167.968
 21
86.6075
 31
0.0
  0
LINE
  5
653
330
1D
100
AcDbEntity
  8
0
100
AcDbLine
 10
163.302292803691
 20
86.647215520781
 30
0.0
 11
167.749
 21
69.2845
 31
0.0
  0
LINE
  5
654
330
1D
100
AcDbEntity
  8
0
100
AcDbLine
 10
166.546
 20
88.1885
 30
0.0
 11
169.99
 21
88.1885
 31
0.0
  0
LINE
  5
655
330
1D
100
AcDbEntity
  8
0
100
AcDbLine
 10
161.954
 20
88.1885
 30
0.0
 11
166.546
 21
88.1885
 31
0.0
  0
LINE
  5
656
330
1D
100
AcDbEntity
  8
0
100
AcDbLine
 10
169.99
 20
88.1885
 30
0.0
 11
172.19
 21
88.1885
 31
0.0
  0
LINE
  5
657
330
1D
100
AcDbEntity
  8
0
100
AcDbLine
 10
170.389643540468
 20
88.1885
 30
0.0
 11
172.19
 21
88.1885
 31
0.0
  0
LINE
  5
658
330
1D
100
AcDbEntity
  8
0
100
AcDbLine
 10
161.671
 20
87.2625
 30
0.0
 11
162.124
 21
87.0255
 31
0.0
  0
LINE
  5
659
330
1D
100
AcDbEntity
  8
0
100
AcDbLine
 10
161.116
 20
87.9545
 30
0.0
 11
161.671
 21
87.2625
 31
0.0
  0
LINE
  5
65A
330
1D
100
AcDbEntity
  8
0
100
AcDbLine
 10
162.124
 20
87.0255
 30
0.0
 11
163.426
 21
86.6075
 31
0.0
  0
LINE
  5
65B
330
1D
100
AcDbEntity
  8
0
100
AcDbLine
 10
160.997426008969
 20
88.1885
 30
0.0
 11
161.116
 21
87.9545
 31
0.0
  0
LINE
  5
65C
330
1D
100
AcDbEntity
  8
0
100
AcDbLine
 10
167.968
 20
86.6075
 30
0.0
 11
170.884
 21
87.0255
 31
0.0
  0
LINE
  5
65D
330
1D
100
AcDbEntity
  8
0
100
AcDbLine
 10
171.137
 20
68.1885
 30
0.0
 11
173.389
 21
68.3235
 31
0.0
  0
LINE
  5
65E
330
1D
100
AcDbEntity
  8
0
100
AcDbLine
 10
173.389
 20
68.3235
 30
0.0
 11
175.953
 21
68.6835
 31
0.0
  0
LINE
  5
65F
330
1D
100
AcDbEntity
  8
0
100
AcDbLine
 10
175.953
 20
68.6835
 30
0.0
 11
178.763
 21
69.2845
 31
0.0
  0
LINE
  5
660
330
1D
100
AcDbEntity
  8
0
100
AcDbLine
 10
178.763
 20
69.2845
 30
0.0
 11
181.545
 21
70.0805
 31
0.0
  0
LINE
  5
661
330
1D
100
AcDbEntity
  8
0
100
AcDbLine
 10
181.545
 20
70.0805
 30
0.0
 11
184.033
 21
70.9815
 31
0.0
  0
LINE
  5
662
330
1D
100
AcDbEntity
  8
0
100
AcDbLine
 10
184.033
 20
70.9815
 30
0.0
 11
186.171
 21
71.9415
 31
0.0
  0
LINE
  5
663
330
1D
100
AcDbEntity
  8
0
100
AcDbLine
 10
186.171
 20
71.9415
 30
0.0
 11
187.748
 21
72.9025
 31
0.0
  0
LINE
  5
664
330
1D
100
AcDbEntity
  8
0
100
AcDbLine
 10
188.743
 20
73.8035
 30
0.0
 11
189.037
 21
74.5995
 31
0.0
  0
LINE
  5
665
330
1D
100
AcDbEntity
  8
0
100
AcDbLine
 10
187.748
 20
72.9025
 30
0.0
 11
188.743
 21
73.8035
 31
0.0
  0
LINE
  5
666
330
1D
100
AcDbEntity
  8
0
100
AcDbLine
 10
173.003
 20
88.1885
 30
0.0
 11
173.673
 21
88.9575
 31
0.0
  0
LINE
  5
667
330
1D
100
AcDbEntity
  8
0
100
AcDbLine
 10
173.96
 20
90.4965
 30
0.0
 11
173.96
 21
147.1885
 31
0.0
  0
LINE
  5
668
330
1D
100
AcDbEntity
  8
0
100
AcDbLine
 10
173.673
 20
88.9575
 30
0.0
 11
173.96
 21
90.4965
 31
0.0
  0
LINE
  5
669
330
1D
100
AcDbEntity
  8
0
100
AcDbLine
 10
172.19
 20
88.1885
 30
0.0
 11
173.003
 21
88.1885
 31
0.0
  0
LINE
  5
66A
330
1D
100
AcDbEntity
  8
0
100
AcDbLine
 10
182.378
 20
90.6915
 30
0.0
 11
184.172
 21
91.7875
 31
0.0
  0
LINE
  5
66B
330
1D
100
AcDbEntity
  8
0
100
AcDbLine
 10
184.546255821701
 20
92.133228154711
 30
0.0
 11
189.037
 21
74.5995
 31
0.0
  0
LINE
  5
66C
330
1D
100
AcDbEntity
  8
0
100
AcDbLine
 10
185.553
 20
93.2245
 30
0.0
 11
185.885
 21
94.1375
 31
0.0
  0
LINE
  5
66D
330
1D
100
AcDbEntity
  8
0
100
AcDbLine
 10
185.274
 20
92.8055
 30
0.0
 11
185.553
 21
93.2245
 31
0.0
  0
LINE
  5
66E
330
1D
100
AcDbEntity
  8
0
100
AcDbLine
 10
184.172
 20
91.7875
 30
0.0
 11
185.274
 21
92.8055
 31
0.0
  0
LINE
  5
66F
330
1D
100
AcDbEntity
  8
0
100
AcDbLine
 10
179.935
 20
89.5955
 30
0.0
 11
182.378
 21
90.6915
 31
0.0
  0
LINE
  5
670
330
1D
100
AcDbEntity
  8
0
100
AcDbLine
 10
177.103
 20
88.5775
 30
0.0
 11
179.935
 21
89.5955
 31
0.0
  0
LINE
  5
671
330
1D
100
AcDbEntity
  8
0
100
AcDbLine
 10
174.009
 20
87.6905
 30
0.0
 11
177.103
 21
88.5775
 31
0.0
  0
LINE
  5
672
330
1D
100
AcDbEntity
  8
0
100
AcDbLine
 10
170.884
 20
87.0255
 30
0.0
 11
174.009
 21
87.6905
 31
0.0
  0
LINE
  5
673
330
1D
100
AcDbEntity
  8
0
100
AcDbLine
 10
162.528
 20
147.1885
 30
0.0
 11
167.263
 21
147.1885
 31
0.0
  0
LINE
  5
674
330
1D
100
AcDbEntity
  8
0
100
AcDbLine
 10
167.263
 20
147.1885
 30
0.0
 11
170.851
 21
147.1885
 31
0.0
  0
LINE
  5
675
330
1D
100
AcDbEntity
  8
0
100
AcDbLine
 10
170.851
 20
147.1885
 30
0.0
 11
173.147
 21
147.1885
 31
0.0
  0
LINE
  5
676
330
1D
100
AcDbEntity
  8
0
100
AcDbLine
 10
173.147
 20
147.1885
 30
0.0
 11
173.96
 21
147.1885
 31
0.0
  0
LINE
  5
677
330
1D
100
AcDbEntity
  8
0
100
AcDbLine
 10
169.25
 20
147.1885
 30
0.0
 11
173.293
 21
147.1885
 31
0.0
  0
LINE
  5
678
330
1D
100
AcDbEntity
  8
0
100
AcDbLine
 10
173.293
 20
147.1885
 30
0.0
 11
175.876
 21
147.1885
 31
0.0
  0
LINE
  5
679
330
1D
100
AcDbEntity
  8
0
100
AcDbLine
 10
163.859
 20
147.1885
 30
0.0
 11
169.25
 21
147.1885
 31
0.0
  0
LINE
  5
67A
330
1D
100
AcDbEntity
  8
0
100
AcDbLine
 10
161.013
 20
197.9485
 30
0.0
 11
165.142
 21
197.9485
 31
0.0
  0
LINE
  5
67B
330
1D
100
AcDbEntity
  8
0
100
AcDbLine
 10
165.518
 20
164.1885
 30
0.0
 11
171.506
 21
164.1885
 31
0.0
  0
LINE
  5
67C
330
1D
100
AcDbEntity
  8
0
100
AcDbLine
 10
166.081
 20
187.1885
 30
0.0
 11
172.394
 21
187.1885
 31
0.0
  0
LINE
  5
67D
330
1D
100
AcDbEntity
  8
0
100
AcDbLine
 10
165.518
 20
170.1885
 30
0.0
 11
171.506
 21
170.1885
 31
0.0
  0
LINE
  5
67E
330
1D
100
AcDbEntity
  8
0
100
AcDbLine
 10
171.506
 20
164.1885
 30
0.0
 11
176.017
 21
164.1885
 31
0.0
  0
LINE
  5
67F
330
1D
100
AcDbEntity
  8
0
100
AcDbLine
 10
171.506
 20
170.1885
 30
0.0
 11
176.017
 21
170.1885
 31
0.0
  0
LINE
  5
680
330
1D
100
AcDbEntity
  8
0
100
AcDbLine
 10
170.092
 20
187.1885
 30
0.0
 11
174.303
 21
187.1885
 31
0.0
  0
LINE
  5
681
330
1D
100
AcDbEntity
  8
0
100
AcDbLine
 10
166.081
 20
189.1885
 30
0.0
 11
172.394
 21
189.1885
 31
0.0
  0
LINE
  5
682
330
1D
100
AcDbEntity
  8
0
100
AcDbLine
 10
165.142
 20
197.9485
 30
0.0
 11
168.253
 21
197.9485
 31
0.0
  0
LINE
  5
683
330
1D
100
AcDbEntity
  8
0
100
AcDbLine
 10
164.803
 20
198.1885
 30
0.0
 11
167.857
 21
198.1885
 31
0.0
  0
LINE
  5
684
330
1D
100
AcDbEntity
  8
0
100
AcDbLine
 10
166.081
 20
191.1885
 30
0.0
 11
172.394
 21
191.1885
 31
0.0
  0
LINE
  5
685
330
1D
100
AcDbEntity
  8
0
100
AcDbLine
 10
166.081
 20
191.1885
 30
0.0
 11
166.52
 21
191.6505
 31
0.0
  0
LINE
  5
686
330
1D
100
AcDbEntity
  8
0
100
AcDbLine
 10
166.52
 20
187.6505
 30
0.0
 11
172.92
 21
187.6505
 31
0.0
  0
LINE
  5
687
330
1D
100
AcDbEntity
  8
0
100
AcDbLine
 10
166.52
 20
189.6505
 30
0.0
 11
172.92
 21
189.6505
 31
0.0
  0
LINE
  5
688
330
1D
100
AcDbEntity
  8
0
100
AcDbLine
 10
166.52
 20
190.7265
 30
0.0
 11
172.92
 21
190.7265
 31
0.0
  0
LINE
  5
689
330
1D
100
AcDbEntity
  8
0
100
AcDbLine
 10
172.394
 20
189.1885
 30
0.0
 11
177.129
 21
189.1885
 31
0.0
  0
LINE
  5
68A
330
1D
100
AcDbEntity
  8
0
100
AcDbLine
 10
166.52
 20
188.7265
 30
0.0
 11
172.92
 21
188.7265
 31
0.0
  0
LINE
  5
68B
330
1D
100
AcDbEntity
  8
0
100
AcDbLine
 10
172.92
 20
189.6505
 30
0.0
 11
177.743
 21
189.6505
 31
0.0
  0
LINE
  5
68C
330
1D
100
AcDbEntity
  8
0
100
AcDbLine
 10
172.92
 20
190.7265
 30
0.0
 11
177.743
 21
190.7265
 31
0.0
  0
LINE
  5
68D
330
1D
100
AcDbEntity
  8
0
100
AcDbLine
 10
172.92
 20
187.6505
 30
0.0
 11
177.743
 21
187.6505
 31
0.0
  0
LINE
  5
68E
330
1D
100
AcDbEntity
  8
0
100
AcDbLine
 10
172.92
 20
188.7265
 30
0.0
 11
177.743
 21
188.7265
 31
0.0
  0
LINE
  5
68F
330
1D
100
AcDbEntity
  8
0
100
AcDbLine
 10
172.92
 20
191.6505
 30
0.0
 11
177.743
 21
191.6505
 31
0.0
  0
LINE
  5
690
330
1D
100
AcDbEntity
  8
0
100
AcDbLine
 10
172.394
 20
191.1885
 30
0.0
 11
172.92
 21
191.6505
 31
0.0
  0
LINE
  5
691
330
1D
100
AcDbEntity
  8
0
100
AcDbLine
 10
172.394
 20
191.1885
 30
0.0
 11
177.129
 21
191.1885
 31
0.0
  0
LINE
  5
692
330
1D
100
AcDbEntity
  8
0
100
AcDbLine
 10
166.52
 20
191.6505
 30
0.0
 11
172.92
 21
191.6505
 31
0.0
  0
LINE
  5
693
330
1D
100
AcDbEntity
  8
0
100
AcDbLine
 10
172.92
 20
192.7265
 30
0.0
 11
177.743
 21
192.7265
 31
0.0
  0
LINE
  5
694
330
1D
100
AcDbEntity
  8
0
100
AcDbLine
 10
168.253
 20
197.9485
 30
0.0
 11
170.29
 21
197.9485
 31
0.0
  0
LINE
  5
695
330
1D
100
AcDbEntity
  8
0
100
AcDbLine
 10
170.29
 20
197.9485
 30
0.0
 11
171.025
 21
197.9485
 31
0.0
  0
LINE
  5
696
330
1D
100
AcDbEntity
  8
0
100
AcDbLine
 10
171.025
 20
197.9485
 30
0.0
 11
171.025
 21
193.1885
 31
0.0
  0
LINE
  5
697
330
1D
100
AcDbEntity
  8
0
100
AcDbLine
 10
171.025
 20
193.1885
 30
0.0
 11
171.025
 21
197.9485
 31
0.0
  0
LINE
  5
698
330
1D
100
AcDbEntity
  8
0
100
AcDbLine
 10
170.46
 20
198.1885
 30
0.0
 11
171.025
 21
197.9485
 31
0.0
  0
LINE
  5
699
330
1D
100
AcDbEntity
  8
0
100
AcDbLine
 10
167.857
 20
198.1885
 30
0.0
 11
169.781
 21
198.1885
 31
0.0
  0
LINE
  5
69A
330
1D
100
AcDbEntity
  8
0
100
AcDbLine
 10
172.394
 20
193.1885
 30
0.0
 11
177.129
 21
193.1885
 31
0.0
  0
LINE
  5
69B
330
1D
100
AcDbEntity
  8
0
100
AcDbLine
 10
166.52
 20
192.7265
 30
0.0
 11
172.92
 21
192.7265
 31
0.0
  0
LINE
  5
69C
330
1D
100
AcDbEntity
  8
0
100
AcDbLine
 10
166.081
 20
193.1885
 30
0.0
 11
172.394
 21
193.1885
 31
0.0
  0
LINE
  5
69D
330
1D
100
AcDbEntity
  8
0
100
AcDbLine
 10
174.303
 20
187.1885
 30
0.0
 11
176.999
 21
187.1885
 31
0.0
  0
LINE
  5
69E
330
1D
100
AcDbEntity
  8
0
100
AcDbLine
 10
164.533
 20
187.1885
 30
0.0
 11
170.092
 21
187.1885
 31
0.0
  0
LINE
  5
69F
330
1D
100
AcDbEntity
  8
0
100
AcDbLine
 10
173.96
 20
147.1885
 30
0.0
 11
175.876
 21
147.1885
 31
0.0
  0
LINE
  5
6A0
330
1D
100
AcDbEntity
  8
0
100
AcDbLine
 10
173.96
 20
147.1885
 30
0.0
 11
173.96
 21
90.4965
 31
0.0
  0
LINE
  5
6A1
330
1D
100
AcDbEntity
  8
0
100
AcDbLine
 10
176.017
 20
164.1885
 30
0.0
 11
178.97
 21
164.1885
 31
0.0
  0
LINE
  5
6A2
330
1D
100
AcDbEntity
  8
0
100
AcDbLine
 10
176.017
 20
170.1885
 30
0.0
 11
178.97
 21
170.1885
 31
0.0
  0
LINE
  5
6A3
330
1D
100
AcDbEntity
  8
0
100
AcDbLine
 10
177.129
 20
189.1885
 30
0.0
 11
180.11
 21
189.1885
 31
0.0
  0
LINE
  5
6A4
330
1D
100
AcDbEntity
  8
0
100
AcDbLine
 10
177.129
 20
191.1885
 30
0.0
 11
180.11
 21
191.1885
 31
0.0
  0
LINE
  5
6A5
330
1D
100
AcDbEntity
  8
0
100
AcDbLine
 10
177.129
 20
191.1885
 30
0.0
 11
177.743
 21
191.6505
 31
0.0
  0
LINE
  5
6A6
330
1D
100
AcDbEntity
  8
0
100
AcDbLine
 10
177.129
 20
193.1885
 30
0.0
 11
180.11
 21
193.1885
 31
0.0
  0
LINE
  5
6A7
330
1D
100
AcDbEntity
  8
0
100
AcDbLine
 10
176.999
 20
187.1885
 30
0.0
 11
177.953
 21
187.1885
 31
0.0
  0
LINE
  5
6A8
330
1D
100
AcDbEntity
  8
0
100
AcDbLine
 10
177.953
 20
159.1885
 30
0.0
 11
178.321
 21
159.1885
 31
0.0
  0
LINE
  5
6A9
330
1D
100
AcDbEntity
  8
0
100
AcDbLine
 10
177.953
 20
176.1885
 30
0.0
 11
178.321
 21
176.1885
 31
0.0
  0
LINE
  5
6AA
330
1D
100
AcDbEntity
  8
0
100
AcDbLine
 10
177.953
 20
181.1885
 30
0.0
 11
178.321
 21
181.1885
 31
0.0
  0
LINE
  5
6AB
330
1D
100
AcDbEntity
  8
0
100
AcDbLine
 10
177.953
 20
170.1885
 30
0.0
 11
177.953
 21
187.1885
 31
0.0
  0
LINE
  5
6AC
330
1D
100
AcDbEntity
  8
0
100
AcDbLine
 10
177.953
 20
149.4965
 30
0.0
 11
177.953
 21
164.1885
 31
0.0
  0
LINE
  5
6AD
330
1D
100
AcDbEntity
  8
0
100
AcDbLine
 10
178.321
 20
159.1885
 30
0.0
 11
178.487
 21
159.1885
 31
0.0
  0
LINE
  5
6AE
330
1D
100
AcDbEntity
  8
0
100
AcDbLine
 10
178.487
 20
159.1885
 30
0.0
 11
178.487
 21
164.1885
 31
0.0
  0
LINE
  5
6AF
330
1D
100
AcDbEntity
  8
0
100
AcDbLine
 10
178.321
 20
164.1885
 30
0.0
 11
178.487
 21
164.1885
 31
0.0
  0
LINE
  5
6B0
330
1D
100
AcDbEntity
  8
0
100
AcDbLine
 10
178.487
 20
164.1885
 30
0.0
 11
179.581
 21
164.1885
 31
0.0
  0
LINE
  5
6B1
330
1D
100
AcDbEntity
  8
0
100
AcDbLine
 10
178.487
 20
164.1885
 30
0.0
 11
178.487
 21
159.1885
 31
0.0
  0
LINE
  5
6B2
330
1D
100
AcDbEntity
  8
0
100
AcDbLine
 10
179.581
 20
164.1885
 30
0.0
 11
180.701
 21
164.1885
 31
0.0
  0
LINE
  5
6B3
330
1D
100
AcDbEntity
  8
0
100
AcDbLine
 10
178.714
 20
164.1885
 30
0.0
 11
178.97
 21
164.1885
 31
0.0
  0
LINE
  5
6B4
330
1D
100
AcDbEntity
  8
0
100
AcDbLine
 10
178.714
 20
164.1885
 30
0.0
 11
179.581
 21
164.1885
 31
0.0
  0
LINE
  5
6B5
330
1D
100
AcDbEntity
  8
0
100
AcDbLine
 10
180.037
 20
170.1885
 30
0.0
 11
180.037
 21
164.1885
 31
0.0
  0
LINE
  5
6B6
330
1D
100
AcDbEntity
  8
0
100
AcDbLine
 10
180.037
 20
170.1885
 30
0.0
 11
180.701
 21
170.1885
 31
0.0
  0
LINE
  5
6B7
330
1D
100
AcDbEntity
  8
0
100
AcDbLine
 10
178.97
 20
164.1885
 30
0.0
 11
180.037
 21
164.1885
 31
0.0
  0
LINE
  5
6B8
330
1D
100
AcDbEntity
  8
0
100
AcDbLine
 10
181.106
 20
170.1885
 30
0.0
 11
181.106
 21
164.1885
 31
0.0
  0
LINE
  5
6B9
330
1D
100
AcDbEntity
  8
0
100
AcDbLine
 10
180.701
 20
164.1885
 30
0.0
 11
181.106
 21
164.1885
 31
0.0
  0
LINE
  5
6BA
330
1D
100
AcDbEntity
  8
0
100
AcDbLine
 10
181.106
 20
164.1885
 30
0.0
 11
181.106
 21
170.1885
 31
0.0
  0
LINE
  5
6BB
330
1D
100
AcDbEntity
  8
0
100
AcDbLine
 10
180.701
 20
170.1885
 30
0.0
 11
181.106
 21
170.1885
 31
0.0
  0
LINE
  5
6BC
330
1D
100
AcDbEntity
  8
0
100
AcDbLine
 10
180.037
 20
164.1885
 30
0.0
 11
180.037
 21
170.1885
 31
0.0
  0
LINE
  5
6BD
330
1D
100
AcDbEntity
  8
0
100
AcDbLine
 10
178.321
 20
176.1885
 30
0.0
 11
178.487
 21
176.1885
 31
0.0
  0
LINE
  5
6BE
330
1D
100
AcDbEntity
  8
0
100
AcDbLine
 10
181.162
 20
187.1885
 30
0.0
 11
182.039
 21
187.6505
 31
0.0
  0
LINE
  5
6BF
330
1D
100
AcDbEntity
  8
0
100
AcDbLine
 10
180.11
 20
187.1885
 30
0.0
 11
181.162
 21
187.1885
 31
0.0
  0
LINE
  5
6C0
330
1D
100
AcDbEntity
  8
0
100
AcDbLine
 10
178.487
 20
181.1885
 30
0.0
 11
178.487
 21
176.1885
 31
0.0
  0
LINE
  5
6C1
330
1D
100
AcDbEntity
  8
0
100
AcDbLine
 10
178.487
 20
176.1885
 30
0.0
 11
178.487
 21
181.1885
 31
0.0
  0
LINE
  5
6C2
330
1D
100
AcDbEntity
  8
0
100
AcDbLine
 10
178.321
 20
181.1885
 30
0.0
 11
178.487
 21
181.1885
 31
0.0
  0
LINE
  5
6C3
330
1D
100
AcDbEntity
  8
0
100
AcDbLine
 10
178.97
 20
170.1885
 30
0.0
 11
180.037
 21
170.1885
 31
0.0
  0
LINE
  5
6C4
330
1D
100
AcDbEntity
  8
0
100
AcDbLine
 10
177.953
 20
164.1885
 30
0.0
 11
177.953
 21
149.4965
 31
0.0
  0
LINE
  5
6C5
330
1D
100
AcDbEntity
  8
0
100
AcDbLine
 10
177.953
 20
164.1885
 30
0.0
 11
178.321
 21
164.1885
 31
0.0
  0
LINE
  5
6C6
330
1D
100
AcDbEntity
  8
0
100
AcDbLine
 10
177.743
 20
187.6505
 30
0.0
 11
180.899
 21
187.6505
 31
0.0
  0
LINE
  5
6C7
330
1D
100
AcDbEntity
  8
0
100
AcDbLine
 10
177.743
 20
189.6505
 30
0.0
 11
180.899
 21
189.6505
 31
0.0
  0
LINE
  5
6C8
330
1D
100
AcDbEntity
  8
0
100
AcDbLine
 10
177.743
 20
190.7265
 30
0.0
 11
180.899
 21
190.7265
 31
0.0
  0
LINE
  5
6C9
330
1D
100
AcDbEntity
  8
0
100
AcDbLine
 10
177.743
 20
188.7265
 30
0.0
 11
180.899
 21
188.7265
 31
0.0
  0
LINE
  5
6CA
330
1D
100
AcDbEntity
  8
0
100
AcDbLine
 10
180.11
 20
189.1885
 30
0.0
 11
181.162
 21
189.1885
 31
0.0
  0
LINE
  5
6CB
330
1D
100
AcDbEntity
  8
0
100
AcDbLine
 10
177.743
 20
191.6505
 30
0.0
 11
180.899
 21
191.6505
 31
0.0
  0
LINE
  5
6CC
330
1D
100
AcDbEntity
  8
0
100
AcDbLine
 10
180.11
 20
191.1885
 30
0.0
 11
181.162
 21
191.1885
 31
0.0
  0
LINE
  5
6CD
330
1D
100
AcDbEntity
  8
0
100
AcDbLine
 10
180.11
 20
191.1885
 30
0.0
 11
180.899
 21
191.6505
 31
0.0
  0
LINE
  5
6CE
330
1D
100
AcDbEntity
  8
0
100
AcDbLine
 10
177.743
 20
192.7265
 30
0.0
 11
180.899
 21
192.7265
 31
0.0
  0
LINE
  5
6CF
330
1D
100
AcDbEntity
  8
0
100
AcDbLine
 10
180.899
 20
189.6505
 30
0.0
 11
182.039
 21
189.6505
 31
0.0
  0
LINE
  5
6D0
330
1D
100
AcDbEntity
  8
0
100
AcDbLine
 10
180.899
 20
190.7265
 30
0.0
 11
182.039
 21
190.7265
 31
0.0
  0
LINE
  5
6D1
330
1D
100
AcDbEntity
  8
0
100
AcDbLine
 10
180.899
 20
187.6505
 30
0.0
 11
182.039
 21
187.6505
 31
0.0
  0
LINE
  5
6D2
330
1D
100
AcDbEntity
  8
0
100
AcDbLine
 10
180.899
 20
188.7265
 30
0.0
 11
182.039
 21
188.7265
 31
0.0
  0
LINE
  5
6D3
330
1D
100
AcDbEntity
  8
0
100
AcDbLine
 10
180.899
 20
191.6505
 30
0.0
 11
182.039
 21
191.6505
 31
0.0
  0
LINE
  5
6D4
330
1D
100
AcDbEntity
  8
0
100
AcDbLine
 10
182.039
 20
190.7265
 30
0.0
 11
182.039
 21
189.6505
 31
0.0
  0
LINE
  5
6D5
330
1D
100
AcDbEntity
  8
0
100
AcDbLine
 10
182.039
 20
189.6505
 30
0.0
 11
182.039
 21
190.7265
 31
0.0
  0
LINE
  5
6D6
330
1D
100
AcDbEntity
  8
0
100
AcDbLine
 10
182.039
 20
188.7265
 30
0.0
 11
182.039
 21
187.6505
 31
0.0
  0
LINE
  5
6D7
330
1D
100
AcDbEntity
  8
0
100
AcDbLine
 10
182.039
 20
187.6505
 30
0.0
 11
182.039
 21
188.7265
 31
0.0
  0
LINE
  5
6D8
330
1D
100
AcDbEntity
  8
0
100
AcDbLine
 10
181.162
 20
189.1885
 30
0.0
 11
182.039
 21
188.7265
 31
0.0
  0
LINE
  5
6D9
330
1D
100
AcDbEntity
  8
0
100
AcDbLine
 10
181.162
 20
189.1885
 30
0.0
 11
182.039
 21
189.6505
 31
0.0
  0
LINE
  5
6DA
330
1D
100
AcDbEntity
  8
0
100
AcDbLine
 10
182.039
 20
192.7265
 30
0.0
 11
182.039
 21
191.6505
 31
0.0
  0
LINE
  5
6DB
330
1D
100
AcDbEntity
  8
0
100
AcDbLine
 10
182.039
 20
191.6505
 30
0.0
 11
182.039
 21
192.7265
 31
0.0
  0
LINE
  5
6DC
330
1D
100
AcDbEntity
  8
0
100
AcDbLine
 10
181.162
 20
191.1885
 30
0.0
 11
182.039
 21
191.6505
 31
0.0
  0
LINE
  5
6DD
330
1D
100
AcDbEntity
  8
0
100
AcDbLine
 10
181.162
 20
191.1885
 30
0.0
 11
182.039
 21
190.7265
 31
0.0
  0
LINE
  5
6DE
330
1D
100
AcDbEntity
  8
0
100
AcDbLine
 10
180.899
 20
192.7265
 30
0.0
 11
182.039
 21
192.7265
 31
0.0
  0
LINE
  5
6DF
330
1D
100
AcDbEntity
  8
0
100
AcDbLine
 10
181.162
 20
193.1885
 30
0.0
 11
182.039
 21
192.7265
 31
0.0
  0
LINE
  5
6E0
330
1D
100
AcDbEntity
  8
0
100
AcDbLine
 10
180.11
 20
193.1885
 30
0.0
 11
181.162
 21
193.1885
 31
0.0
  0
LINE
  5
6E1
330
1D
100
AcDbEntity
  8
0
100
AcDbLine
 10
177.953
 20
187.1885
 30
0.0
 11
177.953
 21
170.1885
 31
0.0
  0
LINE
  5
6E2
330
1D
100
AcDbEntity
  8
0
100
AcDbLine
 10
177.953
 20
187.1885
 30
0.0
 11
180.11
 21
187.1885
 31
0.0
  0
LINE
  5
6E3
330
1D
100
AcDbEntity
  8
0
100
AcDbLine
 10
177.616
 20
147.9575
 30
0.0
 11
177.953
 21
149.4965
 31
0.0
  0
LINE
  5
6E4
330
1D
100
AcDbEntity
  8
0
100
AcDbLine
 10
176.83
 20
147.1885
 30
0.0
 11
177.616
 21
147.9575
 31
0.0
  0
LINE
  5
6E5
330
1D
100
AcDbEntity
  8
0
100
AcDbLine
 10
175.876
 20
147.1885
 30
0.0
 11
176.83
 21
147.1885
 31
0.0
  0
LINE
  5
6E6
330
1D
100
AcDbEntity
  8
0
100
AcDbLine
 10
173.96
 20
141.354605121696
 30
0.0
 11
185.86
 21
94.8865
 31
0.0
  0
LINE
  5
6E7
330
1D
100
AcDbEntity
  8
0
100
AcDbLine
 10
250.5
 20
104.5365
 30
0.0
 11
250.9
 21
104.5365
 31
0.0
  0
LINE
  5
6E8
330
1D
100
AcDbEntity
  8
0
100
AcDbLine
 10
250.9
 20
104.5365
 30
0.0
 11
251.9
 21
104.5365
 31
0.0
  0
LINE
  5
6E9
330
1D
100
AcDbEntity
  8
0
100
AcDbLine
 10
249.5
 20
134.5365
 30
0.0
 11
249.9
 21
134.5365
 31
0.0
  0
LINE
  5
6EA
330
1D
100
AcDbEntity
  8
0
100
AcDbLine
 10
249.5
 20
134.5365
 30
0.0
 11
250.5
 21
104.5365
 31
0.0
  0
LINE
  5
6EB
330
1D
100
AcDbEntity
  8
0
100
AcDbLine
 10
249.9
 20
134.5365
 30
0.0
 11
251.0
 21
134.5365
 31
0.0
  0
LINE
  5
6EC
330
1D
100
AcDbEntity
  8
0
100
AcDbLine
 10
253.6
 20
104.5365
 30
0.0
 11
255.8
 21
104.5365
 31
0.0
  0
LINE
  5
6ED
330
1D
100
AcDbEntity
  8
0
100
AcDbLine
 10
253.5
 20
104.5365
 30
0.0
 11
253.5
 21
44.5365
 31
0.0
  0
LINE
  5
6EE
330
1D
100
AcDbEntity
  8
0
100
AcDbLine
 10
253.5
 20
104.5365
 30
0.0
 11
253.8
 21
104.5365
 31
0.0
  0
LINE
  5
6EF
330
1D
100
AcDbEntity
  8
0
100
AcDbLine
 10
253.8
 20
104.5365
 30
0.0
 11
254.5
 21
104.5365
 31
0.0
  0
LINE
  5
6F0
330
1D
100
AcDbEntity
  8
0
100
AcDbLine
 10
254.5
 20
104.5365
 30
0.0
 11
255.7
 21
104.5365
 31
0.0
  0
LINE
  5
6F1
330
1D
100
AcDbEntity
  8
0
100
AcDbLine
 10
251.9
 20
104.5365
 30
0.0
 11
253.5
 21
104.5365
 31
0.0
  0
LINE
  5
6F2
330
1D
100
AcDbEntity
  8
0
100
AcDbLine
 10
251.9
 20
104.5365
 30
0.0
 11
253.6
 21
104.5365
 31
0.0
  0
LINE
  5
6F3
330
1D
100
AcDbEntity
  8
0
100
AcDbLine
 10
251.0
 20
134.5365
 30
0.0
 11
252.9
 21
134.5365
 31
0.0
  0
LINE
  5
6F4
330
1D
100
AcDbEntity
  8
0
100
AcDbLine
 10
252.9
 20
134.5365
 30
0.0
 11
255.3
 21
134.5365
 31
0.0
  0
LINE
  5
6F5
330
1D
100
AcDbEntity
  8
0
100
AcDbLine
 10
255.8
 20
104.5365
 30
0.0
 11
258.3
 21
104.5365
 31
0.0
  0
LINE
  5
6F6
330
1D
100
AcDbEntity
  8
0
100
AcDbLine
 10
258.3
 20
104.5365
 30
0.0
 11
261.0
 21
104.5365
 31
0.0
  0
LINE
  5
6F7
330
1D
100
AcDbEntity
  8
0
100
AcDbLine
 10
255.7
 20
104.5365
 30
0.0
 11
257.3
 21
104.5365
 31
0.0
  0
LINE
  5
6F8
330
1D
100
AcDbEntity
  8
0
100
AcDbLine
 10
257.3
 20
104.5365
 30
0.0
 11
259.1
 21
104.5365
 31
0.0
  0
LINE
  5
6F9
330
1D
100
AcDbEntity
  8
0
100
AcDbLine
 10
259.1
 20
104.5365
 30
0.0
 11
261.0
 21
104.5365
 31
0.0
  0
LINE
  5
6FA
330
1D
100
AcDbEntity
  8
0
100
AcDbLine
 10
262.9
 20
104.5365
 30
0.0
 11
264.7
 21
104.5365
 31
0.0
  0
LINE
  5
6FB
330
1D
100
AcDbEntity
  8
0
100
AcDbLine
 10
263.7
 20
104.5365
 30
0.0
 11
266.2
 21
104.5365
 31
0.0
  0
LINE
  5
6FC
330
1D
100
AcDbEntity
  8
0
100
AcDbLine
 10
261.0
 20
104.5365
 30
0.0
 11
263.7
 21
104.5365
 31
0.0
  0
LINE
  5
6FD
330
1D
100
AcDbEntity
  8
0
100
AcDbLine
 10
261.0
 20
104.5365
 30
0.0
 11
262.9
 21
104.5365
 31
0.0
  0
LINE
  5
6FE
330
1D
100
AcDbEntity
  8
0
100
AcDbLine
 10
255.3
 20
134.5365
 30
0.0
 11
258.0
 21
134.5365
 31
0.0
  0
LINE
  5
6FF
330
1D
100
AcDbEntity
  8
0
100
AcDbLine
 10
258.0
 20
134.5365
 30
0.0
 11
261.0
 21
134.5365
 31
0.0
  0
LINE
  5
700
330
1D
100
AcDbEntity
  8
0
100
AcDbLine
 10
264.7
 20
104.5365
 30
0.0
 11
266.3
 21
104.5365
 31
0.0
  0
LINE
  5
701
330
1D
100
AcDbEntity
  8
0
100
AcDbLine
 10
268.2
 20
104.5365
 30
0.0
 11
268.5
 21
104.5365
 31
0.0
  0
LINE
  5
702
330
1D
100
AcDbEntity
  8
0
100
AcDbLine
 10
267.5
 20
104.5365
 30
0.0
 11
268.2
 21
104.5365
 31
0.0
  0
LINE
  5
703
330
1D
100
AcDbEntity
  8
0
100
AcDbLine
 10
266.3
 20
104.5365
 30
0.0
 11
267.5
 21
104.5365
 31
0.0
  0
LINE
  5
704
330
1D
100
AcDbEntity
  8
0
100
AcDbLine
 10
268.4
 20
104.5365
 30
0.0
 11
270.1
 21
104.5365
 31
0.0
  0
LINE
  5
705
330
1D
100
AcDbEntity
  8
0
100
AcDbLine
 10
266.2
 20
104.5365
 30
0.0
 11
268.4
 21
104.5365
 31
0.0
  0
LINE
  5
706
330
1D
100
AcDbEntity
  8
0
100
AcDbLine
 10
268.5
 20
104.5365
 30
0.0
 11
268.5
 21
54.5365
 31
0.0
  0
LINE
  5
707
330
1D
100
AcDbEntity
  8
0
100
AcDbLine
 10
268.5
 20
104.5365
 30
0.0
 11
270.1
 21
104.5365
 31
0.0
  0
LINE
  5
708
330
1D
100
AcDbEntity
  8
0
100
AcDbLine
 10
271.5
 20
104.5365
 30
0.0
 11
272.5
 21
134.5365
 31
0.0
  0
LINE
  5
709
330
1D
100
AcDbEntity
  8
0
100
AcDbLine
 10
271.1
 20
104.5365
 30
0.0
 11
271.5
 21
104.5365
 31
0.0
  0
LINE
  5
70A
330
1D
100
AcDbEntity
  8
0
100
AcDbLine
 10
271.736
 20
134.5365
 30
0.0
 11
272.0
 21
134.8965
 31
0.0
  0
LINE
  5
70B
330
1D
100
AcDbEntity
  8
0
100
AcDbLine
 10
270.1
 20
104.5365
 30
0.0
 11
271.1
 21
104.5365
 31
0.0
  0
LINE
  5
70C
330
1D
100
AcDbEntity
  8
0
100
AcDbLine
 10
272.1
 20
134.5365
 30
0.0
 11
272.5
 21
134.5365
 31
0.0
  0
LINE
  5
70D
330
1D
100
AcDbEntity
  8
0
100
AcDbLine
 10
271.0
 20
134.5365
 30
0.0
 11
272.1
 21
134.5365
 31
0.0
  0
LINE
  5
70E
330
1D
100
AcDbEntity
  8
0
100
AcDbLine
 10
269.1
 20
134.5365
 30
0.0
 11
271.0
 21
134.5365
 31
0.0
  0
LINE
  5
70F
330
1D
100
AcDbEntity
  8
0
100
AcDbLine
 10
266.7
 20
134.5365
 30
0.0
 11
269.1
 21
134.5365
 31
0.0
  0
LINE
  5
710
330
1D
100
AcDbEntity
  8
0
100
AcDbLine
 10
264.0
 20
134.5365
 30
0.0
 11
266.7
 21
134.5365
 31
0.0
  0
LINE
  5
711
330
1D
100
AcDbEntity
  8
0
100
AcDbLine
 10
250.0
 20
134.8965
 30
0.0
 11
250.264
 21
134.5365
 31
0.0
  0
LINE
  5
712
330
1D
100
AcDbEntity
  8
0
100
AcDbLine
 10
250.0
 20
134.8965
 30
0.0
 11
250.396
 21
134.8965
 31
0.0
  0
LINE
  5
713
330
1D
100
AcDbEntity
  8
0
100
AcDbLine
 10
250.0
 20
134.8965
 30
0.0
 11
250.0
 21
140.1885
 31
0.0
  0
LINE
  5
714
330
1D
100
AcDbEntity
  8
0
100
AcDbLine
 10
250.396
 20
134.8965
 30
0.0
 11
251.452
 21
134.8965
 31
0.0
  0
LINE
  5
715
330
1D
100
AcDbEntity
  8
0
100
AcDbLine
 10
251.452
 20
134.8965
 30
0.0
 11
253.212
 21
134.8965
 31
0.0
  0
LINE
  5
716
330
1D
100
AcDbEntity
  8
0
100
AcDbLine
 10
253.212
 20
134.8965
 30
0.0
 11
255.544
 21
134.8965
 31
0.0
  0
LINE
  5
717
330
1D
100
AcDbEntity
  8
0
100
AcDbLine
 10
245.0
 20
140.1885
 30
0.0
 11
245.576
 21
140.1885
 31
0.0
  0
LINE
  5
718
330
1D
100
AcDbEntity
  8
0
100
AcDbLine
 10
245.0
 20
140.1885
 30
0.0
 11
245.0
 21
170.3355
 31
0.0
  0
LINE
  5
719
330
1D
100
AcDbEntity
  8
0
100
AcDbLine
 10
245.576
 20
140.1885
 30
0.0
 11
247.112
 21
140.1885
 31
0.0
  0
LINE
  5
71A
330
1D
100
AcDbEntity
  8
0
100
AcDbLine
 10
247.112
 20
140.1885
 30
0.0
 11
249.672
 21
140.1885
 31
0.0
  0
LINE
  5
71B
330
1D
100
AcDbEntity
  8
0
100
AcDbLine
 10
236.0
 20
175.3355
 30
0.0
 11
236.27
 21
175.3355
 31
0.0
  0
LINE
  5
71C
330
1D
100
AcDbEntity
  8
0
100
AcDbLine
 10
236.0
 20
175.3355
 30
0.0
 11
236.0
 21
170.3355
 31
0.0
  0
LINE
  5
71D
330
1D
100
AcDbEntity
  8
0
100
AcDbLine
 10
236.0
 20
170.3355
 30
0.0
 11
236.0
 21
175.3355
 31
0.0
  0
LINE
  5
71E
330
1D
100
AcDbEntity
  8
0
100
AcDbLine
 10
236.0
 20
170.3355
 30
0.0
 11
236.27
 21
170.3355
 31
0.0
  0
LINE
  5
71F
330
1D
100
AcDbEntity
  8
0
100
AcDbLine
 10
236.27
 20
170.3355
 30
0.0
 11
236.99
 21
170.3355
 31
0.0
  0
LINE
  5
720
330
1D
100
AcDbEntity
  8
0
100
AcDbLine
 10
237.793
 20
166.1885
 30
0.0
 11
237.85
 21
166.1885
 31
0.0
  0
LINE
  5
721
330
1D
100
AcDbEntity
  8
0
100
AcDbLine
 10
237.793
 20
166.1885
 30
0.0
 11
237.793
 21
170.1885
 31
0.0
  0
LINE
  5
722
330
1D
100
AcDbEntity
  8
0
100
AcDbLine
 10
237.793
 20
166.1885
 30
0.0
 11
237.852
 21
166.1885
 31
0.0
  0
LINE
  5
723
330
1D
100
AcDbEntity
  8
0
100
AcDbLine
 10
237.85
 20
166.1885
 30
0.0
 11
238.037
 21
166.1885
 31
0.0
  0
LINE
  5
724
330
1D
100
AcDbEntity
  8
0
100
AcDbLine
 10
238.037
 20
166.1885
 30
0.0
 11
238.343
 21
166.1885
 31
0.0
  0
LINE
  5
725
330
1D
100
AcDbEntity
  8
0
100
AcDbLine
 10
237.852
 20
166.1885
 30
0.0
 11
238.041
 21
166.1885
 31
0.0
  0
LINE
  5
726
330
1D
100
AcDbEntity
  8
0
100
AcDbLine
 10
238.343
 20
166.1885
 30
0.0
 11
238.731
 21
166.1885
 31
0.0
  0
LINE
  5
727
330
1D
100
AcDbEntity
  8
0
100
AcDbLine
 10
238.041
 20
166.1885
 30
0.0
 11
238.331
 21
166.1885
 31
0.0
  0
LINE
  5
728
330
1D
100
AcDbEntity
  8
0
100
AcDbLine
 10
237.793
 20
170.1885
 30
0.0
 11
237.85
 21
170.1885
 31
0.0
  0
LINE
  5
729
330
1D
100
AcDbEntity
  8
0
100
AcDbLine
 10
237.793
 20
170.1885
 30
0.0
 11
237.793
 21
166.1885
 31
0.0
  0
LINE
  5
72A
330
1D
100
AcDbEntity
  8
0
100
AcDbLine
 10
237.85
 20
170.1885
 30
0.0
 11
238.037
 21
170.1885
 31
0.0
  0
LINE
  5
72B
330
1D
100
AcDbEntity
  8
0
100
AcDbLine
 10
238.037
 20
170.1885
 30
0.0
 11
238.343
 21
170.1885
 31
0.0
  0
LINE
  5
72C
330
1D
100
AcDbEntity
  8
0
100
AcDbLine
 10
238.343
 20
170.1885
 30
0.0
 11
238.731
 21
170.1885
 31
0.0
  0
LINE
  5
72D
330
1D
100
AcDbEntity
  8
0
100
AcDbLine
 10
238.331
 20
166.1885
 30
0.0
 11
238.724
 21
166.1885
 31
0.0
  0
LINE
  5
72E
330
1D
100
AcDbEntity
  8
0
100
AcDbLine
 10
238.731
 20
166.1885
 30
0.0
 11
239.178
 21
166.1885
 31
0.0
  0
LINE
  5
72F
330
1D
100
AcDbEntity
  8
0
100
AcDbLine
 10
239.178
 20
166.1885
 30
0.0
 11
239.659
 21
166.1885
 31
0.0
  0
LINE
  5
730
330
1D
100
AcDbEntity
  8
0
100
AcDbLine
 10
238.724
 20
166.1885
 30
0.0
 11
239.186
 21
166.1885
 31
0.0
  0
LINE
  5
731
330
1D
100
AcDbEntity
  8
0
100
AcDbLine
 10
238.731
 20
170.1885
 30
0.0
 11
239.178
 21
170.1885
 31
0.0
  0
LINE
  5
732
330
1D
100
AcDbEntity
  8
0
100
AcDbLine
 10
239.178
 20
170.1885
 30
0.0
 11
239.659
 21
170.1885
 31
0.0
  0
LINE
  5
733
330
1D
100
AcDbEntity
  8
0
100
AcDbLine
 10
239.186
 20
166.1885
 30
0.0
 11
239.667
 21
166.1885
 31
0.0
  0
LINE
  5
734
330
1D
100
AcDbEntity
  8
0
100
AcDbLine
 10
238.416
 20
170.1885
 30
0.0
 11
238.416
 21
170.3355
 31
0.0
  0
LINE
  5
735
330
1D
100
AcDbEntity
  8
0
100
AcDbLine
 10
238.416
 20
170.3355
 30
0.0
 11
238.416
 21
170.1885
 31
0.0
  0
LINE
  5
736
330
1D
100
AcDbEntity
  8
0
100
AcDbLine
 10
236.99
 20
170.3355
 30
0.0
 11
238.19
 21
170.3355
 31
0.0
  0
LINE
  5
737
330
1D
100
AcDbEntity
  8
0
100
AcDbLine
 10
236.27
 20
175.3355
 30
0.0
 11
236.99
 21
175.3355
 31
0.0
  0
LINE
  5
738
330
1D
100
AcDbEntity
  8
0
100
AcDbLine
 10
236.99
 20
175.3355
 30
0.0
 11
238.19
 21
175.3355
 31
0.0
  0
LINE
  5
739
330
1D
100
AcDbEntity
  8
0
100
AcDbLine
 10
238.19
 20
175.3355
 30
0.0
 11
239.78
 21
175.3355
 31
0.0
  0
LINE
  5
73A
330
1D
100
AcDbEntity
  8
0
100
AcDbLine
 10
238.416
 20
175.3355
 30
0.0
 11
238.416
 21
179.1885
 31
0.0
  0
LINE
  5
73B
330
1D
100
AcDbEntity
  8
0
100
AcDbLine
 10
238.416
 20
179.1885
 30
0.0
 11
238.416
 21
175.3355
 31
0.0
  0
LINE
  5
73C
330
1D
100
AcDbEntity
  8
0
100
AcDbLine
 10
238.19
 20
170.3355
 30
0.0
 11
238.416
 21
170.3355
 31
0.0
  0
LINE
  5
73D
330
1D
100
AcDbEntity
  8
0
100
AcDbLine
 10
238.19
 20
170.3355
 30
0.0
 11
239.78
 21
170.3355
 31
0.0
  0
LINE
  5
73E
330
1D
100
AcDbEntity
  8
0
100
AcDbLine
 10
236.0
 20
179.1885
 30
0.0
 11
236.9
 21
179.1885
 31
0.0
  0
LINE
  5
73F
330
1D
100
AcDbEntity
  8
0
100
AcDbLine
 10
236.0
 20
179.1885
 30
0.0
 11
236.0
 21
181.1885
 31
0.0
  0
LINE
  5
740
330
1D
100
AcDbEntity
  8
0
100
AcDbLine
 10
236.9
 20
179.1885
 30
0.0
 11
239.3
 21
179.1885
 31
0.0
  0
LINE
  5
741
330
1D
100
AcDbEntity
  8
0
100
AcDbLine
 10
236.9
 20
179.1885
 30
0.0
 11
238.416
 21
179.1885
 31
0.0
  0
LINE
  5
742
330
1D
100
AcDbEntity
  8
0
100
AcDbLine
 10
239.659
 20
166.1885
 30
0.0
 11
240.14
 21
166.1885
 31
0.0
  0
LINE
  5
743
330
1D
100
AcDbEntity
  8
0
100
AcDbLine
 10
239.659
 20
170.1885
 30
0.0
 11
240.14
 21
170.1885
 31
0.0
  0
LINE
  5
744
330
1D
100
AcDbEntity
  8
0
100
AcDbLine
 10
240.14
 20
166.1885
 30
0.0
 11
240.601
 21
166.1885
 31
0.0
  0
LINE
  5
745
330
1D
100
AcDbEntity
  8
0
100
AcDbLine
 10
240.601
 20
166.1885
 30
0.0
 11
240.994
 21
166.1885
 31
0.0
  0
LINE
  5
746
330
1D
100
AcDbEntity
  8
0
100
AcDbLine
 10
240.595
 20
166.1885
 30
0.0
 11
240.983
 21
166.1885
 31
0.0
  0
LINE
  5
747
330
1D
100
AcDbEntity
  8
0
100
AcDbLine
 10
240.601
 20
170.1885
 30
0.0
 11
240.994
 21
170.1885
 31
0.0
  0
LINE
  5
748
330
1D
100
AcDbEntity
  8
0
100
AcDbLine
 10
240.14
 20
170.1885
 30
0.0
 11
240.601
 21
170.1885
 31
0.0
  0
LINE
  5
749
330
1D
100
AcDbEntity
  8
0
100
AcDbLine
 10
240.148
 20
166.1885
 30
0.0
 11
240.595
 21
166.1885
 31
0.0
  0
LINE
  5
74A
330
1D
100
AcDbEntity
  8
0
100
AcDbLine
 10
239.667
 20
166.1885
 30
0.0
 11
240.148
 21
166.1885
 31
0.0
  0
LINE
  5
74B
330
1D
100
AcDbEntity
  8
0
100
AcDbLine
 10
239.78
 20
170.3355
 30
0.0
 11
241.58
 21
170.3355
 31
0.0
  0
LINE
  5
74C
330
1D
100
AcDbEntity
  8
0
100
AcDbLine
 10
240.91
 20
170.1885
 30
0.0
 11
240.91
 21
170.3355
 31
0.0
  0
LINE
  5
74D
330
1D
100
AcDbEntity
  8
0
100
AcDbLine
 10
241.285
 20
166.1885
 30
0.0
 11
241.474
 21
166.1885
 31
0.0
  0
LINE
  5
74E
330
1D
100
AcDbEntity
  8
0
100
AcDbLine
 10
240.994
 20
166.1885
 30
0.0
 11
241.285
 21
166.1885
 31
0.0
  0
LINE
  5
74F
330
1D
100
AcDbEntity
  8
0
100
AcDbLine
 10
241.474
 20
166.1885
 30
0.0
 11
241.533
 21
166.1885
 31
0.0
  0
LINE
  5
750
330
1D
100
AcDbEntity
  8
0
100
AcDbLine
 10
241.533
 20
166.1885
 30
0.0
 11
241.533
 21
170.1885
 31
0.0
  0
LINE
  5
751
330
1D
100
AcDbEntity
  8
0
100
AcDbLine
 10
241.476
 20
166.1885
 30
0.0
 11
241.533
 21
166.1885
 31
0.0
  0
LINE
  5
752
330
1D
100
AcDbEntity
  8
0
100
AcDbLine
 10
241.285
 20
170.1885
 30
0.0
 11
241.474
 21
170.1885
 31
0.0
  0
LINE
  5
753
330
1D
100
AcDbEntity
  8
0
100
AcDbLine
 10
240.994
 20
170.1885
 30
0.0
 11
241.285
 21
170.1885
 31
0.0
  0
LINE
  5
754
330
1D
100
AcDbEntity
  8
0
100
AcDbLine
 10
241.533
 20
170.1885
 30
0.0
 11
241.533
 21
166.1885
 31
0.0
  0
LINE
  5
755
330
1D
100
AcDbEntity
  8
0
100
AcDbLine
 10
241.289
 20
166.1885
 30
0.0
 11
241.476
 21
166.1885
 31
0.0
  0
LINE
  5
756
330
1D
100
AcDbEntity
  8
0
100
AcDbLine
 10
240.983
 20
166.1885
 30
0.0
 11
241.289
 21
166.1885
 31
0.0
  0
LINE
  5
757
330
1D
100
AcDbEntity
  8
0
100
AcDbLine
 10
241.474
 20
170.1885
 30
0.0
 11
241.533
 21
170.1885
 31
0.0
  0
LINE
  5
758
330
1D
100
AcDbEntity
  8
0
100
AcDbLine
 10
240.91
 20
170.3355
 30
0.0
 11
241.58
 21
170.3355
 31
0.0
  0
LINE
  5
759
330
1D
100
AcDbEntity
  8
0
100
AcDbLine
 10
240.91
 20
170.3355
 30
0.0
 11
240.91
 21
170.1885
 31
0.0
  0
LINE
  5
75A
330
1D
100
AcDbEntity
  8
0
100
AcDbLine
 10
239.78
 20
175.3355
 30
0.0
 11
241.58
 21
175.3355
 31
0.0
  0
LINE
  5
75B
330
1D
100
AcDbEntity
  8
0
100
AcDbLine
 10
241.58
 20
175.3355
 30
0.0
 11
243.64
 21
175.3355
 31
0.0
  0
LINE
  5
75C
330
1D
100
AcDbEntity
  8
0
100
AcDbLine
 10
243.64
 20
175.3355
 30
0.0
 11
246.84
 21
175.3355
 31
0.0
  0
LINE
  5
75D
330
1D
100
AcDbEntity
  8
0
100
AcDbLine
 10
240.91
 20
175.3355
 30
0.0
 11
240.91
 21
179.1885
 31
0.0
  0
LINE
  5
75E
330
1D
100
AcDbEntity
  8
0
100
AcDbLine
 10
241.58
 20
170.3355
 30
0.0
 11
243.64
 21
170.3355
 31
0.0
  0
LINE
  5
75F
330
1D
100
AcDbEntity
  8
0
100
AcDbLine
 10
243.64
 20
170.3355
 30
0.0
 11
245.0
 21
170.3355
 31
0.0
  0
LINE
  5
760
330
1D
100
AcDbEntity
  8
0
100
AcDbLine
 10
243.64
 20
170.3355
 30
0.0
 11
246.84
 21
170.3355
 31
0.0
  0
LINE
  5
761
330
1D
100
AcDbEntity
  8
0
100
AcDbLine
 10
240.91
 20
179.1885
 30
0.0
 11
243.3
 21
179.1885
 31
0.0
  0
LINE
  5
762
330
1D
100
AcDbEntity
  8
0
100
AcDbLine
 10
240.91
 20
179.1885
 30
0.0
 11
240.91
 21
175.3355
 31
0.0
  0
LINE
  5
763
330
1D
100
AcDbEntity
  8
0
100
AcDbLine
 10
239.3
 20
179.1885
 30
0.0
 11
243.3
 21
179.1885
 31
0.0
  0
LINE
  5
764
330
1D
100
AcDbEntity
  8
0
100
AcDbLine
 10
243.3
 20
179.1885
 30
0.0
 11
248.6
 21
179.1885
 31
0.0
  0
LINE
  5
765
330
1D
100
AcDbEntity
  8
0
100
AcDbLine
 10
243.3
 20
179.1885
 30
0.0
 11
245.0
 21
179.1885
 31
0.0
  0
LINE
  5
766
330
1D
100
AcDbEntity
  8
0
100
AcDbLine
 10
245.0
 20
170.3355
 30
0.0
 11
245.0
 21
140.1885
 31
0.0
  0
LINE
  5
767
330
1D
100
AcDbEntity
  8
0
100
AcDbLine
 10
236.0
 20
181.1885
 30
0.0
 11
236.9
 21
181.1885
 31
0.0
  0
LINE
  5
768
330
1D
100
AcDbEntity
  8
0
100
AcDbLine
 10
236.0
 20
181.1885
 30
0.0
 11
236.0
 21
179.1885
 31
0.0
  0
LINE
  5
769
330
1D
100
AcDbEntity
  8
0
100
AcDbLine
 10
236.9
 20
181.1885
 30
0.0
 11
239.3
 21
181.1885
 31
0.0
  0
LINE
  5
76A
330
1D
100
AcDbEntity
  8
0
100
AcDbLine
 10
239.3
 20
181.1885
 30
0.0
 11
243.3
 21
181.1885
 31
0.0
  0
LINE
  5
76B
330
1D
100
AcDbEntity
  8
0
100
AcDbLine
 10
243.3
 20
181.1885
 30
0.0
 11
248.6
 21
181.1885
 31
0.0
  0
LINE
  5
76C
330
1D
100
AcDbEntity
  8
0
100
AcDbLine
 10
245.0
 20
179.1885
 30
0.0
 11
245.0
 21
175.3355
 31
0.0
  0
LINE
  5
76D
330
1D
100
AcDbEntity
  8
0
100
AcDbLine
 10
245.0
 20
175.3355
 30
0.0
 11
245.0
 21
179.1885
 31
0.0
  0
LINE
  5
76E
330
1D
100
AcDbEntity
  8
0
100
AcDbLine
 10
235.0
 20
190.1885
 30
0.0
 11
235.936
 21
190.1885
 31
0.0
  0
LINE
  5
76F
330
1D
100
AcDbEntity
  8
0
100
AcDbLine
 10
235.0
 20
190.1885
 30
0.0
 11
235.0
 21
191.1885
 31
0.0
  0
LINE
  5
770
330
1D
100
AcDbEntity
  8
0
100
AcDbLine
 10
235.936
 20
190.1885
 30
0.0
 11
238.432
 21
190.1885
 31
0.0
  0
LINE
  5
771
330
1D
100
AcDbEntity
  8
0
100
AcDbLine
 10
238.432
 20
190.1885
 30
0.0
 11
242.592
 21
190.1885
 31
0.0
  0
LINE
  5
772
330
1D
100
AcDbEntity
  8
0
100
AcDbLine
 10
242.592
 20
190.1885
 30
0.0
 11
248.104
 21
190.1885
 31
0.0
  0
LINE
  5
773
330
1D
100
AcDbEntity
  8
0
100
AcDbLine
 10
242.592
 20
190.1885
 30
0.0
 11
245.0
 21
190.1885
 31
0.0
  0
LINE
  5
774
330
1D
100
AcDbEntity
  8
0
100
AcDbLine
 10
245.0
 20
190.1885
 30
0.0
 11
245.576
 21
190.1885
 31
0.0
  0
LINE
  5
775
330
1D
100
AcDbEntity
  8
0
100
AcDbLine
 10
245.0
 20
190.1885
 30
0.0
 11
245.0
 21
181.1885
 31
0.0
  0
LINE
  5
776
330
1D
100
AcDbEntity
  8
0
100
AcDbLine
 10
245.0
 20
181.1885
 30
0.0
 11
245.0
 21
190.1885
 31
0.0
  0
LINE
  5
777
330
1D
100
AcDbEntity
  8
0
100
AcDbLine
 10
246.84
 20
170.3355
 30
0.0
 11
251.08
 21
170.3355
 31
0.0
  0
LINE
  5
778
330
1D
100
AcDbEntity
  8
0
100
AcDbLine
 10
246.84
 20
175.3355
 30
0.0
 11
251.08
 21
175.3355
 31
0.0
  0
LINE
  5
779
330
1D
100
AcDbEntity
  8
0
100
AcDbLine
 10
248.104
 20
190.1885
 30
0.0
 11
254.344
 21
190.1885
 31
0.0
  0
LINE
  5
77A
330
1D
100
AcDbEntity
  8
0
100
AcDbLine
 10
248.6
 20
181.1885
 30
0.0
 11
254.6
 21
181.1885
 31
0.0
  0
LINE
  5
77B
330
1D
100
AcDbEntity
  8
0
100
AcDbLine
 10
248.6
 20
179.1885
 30
0.0
 11
254.6
 21
179.1885
 31
0.0
  0
LINE
  5
77C
330
1D
100
AcDbEntity
  8
0
100
AcDbLine
 10
245.576
 20
190.1885
 30
0.0
 11
247.112
 21
190.1885
 31
0.0
  0
LINE
  5
77D
330
1D
100
AcDbEntity
  8
0
100
AcDbLine
 10
235.0
 20
191.1885
 30
0.0
 11
235.936
 21
191.1885
 31
0.0
  0
LINE
  5
77E
330
1D
100
AcDbEntity
  8
0
100
AcDbLine
 10
235.0
 20
191.1885
 30
0.0
 11
235.0
 21
190.1885
 31
0.0
  0
LINE
  5
77F
330
1D
100
AcDbEntity
  8
0
100
AcDbLine
 10
235.936
 20
191.1885
 30
0.0
 11
238.432
 21
191.1885
 31
0.0
  0
LINE
  5
780
330
1D
100
AcDbEntity
  8
0
100
AcDbLine
 10
236.0
 20
193.1885
 30
0.0
 11
236.9
 21
193.1885
 31
0.0
  0
LINE
  5
781
330
1D
100
AcDbEntity
  8
0
100
AcDbLine
 10
236.0
 20
193.1885
 30
0.0
 11
236.0
 21
191.1885
 31
0.0
  0
LINE
  5
782
330
1D
100
AcDbEntity
  8
0
100
AcDbLine
 10
238.432
 20
191.1885
 30
0.0
 11
242.592
 21
191.1885
 31
0.0
  0
LINE
  5
783
330
1D
100
AcDbEntity
  8
0
100
AcDbLine
 10
236.0
 20
191.1885
 30
0.0
 11
236.0
 21
193.1885
 31
0.0
  0
LINE
  5
784
330
1D
100
AcDbEntity
  8
0
100
AcDbLine
 10
236.9
 20
193.1885
 30
0.0
 11
239.3
 21
193.1885
 31
0.0
  0
LINE
  5
785
330
1D
100
AcDbEntity
  8
0
100
AcDbLine
 10
242.592
 20
191.1885
 30
0.0
 11
248.104
 21
191.1885
 31
0.0
  0
LINE
  5
786
330
1D
100
AcDbEntity
  8
0
100
AcDbLine
 10
248.104
 20
191.1885
 30
0.0
 11
254.344
 21
191.1885
 31
0.0
  0
LINE
  5
787
330
1D
100
AcDbEntity
  8
0
100
AcDbLine
 10
239.3
 20
193.1885
 30
0.0
 11
243.3
 21
193.1885
 31
0.0
  0
LINE
  5
788
330
1D
100
AcDbEntity
  8
0
100
AcDbLine
 10
243.3
 20
193.1885
 30
0.0
 11
248.6
 21
193.1885
 31
0.0
  0
LINE
  5
789
330
1D
100
AcDbEntity
  8
0
100
AcDbLine
 10
248.6
 20
193.1885
 30
0.0
 11
254.6
 21
193.1885
 31
0.0
  0
LINE
  5
78A
330
1D
100
AcDbEntity
  8
0
100
AcDbLine
 10
247.112
 20
190.1885
 30
0.0
 11
249.672
 21
190.1885
 31
0.0
  0
LINE
  5
78B
330
1D
100
AcDbEntity
  8
0
100
AcDbLine
 10
249.672
 20
190.1885
 30
0.0
 11
253.064
 21
190.1885
 31
0.0
  0
LINE
  5
78C
330
1D
100
AcDbEntity
  8
0
100
AcDbLine
 10
249.672
 20
140.1885
 30
0.0
 11
253.064
 21
140.1885
 31
0.0
  0
LINE
  5
78D
330
1D
100
AcDbEntity
  8
0
100
AcDbLine
 10
249.672
 20
140.1885
 30
0.0
 11
250.0
 21
140.1885
 31
0.0
  0
LINE
  5
78E
330
1D
100
AcDbEntity
  8
0
100
AcDbLine
 10
253.064
 20
140.1885
 30
0.0
 11
256.904
 21
140.1885
 31
0.0
  0
LINE
  5
78F
330
1D
100
AcDbEntity
  8
0
100
AcDbLine
 10
251.08
 20
170.3355
 30
0.0
 11
255.88
 21
170.3355
 31
0.0
  0
LINE
  5
790
330
1D
100
AcDbEntity
  8
0
100
AcDbLine
 10
251.08
 20
175.3355
 30
0.0
 11
255.88
 21
175.3355
 31
0.0
  0
LINE
  5
791
330
1D
100
AcDbEntity
  8
0
100
AcDbLine
 10
254.344
 20
190.1885
 30
0.0
 11
261.0
 21
190.1885
 31
0.0
  0
LINE
  5
792
330
1D
100
AcDbEntity
  8
0
100
AcDbLine
 10
254.6
 20
181.1885
 30
0.0
 11
261.0
 21
181.1885
 31
0.0
  0
LINE
  5
793
330
1D
100
AcDbEntity
  8
0
100
AcDbLine
 10
255.88
 20
170.3355
 30
0.0
 11
261.0
 21
170.3355
 31
0.0
  0
LINE
  5
794
330
1D
100
AcDbEntity
  8
0
100
AcDbLine
 10
255.88
 20
175.3355
 30
0.0
 11
261.0
 21
175.3355
 31
0.0
  0
LINE
  5
795
330
1D
100
AcDbEntity
  8
0
100
AcDbLine
 10
254.6
 20
179.1885
 30
0.0
 11
261.0
 21
179.1885
 31
0.0
  0
LINE
  5
796
330
1D
100
AcDbEntity
  8
0
100
AcDbLine
 10
254.344
 20
191.1885
 30
0.0
 11
261.0
 21
191.1885
 31
0.0
  0
LINE
  5
797
330
1D
100
AcDbEntity
  8
0
100
AcDbLine
 10
254.6
 20
193.1885
 30
0.0
 11
261.0
 21
193.1885
 31
0.0
  0
LINE
  5
798
330
1D
100
AcDbEntity
  8
0
100
AcDbLine
 10
253.064
 20
190.1885
 30
0.0
 11
256.904
 21
190.1885
 31
0.0
  0
LINE
  5
799
330
1D
100
AcDbEntity
  8
0
100
AcDbLine
 10
256.904
 20
190.1885
 30
0.0
 11
261.0
 21
190.1885
 31
0.0
  0
LINE
  5
79A
330
1D
100
AcDbEntity
  8
0
100
AcDbLine
 10
256.904
 20
140.1885
 30
0.0
 11
261.0
 21
140.1885
 31
0.0
  0
LINE
  5
79B
330
1D
100
AcDbEntity
  8
0
100
AcDbLine
 10
250.0
 20
140.1885
 30
0.0
 11
250.0
 21
134.8965
 31
0.0
  0
LINE
  5
79C
330
1D
100
AcDbEntity
  8
0
100
AcDbLine
 10
255.544
 20
134.8965
 30
0.0
 11
258.184
 21
134.8965
 31
0.0
  0
LINE
  5
79D
330
1D
100
AcDbEntity
  8
0
100
AcDbLine
 10
272.0
 20
134.8965
 30
0.0
 11
272.0
 21
140.1885
 31
0.0
  0
LINE
  5
79E
330
1D
100
AcDbEntity
  8
0
100
AcDbLine
 10
271.604
 20
134.8965
 30
0.0
 11
272.0
 21
134.8965
 31
0.0
  0
LINE
  5
79F
330
1D
100
AcDbEntity
  8
0
100
AcDbLine
 10
270.548
 20
134.8965
 30
0.0
 11
271.604
 21
134.8965
 31
0.0
  0
LINE
  5
7A0
330
1D
100
AcDbEntity
  8
0
100
AcDbLine
 10
268.788
 20
134.8965
 30
0.0
 11
270.548
 21
134.8965
 31
0.0
  0
LINE
  5
7A1
330
1D
100
AcDbEntity
  8
0
100
AcDbLine
 10
266.456
 20
134.8965
 30
0.0
 11
268.788
 21
134.8965
 31
0.0
  0
LINE
  5
7A2
330
1D
100
AcDbEntity
  8
0
100
AcDbLine
 10
263.816
 20
134.8965
 30
0.0
 11
266.456
 21
134.8965
 31
0.0
  0
LINE
  5
7A3
330
1D
100
AcDbEntity
  8
0
100
AcDbLine
 10
268.936
 20
140.1885
 30
0.0
 11
272.328
 21
140.1885
 31
0.0
  0
LINE
  5
7A4
330
1D
100
AcDbEntity
  8
0
100
AcDbLine
 10
265.096
 20
140.1885
 30
0.0
 11
268.936
 21
140.1885
 31
0.0
  0
LINE
  5
7A5
330
1D
100
AcDbEntity
  8
0
100
AcDbLine
 10
261.0
 20
170.3355
 30
0.0
 11
266.12
 21
170.3355
 31
0.0
  0
LINE
  5
7A6
330
1D
100
AcDbEntity
  8
0
100
AcDbLine
 10
261.0
 20
175.3355
 30
0.0
 11
266.12
 21
175.3355
 31
0.0
  0
LINE
  5
7A7
330
1D
100
AcDbEntity
  8
0
100
AcDbLine
 10
261.0
 20
191.1885
 30
0.0
 11
267.656
 21
191.1885
 31
0.0
  0
LINE
  5
7A8
330
1D
100
AcDbEntity
  8
0
100
AcDbLine
 10
261.0
 20
193.1885
 30
0.0
 11
267.4
 21
193.1885
 31
0.0
  0
LINE
  5
7A9
330
1D
100
AcDbEntity
  8
0
100
AcDbLine
 10
261.0
 20
181.1885
 30
0.0
 11
267.4
 21
181.1885
 31
0.0
  0
LINE
  5
7AA
330
1D
100
AcDbEntity
  8
0
100
AcDbLine
 10
261.0
 20
179.1885
 30
0.0
 11
267.4
 21
179.1885
 31
0.0
  0
LINE
  5
7AB
330
1D
100
AcDbEntity
  8
0
100
AcDbLine
 10
266.12
 20
170.3355
 30
0.0
 11
270.92
 21
170.3355
 31
0.0
  0
LINE
  5
7AC
330
1D
100
AcDbEntity
  8
0
100
AcDbLine
 10
266.12
 20
175.3355
 30
0.0
 11
270.92
 21
175.3355
 31
0.0
  0
LINE
  5
7AD
330
1D
100
AcDbEntity
  8
0
100
AcDbLine
 10
267.656
 20
190.1885
 30
0.0
 11
273.896
 21
190.1885
 31
0.0
  0
LINE
  5
7AE
330
1D
100
AcDbEntity
  8
0
100
AcDbLine
 10
267.4
 20
181.1885
 30
0.0
 11
273.4
 21
181.1885
 31
0.0
  0
LINE
  5
7AF
330
1D
100
AcDbEntity
  8
0
100
AcDbLine
 10
267.4
 20
179.1885
 30
0.0
 11
273.4
 21
179.1885
 31
0.0
  0
LINE
  5
7B0
330
1D
100
AcDbEntity
  8
0
100
AcDbLine
 10
270.92
 20
170.3355
 30
0.0
 11
275.16
 21
170.3355
 31
0.0
  0
LINE
  5
7B1
330
1D
100
AcDbEntity
  8
0
100
AcDbLine
 10
270.92
 20
175.3355
 30
0.0
 11
275.16
 21
175.3355
 31
0.0
  0
LINE
  5
7B2
330
1D
100
AcDbEntity
  8
0
100
AcDbLine
 10
268.936
 20
190.1885
 30
0.0
 11
272.328
 21
190.1885
 31
0.0
  0
LINE
  5
7B3
330
1D
100
AcDbEntity
  8
0
100
AcDbLine
 10
267.656
 20
191.1885
 30
0.0
 11
273.896
 21
191.1885
 31
0.0
  0
LINE
  5
7B4
330
1D
100
AcDbEntity
  8
0
100
AcDbLine
 10
267.4
 20
193.1885
 30
0.0
 11
273.4
 21
193.1885
 31
0.0
  0
LINE
  5
7B5
330
1D
100
AcDbEntity
  8
0
100
AcDbLine
 10
265.096
 20
190.1885
 30
0.0
 11
268.936
 21
190.1885
 31
0.0
  0
LINE
  5
7B6
330
1D
100
AcDbEntity
  8
0
100
AcDbLine
 10
261.0
 20
190.1885
 30
0.0
 11
265.096
 21
190.1885
 31
0.0
  0
LINE
  5
7B7
330
1D
100
AcDbEntity
  8
0
100
AcDbLine
 10
261.0
 20
190.1885
 30
0.0
 11
267.656
 21
190.1885
 31
0.0
  0
LINE
  5
7B8
330
1D
100
AcDbEntity
  8
0
100
AcDbLine
 10
261.0
 20
140.1885
 30
0.0
 11
265.096
 21
140.1885
 31
0.0
  0
LINE
  5
7B9
330
1D
100
AcDbEntity
  8
0
100
AcDbLine
 10
277.0
 20
140.1885
 30
0.0
 11
277.0
 21
170.3355
 31
0.0
  0
LINE
  5
7BA
330
1D
100
AcDbEntity
  8
0
100
AcDbLine
 10
276.424
 20
140.1885
 30
0.0
 11
277.0
 21
140.1885
 31
0.0
  0
LINE
  5
7BB
330
1D
100
AcDbEntity
  8
0
100
AcDbLine
 10
274.888
 20
140.1885
 30
0.0
 11
276.424
 21
140.1885
 31
0.0
  0
LINE
  5
7BC
330
1D
100
AcDbEntity
  8
0
100
AcDbLine
 10
275.16
 20
170.3355
 30
0.0
 11
278.36
 21
170.3355
 31
0.0
  0
LINE
  5
7BD
330
1D
100
AcDbEntity
  8
0
100
AcDbLine
 10
275.16
 20
175.3355
 30
0.0
 11
278.36
 21
175.3355
 31
0.0
  0
LINE
  5
7BE
330
1D
100
AcDbEntity
  8
0
100
AcDbLine
 10
273.4
 20
179.1885
 30
0.0
 11
278.7
 21
179.1885
 31
0.0
  0
LINE
  5
7BF
330
1D
100
AcDbEntity
  8
0
100
AcDbLine
 10
277.0
 20
175.3355
 30
0.0
 11
277.0
 21
179.1885
 31
0.0
  0
LINE
  5
7C0
330
1D
100
AcDbEntity
  8
0
100
AcDbLine
 10
277.0
 20
170.3355
 30
0.0
 11
277.0
 21
140.1885
 31
0.0
  0
LINE
  5
7C1
330
1D
100
AcDbEntity
  8
0
100
AcDbLine
 10
277.0
 20
170.3355
 30
0.0
 11
278.36
 21
170.3355
 31
0.0
  0
LINE
  5
7C2
330
1D
100
AcDbEntity
  8
0
100
AcDbLine
 10
273.896
 20
190.1885
 30
0.0
 11
279.408
 21
190.1885
 31
0.0
  0
LINE
  5
7C3
330
1D
100
AcDbEntity
  8
0
100
AcDbLine
 10
273.4
 20
181.1885
 30
0.0
 11
278.7
 21
181.1885
 31
0.0
  0
LINE
  5
7C4
330
1D
100
AcDbEntity
  8
0
100
AcDbLine
 10
277.0
 20
181.1885
 30
0.0
 11
277.0
 21
190.1885
 31
0.0
  0
LINE
  5
7C5
330
1D
100
AcDbEntity
  8
0
100
AcDbLine
 10
276.424
 20
190.1885
 30
0.0
 11
277.0
 21
190.1885
 31
0.0
  0
LINE
  5
7C6
330
1D
100
AcDbEntity
  8
0
100
AcDbLine
 10
277.0
 20
179.1885
 30
0.0
 11
277.0
 21
175.3355
 31
0.0
  0
LINE
  5
7C7
330
1D
100
AcDbEntity
  8
0
100
AcDbLine
 10
277.0
 20
179.1885
 30
0.0
 11
278.7
 21
179.1885
 31
0.0
  0
LINE
  5
7C8
330
1D
100
AcDbEntity
  8
0
100
AcDbLine
 10
280.42
 20
170.3355
 30
0.0
 11
282.22
 21
170.3355
 31
0.0
  0
LINE
  5
7C9
330
1D
100
AcDbEntity
  8
0
100
AcDbLine
 10
280.42
 20
170.3355
 30
0.0
 11
281.09
 21
170.3355
 31
0.0
  0
LINE
  5
7CA
330
1D
100
AcDbEntity
  8
0
100
AcDbLine
 10
278.36
 20
170.3355
 30
0.0
 11
280.42
 21
170.3355
 31
0.0
  0
LINE
  5
7CB
330
1D
100
AcDbEntity
  8
0
100
AcDbLine
 10
280.467
 20
166.1885
 30
0.0
 11
280.524
 21
166.1885
 31
0.0
  0
LINE
  5
7CC
330
1D
100
AcDbEntity
  8
0
100
AcDbLine
 10
280.467
 20
166.1885
 30
0.0
 11
280.467
 21
170.1885
 31
0.0
  0
LINE
  5
7CD
330
1D
100
AcDbEntity
  8
0
100
AcDbLine
 10
280.467
 20
166.1885
 30
0.0
 11
280.526
 21
166.1885
 31
0.0
  0
LINE
  5
7CE
330
1D
100
AcDbEntity
  8
0
100
AcDbLine
 10
280.526
 20
166.1885
 30
0.0
 11
280.715
 21
166.1885
 31
0.0
  0
LINE
  5
7CF
330
1D
100
AcDbEntity
  8
0
100
AcDbLine
 10
280.715
 20
166.1885
 30
0.0
 11
281.006
 21
166.1885
 31
0.0
  0
LINE
  5
7D0
330
1D
100
AcDbEntity
  8
0
100
AcDbLine
 10
281.006
 20
166.1885
 30
0.0
 11
281.399
 21
166.1885
 31
0.0
  0
LINE
  5
7D1
330
1D
100
AcDbEntity
  8
0
100
AcDbLine
 10
280.524
 20
166.1885
 30
0.0
 11
280.711
 21
166.1885
 31
0.0
  0
LINE
  5
7D2
330
1D
100
AcDbEntity
  8
0
100
AcDbLine
 10
280.526
 20
170.1885
 30
0.0
 11
280.715
 21
170.1885
 31
0.0
  0
LINE
  5
7D3
330
1D
100
AcDbEntity
  8
0
100
AcDbLine
 10
280.715
 20
170.1885
 30
0.0
 11
281.006
 21
170.1885
 31
0.0
  0
LINE
  5
7D4
330
1D
100
AcDbEntity
  8
0
100
AcDbLine
 10
281.006
 20
170.1885
 30
0.0
 11
281.399
 21
170.1885
 31
0.0
  0
LINE
  5
7D5
330
1D
100
AcDbEntity
  8
0
100
AcDbLine
 10
280.711
 20
166.1885
 30
0.0
 11
281.017
 21
166.1885
 31
0.0
  0
LINE
  5
7D6
330
1D
100
AcDbEntity
  8
0
100
AcDbLine
 10
281.017
 20
166.1885
 30
0.0
 11
281.405
 21
166.1885
 31
0.0
  0
LINE
  5
7D7
330
1D
100
AcDbEntity
  8
0
100
AcDbLine
 10
280.467
 20
170.1885
 30
0.0
 11
280.526
 21
170.1885
 31
0.0
  0
LINE
  5
7D8
330
1D
100
AcDbEntity
  8
0
100
AcDbLine
 10
280.467
 20
170.1885
 30
0.0
 11
280.467
 21
166.1885
 31
0.0
  0
LINE
  5
7D9
330
1D
100
AcDbEntity
  8
0
100
AcDbLine
 10
281.399
 20
166.1885
 30
0.0
 11
281.86
 21
166.1885
 31
0.0
  0
LINE
  5
7DA
330
1D
100
AcDbEntity
  8
0
100
AcDbLine
 10
281.86
 20
166.1885
 30
0.0
 11
282.341
 21
166.1885
 31
0.0
  0
LINE
  5
7DB
330
1D
100
AcDbEntity
  8
0
100
AcDbLine
 10
281.405
 20
166.1885
 30
0.0
 11
281.852
 21
166.1885
 31
0.0
  0
LINE
  5
7DC
330
1D
100
AcDbEntity
  8
0
100
AcDbLine
 10
281.399
 20
170.1885
 30
0.0
 11
281.86
 21
170.1885
 31
0.0
  0
LINE
  5
7DD
330
1D
100
AcDbEntity
  8
0
100
AcDbLine
 10
281.86
 20
170.1885
 30
0.0
 11
282.341
 21
170.1885
 31
0.0
  0
LINE
  5
7DE
330
1D
100
AcDbEntity
  8
0
100
AcDbLine
 10
281.852
 20
166.1885
 30
0.0
 11
282.333
 21
166.1885
 31
0.0
  0
LINE
  5
7DF
330
1D
100
AcDbEntity
  8
0
100
AcDbLine
 10
281.09
 20
170.1885
 30
0.0
 11
281.09
 21
170.3355
 31
0.0
  0
LINE
  5
7E0
330
1D
100
AcDbEntity
  8
0
100
AcDbLine
 10
281.09
 20
175.3355
 30
0.0
 11
281.09
 21
179.1885
 31
0.0
  0
LINE
  5
7E1
330
1D
100
AcDbEntity
  8
0
100
AcDbLine
 10
281.09
 20
170.3355
 30
0.0
 11
281.09
 21
170.1885
 31
0.0
  0
LINE
  5
7E2
330
1D
100
AcDbEntity
  8
0
100
AcDbLine
 10
282.341
 20
166.1885
 30
0.0
 11
282.822
 21
166.1885
 31
0.0
  0
LINE
  5
7E3
330
1D
100
AcDbEntity
  8
0
100
AcDbLine
 10
282.341
 20
170.1885
 30
0.0
 11
282.822
 21
170.1885
 31
0.0
  0
LINE
  5
7E4
330
1D
100
AcDbEntity
  8
0
100
AcDbLine
 10
282.333
 20
166.1885
 30
0.0
 11
282.814
 21
166.1885
 31
0.0
  0
LINE
  5
7E5
330
1D
100
AcDbEntity
  8
0
100
AcDbLine
 10
282.22
 20
170.3355
 30
0.0
 11
283.81
 21
170.3355
 31
0.0
  0
LINE
  5
7E6
330
1D
100
AcDbEntity
  8
0
100
AcDbLine
 10
282.22
 20
175.3355
 30
0.0
 11
283.81
 21
175.3355
 31
0.0
  0
LINE
  5
7E7
330
1D
100
AcDbEntity
  8
0
100
AcDbLine
 10
280.42
 20
175.3355
 30
0.0
 11
282.22
 21
175.3355
 31
0.0
  0
LINE
  5
7E8
330
1D
100
AcDbEntity
  8
0
100
AcDbLine
 10
281.09
 20
179.1885
 30
0.0
 11
281.09
 21
175.3355
 31
0.0
  0
LINE
  5
7E9
330
1D
100
AcDbEntity
  8
0
100
AcDbLine
 10
278.36
 20
175.3355
 30
0.0
 11
280.42
 21
175.3355
 31
0.0
  0
LINE
  5
7EA
330
1D
100
AcDbEntity
  8
0
100
AcDbLine
 10
283.269
 20
166.1885
 30
0.0
 11
283.657
 21
166.1885
 31
0.0
  0
LINE
  5
7EB
330
1D
100
AcDbEntity
  8
0
100
AcDbLine
 10
282.822
 20
166.1885
 30
0.0
 11
283.269
 21
166.1885
 31
0.0
  0
LINE
  5
7EC
330
1D
100
AcDbEntity
  8
0
100
AcDbLine
 10
283.276
 20
166.1885
 30
0.0
 11
283.669
 21
166.1885
 31
0.0
  0
LINE
  5
7ED
330
1D
100
AcDbEntity
  8
0
100
AcDbLine
 10
283.269
 20
170.1885
 30
0.0
 11
283.657
 21
170.1885
 31
0.0
  0
LINE
  5
7EE
330
1D
100
AcDbEntity
  8
0
100
AcDbLine
 10
282.822
 20
170.1885
 30
0.0
 11
283.269
 21
170.1885
 31
0.0
  0
LINE
  5
7EF
330
1D
100
AcDbEntity
  8
0
100
AcDbLine
 10
282.814
 20
166.1885
 30
0.0
 11
283.276
 21
166.1885
 31
0.0
  0
LINE
  5
7F0
330
1D
100
AcDbEntity
  8
0
100
AcDbLine
 10
283.584
 20
170.1885
 30
0.0
 11
283.584
 21
170.3355
 31
0.0
  0
LINE
  5
7F1
330
1D
100
AcDbEntity
  8
0
100
AcDbLine
 10
283.584
 20
175.3355
 30
0.0
 11
283.584
 21
179.1885
 31
0.0
  0
LINE
  5
7F2
330
1D
100
AcDbEntity
  8
0
100
AcDbLine
 10
283.584
 20
170.3355
 30
0.0
 11
283.81
 21
170.3355
 31
0.0
  0
LINE
  5
7F3
330
1D
100
AcDbEntity
  8
0
100
AcDbLine
 10
283.584
 20
170.3355
 30
0.0
 11
283.584
 21
170.1885
 31
0.0
  0
LINE
  5
7F4
330
1D
100
AcDbEntity
  8
0
100
AcDbLine
 10
283.657
 20
166.1885
 30
0.0
 11
283.963
 21
166.1885
 31
0.0
  0
LINE
  5
7F5
330
1D
100
AcDbEntity
  8
0
100
AcDbLine
 10
283.657
 20
170.1885
 30
0.0
 11
283.963
 21
170.1885
 31
0.0
  0
LINE
  5
7F6
330
1D
100
AcDbEntity
  8
0
100
AcDbLine
 10
283.669
 20
166.1885
 30
0.0
 11
283.959
 21
166.1885
 31
0.0
  0
LINE
  5
7F7
330
1D
100
AcDbEntity
  8
0
100
AcDbLine
 10
283.81
 20
170.3355
 30
0.0
 11
285.01
 21
170.3355
 31
0.0
  0
LINE
  5
7F8
330
1D
100
AcDbEntity
  8
0
100
AcDbLine
 10
284.148
 20
166.1885
 30
0.0
 11
284.207
 21
166.1885
 31
0.0
  0
LINE
  5
7F9
330
1D
100
AcDbEntity
  8
0
100
AcDbLine
 10
284.207
 20
166.1885
 30
0.0
 11
284.207
 21
170.1885
 31
0.0
  0
LINE
  5
7FA
330
1D
100
AcDbEntity
  8
0
100
AcDbLine
 10
284.15
 20
166.1885
 30
0.0
 11
284.207
 21
166.1885
 31
0.0
  0
LINE
  5
7FB
330
1D
100
AcDbEntity
  8
0
100
AcDbLine
 10
283.963
 20
166.1885
 30
0.0
 11
284.15
 21
166.1885
 31
0.0
  0
LINE
  5
7FC
330
1D
100
AcDbEntity
  8
0
100
AcDbLine
 10
284.207
 20
170.1885
 30
0.0
 11
284.207
 21
166.1885
 31
0.0
  0
LINE
  5
7FD
330
1D
100
AcDbEntity
  8
0
100
AcDbLine
 10
284.15
 20
170.1885
 30
0.0
 11
284.207
 21
170.1885
 31
0.0
  0
LINE
  5
7FE
330
1D
100
AcDbEntity
  8
0
100
AcDbLine
 10
283.963
 20
170.1885
 30
0.0
 11
284.15
 21
170.1885
 31
0.0
  0
LINE
  5
7FF
330
1D
100
AcDbEntity
  8
0
100
AcDbLine
 10
283.959
 20
166.1885
 30
0.0
 11
284.148
 21
166.1885
 31
0.0
  0
LINE
  5
800
330
1D
100
AcDbEntity
  8
0
100
AcDbLine
 10
285.73
 20
170.3355
 30
0.0
 11
286.0
 21
170.3355
 31
0.0
  0
LINE
  5
801
330
1D
100
AcDbEntity
  8
0
100
AcDbLine
 10
285.01
 20
170.3355
 30
0.0
 11
285.73
 21
170.3355
 31
0.0
  0
LINE
  5
802
330
1D
100
AcDbEntity
  8
0
100
AcDbLine
 10
286.0
 20
175.3355
 30
0.0
 11
286.0
 21
170.3355
 31
0.0
  0
LINE
  5
803
330
1D
100
AcDbEntity
  8
0
100
AcDbLine
 10
286.0
 20
170.3355
 30
0.0
 11
286.0
 21
175.3355
 31
0.0
  0
LINE
  5
804
330
1D
100
AcDbEntity
  8
0
100
AcDbLine
 10
285.73
 20
175.3355
 30
0.0
 11
286.0
 21
175.3355
 31
0.0
  0
LINE
  5
805
330
1D
100
AcDbEntity
  8
0
100
AcDbLine
 10
285.01
 20
175.3355
 30
0.0
 11
285.73
 21
175.3355
 31
0.0
  0
LINE
  5
806
330
1D
100
AcDbEntity
  8
0
100
AcDbLine
 10
283.81
 20
175.3355
 30
0.0
 11
285.01
 21
175.3355
 31
0.0
  0
LINE
  5
807
330
1D
100
AcDbEntity
  8
0
100
AcDbLine
 10
286.0
 20
179.1885
 30
0.0
 11
286.0
 21
181.1885
 31
0.0
  0
LINE
  5
808
330
1D
100
AcDbEntity
  8
0
100
AcDbLine
 10
283.584
 20
179.1885
 30
0.0
 11
285.1
 21
179.1885
 31
0.0
  0
LINE
  5
809
330
1D
100
AcDbEntity
  8
0
100
AcDbLine
 10
283.584
 20
179.1885
 30
0.0
 11
283.584
 21
175.3355
 31
0.0
  0
LINE
  5
80A
330
1D
100
AcDbEntity
  8
0
100
AcDbLine
 10
285.1
 20
179.1885
 30
0.0
 11
286.0
 21
179.1885
 31
0.0
  0
LINE
  5
80B
330
1D
100
AcDbEntity
  8
0
100
AcDbLine
 10
282.7
 20
179.1885
 30
0.0
 11
285.1
 21
179.1885
 31
0.0
  0
LINE
  5
80C
330
1D
100
AcDbEntity
  8
0
100
AcDbLine
 10
285.1
 20
181.1885
 30
0.0
 11
286.0
 21
181.1885
 31
0.0
  0
LINE
  5
80D
330
1D
100
AcDbEntity
  8
0
100
AcDbLine
 10
286.0
 20
181.1885
 30
0.0
 11
286.0
 21
179.1885
 31
0.0
  0
LINE
  5
80E
330
1D
100
AcDbEntity
  8
0
100
AcDbLine
 10
287.0
 20
190.1885
 30
0.0
 11
287.0
 21
191.1885
 31
0.0
  0
LINE
  5
80F
330
1D
100
AcDbEntity
  8
0
100
AcDbLine
 10
286.064
 20
190.1885
 30
0.0
 11
287.0
 21
190.1885
 31
0.0
  0
LINE
  5
810
330
1D
100
AcDbEntity
  8
0
100
AcDbLine
 10
283.568
 20
190.1885
 30
0.0
 11
286.064
 21
190.1885
 31
0.0
  0
LINE
  5
811
330
1D
100
AcDbEntity
  8
0
100
AcDbLine
 10
279.408
 20
190.1885
 30
0.0
 11
283.568
 21
190.1885
 31
0.0
  0
LINE
  5
812
330
1D
100
AcDbEntity
  8
0
100
AcDbLine
 10
282.7
 20
181.1885
 30
0.0
 11
285.1
 21
181.1885
 31
0.0
  0
LINE
  5
813
330
1D
100
AcDbEntity
  8
0
100
AcDbLine
 10
278.7
 20
181.1885
 30
0.0
 11
282.7
 21
181.1885
 31
0.0
  0
LINE
  5
814
330
1D
100
AcDbEntity
  8
0
100
AcDbLine
 10
278.7
 20
179.1885
 30
0.0
 11
282.7
 21
179.1885
 31
0.0
  0
LINE
  5
815
330
1D
100
AcDbEntity
  8
0
100
AcDbLine
 10
278.7
 20
179.1885
 30
0.0
 11
281.09
 21
179.1885
 31
0.0
  0
LINE
  5
816
330
1D
100
AcDbEntity
  8
0
100
AcDbLine
 10
277.0
 20
190.1885
 30
0.0
 11
277.0
 21
181.1885
 31
0.0
  0
LINE
  5
817
330
1D
100
AcDbEntity
  8
0
100
AcDbLine
 10
277.0
 20
190.1885
 30
0.0
 11
279.408
 21
190.1885
 31
0.0
  0
LINE
  5
818
330
1D
100
AcDbEntity
  8
0
100
AcDbLine
 10
279.408
 20
191.1885
 30
0.0
 11
283.568
 21
191.1885
 31
0.0
  0
LINE
  5
819
330
1D
100
AcDbEntity
  8
0
100
AcDbLine
 10
273.896
 20
191.1885
 30
0.0
 11
279.408
 21
191.1885
 31
0.0
  0
LINE
  5
81A
330
1D
100
AcDbEntity
  8
0
100
AcDbLine
 10
283.568
 20
191.1885
 30
0.0
 11
286.064
 21
191.1885
 31
0.0
  0
LINE
  5
81B
330
1D
100
AcDbEntity
  8
0
100
AcDbLine
 10
286.064
 20
191.1885
 30
0.0
 11
287.0
 21
191.1885
 31
0.0
  0
LINE
  5
81C
330
1D
100
AcDbEntity
  8
0
100
AcDbLine
 10
287.0
 20
191.1885
 30
0.0
 11
287.0
 21
190.1885
 31
0.0
  0
LINE
  5
81D
330
1D
100
AcDbEntity
  8
0
100
AcDbLine
 10
286.0
 20
191.1885
 30
0.0
 11
286.0
 21
193.1885
 31
0.0
  0
LINE
  5
81E
330
1D
100
AcDbEntity
  8
0
100
AcDbLine
 10
285.1
 20
193.1885
 30
0.0
 11
286.0
 21
193.1885
 31
0.0
  0
LINE
  5
81F
330
1D
100
AcDbEntity
  8
0
100
AcDbLine
 10
286.0
 20
193.1885
 30
0.0
 11
286.0
 21
191.1885
 31
0.0
  0
LINE
  5
820
330
1D
100
AcDbEntity
  8
0
100
AcDbLine
 10
282.7
 20
193.1885
 30
0.0
 11
285.1
 21
193.1885
 31
0.0
  0
LINE
  5
821
330
1D
100
AcDbEntity
  8
0
100
AcDbLine
 10
278.7
 20
193.1885
 30
0.0
 11
282.7
 21
193.1885
 31
0.0
  0
LINE
  5
822
330
1D
100
AcDbEntity
  8
0
100
AcDbLine
 10
273.4
 20
193.1885
 30
0.0
 11
278.7
 21
193.1885
 31
0.0
  0
LINE
  5
823
330
1D
100
AcDbEntity
  8
0
100
AcDbLine
 10
274.888
 20
190.1885
 30
0.0
 11
276.424
 21
190.1885
 31
0.0
  0
LINE
  5
824
330
1D
100
AcDbEntity
  8
0
100
AcDbLine
 10
272.328
 20
190.1885
 30
0.0
 11
274.888
 21
190.1885
 31
0.0
  0
LINE
  5
825
330
1D
100
AcDbEntity
  8
0
100
AcDbLine
 10
272.328
 20
140.1885
 30
0.0
 11
274.888
 21
140.1885
 31
0.0
  0
LINE
  5
826
330
1D
100
AcDbEntity
  8
0
100
AcDbLine
 10
272.0
 20
140.1885
 30
0.0
 11
272.0
 21
134.8965
 31
0.0
  0
LINE
  5
827
330
1D
100
AcDbEntity
  8
0
100
AcDbLine
 10
272.0
 20
140.1885
 30
0.0
 11
272.328
 21
140.1885
 31
0.0
  0
LINE
  5
828
330
1D
100
AcDbEntity
  8
0
100
AcDbLine
 10
261.0
 20
134.8965
 30
0.0
 11
263.816
 21
134.8965
 31
0.0
  0
LINE
  5
829
330
1D
100
AcDbEntity
  8
0
100
AcDbLine
 10
258.184
 20
134.8965
 30
0.0
 11
261.0
 21
134.8965
 31
0.0
  0
LINE
  5
82A
330
1D
100
AcDbEntity
  8
0
100
AcDbLine
 10
261.0
 20
134.5365
 30
0.0
 11
264.0
 21
134.5365
 31
0.0
  0
LINE
  5
82B
330
1D
100
AcDbEntity
  8
0
100
AcDbLine
 10
185.86
 20
94.8865
 30
0.0
 11
185.885
 21
94.1375
 31
0.0
  0
LINE
  5
82C
330
1D
100
AcDbEntity
  8
0
100
AcDbLine
 10
160.953
 20
68.6175
 30
0.0
 11
160.953
 21
77.7595
 31
0.0
  0
LINE
  5
82D
330
1D
100
AcDbEntity
  8
0
100
AcDbLine
 10
158.788
 20
67.1885
 30
0.0
 11
158.956
 21
67.1885
 31
0.0
  0
LINE
  5
82E
330
1D
100
AcDbEntity
  8
0
100
AcDbLine
 10
158.49
 20
56.0635
 30
0.0
 11
160.117
 21
46.5305
 31
0.0
  0
LINE
  5
82F
330
1D
100
AcDbEntity
  8
0
100
AcDbLine
 10
144.558
 20
55.5465
 30
0.0
 11
146.29
 21
44.7295
 31
0.0
  0
LINE
  5
830
330
1D
100
AcDbEntity
  8
0
100
AcDbLine
 10
143.98
 20
65.1885
 30
0.0
 11
144.558
 21
55.5465
 31
0.0
  0
LINE
  5
831
330
1D
100
AcDbEntity
  8
0
100
AcDbLine
 10
143.98
 20
65.1885
 30
0.0
 11
143.98
 21
67.1885
 31
0.0
  0
LINE
  5
859
330
1D
100
AcDbEntity
  8
0
100
AcDbLine
 10
140.956
 20
78.4745
 30
0.0
 11
141.008
 21
78.8895
 31
0.0
  0
LINE
  5
9E0
330
1D
100
AcDbEntity
  8
0
100
AcDbLine
 10
55.0
 20
135.08725
 30
0.0
 11
55.0
 21
170.3355
 31
0.0
  0
LINE
  5
9E1
330
1D
100
AcDbEntity
  8
0
100
AcDbLine
 10
27.0
 20
135.08725
 30
0.0
 11
27.0
 21
170.3355
 31
0.0
  0
LINE
  5
9E2
330
1D
100
AcDbEntity
  8
0
100
AcDbLine
 10
27.0
 20
170.3355
 30
0.0
 11
27.0
 21
135.08725
 31
0.0
  0
LINE
  5
9E3
330
1D
100
AcDbEntity
  8
0
100
AcDbLine
 10
55.0
 20
170.3355
 30
0.0
 11
55.0
 21
135.08725
 31
0.0
  0
LINE
  5
9E4
330
1D
100
AcDbEntity
  8
0
100
AcDbLine
 10
49.68
 20
87.1885
 30
0.0
 11
50.64
 21
87.1885
 31
0.0
  0
LINE
  5
9E5
330
1D
100
AcDbEntity
  8
0
100
AcDbLine
 10
49.68
 20
107.1885
 30
0.0
 11
50.64
 21
107.1885
 31
0.0
  0
LINE
  5
9E6
330
1D
100
AcDbEntity
  8
0
100
AcDbLine
 10
47.944
 20
107.1885
 30
0.0
 11
50.912
 21
107.1885
 31
0.0
  0
LINE
  5
9E7
330
1D
100
AcDbEntity
  8
0
100
AcDbLine
 10
31.0
 20
107.1885
 30
0.0
 11
31.0
 21
87.1885
 31
0.0
  0
LINE
  5
9E8
330
1D
100
AcDbEntity
  8
0
100
AcDbLine
 10
31.0
 20
87.1885
 30
0.0
 11
31.0
 21
107.1885
 31
0.0
  0
LINE
  5
9E9
330
1D
100
AcDbEntity
  8
0
100
AcDbLine
 10
33.92
 20
87.1885
 30
0.0
 11
36.04
 21
87.1885
 31
0.0
  0
LINE
  5
9EA
330
1D
100
AcDbEntity
  8
0
100
AcDbLine
 10
32.32
 20
87.1885
 30
0.0
 11
33.92
 21
87.1885
 31
0.0
  0
LINE
  5
9EB
330
1D
100
AcDbEntity
  8
0
100
AcDbLine
 10
31.36
 20
87.1885
 30
0.0
 11
32.32
 21
87.1885
 31
0.0
  0
LINE
  5
9EC
330
1D
100
AcDbEntity
  8
0
100
AcDbLine
 10
31.0
 20
87.1885
 30
0.0
 11
31.36
 21
87.1885
 31
0.0
  0
LINE
  5
9ED
330
1D
100
AcDbEntity
  8
0
100
AcDbLine
 10
41.0
 20
87.1885
 30
0.0
 11
43.56
 21
87.1885
 31
0.0
  0
LINE
  5
9EE
330
1D
100
AcDbEntity
  8
0
100
AcDbLine
 10
38.44
 20
87.1885
 30
0.0
 11
41.0
 21
87.1885
 31
0.0
  0
LINE
  5
9EF
330
1D
100
AcDbEntity
  8
0
100
AcDbLine
 10
36.04
 20
87.1885
 30
0.0
 11
38.44
 21
87.1885
 31
0.0
  0
LINE
  5
9F0
330
1D
100
AcDbEntity
  8
0
100
AcDbLine
 10
43.56
 20
87.1885
 30
0.0
 11
45.96
 21
87.1885
 31
0.0
  0
LINE
  5
9F1
330
1D
100
AcDbEntity
  8
0
100
AcDbLine
 10
45.96
 20
87.1885
 30
0.0
 11
48.08
 21
87.1885
 31
0.0
  0
LINE
  5
9F2
330
1D
100
AcDbEntity
  8
0
100
AcDbLine
 10
48.08
 20
87.1885
 30
0.0
 11
49.68
 21
87.1885
 31
0.0
  0
LINE
  5
9F3
330
1D
100
AcDbEntity
  8
0
100
AcDbLine
 10
16.0
 20
117.1885
 30
0.0
 11
27.06
 21
117.1885
 31
0.0
  0
LINE
  5
9F4
330
1D
100
AcDbEntity
  8
0
100
AcDbLine
 10
16.0
 20
135.1885
 30
0.0
 11
27.0
 21
135.1885
 31
0.0
  0
LINE
  5
9F5
330
1D
100
AcDbEntity
  8
0
100
AcDbLine
 10
0.952
 20
118.1885
 30
0.0
 11
0.952
 21
118.3945
 31
0.0
  0
LINE
  5
9F6
330
1D
100
AcDbEntity
  8
0
100
AcDbLine
 10
9.524
 20
118.1885
 30
0.0
 11
9.524
 21
118.3565
 31
0.0
  0
LINE
  5
9F7
330
1D
100
AcDbEntity
  8
0
100
AcDbLine
 10
16.0
 20
117.5125
 30
0.0
 11
16.0
 21
118.3765
 31
0.0
  0
LINE
  5
9F8
330
1D
100
AcDbEntity
  8
0
100
AcDbLine
 10
9.952
 20
118.1885
 30
0.0
 11
10.0
 21
118.3995
 31
0.0
  0
LINE
  5
9F9
330
1D
100
AcDbEntity
  8
0
100
AcDbLine
 10
0.0
 20
118.3995
 30
0.0
 11
0.048
 21
118.1885
 31
0.0
  0
LINE
  5
9FA
330
1D
100
AcDbEntity
  8
0
100
AcDbLine
 10
16.0
 20
118.3765
 30
0.0
 11
16.0
 21
117.5125
 31
0.0
  0
LINE
  5
9FB
330
1D
100
AcDbEntity
  8
0
100
AcDbLine
 10
9.524
 20
118.3565
 30
0.0
 11
9.524
 21
118.1885
 31
0.0
  0
LINE
  5
9FC
330
1D
100
AcDbEntity
  8
0
100
AcDbLine
 10
0.952
 20
118.3945
 30
0.0
 11
0.952
 21
118.1885
 31
0.0
  0
LINE
  5
9FD
330
1D
100
AcDbEntity
  8
0
100
AcDbLine
 10
9.048
 20
118.1885
 30
0.0
 11
9.524
 21
118.1885
 31
0.0
  0
LINE
  5
9FE
330
1D
100
AcDbEntity
  8
0
100
AcDbLine
 10
0.952
 20
118.1885
 30
0.0
 11
9.048
 21
118.1885
 31
0.0
  0
LINE
  5
9FF
330
1D
100
AcDbEntity
  8
0
100
AcDbLine
 10
0.476
 20
118.1885
 30
0.0
 11
0.952
 21
118.1885
 31
0.0
  0
LINE
  5
A00
330
1D
100
AcDbEntity
  8
0
100
AcDbLine
 10
9.524
 20
118.1885
 30
0.0
 11
9.886
 21
118.1885
 31
0.0
  0
LINE
  5
A01
330
1D
100
AcDbEntity
  8
0
100
AcDbLine
 10
0.114
 20
118.1885
 30
0.0
 11
0.476
 21
118.1885
 31
0.0
  0
LINE
  5
A02
330
1D
100
AcDbEntity
  8
0
100
AcDbLine
 10
16.0
 20
117.1885
 30
0.0
 11
16.0
 21
117.5125
 31
0.0
  0
LINE
  5
A03
330
1D
100
AcDbEntity
  8
0
100
AcDbLine
 10
16.0
 20
117.5125
 30
0.0
 11
16.0
 21
117.1885
 31
0.0
  0
LINE
  5
A04
330
1D
100
AcDbEntity
  8
0
100
AcDbLine
 10
9.886
 20
118.1885
 30
0.0
 11
9.952
 21
118.1885
 31
0.0
  0
LINE
  5
A05
330
1D
100
AcDbEntity
  8
0
100
AcDbLine
 10
0.048
 20
118.1885
 30
0.0
 11
0.114
 21
118.1885
 31
0.0
  0
LINE
  5
A06
330
1D
100
AcDbEntity
  8
0
100
AcDbLine
 10
10.0
 20
119.1885
 30
0.0
 11
16.0
 21
119.1885
 31
0.0
  0
LINE
  5
A07
330
1D
100
AcDbEntity
  8
0
100
AcDbLine
 10
10.0
 20
133.1885
 30
0.0
 11
16.0
 21
133.1885
 31
0.0
  0
LINE
  5
A08
330
1D
100
AcDbEntity
  8
0
100
AcDbLine
 10
0.0
 20
129.4455
 30
0.0
 11
0.0
 21
130.7905
 31
0.0
  0
LINE
  5
A09
330
1D
100
AcDbEntity
  8
0
100
AcDbLine
 10
0.0
 20
130.7905
 30
0.0
 11
0.0
 21
129.4455
 31
0.0
  0
LINE
  5
A0A
330
1D
100
AcDbEntity
  8
0
100
AcDbLine
 10
0.0
 20
130.0625
 30
0.0
 11
0.0
 21
131.7045
 31
0.0
  0
LINE
  5
A0B
330
1D
100
AcDbEntity
  8
0
100
AcDbLine
 10
0.0
 20
131.7045
 30
0.0
 11
0.0
 21
130.0625
 31
0.0
  0
LINE
  5
A0C
330
1D
100
AcDbEntity
  8
0
100
AcDbLine
 10
0.0
 20
130.8075
 30
0.0
 11
0.0
 21
129.4335
 31
0.0
  0
LINE
  5
A0D
330
1D
100
AcDbEntity
  8
0
100
AcDbLine
 10
0.0
 20
129.4335
 30
0.0
 11
0.0
 21
130.8075
 31
0.0
  0
LINE
  5
A0E
330
1D
100
AcDbEntity
  8
0
100
AcDbLine
 10
0.096
 20
130.2605
 30
0.0
 11
0.173
 21
132.1675
 31
0.0
  0
LINE
  5
A0F
330
1D
100
AcDbEntity
  8
0
100
AcDbLine
 10
10.0
 20
129.6605
 30
0.0
 11
10.0
 21
131.1445
 31
0.0
  0
LINE
  5
A10
330
1D
100
AcDbEntity
  8
0
100
AcDbLine
 10
10.0
 20
131.1445
 30
0.0
 11
10.0
 21
129.6605
 31
0.0
  0
LINE
  5
A11
330
1D
100
AcDbEntity
  8
0
100
AcDbLine
 10
10.0
 20
131.7045
 30
0.0
 11
10.0
 21
130.0625
 31
0.0
  0
LINE
  5
A12
330
1D
100
AcDbEntity
  8
0
100
AcDbLine
 10
10.0
 20
130.0625
 30
0.0
 11
10.0
 21
131.7045
 31
0.0
  0
LINE
  5
A13
330
1D
100
AcDbEntity
  8
0
100
AcDbLine
 10
9.827
 20
132.1675
 30
0.0
 11
9.904
 21
130.2605
 31
0.0
  0
LINE
  5
A14
330
1D
100
AcDbEntity
  8
0
100
AcDbLine
 10
0.0
 20
122.9265
 30
0.0
 11
0.0
 21
124.5155
 31
0.0
  0
LINE
  5
A15
330
1D
100
AcDbEntity
  8
0
100
AcDbLine
 10
0.0
 20
124.1675
 30
0.0
 11
0.0
 21
126.1885
 31
0.0
  0
LINE
  5
A16
330
1D
100
AcDbEntity
  8
0
100
AcDbLine
 10
0.199
 20
124.0125
 30
0.0
 11
0.476
 21
125.1995
 31
0.0
  0
LINE
  5
A17
330
1D
100
AcDbEntity
  8
0
100
AcDbLine
 10
0.0
 20
124.5155
 30
0.0
 11
0.0
 21
122.9265
 31
0.0
  0
LINE
  5
A18
330
1D
100
AcDbEntity
  8
0
100
AcDbLine
 10
0.0
 20
126.1885
 30
0.0
 11
0.0
 21
124.1675
 31
0.0
  0
LINE
  5
A19
330
1D
100
AcDbEntity
  8
0
100
AcDbLine
 10
0.0
 20
126.2015
 30
0.0
 11
0.0
 21
124.4475
 31
0.0
  0
LINE
  5
A1A
330
1D
100
AcDbEntity
  8
0
100
AcDbLine
 10
0.0
 20
124.4475
 30
0.0
 11
0.0
 21
126.2015
 31
0.0
  0
LINE
  5
A1B
330
1D
100
AcDbEntity
  8
0
100
AcDbLine
 10
0.0
 20
120.6085
 30
0.0
 11
0.0
 21
121.5865
 31
0.0
  0
LINE
  5
A1C
330
1D
100
AcDbEntity
  8
0
100
AcDbLine
 10
0.0
 20
120.5765
 30
0.0
 11
0.0
 21
121.6025
 31
0.0
  0
LINE
  5
A1D
330
1D
100
AcDbEntity
  8
0
100
AcDbLine
 10
0.0
 20
121.5865
 30
0.0
 11
0.0
 21
120.6085
 31
0.0
  0
LINE
  5
A1E
330
1D
100
AcDbEntity
  8
0
100
AcDbLine
 10
0.0
 20
120.6725
 30
0.0
 11
0.0
 21
122.3145
 31
0.0
  0
LINE
  5
A1F
330
1D
100
AcDbEntity
  8
0
100
AcDbLine
 10
0.0
 20
121.6025
 30
0.0
 11
0.0
 21
120.5765
 31
0.0
  0
LINE
  5
A20
330
1D
100
AcDbEntity
  8
0
100
AcDbLine
 10
0.0
 20
122.3145
 30
0.0
 11
0.0
 21
120.6725
 31
0.0
  0
LINE
  5
A21
330
1D
100
AcDbEntity
  8
0
100
AcDbLine
 10
0.096
 20
122.1165
 30
0.0
 11
0.173
 21
120.2095
 31
0.0
  0
LINE
  5
A22
330
1D
100
AcDbEntity
  8
0
100
AcDbLine
 10
0.0
 20
118.3995
 30
0.0
 11
0.0
 21
118.6935
 31
0.0
  0
LINE
  5
A23
330
1D
100
AcDbEntity
  8
0
100
AcDbLine
 10
0.476
 20
118.8745
 30
0.0
 11
0.952
 21
118.3945
 31
0.0
  0
LINE
  5
A24
330
1D
100
AcDbEntity
  8
0
100
AcDbLine
 10
0.0
 20
118.6935
 30
0.0
 11
0.0
 21
118.3995
 31
0.0
  0
LINE
  5
A25
330
1D
100
AcDbEntity
  8
0
100
AcDbLine
 10
0.0
 20
118.6935
 30
0.0
 11
0.0
 21
119.4515
 31
0.0
  0
LINE
  5
A26
330
1D
100
AcDbEntity
  8
0
100
AcDbLine
 10
0.0
 20
120.0785
 30
0.0
 11
0.0
 21
120.6085
 31
0.0
  0
LINE
  5
A27
330
1D
100
AcDbEntity
  8
0
100
AcDbLine
 10
0.0
 20
120.0785
 30
0.0
 11
0.0
 21
119.9295
 31
0.0
  0
LINE
  5
A28
330
1D
100
AcDbEntity
  8
0
100
AcDbLine
 10
0.0
 20
119.4515
 30
0.0
 11
0.0
 21
118.6935
 31
0.0
  0
LINE
  5
A29
330
1D
100
AcDbEntity
  8
0
100
AcDbLine
 10
0.0
 20
119.4515
 30
0.0
 11
0.0
 21
120.6725
 31
0.0
  0
LINE
  5
A2A
330
1D
100
AcDbEntity
  8
0
100
AcDbLine
 10
0.0
 20
120.6085
 30
0.0
 11
0.0
 21
120.0785
 31
0.0
  0
LINE
  5
A2B
330
1D
100
AcDbEntity
  8
0
100
AcDbLine
 10
0.0
 20
120.5765
 30
0.0
 11
0.0
 21
120.0955
 31
0.0
  0
LINE
  5
A2C
330
1D
100
AcDbEntity
  8
0
100
AcDbLine
 10
0.0
 20
120.6725
 30
0.0
 11
0.0
 21
119.4515
 31
0.0
  0
LINE
  5
A2D
330
1D
100
AcDbEntity
  8
0
100
AcDbLine
 10
0.0
 20
120.0955
 30
0.0
 11
0.0
 21
119.9295
 31
0.0
  0
LINE
  5
A2E
330
1D
100
AcDbEntity
  8
0
100
AcDbLine
 10
0.0
 20
120.0955
 30
0.0
 11
0.0
 21
120.5765
 31
0.0
  0
LINE
  5
A2F
330
1D
100
AcDbEntity
  8
0
100
AcDbLine
 10
0.173
 20
120.2095
 30
0.0
 11
0.476
 21
118.8745
 31
0.0
  0
LINE
  5
A30
330
1D
100
AcDbEntity
  8
0
100
AcDbLine
 10
0.0
 20
119.9295
 30
0.0
 11
0.0
 21
120.0955
 31
0.0
  0
LINE
  5
A31
330
1D
100
AcDbEntity
  8
0
100
AcDbLine
 10
0.0
 20
119.9295
 30
0.0
 11
0.0
 21
120.0785
 31
0.0
  0
LINE
  5
A32
330
1D
100
AcDbEntity
  8
0
100
AcDbLine
 10
0.0
 20
121.5865
 30
0.0
 11
0.0
 21
122.9265
 31
0.0
  0
LINE
  5
A33
330
1D
100
AcDbEntity
  8
0
100
AcDbLine
 10
0.0
 20
121.6025
 30
0.0
 11
0.0
 21
122.9935
 31
0.0
  0
LINE
  5
A34
330
1D
100
AcDbEntity
  8
0
100
AcDbLine
 10
0.0
 20
122.9265
 30
0.0
 11
0.0
 21
121.5865
 31
0.0
  0
LINE
  5
A35
330
1D
100
AcDbEntity
  8
0
100
AcDbLine
 10
0.0
 20
122.9935
 30
0.0
 11
0.0
 21
121.6025
 31
0.0
  0
LINE
  5
A36
330
1D
100
AcDbEntity
  8
0
100
AcDbLine
 10
0.0
 20
122.9935
 30
0.0
 11
0.0
 21
124.4475
 31
0.0
  0
LINE
  5
A37
330
1D
100
AcDbEntity
  8
0
100
AcDbLine
 10
0.0
 20
122.3145
 30
0.0
 11
0.0
 21
124.1675
 31
0.0
  0
LINE
  5
A38
330
1D
100
AcDbEntity
  8
0
100
AcDbLine
 10
0.0
 20
124.1675
 30
0.0
 11
0.0
 21
122.3145
 31
0.0
  0
LINE
  5
A39
330
1D
100
AcDbEntity
  8
0
100
AcDbLine
 10
0.096
 20
122.1165
 30
0.0
 11
0.199
 21
124.0125
 31
0.0
  0
LINE
  5
A3A
330
1D
100
AcDbEntity
  8
0
100
AcDbLine
 10
0.0
 20
124.4475
 30
0.0
 11
0.0
 21
122.9935
 31
0.0
  0
LINE
  5
A3B
330
1D
100
AcDbEntity
  8
0
100
AcDbLine
 10
0.0
 20
124.5155
 30
0.0
 11
0.0
 21
126.3025
 31
0.0
  0
LINE
  5
A3C
330
1D
100
AcDbEntity
  8
0
100
AcDbLine
 10
0.0
 20
126.1885
 30
0.0
 11
0.0
 21
128.2095
 31
0.0
  0
LINE
  5
A3D
330
1D
100
AcDbEntity
  8
0
100
AcDbLine
 10
0.476
 20
126.1885
 30
0.0
 11
0.476
 21
125.1995
 31
0.0
  0
LINE
  5
A3E
330
1D
100
AcDbEntity
  8
0
100
AcDbLine
 10
0.476
 20
126.1885
 30
0.0
 11
0.476
 21
127.1775
 31
0.0
  0
LINE
  5
A3F
330
1D
100
AcDbEntity
  8
0
100
AcDbLine
 10
0.476
 20
125.1995
 30
0.0
 11
0.476
 21
126.1885
 31
0.0
  0
LINE
  5
A40
330
1D
100
AcDbEntity
  8
0
100
AcDbLine
 10
0.0
 20
127.8945
 30
0.0
 11
0.0
 21
129.4335
 31
0.0
  0
LINE
  5
A41
330
1D
100
AcDbEntity
  8
0
100
AcDbLine
 10
0.0
 20
129.4455
 30
0.0
 11
0.0
 21
127.8895
 31
0.0
  0
LINE
  5
A42
330
1D
100
AcDbEntity
  8
0
100
AcDbLine
 10
0.0
 20
130.0625
 30
0.0
 11
0.0
 21
128.2095
 31
0.0
  0
LINE
  5
A43
330
1D
100
AcDbEntity
  8
0
100
AcDbLine
 10
0.0
 20
129.4335
 30
0.0
 11
0.0
 21
127.8945
 31
0.0
  0
LINE
  5
A44
330
1D
100
AcDbEntity
  8
0
100
AcDbLine
 10
0.0
 20
128.2095
 30
0.0
 11
0.0
 21
126.1885
 31
0.0
  0
LINE
  5
A45
330
1D
100
AcDbEntity
  8
0
100
AcDbLine
 10
0.0
 20
128.2095
 30
0.0
 11
0.0
 21
130.0625
 31
0.0
  0
LINE
  5
A46
330
1D
100
AcDbEntity
  8
0
100
AcDbLine
 10
0.0
 20
127.8895
 30
0.0
 11
0.0
 21
126.2015
 31
0.0
  0
LINE
  5
A47
330
1D
100
AcDbEntity
  8
0
100
AcDbLine
 10
0.0
 20
127.8895
 30
0.0
 11
0.0
 21
129.4455
 31
0.0
  0
LINE
  5
A48
330
1D
100
AcDbEntity
  8
0
100
AcDbLine
 10
0.0
 20
126.3025
 30
0.0
 11
0.0
 21
124.5155
 31
0.0
  0
LINE
  5
A49
330
1D
100
AcDbEntity
  8
0
100
AcDbLine
 10
0.0
 20
126.3025
 30
0.0
 11
0.0
 21
127.8945
 31
0.0
  0
LINE
  5
A4A
330
1D
100
AcDbEntity
  8
0
100
AcDbLine
 10
0.476
 20
127.1775
 30
0.0
 11
0.476
 21
126.1885
 31
0.0
  0
LINE
  5
A4B
330
1D
100
AcDbEntity
  8
0
100
AcDbLine
 10
0.199
 20
128.3645
 30
0.0
 11
0.476
 21
127.1775
 31
0.0
  0
LINE
  5
A4C
330
1D
100
AcDbEntity
  8
0
100
AcDbLine
 10
0.096
 20
130.2605
 30
0.0
 11
0.199
 21
128.3645
 31
0.0
  0
LINE
  5
A4D
330
1D
100
AcDbEntity
  8
0
100
AcDbLine
 10
10.0
 20
124.1675
 30
0.0
 11
10.0
 21
126.1885
 31
0.0
  0
LINE
  5
A4E
330
1D
100
AcDbEntity
  8
0
100
AcDbLine
 10
10.0
 20
124.3965
 30
0.0
 11
10.0
 21
126.1885
 31
0.0
  0
LINE
  5
A4F
330
1D
100
AcDbEntity
  8
0
100
AcDbLine
 10
10.0
 20
126.1885
 30
0.0
 11
10.0
 21
124.1675
 31
0.0
  0
LINE
  5
A50
330
1D
100
AcDbEntity
  8
0
100
AcDbLine
 10
10.0
 20
126.1885
 30
0.0
 11
10.0
 21
124.3965
 31
0.0
  0
LINE
  5
A51
330
1D
100
AcDbEntity
  8
0
100
AcDbLine
 10
9.524
 20
125.1995
 30
0.0
 11
9.801
 21
124.0125
 31
0.0
  0
LINE
  5
A52
330
1D
100
AcDbEntity
  8
0
100
AcDbLine
 10
9.827
 20
120.2095
 30
0.0
 11
9.904
 21
122.1165
 31
0.0
  0
LINE
  5
A53
330
1D
100
AcDbEntity
  8
0
100
AcDbLine
 10
10.0
 20
121.2325
 30
0.0
 11
10.0
 21
122.7165
 31
0.0
  0
LINE
  5
A54
330
1D
100
AcDbEntity
  8
0
100
AcDbLine
 10
10.0
 20
120.6725
 30
0.0
 11
10.0
 21
122.3145
 31
0.0
  0
LINE
  5
A55
330
1D
100
AcDbEntity
  8
0
100
AcDbLine
 10
10.0
 20
122.7165
 30
0.0
 11
10.0
 21
121.2325
 31
0.0
  0
LINE
  5
A56
330
1D
100
AcDbEntity
  8
0
100
AcDbLine
 10
10.0
 20
122.3145
 30
0.0
 11
10.0
 21
120.6725
 31
0.0
  0
LINE
  5
A57
330
1D
100
AcDbEntity
  8
0
100
AcDbLine
 10
9.524
 20
118.3565
 30
0.0
 11
9.524
 21
118.8745
 31
0.0
  0
LINE
  5
A58
330
1D
100
AcDbEntity
  8
0
100
AcDbLine
 10
9.524
 20
118.8745
 30
0.0
 11
9.827
 21
120.2095
 31
0.0
  0
LINE
  5
A59
330
1D
100
AcDbEntity
  8
0
100
AcDbLine
 10
9.524
 20
118.8745
 30
0.0
 11
9.524
 21
118.3565
 31
0.0
  0
LINE
  5
A5A
330
1D
100
AcDbEntity
  8
0
100
AcDbLine
 10
10.0
 20
118.6935
 30
0.0
 11
10.0
 21
118.3995
 31
0.0
  0
LINE
  5
A5B
330
1D
100
AcDbEntity
  8
0
100
AcDbLine
 10
10.0
 20
118.6935
 30
0.0
 11
10.0
 21
119.4515
 31
0.0
  0
LINE
  5
A5C
330
1D
100
AcDbEntity
  8
0
100
AcDbLine
 10
10.0
 20
118.3995
 30
0.0
 11
10.0
 21
118.6935
 31
0.0
  0
LINE
  5
A5D
330
1D
100
AcDbEntity
  8
0
100
AcDbLine
 10
10.0
 20
121.2325
 30
0.0
 11
10.0
 21
120.1125
 31
0.0
  0
LINE
  5
A5E
330
1D
100
AcDbEntity
  8
0
100
AcDbLine
 10
10.0
 20
120.1125
 30
0.0
 11
10.0
 21
121.2325
 31
0.0
  0
LINE
  5
A5F
330
1D
100
AcDbEntity
  8
0
100
AcDbLine
 10
10.0
 20
120.6725
 30
0.0
 11
10.0
 21
119.4515
 31
0.0
  0
LINE
  5
A60
330
1D
100
AcDbEntity
  8
0
100
AcDbLine
 10
10.0
 20
119.4515
 30
0.0
 11
10.0
 21
120.6725
 31
0.0
  0
LINE
  5
A61
330
1D
100
AcDbEntity
  8
0
100
AcDbLine
 10
10.0
 20
119.4515
 30
0.0
 11
10.0
 21
118.6935
 31
0.0
  0
LINE
  5
A62
330
1D
100
AcDbEntity
  8
0
100
AcDbLine
 10
10.0
 20
122.7165
 30
0.0
 11
10.0
 21
124.3965
 31
0.0
  0
LINE
  5
A63
330
1D
100
AcDbEntity
  8
0
100
AcDbLine
 10
10.0
 20
124.1675
 30
0.0
 11
10.0
 21
122.3145
 31
0.0
  0
LINE
  5
A64
330
1D
100
AcDbEntity
  8
0
100
AcDbLine
 10
10.0
 20
122.3145
 30
0.0
 11
10.0
 21
124.1675
 31
0.0
  0
LINE
  5
A65
330
1D
100
AcDbEntity
  8
0
100
AcDbLine
 10
9.801
 20
124.0125
 30
0.0
 11
9.904
 21
122.1165
 31
0.0
  0
LINE
  5
A66
330
1D
100
AcDbEntity
  8
0
100
AcDbLine
 10
10.0
 20
124.3965
 30
0.0
 11
10.0
 21
122.7165
 31
0.0
  0
LINE
  5
A67
330
1D
100
AcDbEntity
  8
0
100
AcDbLine
 10
9.524
 20
127.1775
 30
0.0
 11
9.801
 21
128.3645
 31
0.0
  0
LINE
  5
A68
330
1D
100
AcDbEntity
  8
0
100
AcDbLine
 10
9.524
 20
127.1775
 30
0.0
 11
9.524
 21
126.1885
 31
0.0
  0
LINE
  5
A69
330
1D
100
AcDbEntity
  8
0
100
AcDbLine
 10
9.524
 20
126.1885
 30
0.0
 11
9.524
 21
125.1995
 31
0.0
  0
LINE
  5
A6A
330
1D
100
AcDbEntity
  8
0
100
AcDbLine
 10
9.524
 20
126.1885
 30
0.0
 11
9.524
 21
127.1775
 31
0.0
  0
LINE
  5
A6B
330
1D
100
AcDbEntity
  8
0
100
AcDbLine
 10
10.0
 20
127.9805
 30
0.0
 11
10.0
 21
129.6605
 31
0.0
  0
LINE
  5
A6C
330
1D
100
AcDbEntity
  8
0
100
AcDbLine
 10
10.0
 20
127.9805
 30
0.0
 11
10.0
 21
126.1885
 31
0.0
  0
LINE
  5
A6D
330
1D
100
AcDbEntity
  8
0
100
AcDbLine
 10
10.0
 20
129.6605
 30
0.0
 11
10.0
 21
127.9805
 31
0.0
  0
LINE
  5
A6E
330
1D
100
AcDbEntity
  8
0
100
AcDbLine
 10
10.0
 20
130.0625
 30
0.0
 11
10.0
 21
128.2095
 31
0.0
  0
LINE
  5
A6F
330
1D
100
AcDbEntity
  8
0
100
AcDbLine
 10
9.801
 20
128.3645
 30
0.0
 11
9.904
 21
130.2605
 31
0.0
  0
LINE
  5
A70
330
1D
100
AcDbEntity
  8
0
100
AcDbLine
 10
10.0
 20
128.2095
 30
0.0
 11
10.0
 21
126.1885
 31
0.0
  0
LINE
  5
A71
330
1D
100
AcDbEntity
  8
0
100
AcDbLine
 10
10.0
 20
128.2095
 30
0.0
 11
10.0
 21
130.0625
 31
0.0
  0
LINE
  5
A72
330
1D
100
AcDbEntity
  8
0
100
AcDbLine
 10
10.0
 20
126.1885
 30
0.0
 11
10.0
 21
128.2095
 31
0.0
  0
LINE
  5
A73
330
1D
100
AcDbEntity
  8
0
100
AcDbLine
 10
10.0
 20
126.1885
 30
0.0
 11
10.0
 21
127.9805
 31
0.0
  0
LINE
  5
A74
330
1D
100
AcDbEntity
  8
0
100
AcDbLine
 10
9.524
 20
125.1995
 30
0.0
 11
9.524
 21
126.1885
 31
0.0
  0
LINE
  5
A75
330
1D
100
AcDbEntity
  8
0
100
AcDbLine
 10
0.952
 20
134.1885
 30
0.0
 11
9.048
 21
134.1885
 31
0.0
  0
LINE
  5
A76
330
1D
100
AcDbEntity
  8
0
100
AcDbLine
 10
0.0
 20
133.6835
 30
0.0
 11
0.0
 21
133.9775
 31
0.0
  0
LINE
  5
A77
330
1D
100
AcDbEntity
  8
0
100
AcDbLine
 10
0.476
 20
133.5025
 30
0.0
 11
0.952
 21
133.9825
 31
0.0
  0
LINE
  5
A78
330
1D
100
AcDbEntity
  8
0
100
AcDbLine
 10
0.0
 20
133.9775
 30
0.0
 11
0.0
 21
133.6835
 31
0.0
  0
LINE
  5
A79
330
1D
100
AcDbEntity
  8
0
100
AcDbLine
 10
0.0
 20
130.7905
 30
0.0
 11
0.0
 21
131.7845
 31
0.0
  0
LINE
  5
A7A
330
1D
100
AcDbEntity
  8
0
100
AcDbLine
 10
0.0
 20
131.7045
 30
0.0
 11
0.0
 21
132.9255
 31
0.0
  0
LINE
  5
A7B
330
1D
100
AcDbEntity
  8
0
100
AcDbLine
 10
0.0
 20
130.8075
 30
0.0
 11
0.0
 21
131.7505
 31
0.0
  0
LINE
  5
A7C
330
1D
100
AcDbEntity
  8
0
100
AcDbLine
 10
0.0
 20
131.7845
 30
0.0
 11
0.0
 21
132.2635
 31
0.0
  0
LINE
  5
A7D
330
1D
100
AcDbEntity
  8
0
100
AcDbLine
 10
0.0
 20
131.7845
 30
0.0
 11
0.0
 21
130.7905
 31
0.0
  0
LINE
  5
A7E
330
1D
100
AcDbEntity
  8
0
100
AcDbLine
 10
0.0
 20
131.7505
 30
0.0
 11
0.0
 21
130.8075
 31
0.0
  0
LINE
  5
A7F
330
1D
100
AcDbEntity
  8
0
100
AcDbLine
 10
0.0
 20
131.7505
 30
0.0
 11
0.0
 21
132.2975
 31
0.0
  0
LINE
  5
A80
330
1D
100
AcDbEntity
  8
0
100
AcDbLine
 10
0.0
 20
132.2635
 30
0.0
 11
0.0
 21
132.4795
 31
0.0
  0
LINE
  5
A81
330
1D
100
AcDbEntity
  8
0
100
AcDbLine
 10
0.0
 20
132.2635
 30
0.0
 11
0.0
 21
131.7845
 31
0.0
  0
LINE
  5
A82
330
1D
100
AcDbEntity
  8
0
100
AcDbLine
 10
0.0
 20
132.4795
 30
0.0
 11
0.0
 21
132.2975
 31
0.0
  0
LINE
  5
A83
330
1D
100
AcDbEntity
  8
0
100
AcDbLine
 10
0.0
 20
132.4795
 30
0.0
 11
0.0
 21
132.2635
 31
0.0
  0
LINE
  5
A84
330
1D
100
AcDbEntity
  8
0
100
AcDbLine
 10
0.0
 20
132.2975
 30
0.0
 11
0.0
 21
132.4795
 31
0.0
  0
LINE
  5
A85
330
1D
100
AcDbEntity
  8
0
100
AcDbLine
 10
0.0
 20
132.2975
 30
0.0
 11
0.0
 21
131.7505
 31
0.0
  0
LINE
  5
A86
330
1D
100
AcDbEntity
  8
0
100
AcDbLine
 10
0.0
 20
132.9255
 30
0.0
 11
0.0
 21
131.7045
 31
0.0
  0
LINE
  5
A87
330
1D
100
AcDbEntity
  8
0
100
AcDbLine
 10
0.0
 20
132.9255
 30
0.0
 11
0.0
 21
133.6835
 31
0.0
  0
LINE
  5
A88
330
1D
100
AcDbEntity
  8
0
100
AcDbLine
 10
0.173
 20
132.1675
 30
0.0
 11
0.476
 21
133.5025
 31
0.0
  0
LINE
  5
A89
330
1D
100
AcDbEntity
  8
0
100
AcDbLine
 10
0.0
 20
133.6835
 30
0.0
 11
0.0
 21
132.9255
 31
0.0
  0
LINE
  5
A8A
330
1D
100
AcDbEntity
  8
0
100
AcDbLine
 10
0.0
 20
133.9775
 30
0.0
 11
0.048
 21
134.1885
 31
0.0
  0
LINE
  5
A8B
330
1D
100
AcDbEntity
  8
0
100
AcDbLine
 10
0.952
 20
133.9825
 30
0.0
 11
0.952
 21
134.1885
 31
0.0
  0
LINE
  5
A8C
330
1D
100
AcDbEntity
  8
0
100
AcDbLine
 10
0.476
 20
134.1885
 30
0.0
 11
0.952
 21
134.1885
 31
0.0
  0
LINE
  5
A8D
330
1D
100
AcDbEntity
  8
0
100
AcDbLine
 10
0.952
 20
134.1885
 30
0.0
 11
0.952
 21
133.9825
 31
0.0
  0
LINE
  5
A8E
330
1D
100
AcDbEntity
  8
0
100
AcDbLine
 10
0.114
 20
134.1885
 30
0.0
 11
0.476
 21
134.1885
 31
0.0
  0
LINE
  5
A8F
330
1D
100
AcDbEntity
  8
0
100
AcDbLine
 10
0.048
 20
134.1885
 30
0.0
 11
0.114
 21
134.1885
 31
0.0
  0
LINE
  5
A90
330
1D
100
AcDbEntity
  8
0
100
AcDbLine
 10
10.0
 20
131.1445
 30
0.0
 11
10.0
 21
132.2645
 31
0.0
  0
LINE
  5
A91
330
1D
100
AcDbEntity
  8
0
100
AcDbLine
 10
10.0
 20
131.7045
 30
0.0
 11
10.0
 21
132.9255
 31
0.0
  0
LINE
  5
A92
330
1D
100
AcDbEntity
  8
0
100
AcDbLine
 10
10.0
 20
132.2645
 30
0.0
 11
10.0
 21
131.1445
 31
0.0
  0
LINE
  5
A93
330
1D
100
AcDbEntity
  8
0
100
AcDbLine
 10
10.0
 20
132.9255
 30
0.0
 11
10.0
 21
131.7045
 31
0.0
  0
LINE
  5
A94
330
1D
100
AcDbEntity
  8
0
100
AcDbLine
 10
10.0
 20
132.9255
 30
0.0
 11
10.0
 21
133.6835
 31
0.0
  0
LINE
  5
A95
330
1D
100
AcDbEntity
  8
0
100
AcDbLine
 10
9.524
 20
133.5025
 30
0.0
 11
9.827
 21
132.1675
 31
0.0
  0
LINE
  5
A96
330
1D
100
AcDbEntity
  8
0
100
AcDbLine
 10
9.524
 20
133.5025
 30
0.0
 11
9.524
 21
134.0205
 31
0.0
  0
LINE
  5
A97
330
1D
100
AcDbEntity
  8
0
100
AcDbLine
 10
10.0
 20
133.6835
 30
0.0
 11
10.0
 21
132.9255
 31
0.0
  0
LINE
  5
A98
330
1D
100
AcDbEntity
  8
0
100
AcDbLine
 10
10.0
 20
133.6835
 30
0.0
 11
10.0
 21
133.9775
 31
0.0
  0
LINE
  5
A99
330
1D
100
AcDbEntity
  8
0
100
AcDbLine
 10
9.524
 20
134.0205
 30
0.0
 11
9.524
 21
133.5025
 31
0.0
  0
LINE
  5
A9A
330
1D
100
AcDbEntity
  8
0
100
AcDbLine
 10
9.524
 20
134.0205
 30
0.0
 11
9.524
 21
134.1885
 31
0.0
  0
LINE
  5
A9B
330
1D
100
AcDbEntity
  8
0
100
AcDbLine
 10
9.048
 20
134.1885
 30
0.0
 11
9.524
 21
134.1885
 31
0.0
  0
LINE
  5
A9C
330
1D
100
AcDbEntity
  8
0
100
AcDbLine
 10
9.524
 20
134.1885
 30
0.0
 11
9.886
 21
134.1885
 31
0.0
  0
LINE
  5
A9D
330
1D
100
AcDbEntity
  8
0
100
AcDbLine
 10
9.524
 20
134.1885
 30
0.0
 11
9.524
 21
134.0205
 31
0.0
  0
LINE
  5
A9E
330
1D
100
AcDbEntity
  8
0
100
AcDbLine
 10
10.0
 20
133.9775
 30
0.0
 11
10.0
 21
133.6835
 31
0.0
  0
LINE
  5
A9F
330
1D
100
AcDbEntity
  8
0
100
AcDbLine
 10
9.952
 20
134.1885
 30
0.0
 11
10.0
 21
133.9775
 31
0.0
  0
LINE
  5
AA0
330
1D
100
AcDbEntity
  8
0
100
AcDbLine
 10
9.886
 20
134.1885
 30
0.0
 11
9.952
 21
134.1885
 31
0.0
  0
LINE
  5
AA1
330
1D
100
AcDbEntity
  8
0
100
AcDbLine
 10
16.0
 20
130.6525
 30
0.0
 11
16.0
 21
132.5605
 31
0.0
  0
LINE
  5
AA2
330
1D
100
AcDbEntity
  8
0
100
AcDbLine
 10
16.0
 20
129.6605
 30
0.0
 11
16.0
 21
131.1445
 31
0.0
  0
LINE
  5
AA3
330
1D
100
AcDbEntity
  8
0
100
AcDbLine
 10
16.0
 20
132.5605
 30
0.0
 11
16.0
 21
130.6525
 31
0.0
  0
LINE
  5
AA4
330
1D
100
AcDbEntity
  8
0
100
AcDbLine
 10
16.0
 20
123.8845
 30
0.0
 11
16.0
 21
126.1885
 31
0.0
  0
LINE
  5
AA5
330
1D
100
AcDbEntity
  8
0
100
AcDbLine
 10
16.0
 20
124.3965
 30
0.0
 11
16.0
 21
126.1885
 31
0.0
  0
LINE
  5
AA6
330
1D
100
AcDbEntity
  8
0
100
AcDbLine
 10
16.0
 20
126.1885
 30
0.0
 11
16.0
 21
123.8845
 31
0.0
  0
LINE
  5
AA7
330
1D
100
AcDbEntity
  8
0
100
AcDbLine
 10
16.0
 20
118.3765
 30
0.0
 11
16.0
 21
119.1885
 31
0.0
  0
LINE
  5
AA8
330
1D
100
AcDbEntity
  8
0
100
AcDbLine
 10
16.0
 20
118.3765
 30
0.0
 11
16.0
 21
119.8165
 31
0.0
  0
LINE
  5
AA9
330
1D
100
AcDbEntity
  8
0
100
AcDbLine
 10
16.0
 20
119.1885
 30
0.0
 11
16.0
 21
119.4405
 31
0.0
  0
LINE
  5
AAA
330
1D
100
AcDbEntity
  8
0
100
AcDbLine
 10
16.0
 20
119.1885
 30
0.0
 11
16.0
 21
118.3765
 31
0.0
  0
LINE
  5
AAB
330
1D
100
AcDbEntity
  8
0
100
AcDbLine
 10
16.0
 20
119.4405
 30
0.0
 11
16.0
 21
120.1125
 31
0.0
  0
LINE
  5
AAC
330
1D
100
AcDbEntity
  8
0
100
AcDbLine
 10
16.0
 20
119.8165
 30
0.0
 11
16.0
 21
121.7245
 31
0.0
  0
LINE
  5
AAD
330
1D
100
AcDbEntity
  8
0
100
AcDbLine
 10
16.0
 20
119.8165
 30
0.0
 11
16.0
 21
118.3765
 31
0.0
  0
LINE
  5
AAE
330
1D
100
AcDbEntity
  8
0
100
AcDbLine
 10
16.0
 20
121.7245
 30
0.0
 11
16.0
 21
123.8845
 31
0.0
  0
LINE
  5
AAF
330
1D
100
AcDbEntity
  8
0
100
AcDbLine
 10
16.0
 20
121.7245
 30
0.0
 11
16.0
 21
119.8165
 31
0.0
  0
LINE
  5
AB0
330
1D
100
AcDbEntity
  8
0
100
AcDbLine
 10
16.0
 20
121.2325
 30
0.0
 11
16.0
 21
122.7165
 31
0.0
  0
LINE
  5
AB1
330
1D
100
AcDbEntity
  8
0
100
AcDbLine
 10
16.0
 20
120.1125
 30
0.0
 11
16.0
 21
121.2325
 31
0.0
  0
LINE
  5
AB2
330
1D
100
AcDbEntity
  8
0
100
AcDbLine
 10
16.0
 20
123.8845
 30
0.0
 11
16.0
 21
121.7245
 31
0.0
  0
LINE
  5
AB3
330
1D
100
AcDbEntity
  8
0
100
AcDbLine
 10
16.0
 20
122.7165
 30
0.0
 11
16.0
 21
124.3965
 31
0.0
  0
LINE
  5
AB4
330
1D
100
AcDbEntity
  8
0
100
AcDbLine
 10
16.0
 20
126.1885
 30
0.0
 11
16.0
 21
127.9805
 31
0.0
  0
LINE
  5
AB5
330
1D
100
AcDbEntity
  8
0
100
AcDbLine
 10
16.0
 20
126.1885
 30
0.0
 11
16.0
 21
128.4925
 31
0.0
  0
LINE
  5
AB6
330
1D
100
AcDbEntity
  8
0
100
AcDbLine
 10
16.0
 20
128.4925
 30
0.0
 11
16.0
 21
130.6525
 31
0.0
  0
LINE
  5
AB7
330
1D
100
AcDbEntity
  8
0
100
AcDbLine
 10
16.0
 20
128.4925
 30
0.0
 11
16.0
 21
126.1885
 31
0.0
  0
LINE
  5
AB8
330
1D
100
AcDbEntity
  8
0
100
AcDbLine
 10
16.0
 20
127.9805
 30
0.0
 11
16.0
 21
129.6605
 31
0.0
  0
LINE
  5
AB9
330
1D
100
AcDbEntity
  8
0
100
AcDbLine
 10
16.0
 20
130.6525
 30
0.0
 11
16.0
 21
128.4925
 31
0.0
  0
LINE
  5
ABA
330
1D
100
AcDbEntity
  8
0
100
AcDbLine
 10
16.0
 20
131.1445
 30
0.0
 11
16.0
 21
132.2645
 31
0.0
  0
LINE
  5
ABB
330
1D
100
AcDbEntity
  8
0
100
AcDbLine
 10
16.0
 20
132.5605
 30
0.0
 11
16.0
 21
134.0005
 31
0.0
  0
LINE
  5
ABC
330
1D
100
AcDbEntity
  8
0
100
AcDbLine
 10
16.0
 20
132.2645
 30
0.0
 11
16.0
 21
132.9365
 31
0.0
  0
LINE
  5
ABD
330
1D
100
AcDbEntity
  8
0
100
AcDbLine
 10
16.0
 20
133.1885
 30
0.0
 11
16.0
 21
134.0005
 31
0.0
  0
LINE
  5
ABE
330
1D
100
AcDbEntity
  8
0
100
AcDbLine
 10
16.0
 20
132.9365
 30
0.0
 11
16.0
 21
133.1885
 31
0.0
  0
LINE
  5
ABF
330
1D
100
AcDbEntity
  8
0
100
AcDbLine
 10
16.0
 20
134.0005
 30
0.0
 11
16.0
 21
133.1885
 31
0.0
  0
LINE
  5
AC0
330
1D
100
AcDbEntity
  8
0
100
AcDbLine
 10
16.0
 20
134.0005
 30
0.0
 11
16.0
 21
134.8645
 31
0.0
  0
LINE
  5
AC1
330
1D
100
AcDbEntity
  8
0
100
AcDbLine
 10
16.0
 20
134.0005
 30
0.0
 11
16.0
 21
132.5605
 31
0.0
  0
LINE
  5
AC2
330
1D
100
AcDbEntity
  8
0
100
AcDbLine
 10
16.0
 20
134.8645
 30
0.0
 11
16.0
 21
134.0005
 31
0.0
  0
LINE
  5
AC3
330
1D
100
AcDbEntity
  8
0
100
AcDbLine
 10
16.0
 20
134.8645
 30
0.0
 11
16.0
 21
135.1885
 31
0.0
  0
LINE
  5
AC4
330
1D
100
AcDbEntity
  8
0
100
AcDbLine
 10
16.0
 20
135.1885
 30
0.0
 11
16.0
 21
134.8645
 31
0.0
  0
LINE
  5
AC5
330
1D
100
AcDbEntity
  8
0
100
AcDbLine
 10
36.04
 20
107.1885
 30
0.0
 11
38.44
 21
107.1885
 31
0.0
  0
LINE
  5
AC6
330
1D
100
AcDbEntity
  8
0
100
AcDbLine
 10
37.416
 20
107.1885
 30
0.0
 11
41.0
 21
107.1885
 31
0.0
  0
LINE
  5
AC7
330
1D
100
AcDbEntity
  8
0
100
AcDbLine
 10
33.92
 20
107.1885
 30
0.0
 11
36.04
 21
107.1885
 31
0.0
  0
LINE
  5
AC8
330
1D
100
AcDbEntity
  8
0
100
AcDbLine
 10
32.32
 20
107.1885
 30
0.0
 11
33.92
 21
107.1885
 31
0.0
  0
LINE
  5
AC9
330
1D
100
AcDbEntity
  8
0
100
AcDbLine
 10
31.36
 20
107.1885
 30
0.0
 11
32.32
 21
107.1885
 31
0.0
  0
LINE
  5
ACA
330
1D
100
AcDbEntity
  8
0
100
AcDbLine
 10
31.0
 20
107.1885
 30
0.0
 11
31.36
 21
107.1885
 31
0.0
  0
LINE
  5
ACB
330
1D
100
AcDbEntity
  8
0
100
AcDbLine
 10
34.056
 20
107.1885
 30
0.0
 11
37.416
 21
107.1885
 31
0.0
  0
LINE
  5
ACC
330
1D
100
AcDbEntity
  8
0
100
AcDbLine
 10
31.088
 20
107.1885
 30
0.0
 11
34.056
 21
107.1885
 31
0.0
  0
LINE
  5
ACD
330
1D
100
AcDbEntity
  8
0
100
AcDbLine
 10
28.848
 20
107.1885
 30
0.0
 11
31.0
 21
107.1885
 31
0.0
  0
LINE
  5
ACE
330
1D
100
AcDbEntity
  8
0
100
AcDbLine
 10
28.848
 20
107.1885
 30
0.0
 11
31.088
 21
107.1885
 31
0.0
  0
LINE
  5
ACF
330
1D
100
AcDbEntity
  8
0
100
AcDbLine
 10
27.504
 20
107.1885
 30
0.0
 11
28.848
 21
107.1885
 31
0.0
  0
LINE
  5
AD0
330
1D
100
AcDbEntity
  8
0
100
AcDbLine
 10
27.0
 20
117.1885
 30
0.0
 11
27.0
 21
107.1885
 31
0.0
  0
LINE
  5
AD1
330
1D
100
AcDbEntity
  8
0
100
AcDbLine
 10
27.0
 20
107.1885
 30
0.0
 11
27.0
 21
117.1885
 31
0.0
  0
LINE
  5
AD2
330
1D
100
AcDbEntity
  8
0
100
AcDbLine
 10
27.0
 20
107.1885
 30
0.0
 11
27.504
 21
107.1885
 31
0.0
  0
LINE
  5
AD3
330
1D
100
AcDbEntity
  8
0
100
AcDbLine
 10
38.44
 20
107.1885
 30
0.0
 11
41.0
 21
107.1885
 31
0.0
  0
LINE
  5
AD4
330
1D
100
AcDbEntity
  8
0
100
AcDbLine
 10
43.56
 20
107.1885
 30
0.0
 11
45.96
 21
107.1885
 31
0.0
  0
LINE
  5
AD5
330
1D
100
AcDbEntity
  8
0
100
AcDbLine
 10
45.96
 20
107.1885
 30
0.0
 11
48.08
 21
107.1885
 31
0.0
  0
LINE
  5
AD6
330
1D
100
AcDbEntity
  8
0
100
AcDbLine
 10
41.0
 20
107.1885
 30
0.0
 11
44.584
 21
107.1885
 31
0.0
  0
LINE
  5
AD7
330
1D
100
AcDbEntity
  8
0
100
AcDbLine
 10
41.0
 20
107.1885
 30
0.0
 11
43.56
 21
107.1885
 31
0.0
  0
LINE
  5
AD8
330
1D
100
AcDbEntity
  8
0
100
AcDbLine
 10
44.584
 20
107.1885
 30
0.0
 11
47.944
 21
107.1885
 31
0.0
  0
LINE
  5
AD9
330
1D
100
AcDbEntity
  8
0
100
AcDbLine
 10
48.08
 20
107.1885
 30
0.0
 11
49.68
 21
107.1885
 31
0.0
  0
LINE
  5
ADA
330
1D
100
AcDbEntity
  8
0
100
AcDbLine
 10
51.0
 20
87.1885
 30
0.0
 11
51.0
 21
107.1885
 31
0.0
  0
LINE
  5
ADB
330
1D
100
AcDbEntity
  8
0
100
AcDbLine
 10
51.0
 20
107.1885
 30
0.0
 11
51.0
 21
87.1885
 31
0.0
  0
LINE
  5
ADC
330
1D
100
AcDbEntity
  8
0
100
AcDbLine
 10
50.64
 20
87.1885
 30
0.0
 11
51.0
 21
87.1885
 31
0.0
  0
LINE
  5
ADD
330
1D
100
AcDbEntity
  8
0
100
AcDbLine
 10
72.952
 20
118.1885
 30
0.0
 11
81.048
 21
118.1885
 31
0.0
  0
LINE
  5
ADE
330
1D
100
AcDbEntity
  8
0
100
AcDbLine
 10
72.952
 20
134.1885
 30
0.0
 11
81.048
 21
134.1885
 31
0.0
  0
LINE
  5
ADF
330
1D
100
AcDbEntity
  8
0
100
AcDbLine
 10
66.0
 20
117.5125
 30
0.0
 11
66.0
 21
118.3765
 31
0.0
  0
LINE
  5
AE0
330
1D
100
AcDbEntity
  8
0
100
AcDbLine
 10
72.476
 20
118.1885
 30
0.0
 11
72.476
 21
118.3565
 31
0.0
  0
LINE
  5
AE1
330
1D
100
AcDbEntity
  8
0
100
AcDbLine
 10
66.0
 20
118.3765
 30
0.0
 11
66.0
 21
117.5125
 31
0.0
  0
LINE
  5
AE2
330
1D
100
AcDbEntity
  8
0
100
AcDbLine
 10
72.476
 20
118.3565
 30
0.0
 11
72.476
 21
118.1885
 31
0.0
  0
LINE
  5
AE3
330
1D
100
AcDbEntity
  8
0
100
AcDbLine
 10
72.0
 20
118.3995
 30
0.0
 11
72.048
 21
118.1885
 31
0.0
  0
LINE
  5
AE4
330
1D
100
AcDbEntity
  8
0
100
AcDbLine
 10
50.64
 20
107.1885
 30
0.0
 11
51.0
 21
107.1885
 31
0.0
  0
LINE
  5
AE5
330
1D
100
AcDbEntity
  8
0
100
AcDbLine
 10
50.912
 20
107.1885
 30
0.0
 11
53.152
 21
107.1885
 31
0.0
  0
LINE
  5
AE6
330
1D
100
AcDbEntity
  8
0
100
AcDbLine
 10
51.0
 20
107.1885
 30
0.0
 11
53.152
 21
107.1885
 31
0.0
  0
LINE
  5
AE7
330
1D
100
AcDbEntity
  8
0
100
AcDbLine
 10
53.152
 20
107.1885
 30
0.0
 11
54.496
 21
107.1885
 31
0.0
  0
LINE
  5
AE8
330
1D
100
AcDbEntity
  8
0
100
AcDbLine
 10
55.0
 20
107.1885
 30
0.0
 11
55.0
 21
117.1885
 31
0.0
  0
LINE
  5
AE9
330
1D
100
AcDbEntity
  8
0
100
AcDbLine
 10
54.496
 20
107.1885
 30
0.0
 11
55.0
 21
107.1885
 31
0.0
  0
LINE
  5
AEA
330
1D
100
AcDbEntity
  8
0
100
AcDbLine
 10
66.0
 20
117.5125
 30
0.0
 11
66.0
 21
117.1885
 31
0.0
  0
LINE
  5
AEB
330
1D
100
AcDbEntity
  8
0
100
AcDbLine
 10
66.0
 20
117.1885
 30
0.0
 11
66.0
 21
117.5125
 31
0.0
  0
LINE
  5
AEC
330
1D
100
AcDbEntity
  8
0
100
AcDbLine
 10
55.0
 20
117.1885
 30
0.0
 11
66.0
 21
117.1885
 31
0.0
  0
LINE
  5
AED
330
1D
100
AcDbEntity
  8
0
100
AcDbLine
 10
55.0
 20
117.1885
 30
0.0
 11
55.0
 21
107.1885
 31
0.0
  0
LINE
  5
AEE
330
1D
100
AcDbEntity
  8
0
100
AcDbLine
 10
72.476
 20
118.1885
 30
0.0
 11
72.952
 21
118.1885
 31
0.0
  0
LINE
  5
AEF
330
1D
100
AcDbEntity
  8
0
100
AcDbLine
 10
72.114
 20
118.1885
 30
0.0
 11
72.476
 21
118.1885
 31
0.0
  0
LINE
  5
AF0
330
1D
100
AcDbEntity
  8
0
100
AcDbLine
 10
72.048
 20
118.1885
 30
0.0
 11
72.114
 21
118.1885
 31
0.0
  0
LINE
  5
AF1
330
1D
100
AcDbEntity
  8
0
100
AcDbLine
 10
55.0
 20
135.1885
 30
0.0
 11
66.0
 21
135.1885
 31
0.0
  0
LINE
  5
AF2
330
1D
100
AcDbEntity
  8
0
100
AcDbLine
 10
72.0
 20
129.6605
 30
0.0
 11
72.0
 21
131.1445
 31
0.0
  0
LINE
  5
AF3
330
1D
100
AcDbEntity
  8
0
100
AcDbLine
 10
72.0
 20
131.1445
 30
0.0
 11
72.0
 21
129.6605
 31
0.0
  0
LINE
  5
AF4
330
1D
100
AcDbEntity
  8
0
100
AcDbLine
 10
66.0
 20
130.6525
 30
0.0
 11
66.0
 21
132.5605
 31
0.0
  0
LINE
  5
AF5
330
1D
100
AcDbEntity
  8
0
100
AcDbLine
 10
66.0
 20
132.5605
 30
0.0
 11
66.0
 21
130.6525
 31
0.0
  0
LINE
  5
AF6
330
1D
100
AcDbEntity
  8
0
100
AcDbLine
 10
72.096
 20
130.2605
 30
0.0
 11
72.173
 21
132.1675
 31
0.0
  0
LINE
  5
AF7
330
1D
100
AcDbEntity
  8
0
100
AcDbLine
 10
66.0
 20
119.1885
 30
0.0
 11
72.0
 21
119.1885
 31
0.0
  0
LINE
  5
AF8
330
1D
100
AcDbEntity
  8
0
100
AcDbLine
 10
66.0
 20
118.3765
 30
0.0
 11
66.0
 21
119.8165
 31
0.0
  0
LINE
  5
AF9
330
1D
100
AcDbEntity
  8
0
100
AcDbLine
 10
66.0
 20
121.7245
 30
0.0
 11
66.0
 21
123.8845
 31
0.0
  0
LINE
  5
AFA
330
1D
100
AcDbEntity
  8
0
100
AcDbLine
 10
66.0
 20
121.7245
 30
0.0
 11
66.0
 21
119.8165
 31
0.0
  0
LINE
  5
AFB
330
1D
100
AcDbEntity
  8
0
100
AcDbLine
 10
66.0
 20
119.8165
 30
0.0
 11
66.0
 21
121.7245
 31
0.0
  0
LINE
  5
AFC
330
1D
100
AcDbEntity
  8
0
100
AcDbLine
 10
66.0
 20
119.8165
 30
0.0
 11
66.0
 21
118.3765
 31
0.0
  0
LINE
  5
AFD
330
1D
100
AcDbEntity
  8
0
100
AcDbLine
 10
66.0
 20
123.8845
 30
0.0
 11
66.0
 21
126.1885
 31
0.0
  0
LINE
  5
AFE
330
1D
100
AcDbEntity
  8
0
100
AcDbLine
 10
66.0
 20
123.8845
 30
0.0
 11
66.0
 21
121.7245
 31
0.0
  0
LINE
  5
AFF
330
1D
100
AcDbEntity
  8
0
100
AcDbLine
 10
66.0
 20
126.1885
 30
0.0
 11
66.0
 21
128.4925
 31
0.0
  0
LINE
  5
B00
330
1D
100
AcDbEntity
  8
0
100
AcDbLine
 10
66.0
 20
126.1885
 30
0.0
 11
66.0
 21
123.8845
 31
0.0
  0
LINE
  5
B01
330
1D
100
AcDbEntity
  8
0
100
AcDbLine
 10
66.0
 20
128.4925
 30
0.0
 11
66.0
 21
130.6525
 31
0.0
  0
LINE
  5
B02
330
1D
100
AcDbEntity
  8
0
100
AcDbLine
 10
66.0
 20
128.4925
 30
0.0
 11
66.0
 21
126.1885
 31
0.0
  0
LINE
  5
B03
330
1D
100
AcDbEntity
  8
0
100
AcDbLine
 10
66.0
 20
130.6525
 30
0.0
 11
66.0
 21
128.4925
 31
0.0
  0
LINE
  5
B04
330
1D
100
AcDbEntity
  8
0
100
AcDbLine
 10
72.0
 20
124.3965
 30
0.0
 11
72.0
 21
126.1885
 31
0.0
  0
LINE
  5
B05
330
1D
100
AcDbEntity
  8
0
100
AcDbLine
 10
72.0
 20
126.1885
 30
0.0
 11
72.0
 21
124.3965
 31
0.0
  0
LINE
  5
B06
330
1D
100
AcDbEntity
  8
0
100
AcDbLine
 10
72.199
 20
124.0125
 30
0.0
 11
72.476
 21
125.1995
 31
0.0
  0
LINE
  5
B07
330
1D
100
AcDbEntity
  8
0
100
AcDbLine
 10
72.0
 20
119.4405
 30
0.0
 11
72.0
 21
120.1125
 31
0.0
  0
LINE
  5
B08
330
1D
100
AcDbEntity
  8
0
100
AcDbLine
 10
72.0
 20
119.4405
 30
0.0
 11
72.0
 21
119.1885
 31
0.0
  0
LINE
  5
B09
330
1D
100
AcDbEntity
  8
0
100
AcDbLine
 10
72.0
 20
121.2325
 30
0.0
 11
72.0
 21
122.7165
 31
0.0
  0
LINE
  5
B0A
330
1D
100
AcDbEntity
  8
0
100
AcDbLine
 10
72.0
 20
121.2325
 30
0.0
 11
72.0
 21
120.1125
 31
0.0
  0
LINE
  5
B0B
330
1D
100
AcDbEntity
  8
0
100
AcDbLine
 10
72.0
 20
120.1125
 30
0.0
 11
72.0
 21
121.2325
 31
0.0
  0
LINE
  5
B0C
330
1D
100
AcDbEntity
  8
0
100
AcDbLine
 10
72.0
 20
120.1125
 30
0.0
 11
72.0
 21
119.4405
 31
0.0
  0
LINE
  5
B0D
330
1D
100
AcDbEntity
  8
0
100
AcDbLine
 10
72.0
 20
122.7165
 30
0.0
 11
72.0
 21
124.3965
 31
0.0
  0
LINE
  5
B0E
330
1D
100
AcDbEntity
  8
0
100
AcDbLine
 10
72.0
 20
122.7165
 30
0.0
 11
72.0
 21
121.2325
 31
0.0
  0
LINE
  5
B0F
330
1D
100
AcDbEntity
  8
0
100
AcDbLine
 10
72.0
 20
119.1885
 30
0.0
 11
72.0
 21
118.6935
 31
0.0
  0
LINE
  5
B10
330
1D
100
AcDbEntity
  8
0
100
AcDbLine
 10
72.0
 20
119.1885
 30
0.0
 11
72.0
 21
119.4405
 31
0.0
  0
LINE
  5
B11
330
1D
100
AcDbEntity
  8
0
100
AcDbLine
 10
72.0
 20
118.6935
 30
0.0
 11
72.0
 21
119.1885
 31
0.0
  0
LINE
  5
B12
330
1D
100
AcDbEntity
  8
0
100
AcDbLine
 10
72.0
 20
118.6935
 30
0.0
 11
72.0
 21
118.3995
 31
0.0
  0
LINE
  5
B13
330
1D
100
AcDbEntity
  8
0
100
AcDbLine
 10
72.0
 20
124.3965
 30
0.0
 11
72.0
 21
122.7165
 31
0.0
  0
LINE
  5
B14
330
1D
100
AcDbEntity
  8
0
100
AcDbLine
 10
72.476
 20
118.3565
 30
0.0
 11
72.476
 21
118.8745
 31
0.0
  0
LINE
  5
B15
330
1D
100
AcDbEntity
  8
0
100
AcDbLine
 10
72.476
 20
118.8745
 30
0.0
 11
72.476
 21
118.3565
 31
0.0
  0
LINE
  5
B16
330
1D
100
AcDbEntity
  8
0
100
AcDbLine
 10
72.173
 20
120.2095
 30
0.0
 11
72.476
 21
118.8745
 31
0.0
  0
LINE
  5
B17
330
1D
100
AcDbEntity
  8
0
100
AcDbLine
 10
72.096
 20
122.1165
 30
0.0
 11
72.199
 21
124.0125
 31
0.0
  0
LINE
  5
B18
330
1D
100
AcDbEntity
  8
0
100
AcDbLine
 10
72.096
 20
122.1165
 30
0.0
 11
72.173
 21
120.2095
 31
0.0
  0
LINE
  5
B19
330
1D
100
AcDbEntity
  8
0
100
AcDbLine
 10
72.0
 20
118.3995
 30
0.0
 11
72.0
 21
118.6935
 31
0.0
  0
LINE
  5
B1A
330
1D
100
AcDbEntity
  8
0
100
AcDbLine
 10
72.0
 20
126.1885
 30
0.0
 11
72.0
 21
127.9805
 31
0.0
  0
LINE
  5
B1B
330
1D
100
AcDbEntity
  8
0
100
AcDbLine
 10
72.0
 20
127.9805
 30
0.0
 11
72.0
 21
129.6605
 31
0.0
  0
LINE
  5
B1C
330
1D
100
AcDbEntity
  8
0
100
AcDbLine
 10
72.0
 20
127.9805
 30
0.0
 11
72.0
 21
126.1885
 31
0.0
  0
LINE
  5
B1D
330
1D
100
AcDbEntity
  8
0
100
AcDbLine
 10
72.0
 20
129.6605
 30
0.0
 11
72.0
 21
127.9805
 31
0.0
  0
LINE
  5
B1E
330
1D
100
AcDbEntity
  8
0
100
AcDbLine
 10
72.476
 20
125.1995
 30
0.0
 11
72.476
 21
126.1885
 31
0.0
  0
LINE
  5
B1F
330
1D
100
AcDbEntity
  8
0
100
AcDbLine
 10
72.476
 20
126.1885
 30
0.0
 11
72.476
 21
125.1995
 31
0.0
  0
LINE
  5
B20
330
1D
100
AcDbEntity
  8
0
100
AcDbLine
 10
72.476
 20
126.1885
 30
0.0
 11
72.476
 21
127.1775
 31
0.0
  0
LINE
  5
B21
330
1D
100
AcDbEntity
  8
0
100
AcDbLine
 10
72.476
 20
127.1775
 30
0.0
 11
72.476
 21
126.1885
 31
0.0
  0
LINE
  5
B22
330
1D
100
AcDbEntity
  8
0
100
AcDbLine
 10
72.199
 20
128.3645
 30
0.0
 11
72.476
 21
127.1775
 31
0.0
  0
LINE
  5
B23
330
1D
100
AcDbEntity
  8
0
100
AcDbLine
 10
72.096
 20
130.2605
 30
0.0
 11
72.199
 21
128.3645
 31
0.0
  0
LINE
  5
B24
330
1D
100
AcDbEntity
  8
0
100
AcDbLine
 10
66.0
 20
133.1885
 30
0.0
 11
72.0
 21
133.1885
 31
0.0
  0
LINE
  5
B25
330
1D
100
AcDbEntity
  8
0
100
AcDbLine
 10
66.0
 20
132.5605
 30
0.0
 11
66.0
 21
134.0005
 31
0.0
  0
LINE
  5
B26
330
1D
100
AcDbEntity
  8
0
100
AcDbLine
 10
66.0
 20
134.0005
 30
0.0
 11
66.0
 21
134.8645
 31
0.0
  0
LINE
  5
B27
330
1D
100
AcDbEntity
  8
0
100
AcDbLine
 10
66.0
 20
134.0005
 30
0.0
 11
66.0
 21
132.5605
 31
0.0
  0
LINE
  5
B28
330
1D
100
AcDbEntity
  8
0
100
AcDbLine
 10
66.0
 20
135.1885
 30
0.0
 11
66.0
 21
134.8645
 31
0.0
  0
LINE
  5
B29
330
1D
100
AcDbEntity
  8
0
100
AcDbLine
 10
66.0
 20
134.8645
 30
0.0
 11
66.0
 21
135.1885
 31
0.0
  0
LINE
  5
B2A
330
1D
100
AcDbEntity
  8
0
100
AcDbLine
 10
66.0
 20
134.8645
 30
0.0
 11
66.0
 21
134.0005
 31
0.0
  0
LINE
  5
B2B
330
1D
100
AcDbEntity
  8
0
100
AcDbLine
 10
72.0
 20
131.1445
 30
0.0
 11
72.0
 21
132.2645
 31
0.0
  0
LINE
  5
B2C
330
1D
100
AcDbEntity
  8
0
100
AcDbLine
 10
72.0
 20
132.2645
 30
0.0
 11
72.0
 21
132.9365
 31
0.0
  0
LINE
  5
B2D
330
1D
100
AcDbEntity
  8
0
100
AcDbLine
 10
72.0
 20
132.2645
 30
0.0
 11
72.0
 21
131.1445
 31
0.0
  0
LINE
  5
B2E
330
1D
100
AcDbEntity
  8
0
100
AcDbLine
 10
72.0
 20
132.9365
 30
0.0
 11
72.0
 21
133.1885
 31
0.0
  0
LINE
  5
B2F
330
1D
100
AcDbEntity
  8
0
100
AcDbLine
 10
72.0
 20
132.9365
 30
0.0
 11
72.0
 21
132.2645
 31
0.0
  0
LINE
  5
B30
330
1D
100
AcDbEntity
  8
0
100
AcDbLine
 10
72.0
 20
133.1885
 30
0.0
 11
72.0
 21
133.6835
 31
0.0
  0
LINE
  5
B31
330
1D
100
AcDbEntity
  8
0
100
AcDbLine
 10
72.0
 20
133.1885
 30
0.0
 11
72.0
 21
132.9365
 31
0.0
  0
LINE
  5
B32
330
1D
100
AcDbEntity
  8
0
100
AcDbLine
 10
72.0
 20
133.6835
 30
0.0
 11
72.0
 21
133.9775
 31
0.0
  0
LINE
  5
B33
330
1D
100
AcDbEntity
  8
0
100
AcDbLine
 10
72.0
 20
133.6835
 30
0.0
 11
72.0
 21
133.1885
 31
0.0
  0
LINE
  5
B34
330
1D
100
AcDbEntity
  8
0
100
AcDbLine
 10
72.0
 20
133.9775
 30
0.0
 11
72.0
 21
133.6835
 31
0.0
  0
LINE
  5
B35
330
1D
100
AcDbEntity
  8
0
100
AcDbLine
 10
72.0
 20
133.9775
 30
0.0
 11
72.048
 21
134.1885
 31
0.0
  0
LINE
  5
B36
330
1D
100
AcDbEntity
  8
0
100
AcDbLine
 10
72.476
 20
133.5025
 30
0.0
 11
72.476
 21
134.0205
 31
0.0
  0
LINE
  5
B37
330
1D
100
AcDbEntity
  8
0
100
AcDbLine
 10
72.476
 20
134.0205
 30
0.0
 11
72.476
 21
133.5025
 31
0.0
  0
LINE
  5
B38
330
1D
100
AcDbEntity
  8
0
100
AcDbLine
 10
72.476
 20
134.0205
 30
0.0
 11
72.476
 21
134.1885
 31
0.0
  0
LINE
  5
B39
330
1D
100
AcDbEntity
  8
0
100
AcDbLine
 10
72.476
 20
134.1885
 30
0.0
 11
72.952
 21
134.1885
 31
0.0
  0
LINE
  5
B3A
330
1D
100
AcDbEntity
  8
0
100
AcDbLine
 10
72.476
 20
134.1885
 30
0.0
 11
72.476
 21
134.0205
 31
0.0
  0
LINE
  5
B3B
330
1D
100
AcDbEntity
  8
0
100
AcDbLine
 10
72.114
 20
134.1885
 30
0.0
 11
72.476
 21
134.1885
 31
0.0
  0
LINE
  5
B3C
330
1D
100
AcDbEntity
  8
0
100
AcDbLine
 10
72.048
 20
134.1885
 30
0.0
 11
72.114
 21
134.1885
 31
0.0
  0
LINE
  5
B3D
330
1D
100
AcDbEntity
  8
0
100
AcDbLine
 10
72.173
 20
132.1675
 30
0.0
 11
72.476
 21
133.5025
 31
0.0
  0
LINE
  5
B3E
330
1D
100
AcDbEntity
  8
0
100
AcDbLine
 10
81.048
 20
118.1885
 30
0.0
 11
81.048
 21
118.3945
 31
0.0
  0
LINE
  5
B3F
330
1D
100
AcDbEntity
  8
0
100
AcDbLine
 10
81.048
 20
118.3945
 30
0.0
 11
81.048
 21
118.1885
 31
0.0
  0
LINE
  5
B40
330
1D
100
AcDbEntity
  8
0
100
AcDbLine
 10
81.952
 20
118.1885
 30
0.0
 11
82.0
 21
118.3995
 31
0.0
  0
LINE
  5
B41
330
1D
100
AcDbEntity
  8
0
100
AcDbLine
 10
81.048
 20
118.1885
 30
0.0
 11
81.524
 21
118.1885
 31
0.0
  0
LINE
  5
B42
330
1D
100
AcDbEntity
  8
0
100
AcDbLine
 10
81.524
 20
118.1885
 30
0.0
 11
81.886
 21
118.1885
 31
0.0
  0
LINE
  5
B43
330
1D
100
AcDbEntity
  8
0
100
AcDbLine
 10
81.886
 20
118.1885
 30
0.0
 11
81.952
 21
118.1885
 31
0.0
  0
LINE
  5
B44
330
1D
100
AcDbEntity
  8
0
100
AcDbLine
 10
81.827
 20
132.1675
 30
0.0
 11
81.904
 21
130.2605
 31
0.0
  0
LINE
  5
B45
330
1D
100
AcDbEntity
  8
0
100
AcDbLine
 10
82.0
 20
131.7045
 30
0.0
 11
82.0
 21
130.0625
 31
0.0
  0
LINE
  5
B46
330
1D
100
AcDbEntity
  8
0
100
AcDbLine
 10
82.0
 20
130.0625
 30
0.0
 11
82.0
 21
131.7045
 31
0.0
  0
LINE
  5
B47
330
1D
100
AcDbEntity
  8
0
100
AcDbLine
 10
81.827
 20
120.2095
 30
0.0
 11
81.904
 21
122.1165
 31
0.0
  0
LINE
  5
B48
330
1D
100
AcDbEntity
  8
0
100
AcDbLine
 10
81.524
 20
118.8745
 30
0.0
 11
81.827
 21
120.2095
 31
0.0
  0
LINE
  5
B49
330
1D
100
AcDbEntity
  8
0
100
AcDbLine
 10
81.048
 20
118.3945
 30
0.0
 11
81.524
 21
118.8745
 31
0.0
  0
LINE
  5
B4A
330
1D
100
AcDbEntity
  8
0
100
AcDbLine
 10
81.524
 20
126.1885
 30
0.0
 11
81.524
 21
125.1995
 31
0.0
  0
LINE
  5
B4B
330
1D
100
AcDbEntity
  8
0
100
AcDbLine
 10
81.524
 20
126.1885
 30
0.0
 11
81.524
 21
127.1775
 31
0.0
  0
LINE
  5
B4C
330
1D
100
AcDbEntity
  8
0
100
AcDbLine
 10
81.524
 20
127.1775
 30
0.0
 11
81.801
 21
128.3645
 31
0.0
  0
LINE
  5
B4D
330
1D
100
AcDbEntity
  8
0
100
AcDbLine
 10
81.524
 20
127.1775
 30
0.0
 11
81.524
 21
126.1885
 31
0.0
  0
LINE
  5
B4E
330
1D
100
AcDbEntity
  8
0
100
AcDbLine
 10
81.801
 20
128.3645
 30
0.0
 11
81.904
 21
130.2605
 31
0.0
  0
LINE
  5
B4F
330
1D
100
AcDbEntity
  8
0
100
AcDbLine
 10
81.524
 20
125.1995
 30
0.0
 11
81.801
 21
124.0125
 31
0.0
  0
LINE
  5
B50
330
1D
100
AcDbEntity
  8
0
100
AcDbLine
 10
81.524
 20
125.1995
 30
0.0
 11
81.524
 21
126.1885
 31
0.0
  0
LINE
  5
B51
330
1D
100
AcDbEntity
  8
0
100
AcDbLine
 10
81.801
 20
124.0125
 30
0.0
 11
81.904
 21
122.1165
 31
0.0
  0
LINE
  5
B52
330
1D
100
AcDbEntity
  8
0
100
AcDbLine
 10
82.0
 20
128.2095
 30
0.0
 11
82.0
 21
130.0625
 31
0.0
  0
LINE
  5
B53
330
1D
100
AcDbEntity
  8
0
100
AcDbLine
 10
82.0
 20
130.0625
 30
0.0
 11
82.0
 21
128.2095
 31
0.0
  0
LINE
  5
B54
330
1D
100
AcDbEntity
  8
0
100
AcDbLine
 10
82.0
 20
118.3995
 30
0.0
 11
82.0
 21
128.2095
 31
0.0
  0
LINE
  5
B55
330
1D
100
AcDbEntity
  8
0
100
AcDbLine
 10
81.048
 20
134.1885
 30
0.0
 11
81.524
 21
134.1885
 31
0.0
  0
LINE
  5
B56
330
1D
100
AcDbEntity
  8
0
100
AcDbLine
 10
81.048
 20
134.1885
 30
0.0
 11
81.048
 21
133.9825
 31
0.0
  0
LINE
  5
B57
330
1D
100
AcDbEntity
  8
0
100
AcDbLine
 10
81.524
 20
134.1885
 30
0.0
 11
81.886
 21
134.1885
 31
0.0
  0
LINE
  5
B58
330
1D
100
AcDbEntity
  8
0
100
AcDbLine
 10
81.524
 20
133.5025
 30
0.0
 11
81.827
 21
132.1675
 31
0.0
  0
LINE
  5
B59
330
1D
100
AcDbEntity
  8
0
100
AcDbLine
 10
81.048
 20
133.9825
 30
0.0
 11
81.524
 21
133.5025
 31
0.0
  0
LINE
  5
B5A
330
1D
100
AcDbEntity
  8
0
100
AcDbLine
 10
81.048
 20
133.9825
 30
0.0
 11
81.048
 21
134.1885
 31
0.0
  0
LINE
  5
B5B
330
1D
100
AcDbEntity
  8
0
100
AcDbLine
 10
81.886
 20
134.1885
 30
0.0
 11
81.952
 21
134.1885
 31
0.0
  0
LINE
  5
B5C
330
1D
100
AcDbEntity
  8
0
100
AcDbLine
 10
82.0
 20
131.7045
 30
0.0
 11
82.0
 21
132.9255
 31
0.0
  0
LINE
  5
B5D
330
1D
100
AcDbEntity
  8
0
100
AcDbLine
 10
82.0
 20
132.9255
 30
0.0
 11
82.0
 21
131.7045
 31
0.0
  0
LINE
  5
B5E
330
1D
100
AcDbEntity
  8
0
100
AcDbLine
 10
82.0
 20
132.9255
 30
0.0
 11
82.0
 21
133.6835
 31
0.0
  0
LINE
  5
B5F
330
1D
100
AcDbEntity
  8
0
100
AcDbLine
 10
82.0
 20
133.9775
 30
0.0
 11
82.0
 21
133.6835
 31
0.0
  0
LINE
  5
B60
330
1D
100
AcDbEntity
  8
0
100
AcDbLine
 10
81.952
 20
134.1885
 30
0.0
 11
82.0
 21
133.9775
 31
0.0
  0
LINE
  5
B61
330
1D
100
AcDbEntity
  8
0
100
AcDbLine
 10
82.0
 20
133.6835
 30
0.0
 11
82.0
 21
132.9255
 31
0.0
  0
LINE
  5
B62
330
1D
100
AcDbEntity
  8
0
100
AcDbLine
 10
82.0
 20
133.6835
 30
0.0
 11
82.0
 21
133.9775
 31
0.0
  0
ENDSEC
  0
SECTION
  2
OBJECTS
  0
DICTIONARY
  5
C
330
0
100
AcDbDictionary
281
     1
  3
ACAD_GROUP
350
D
  3
ACAD_LAYOUT
350
1A
  3
ACAD_MLEADERSTYLE
350
B65
  3
ACAD_MLINESTYLE
350
17
  3
ACAD_PLOTSETTINGS
350
19
  3
ACAD_PLOTSTYLENAME
350
E
  3
ACAD_SCALELIST
350
837
  3
AcDbVariableDictionary
350
B63
  3
DWGPROPS
350
B68
  0
DICTIONARY
  5
D
102
{ACAD_REACTORS
330
C
102
}
330
C
100
AcDbDictionary
281
     1
  0
DICTIONARY
  5
1A
102
{ACAD_REACTORS
330
C
102
}
330
C
100
AcDbDictionary
281
     1
  3
Layout1
350
1C
  3
Model
350
1E
  0
DICTIONARY
  5
B65
102
{ACAD_REACTORS
330
C
102
}
330
C
100
AcDbDictionary
281
     1
  0
DICTIONARY
  5
17
102
{ACAD_REACTORS
330
C
102
}
330
C
100
AcDbDictionary
281
     1
  3
Standard
350
18
  0
DICTIONARY
  5
19
102
{ACAD_REACTORS
330
C
102
}
330
C
100
AcDbDictionary
281
     1
  0
ACDBDICTIONARYWDFLT
  5
E
102
{ACAD_REACTORS
330
C
102
}
330
C
100
AcDbDictionary
281
     1
  3
Normal
350
F
100
AcDbDictionaryWithDefault
340
F
  0
DICTIONARY
  5
837
102
{ACAD_REACTORS
330
C
102
}
330
C
100
AcDbDictionary
281
     1
  3
A0
350
838
  3
A1
350
839
  3
A2
350
83A
  3
A3
350
83B
  3
A4
350
83C
  3
A5
350
83D
  3
A6
350
83E
  3
A7
350
83F
  3
A8
350
840
  3
A9
350
841
  3
B0
350
842
  3
B1
350
843
  3
B2
350
844
  3
B3
350
845
  3
B4
350
846
  3
B5
350
847
  3
B6
350
848
  3
B7
350
849
  3
B8
350
84A
  3
B9
350
84B
  3
C0
350
84C
  3
C1
350
84D
  3
C2
350
84E
  3
C3
350
84F
  3
C4
350
850
  3
C5
350
851
  3
C6
350
852
  3
C7
350
853
  3
C8
350
854
  3
C9
350
855
  3
D0
350
856
  3
D1
350
857
  3
D2
350
858
  0
DICTIONARY
  5
B63
102
{ACAD_REACTORS
330
C
102
}
330
C
100
AcDbDictionary
281
     1
  3
CANNOSCALE
350
B66
  0
XRECORD
  5
B68
102
{ACAD_REACTORS
330
C
102
}
330
C
100
AcDbXrecord
280
     1
  1
DWGPROPS COOKIE
  2

  3

  4

  6

  7

  8
MARTIN
  9

300
=
301
=
302
=
303
=
304
=
305
=
306
=
307
=
308
=
309
=
 40
0.0
 41
2456646.619490012
 42
2456646.621653276
  1

 90
        0
  0
LAYOUT
  5
1C
102
{ACAD_REACTORS
330
1A
102
}
330
1A
100
AcDbPlotSettings
  1

  2
none_device
  4

  6

 40
0.0
 41
0.0
 42
0.0
 43
0.0
 44
0.0
 45
0.0
 46
0.0
 47
0.0
 48
0.0
 49
0.0
140
0.0
141
0.0
142
1.0
143
1.0
 70
   688
 72
     0
 73
     0
 74
     5
  7

 75
    16
147
1.0
148
0.0
149
0.0
100
AcDbLayout
  1
Layout1
 70
     1
 71
     1
 10
0.0
 20
0.0
 11
12.0
 21
9.0
 12
0.0
 22
0.0
 32
0.0
 14
1.000000000000E+20
 24
1.000000000000E+20
 34
1.000000000000E+20
 15
-1.000000000000E+20
 25
-1.000000000000E+20
 35
-1.000000000000E+20
146
0.0
 13
0.0
 23
0.0
 33
0.0
 16
1.0
 26
0.0
 36
0.0
 17
0.0
 27
1.0
 37
0.0
 76
     0
330
1B
  0
LAYOUT
  5
1E
102
{ACAD_REACTORS
330
1A
102
}
330
1A
100
AcDbPlotSettings
  1

  2
none_device
  4

  6

 40
0.0
 41
0.0
 42
0.0
 43
0.0
 44
0.0
 45
0.0
 46
0.0
 47
0.0
 48
0.0
 49
0.0
140
0.0
141
0.0
142
1.0
143
1.0
 70
  1712
 72
     0
 73
     0
 74
     0
  7

 75
     0
147
1.0
148
0.0
149
0.0
100
AcDbLayout
  1
Model
 70
     1
 71
     0
 10
0.0
 20
0.0
 11
12.0
 21
9.0
 12
0.0
 22
0.0
 32
0.0
 14
0.0
 24
-0.1885
 34
0.0
 15
287.0
 25
235.1885
 35
0.0
146
0.0
 13
0.0
 23
0.0
 33
0.0
 16
1.0
 26
0.0
 36
0.0
 17
0.0
 27
1.0
 37
0.0
 76
     0
330
1D
331
832
  0
MLINESTYLE
  5
18
102
{ACAD_REACTORS
330
17
102
}
330
17
100
AcDbMlineStyle
  2
Standard
 70
     0
  3

 62
   256
 51
90.0
 52
90.0
 71
     2
 49
0.5
 62
   256
  6
BYLAYER
 49
-0.5
 62
   256
  6
BYLAYER
  0
ACDBPLACEHOLDER
  5
F
102
{ACAD_REACTORS
330
E
102
}
330
E
  0
SCALE
  5
838
102
{ACAD_REACTORS
330
837
102
}
330
837
100
AcDbScale
 70
     0
300
1:1
140
1.0
141
1.0
290
     1
  0
SCALE
  5
839
102
{ACAD_REACTORS
330
837
102
}
330
837
100
AcDbScale
 70
     0
300
1:2
140
1.0
141
2.0
290
     0
  0
SCALE
  5
83A
102
{ACAD_REACTORS
330
837
102
}
330
837
100
AcDbScale
 70
     0
300
1:4
140
1.0
141
4.0
290
     0
  0
SCALE
  5
83B
102
{ACAD_REACTORS
330
837
102
}
330
837
100
AcDbScale
 70
     0
300
1:5
140
1.0
141
5.0
290
     0
  0
SCALE
  5
83C
102
{ACAD_REACTORS
330
837
102
}
330
837
100
AcDbScale
 70
     0
300
1:8
140
1.0
141
8.0
290
     0
  0
SCALE
  5
83D
102
{ACAD_REACTORS
330
837
102
}
330
837
100
AcDbScale
 70
     0
300
1:10
140
1.0
141
10.0
290
     0
  0
SCALE
  5
83E
102
{ACAD_REACTORS
330
837
102
}
330
837
100
AcDbScale
 70
     0
300
1:16
140
1.0
141
16.0
290
     0
  0
SCALE
  5
83F
102
{ACAD_REACTORS
330
837
102
}
330
837
100
AcDbScale
 70
     0
300
1:20
140
1.0
141
20.0
290
     0
  0
SCALE
  5
840
102
{ACAD_REACTORS
330
837
102
}
330
837
100
AcDbScale
 70
     0
300
1:30
140
1.0
141
30.0
290
     0
  0
SCALE
  5
841
102
{ACAD_REACTORS
330
837
102
}
330
837
100
AcDbScale
 70
     0
300
1:40
140
1.0
141
40.0
290
     0
  0
SCALE
  5
842
102
{ACAD_REACTORS
330
837
102
}
330
837
100
AcDbScale
 70
     0
300
1:50
140
1.0
141
50.0
290
     0
  0
SCALE
  5
843
102
{ACAD_REACTORS
330
837
102
}
330
837
100
AcDbScale
 70
     0
300
1:100
140
1.0
141
100.0
290
     0
  0
SCALE
  5
844
102
{ACAD_REACTORS
330
837
102
}
330
837
100
AcDbScale
 70
     0
300
2:1
140
2.0
141
1.0
290
     0
  0
SCALE
  5
845
102
{ACAD_REACTORS
330
837
102
}
330
837
100
AcDbScale
 70
     0
300
4:1
140
4.0
141
1.0
290
     0
  0
SCALE
  5
846
102
{ACAD_REACTORS
330
837
102
}
330
837
100
AcDbScale
 70
     0
300
8:1
140
8.0
141
1.0
290
     0
  0
SCALE
  5
847
102
{ACAD_REACTORS
330
837
102
}
330
837
100
AcDbScale
 70
     0
300
10:1
140
10.0
141
1.0
290
     0
  0
SCALE
  5
848
102
{ACAD_REACTORS
330
837
102
}
330
837
100
AcDbScale
 70
     0
300
100:1
140
100.0
141
1.0
290
     0
  0
SCALE
  5
849
102
{ACAD_REACTORS
330
837
102
}
330
837
100
AcDbScale
 70
     0
300
1/128" = 1'-0"
140
0.0078125
141
12.0
290
     0
  0
SCALE
  5
84A
102
{ACAD_REACTORS
330
837
102
}
330
837
100
AcDbScale
 70
     0
300
1/64" = 1'-0"
140
0.015625
141
12.0
290
     0
  0
SCALE
  5
84B
102
{ACAD_REACTORS
330
837
102
}
330
837
100
AcDbScale
 70
     0
300
1/32" = 1'-0"
140
0.03125
141
12.0
290
     0
  0
SCALE
  5
84C
102
{ACAD_REACTORS
330
837
102
}
330
837
100
AcDbScale
 70
     0
300
1/16" = 1'-0"
140
0.0625
141
12.0
290
     0
  0
SCALE
  5
84D
102
{ACAD_REACTORS
330
837
102
}
330
837
100
AcDbScale
 70
     0
300
3/32" = 1'-0"
140
0.09375
141
12.0
290
     0
  0
SCALE
  5
84E
102
{ACAD_REACTORS
330
837
102
}
330
837
100
AcDbScale
 70
     0
300
1/8" = 1'-0"
140
0.125
141
12.0
290
     0
  0
SCALE
  5
84F
102
{ACAD_REACTORS
330
837
102
}
330
837
100
AcDbScale
 70
     0
300
3/16" = 1'-0"
140
0.1875
141
12.0
290
     0
  0
SCALE
  5
850
102
{ACAD_REACTORS
330
837
102
}
330
837
100
AcDbScale
 70
     0
300
1/4" = 1'-0"
140
0.25
141
12.0
290
     0
  0
SCALE
  5
851
102
{ACAD_REACTORS
330
837
102
}
330
837
100
AcDbScale
 70
     0
300
3/8" = 1'-0"
140
0.375
141
12.0
290
     0
  0
SCALE
  5
852
102
{ACAD_REACTORS
330
837
102
}
330
837
100
AcDbScale
 70
     0
300
1/2" = 1'-0"
140
0.5
141
12.0
290
     0
  0
SCALE
  5
853
102
{ACAD_REACTORS
330
837
102
}
330
837
100
AcDbScale
 70
     0
300
3/4" = 1'-0"
140
0.75
141
12.0
290
     0
  0
SCALE
  5
854
102
{ACAD_REACTORS
330
837
102
}
330
837
100
AcDbScale
 70
     0
300
1" = 1'-0"
140
1.0
141
12.0
290
     0
  0
SCALE
  5
855
102
{ACAD_REACTORS
330
837
102
}
330
837
100
AcDbScale
 70
     0
300
1-1/2" = 1'-0"
140
1.5
141
12.0
290
     0
  0
SCALE
  5
856
102
{ACAD_REACTORS
330
837
102
}
330
837
100
AcDbScale
 70
     0
300
3" = 1'-0"
140
3.0
141
12.0
290
     0
  0
SCALE
  5
857
102
{ACAD_REACTORS
330
837
102
}
330
837
100
AcDbScale
 70
     0
300
6" = 1'-0"
140
6.0
141
12.0
290
     0
  0
SCALE
  5
858
102
{ACAD_REACTORS
330
837
102
}
330
837
100
AcDbScale
 70
     0
300
1'-0" = 1'-0"
140
12.0
141
12.0
290
     0
  0
DICTIONARYVAR
  5
B66
102
{ACAD_REACTORS
330
B63
102
}
330
B63
100
DictionaryVariables
280
     0
  1
1:1
  0
ENDSEC
  0
SECTION
  2
THUMBNAILIMAGE
 90
    16364
310
28000000B40000005500000001000800000000000000000000000000000000000000000000000000FFFFFF000000FF0000FFFF0000FF0000FFFF0000FF000000FF00FF000000000080808000C0C0C0000000FF007F7FFF000000A5005252A50000007F003F3F7F0000004C0026264C000000260013132600003FFF007F9FFF
310
000029A5005267A500001F7F003F4F7F0000134C00262F4C000009260013172600007FFF007FBFFF000052A500527CA500003F7F003F5F7F0000264C0026394C0000132600131C260000BFFF007FDFFF00007CA5005291A500005F7F003F6F7F0000394C0026424C00001C26001321260000FFFF007FFFFF0000A5A50052A5
310
A500007F7F003F7F7F00004C4C00264C4C00002626001326260000FFBF007FFFDF0000A57C0052A59100007F5F003F7F6F00004C3900264C420000261C001326210000FF7F007FFFBF0000A5520052A57C00007F3F003F7F5F00004C2600264C39000026130013261C0000FF3F007FFF9F0000A5290052A56700007F1F003F
310
7F4F00004C1300264C2F00002609001326170000FF00007FFF7F0000A5000052A55200007F00003F7F3F00004C0000264C260000260000132613003FFF00009FFF7F0029A5000067A552001F7F00004F7F3F00134C00002F4C260009260000172613007FFF0000BFFF7F0052A500007CA552003F7F00005F7F3F00264C0000
310
394C2600132600001C261300BFFF0000DFFF7F007CA5000091A552005F7F00006F7F3F00394C0000424C26001C26000021261300FFFF0000FFFF7F00A5A50000A5A552007F7F00007F7F3F004C4C00004C4C26002626000026261300FFBF0000FFDF7F00A57C0000A59152007F5F00007F6F3F004C3900004C422600261C00
310
0026211300FF7F0000FFBF7F00A5520000A57C52007F3F00007F5F3F004C2600004C39260026130000261C1300FF3F0000FF9F7F00A5290000A56752007F1F00007F4F3F004C1300004C2F26002609000026171300FF000000FF7F7F00A5000000A55252007F0000007F3F3F004C0000004C2626002600000026131300FF00
310
3F00FF7F9F00A5002900A55267007F001F007F3F4F004C0013004C262F002600090026131700FF007F00FF7FBF00A5005200A5527C007F003F007F3F5F004C0026004C2639002600130026131C00FF00BF00FF7FDF00A5007C00A55291007F005F007F3F6F004C0039004C26420026001C0026132100FF00FF00FF7FFF00A5
310
00A500A552A5007F007F007F3F7F004C004C004C264C002600260026132600BF00FF00DF7FFF007C00A5009152A5005F007F006F3F7F0039004C0042264C001C002600211326007F00FF00BF7FFF005200A5007C52A5003F007F005F3F7F0026004C0039264C00130026001C1326003F00FF009F7FFF002900A5006752A500
310
1F007F004F3F7F0013004C002F264C000900260017132600000000002D2D2D005B5B5B0089898900B7B7B700B3B3B30000000000000000000000000000000000000000000000000000000000000000000000000000000000000000000000000000000000000000000000000000000000000000000000000000000000000000
310
00000000000000000000000000000000000000000007070000000000000000000000000000000000000000000000000000000000000000000000000000000000000000000000000000000000000000000000000000000000000000000000000000000000000000000000000000000000000000000000000000000000000000
310
00000000000000000000000000000000000000000000000000000000000000000000000000000000000000000000000000000000000000000000000000000000000000000000000000070007070000000000000000000000000000000000000000000000000000000000000000000000000000000000000000000000000000
310
00000000000000000000000000000000000000000000000000000000000000000000000000000000000000000000000000000000000000000000000000000000000000000000000000000000000000000000000000000000000000000000000000000000000000000000000000000000000000000000000000000000000700
310
00000707000000000000000000000000000000000000000000000000000000000000000000000000000000000000000000000000000000000000000000000000000000000000000000000000000000000000000000000000000000000000000000000000000000000000000000000000000000000000000000000000000000
310
00000000000000000000000000000000000000000000000000000000000000000000000000000000000000000000000000000700000000000700000000000000000000000000000000000000000000000000000000000000000000000000000000000000000000000000000000000000000000000000000000000000000000
310
00000000000000000000000000000000000000000000000000000000000000000000000000000000000000000000000000000000000000000000000000000000000000000000000000000000000000000000000000000000000000000000000000000000000007000000000007000000000000000000000000000000000000
310
00000000000000000000000000000000000000000000000000000000000000000000000000000000000000000000000000000000000000000000000000000000000000000000000000000000000000000000000000000000000000000000000000000000000000000000000000000000000000000000000000000000000000
310
00000000000000000000000000000000000000000000000000000000070000000000070000000000000000000000000000000000000000000000000000000000000000000000000000000000000000000000000000000000000000000000000000000000000000000000000000000000000000000000000000000000000000
310
00000000000000000000000000000000000000000000000000000000000000000000000000000000000000000000000000000000000000000000000000000000000000000000000000000000000000000700000000000700000000000000000000000000000000000000000000000000000000000000000000000000000000
310
00000000000000000000000000000000000000000000000000000000000000000000000000000000000000000000000000000000000000000000000000000000000000000000000000000000000000000000000000000000000000000000000000000000000000000000000000000000000000000000000000000000000000
310
00000000000007000000000700000000000000000000000000000000000000000000000000000000000000000000000000000000000000000000000000000000000000000000000000000000000000000000000000000000000000000000000000000000000000000000000000000000000000000000000000000000000000
310
00000000000000000000000000000000000000000000000000000000000000000000000000000000000000000000000000000000000000000000070000000007000000000000000000000000000000000000000000000000000000000000000000000000000000000000000000000000000000000000000000000000000000
310
00000000000000000000000000000000000000000000000000000000000000000000000000000000000000000000000000000000000000000000000000000000000000000000000000000000000000000000000000000000000000000000000000000000000000000000000000000700000000000700000000000000000000
310
00000000000000000000000000000000000000000000000000000000000000000000000000000000000000000000000000000000000000000000000000000000000000000000000000000000000000000000000000000000000000000000000000000000000000000000000000000000000000000000000000000000000000
310
00000000000000000000000000000000000000000000000000000000000000000000000007000000000700000000000000000000000000000000000000000000000000000000000000000000000000000000000000000000000000000000000000000000000000000000000000000000000000000000000000000000000000
310
00000000000000000000000000000000000000000000000000000000000000000000000000000000000000000000000000000000000000000000000000000000000000000000000000000000000000000000000000000000070000000000070000000000000000000000000000000000000000000000000000000000000000
310
00000000000000000000000000000000000000000000000000000000000000000000000000000000000000000000000000000000000000000000000000000000000000000000000000000000000000000000000000000000000000000000000000000000000000000000000000000000000000000000000000000000000000
310
00000000000000000000000000000700000000070000000000000000000000000000000000000000000000000000000000000000000000000000000000000000000000000000000000000000000000000000000000000000000000000000000000000000000000000000000000000000000000000000000000000000000000
310
00000000000000000000000000000000000000000000000000000000000000000000000000000000000000000000000000000000000000000000000000000000000000070000000007000000000000000000000000000000000000000000000000000000000000000000000000000000000000000000000000000000000000
310
00000000000000000000000000000000000000000000000000000000000000000000000000000000000000000000000000000000000000000000000000000000000000000000000000000000000000000000000000000000000000000000000000000000000000000000000000000000000000000000000700000000000700
310
00000000000000000000000000000000000000000000000000000000000000000000000000000000000000000000000000000000000000000000000000000000000000000000000000000000000000000000000000000000000000000000000000000000000000000000000000000000000000000000000000000000000000
310
00000000000000000000000000000000000000000000000000000000000000000000000000000000000000000007000000000700000000000000000000000000000000000000000000000000000000000000000000000000000000000000000000000000000000000000000000000000000000000000000000000000000000
310
00000000000000000000000000000000000000000000000000000000000000000000000000000000000000000000000000000000000000000000000000000000000000000000000000000000000000000000000000000000000000000000000000000700000000070000000000000000000000000000000000000000000000
310
00000000000000000007070700000000000000000000000000000000000000000000000000000000000000000000000000000000000000000000000000000000000000000000000000000000000000000000000000000000000000000000000000000000000000000000000000000000000000000000000000000000000000
310
00000000000000000000000000000000000000000000000007000000000700000000000000000000000000000000000000000000000000000000000000000700000700000000000000000000000000000000000000000000000000000000000000000000000000000000000000000000000000000000000000000000000000
310
00000000000000000000000000000000000000000000000000000000000000000000000000000000000000000000000000000000000000000000000000000000000000000000000000000000070000000007000000000000000000000000000000000000000000000000000000000000000000070000070700000000000000
310
00000000000000000000000000000000000000000000000000000000000000000000000000000000000000000000000000000000000000000000000000000000000000000000000000000000000000000000000000000000000000000000000000000000000000000000000000000000000000000000000000000000000000
310
00000700000000070000000000000000000000000000000000000000000000000000000000000000000700000000070000000000000000000000000000000000000000000000000000000000000000000000000000000000000000000000000000000000000000000000000000000000000000000000000000000000000000
310
00000000000000000000000000000000000000000000000000000000000000000000000000000000000000000000000000000000000000070000000007000000000000000000000000000000000000000000000000000000000000000000070000000007000000000000000000000000000000000000000000000000000000
310
00000000000000000000000000000000000000000000000000000000000000000000000000000000000000000000000000000000000000000000000000000000000000000000000000000000000000000000000000000000000000000000000000000000000000000000000007000000000700000000000000000000000000
310
00000000000000000000000000000000000000000700000000070000000000000000000000000000000000000000000000000000000000000000000000000000000000000000000000000000000000000000000000000000000000000000000000000000000000000000000000000000000000000000000000000000000000
310
00000000000000000000000000000000000000000000000000000000000000000000070000000007000000000000000000000000000000000000000000000000000000000000000000070000000007000000000000000000000000000000000000000000000000000000000000000000000000000000000000000000000000
310
00000000000000000000000000000000000000000000000000000000000000000000000000000000000000000000000000000000000000000000000000000000000000000000000000000000000000000000000000000007000000000700000000000000000000000000000000000000000000000000000000000000000007
310
00000000070000000000000000000000000000000000000000000000000000000000000000000000000000000000000000000000000000000000000000000000000000000000000000000000000000000000000000000000000000000000000000000000000000000000000000000000000000000000000000000000000000
310
00000000000007070707070007070707070707070000070707070000000000000000000000000000000000000000000000000000070000000007000000000000000000000000000000000000000000000000000000000000000000000000000000000000000000000000000000000000000000000000000000000000000000
310
00000000000000000000000000000000000000000000000000000000000000000000000000000000000000000000000000000000000000000707070700070707000700000007000007000007000000070707000000000000000000000000000000000000000000000007000000000700000000000000000000000000000000
310
00000000000000000000000000000000000000000000000000000000000000000000000000000000000000000000000000000000000000000000000000000000000000000000000000000000000000000000000000000000000000000000000000000000000000000000000007070707070707000700070000000700000700
310
07000000000000000700000000000000000000000000000000000000000000070000000007000000000000000000000000000000000000000000000000000000000000000000000000000000000000000000000000000000000000000000000000000000000000000000000000000000000000000000000000000000000000
310
00000000000000000000000000000000000000000000000000000000000000000000070707070000000007000700000007000007000700000000000000070000000000000000000000000000000000000000000007000000000700000000000000000000000000000000000000000000000000000000000000000000000000
310
00000000000000000000000000000000000000000000000000000000000000000000000000000000000000000000000000000000000000000000000000000000000000000000000000000000000000000000000000000000070000000000000007070707070707070700070000000000000007000000000000000000000000
310
00000000000000000000070000000007000000000000000000000000000000000000000000000000000000000000000000000000000000000000000000000000000000000000000000000000000000000000000000000000000000000000000000000000000000000000000000000000000000000000000000000000000000
310
00000000000000000000000000000700000000000000070700000000000007000700000000000000070000000000000000000000000000000000000000000007000000000700000000000000000000000000000000000000000000000000000000000000000000000000000000000000000000000000000000000000000000
310
00000000000000000000000000000000000000000000000000000000000000000000000000000000000000000000000000000000000000000000000000000000000000070000000000000007070000000000000707000000000000000700000000000000000000000000000000000000000000000700000000070000000000
310
00000000000000000000000000000000000000000000000000000000000000000000000000000000000000000000000000000000000000000000000000000000000000000000000000000000000000000000000000000000000007070707070707070000000000000000000000000000000000000000000007000000000000
310
00070707070707070707070707070707000007000000000000000000000000000000000000000000000007000000000700000000000000000000000000000000000000000000000000000000000000000000000000000000000000000000000000000000000000000000000000000000000000000000000000000000000000
310
00000000000000000000000000000000070000000000000700000000000000000000000000000000000000000000000700000000000707000000000000000000000000070007070700000000000000000000000000000000000000000000000700000000070000000000000000000000000000000000000000000000000000
310
00000000000000000000000000000000000000000000000000000000000000000000000000000000000000000000000000000000000000000000000000000000000000000007000000000000070000000000000000000000000000000000000000000007070707070707000000000000000000000000000007000000070000
310
00000000000000000000000000000000000000000007000000000700000000000000000000000000000000000000000000000000000000000000000000000000000000000000000000000000000000000000000000000000000000000000000000000000000000000000000000000000000000000000000000000700000000
310
00000700000000000000000000000000000000000000000000070007000000000000000000000000000000000000070000000700000000000000000000000000000000000000000000000700000000070000000000000000000000000000000000000000000000000000000000000000000000000000000000000000000000
310
00000000000000000000000000000000000000000000000000000000000000000000000000000000000000000000000007000000000000070000000000000000000000000000000000000000000000070000000000000000000000000000000000000007000000070000000000000000000000000000000000000000000000
310
07000000000700000000000000000000000000000000000000000000000000000000000000000000000000000000000000000000000000000000000000000000000000000000000000000000000000000000000000000000000000000000000000000000000700000000000007000000000000000000000000000000000000
310
00000000000700000000000000000000000000000000000000070000070000000000000000000000000000000000000000000000000700000000070000000000000000000000000000000000000000000000000000000000000000000000000000000000000000000000000000000000000000000000000000000000000000
310
00000000000000000000000000000000000000000000000000000007000000000000070000000000000000000000000000000000000000000000070000000000000000000000000000000000000007000007000000000000000000000000000000000000000000000007070707070707070000000000000000000000000000
310
00000000000000000000000000000000000000000000000000000000000000000000000000000000000000000000000000000000000000000000000000000000000000000000000000000000000000070707070707070707070700000000000000000000000000000000000000000007000000000000000000000000000000
310
00000000070000070000000000000000000000000000000000000000000000070000000000000700000000000000000000000000000000000000000000000000000000000000000000000000000000000000000000000000000000000000000000000000000000000000000000000000000000000000000000000000000000
310
00000000000700000000000000000007000000000000000000000000000000000000000000000700000000000000000000000000000000000007000007000000000000000000000000000000000000000000000007000000000000070000000000000000000000000000000000000000000000000000000000000000000000
310
00000000000000000000000000000000000000000000000000000000000000000000000000000000000000000000000000000000000000000000070000000000000000000700000000000000000000000000000000000000000000070000000000000000000000000000000000000700070000000000000000000000000000
310
00000000000000000000070000000000000700000000000000000000000000000000000000000000000000000000000000000000000000000000000000000000000000000000000000000000000000000000000000000000000000000000000000000000000000000000000707070707000000000000000000070707070700
310
00000000000000000000000000000000000700000000000000000000000000000000000007000700000000000000000000000000000000000000000000000007000000000000070000000000000000000000000000000000000000000000000000000000000000000000000000000000000000000000000000000000000000
310
00000000000000000000000000000000000000000000000000000007070707070707000000000000000000000000000000000007070707070700000000000000000000000000070000000000000000000000000000000000000700070000000000000000000000000000000000000000000000000700000000000007000000
310
00000000000000000000000000000000000000000000000000000000000000000000000000000000000000000000000000000000000000000000000000000000000000000000000000000000000000000700000007000700000000000000000000000000000000000700070000070000000000000000000000000000070000
310
00000000000000000000000000000007000700000000000000000000000000000000000000000000000007000000000000000700000000000000000000000000000000000000000000000000000000000000000000000000000000000000000000000000000000000000000000000000000000000000000000000000000000
310
00000000000007000000070007000000000000000000000000000000000007000700000700000000000000000000000000000700000000000000000000000000000000000707000000000000000000000000000000000000000000000000000700000000000000070000000000000000000000000000000000000000000000
310
00000000000000000000000000000000000000000000000000000000000000000000000000000000000000000000000000000000000000000000000700000007000700000000000000000000000000000000000700070000070000000000000000000000000000070000000000000000000000000000000000070700000000
310
00000000000000000000000000000000000000000007000000000000000700000000000000000000000000000000000000000000000000000000000000000000000000000000000000000000000000000000000000000000000000000000000000000000000000000000000000000000070000000700070000000000000000
310
00000000000000000007000700000700000000000000000000000000000700000000000000000000000000000000000707000000000000000000000000000000000000000000000000000700000000000000070000000000000000000000000000000000000000000000000000000000000000000000000000000000000000
310
00000000000000000000000000000000000000000000000000000000000000000000000000000707070707070700000000000000000000000000000000000707070707070000000000000000000000000000000700000000000000000000000000000000070700000000000000000000000000000000000000000000000000
310
07000000000000000700000000000000000000000000000000000000000000000000000000000000000000000000000000000000000000000000000000000000000000000000000000000000000000000000000000000000000000000000000000070707070700000000000000000007070707070000000000000000000000
310
00000000000000000007000000000000000000000000000000000700000000000000000000000000000000000000000000000000000707070707070707070000000000000000000000000000000000000000000000000000000000000000000000000000000000000000000000000000000000000000000000000000000000
310
00000000000000000000000000000000000000000000000000000007000000000000000000070000000000000000000000000000000000000000000000000700000000000000000000000000000000070000000000000000000000000000000000000000000000000000070000000000000700000000000000000000000000
310
00000000000000000000000000000000000000000000000000000000000000000000000000000000000000000000000000000000000000000000000000000000000000000000000000000000000000000700000000000000000007000000000000000000000000000000000000000000000000070700000000000000000000
310
00000000000700000000000000000000000000000000000000000000000007070707070707070707070700000000000000000000000000000000000000000000000000000000000000000000000000000000000000000000000000000000000000000000000000000000000000000000000000000000000000000000000000
310
00000000000007000000000000000000070000000000000000000000000000000000000000000000000007000000000000000000000000000000070000000000000000000000000000000000000000000000000700000000000000000000070000000000000000000000000000000000000000000000000000000000000000
310
00000000000000000000000000000000000000000000000000000000000000000000000000000000000000000000000000000000000000000000000700000000000000000007000000000000000000000000000000000000000000000007070707070707070707070707070707070707070000000000000000000000000000
310
00000000000000000007000000000000000000000700000000000000000000000000000000000000000000000000000000000000000000000000000000000000000000000000000000000000000000000000000000000000000000000000000000000000000000000000000000000000070000000000000000000700000000
310
00000000000000000000000000000000000000070000000000000000000000000000000000000700000000000000000000000000000000000000000000000700000000000000000000070000000000000000000000000000000000000000000000000000000000000000000000000000000000000000000000000000000000
310
00000000000000000000000000000000000000000000000000000000000000000000000000000700000000000000000007000000000000000000000000000000000000000000000007000000000000000000000000000000000000070000000000000000000000000000000000000000000000070000000000000000000007
310
00000000000000000000000000000000000000000000000000000000000000000000000000000000000000000000000000000000000000000000000000000000000000000000000000000000000000000000000000000000000000070000000000000000000700000000000000000000000000000000000000000000000700
310
00000000000000000000000000000000000700000000000000000000000000000000000000000000000700000000000000000000070000000000000000000000000000000000000000000000000000000000000000000000000000000000000000000000000000000000000000000000000000000000000000000000000000
310
00000000000000000000000000000000000700000000000000000007000000000000000000000000000000000000000000000007070707000000000000000000000000000000070000000000000000000000000000000000000000000000070000000000000000000007000000000000000000000000000000000000000000
310
00000000000000000000000000000000000000000000000000000000000000000000000000000000000000000000000000000000000000000000000000000000000000000000070000000000000000000700000000000000000000000000000000000000000000000700000700000000000000000000000000000007000000
310
00000000000000000000000000000000000000000700000000000000000000070000000000000000000000000000000000000000000000000000000000000000000000000000000000000000000000000000000000000000000000000000000000000000000000000000000000000000000000000000000000000007000000
310
00000000000007000000000000000000000000000000000000000000000707070707070707070707070707070707070707070700000000000000000000000000000000000000000000070000000000000000000007000000000000000000000000000000000000000000000000000000000000000000000000000000000000
310
00000000000000000000000000000000000000000000000000000000000000000000000000000000000000000000000707070000000000000000000707000000000000000000000000000000000000000000070000000000000000000000000000000000000000070000000000000000000000000000000000000007070707
310
00000000000000000000070707070000000000000000000000000000000000000000000000000000000000000000000000000000000000000000000000000000000000000000000000000000000000000000000000000000000000000000000000000000070707070707070707070707070707000000000000000000000000
310
00000000000000000707070707070707070707070707070707070707070700000000000000000000000000000000000000070707070707070707070707070707070707000000000000000000000000000000000000000000000000000000000000000000000000000000000000000000000000000000000000000000000000
310
00000000000000000000000000000000000000000000000000000700000000000000000000000000070000000000000000000000000000000000000000000700000700000000000000000000000000000007000000000000000000000000000000000000000007000000000000000000000000000000000700000000000000
310
00000000000000000000000000000000000000000000000000000000000000000000000000000000000000000000000000000000000000000000000000000000000000000000000000000000000000070707070707070707070707070707000000000000000000000000000000000000000000070707070000000000000000
310
00000000000000070000000000000000000000000000000000000000070707070707070707070707070707070707000000000000000000000000000000000000000000000000000000000000000000000000000000000000000000000000000000000000000000000000000000000000000000000000000000000000000000
310
00000000000707070707070707070707070707070000000000000000000000000000000000000000000700000700000000000000000000000000000007000000000000000000000000000000000000000007070707070707070707070707070707070700000000000000000000000000000000000000000000000000000000
310
00000000000000000000000000000000000000000000000000000000000000000000000000000000000000000000000000000000000000000000070707070707070707070707070707000000000000000000000000000000000000000000070707070000000000000000000000000000000700000000000000000000000000
310
00000000000000070707070707070707070707070707070707000000000000000000000000000000000000000000000000000000000000000000000000000000000000000000000000000000000000000000000000000000000000000000000000000000000000000000000000000000000700000000000000000007000000
310
00000000000000000000000000000000000000000700000000000000000000000000000000000007000000000000000000000000000000000000000000000007000000000000000000000700000000000000000000000000000000000000000000000000000000000000000000000000000000000000000000000000000000
310
00000000000000000000000000000000000000000000000000000000000000000000000000000007000000000000000000070000000000000000000000000000000000000000000007070707070707070707070707070707070707070707070000000000000000000000000000000000000000000700000000000000000000
310
07000000000000000000000000000000000000000000000000000000000000000000000000000000000000000000000000000000000000000000000000000000000000000000000000000000000000000000000000000000000707070707070707070707070707070700000000000000000000000000000000000000000707
310
07070707070707070707070707070707070707070700000000000000000000000000000000000707070707070707070707070707070707070707000000000000000000000000000000000000000000000000000000000000000000000000000000000000000000000000000000000000000000000000000000000000000000
310
00000000000000000000000000000007070707070707070707070707070707000000000000000000000000000000000000000007070707070707070707070707070707070707070707070000000000000000000000000000000000070707070707070707070707070707070707070700000000000000000000000000000000
310
00000000000000000000000000000000000000000000000000000000000000000000000000000000000000000000000000000000000000000000000000000000000000000000070707070707070707070707000000000000000000000000000000000000000000000000000007000000000000000000000000000700000000
310
00000000000000000000000000000000000000000000000000000000000000000000000000000000000000000000000000000000000000000000000000000000000000000000000000000000000000000000000000000000000000000000000000000000000000000000000000000000000000000000000000000000000707
310
07070707070707000000000000000000000000000000000000000000000000000000070707070707070707070707070707000000000000000000000000000000000000000000000000000000000000000000000000000000000000000000000000000000000000000000000000000000000000000000000000000000000000
310
00000000000000000000000000000000000000000000000000000000000000000000000000000000000000000000000000000007070707070707070700000000000000000000000000000000000000000000000000000000000000000700000007000000000000000000000000000000000000000000000000000000000000
310
00000000000000000000000000000000000000000000000000000000000000000000000000000000000000000000000000000000000000000000000000000000000000000000000000000000000000000000000000000000000000000000000000000000000000000707070707070707070000000000000000000000000000
310
00000000000000000000000000000000000007000000070000000000000000000000000000000000000000000000000000000000000000000000000000000000000000000000000000000000000000000000000000000000000000000000000000000000000000000000000000000000000000000000000000000000000000
310
00000000000000000000000000000000000000000000000000000000000000070000000000070000000000000000000000000000000000000000000000000000000000000000000700000007000000000000000000000000000000000000000000000000000000000000000000000000000000000000000000000000000000
310
00000000000000000000000000000000000000000000000000000000000000000000000000000000000000000000000000000000000000000000000000000000000000000000000000000000000000000000000007070707070707000000000000000000000000000000000000000000000000000000000000000000070000
310
00070000000000000000000000000000000000000000000000000000000000000000000000000000000000000000000000000000000000000000000000000000000000000000000000000000000000000000000000000000000000000000000000000000000000000000000000000000000000000000000000000000000000
310
00000000000000000000000007070700000000000000000000000000000000000000000000000000000000000000000000000707070707000000000000000000000000000000000000000000000000000000000000000000000000000000000000000000000000000000000000000000000000000000000000000000000000
310
00000000000000000000000000000000000000000000000000000000000000000000000000000000000000000000000000000000000000000000000000000000000700070000000000000000000000000000000000000000000000000000000000000000000000070000070000000000000000000000000000000000000000
310
00000000000000000000000000000000000000000000000000000000000000000000000000000000000000000000000000000000000000000000000000000000000000000000000000000000000000000000000000000000000000000000000000000000000000000000000000000000000000000000070007000000000000
310
00000000000000000000000000000000000000000000000000000000000700000700000000000000000000000000000000000000000000000000000000000000000000000000000000000000000000000000000000000000000000000000000000000000000000000000000000000000000000000000000000000000000000
310
00000000000000000000000000000000000000000000000000000000000000000000000000000000000000000700070000000000000000000000000000000000000000000000000000000000000000000000070000070000000000000000000000000000000000000000000000000000000000000000000000000000000000
310
00000000000000000000000000000000000000000000000000000000000000000000000000000000000000000000000000000000000000000000000000000000000000000000000000000000000000000000000000000000000000000000000000070707000000000000000000000000000000000000000000000000000000
310
00000000000000000700000700000000000000000000000000000000000000000000000000000000000000000000000000000000000000000000000000000000000000000000000000000000000000000000000000000000000000000000000000000000000000000000000000000000000000000000000000000000000000
310
00000000000000000000000000000000000000000000000000000000000000000000000000000000000000000000000000000000000000000000000000070707070700000000000000000000000000000000000000000000000000000000000000000000000000000000000000000000000000000000000000000000000000
310
00000000000000000000000000000000000000000000000000000000000000000000000000000000000000000000000000000000000000000000000000000000000000000000000000000000000000000000000000000000000000000000000000000000000000000000000000000000000007000000070000000000000000
310
00000000000000000000000000000000000000000000000000000000000000000000000000000000000000000000000000000000000000000000000000000000000000000000000000000000000000000000000000000000000000000000000000000000000000000000000000000000000000000000000000000000000000
310
00000000000000000000000000000000000000000000000000000000000000000000000000000000070000000700000000000000000000000000000000000000000000000000000000000000000000000000000000000000000000000000000000000000000000000000000000000000000000000000000000000000000000
310
00000000000000000000000000000000000000000000000000000000000000000000000000000000000000000000000000000000000000000000000000000000000000000000000000000000000000000000000000000000000000000007070707070000000000000000000000000000000000000000000000000000000000
310
00000000000000000000000000000000000000000000000000000000000000000000000000000000000000000000000000000000000000000000000000000000000000000000000000000000000000000000000000000000000000000000000000000000000000000000000000000000000000000000000000000000000000
310
000000000000000000000000000000000000000000000000000000000000000000000000000000000000000000000000000000000000000000000000000000000000000000000000000000000000000000000000000000000000000000000000000000000000000000000000
  0
ENDSEC
  0
EOF
