  0
SECTION
  2
HEADER
  9
$ACADVER
  1
AC1015
  9
$ACADMAINTVER
 70
     6
  9
$DWGCODEPAGE
  3
ANSI_1252
  9
$INSBASE
 10
0.0
 20
0.0
 30
0.0
  9
$EXTMIN
 10
6.0
 20
-0.232
 30
0.0
  9
$EXTMAX
 10
311.0
 20
225.827
 30
0.0
  9
$LIMMIN
 10
0.0
 20
0.0
  9
$LIMMAX
 10
12.0
 20
9.0
  9
$ORTHOMODE
 70
     0
  9
$REGENMODE
 70
     1
  9
$FILLMODE
 70
     1
  9
$QTEXTMODE
 70
     0
  9
$MIRRTEXT
 70
     1
  9
$LTSCALE
 40
1.0
  9
$ATTMODE
 70
     1
  9
$TEXTSIZE
 40
0.2
  9
$TRACEWID
 40
0.05
  9
$TEXTSTYLE
  7
Standard
  9
$CLAYER
  8
0
  9
$CELTYPE
  6
ByBlock
  9
$CECOLOR
 62
   256
  9
$CELTSCALE
 40
1.0
  9
$DISPSILH
 70
     0
  9
$DIMSCALE
 40
1.0
  9
$DIMASZ
 40
0.18
  9
$DIMEXO
 40
0.0625
  9
$DIMDLI
 40
0.38
  9
$DIMRND
 40
0.0
  9
$DIMDLE
 40
0.0
  9
$DIMEXE
 40
0.18
  9
$DIMTP
 40
0.0
  9
$DIMTM
 40
0.0
  9
$DIMTXT
 40
0.18
  9
$DIMCEN
 40
0.09
  9
$DIMTSZ
 40
0.0
  9
$DIMTOL
 70
     0
  9
$DIMLIM
 70
     0
  9
$DIMTIH
 70
     1
  9
$DIMTOH
 70
     1
  9
$DIMSE1
 70
     0
  9
$DIMSE2
 70
     0
  9
$DIMTAD
 70
     0
  9
$DIMZIN
 70
     0
  9
$DIMBLK
  1

  9
$DIMASO
 70
     1
  9
$DIMSHO
 70
     1
  9
$DIMPOST
  1

  9
$DIMAPOST
  1

  9
$DIMALT
 70
     0
  9
$DIMALTD
 70
     2
  9
$DIMALTF
 40
25.4
  9
$DIMLFAC
 40
1.0
  9
$DIMTOFL
 70
     0
  9
$DIMTVP
 40
0.0
  9
$DIMTIX
 70
     0
  9
$DIMSOXD
 70
     0
  9
$DIMSAH
 70
     0
  9
$DIMBLK1
  1

  9
$DIMBLK2
  1

  9
$DIMSTYLE
  2
Standard
  9
$DIMCLRD
 70
     0
  9
$DIMCLRE
 70
     0
  9
$DIMCLRT
 70
     0
  9
$DIMTFAC
 40
1.0
  9
$DIMGAP
 40
0.09
  9
$DIMJUST
 70
     0
  9
$DIMSD1
 70
     0
  9
$DIMSD2
 70
     0
  9
$DIMTOLJ
 70
     1
  9
$DIMTZIN
 70
     0
  9
$DIMALTZ
 70
     0
  9
$DIMALTTZ
 70
     0
  9
$DIMUPT
 70
     0
  9
$DIMDEC
 70
     4
  9
$DIMTDEC
 70
     4
  9
$DIMALTU
 70
     2
  9
$DIMALTTD
 70
     2
  9
$DIMTXSTY
  7
Standard
  9
$DIMAUNIT
 70
     0
  9
$DIMADEC
 70
     0
  9
$DIMALTRND
 40
0.0
  9
$DIMAZIN
 70
     0
  9
$DIMDSEP
 70
    46
  9
$DIMATFIT
 70
     3
  9
$DIMFRAC
 70
     0
  9
$DIMLDRBLK
  1

  9
$DIMLUNIT
 70
     2
  9
$DIMLWD
 70
    -2
  9
$DIMLWE
 70
    -2
  9
$DIMTMOVE
 70
     2
  9
$LUNITS
 70
     2
  9
$LUPREC
 70
     4
  9
$SKETCHINC
 40
0.1
  9
$FILLETRAD
 40
0.5
  9
$AUNITS
 70
     0
  9
$AUPREC
 70
     0
  9
$MENU
  1
.
  9
$ELEVATION
 40
0.0
  9
$PELEVATION
 40
0.0
  9
$THICKNESS
 40
0.0
  9
$LIMCHECK
 70
     0
  9
$CHAMFERA
 40
0.5
  9
$CHAMFERB
 40
0.5
  9
$CHAMFERC
 40
1.0
  9
$CHAMFERD
 40
0.0
  9
$SKPOLY
 70
     0
  9
$TDCREATE
 40
2456646.633170023
  9
$TDUCREATE
 40
2456646.591503357
  9
$TDUPDATE
 40
2456646.650058947
  9
$TDUUPDATE
 40
2456646.60839228
  9
$TDINDWG
 40
0.01688875
  9
$TDUSRTIMER
 40
0.01688875
  9
$USRTIMER
 70
     1
  9
$ANGBASE
 50
0.0
  9
$ANGDIR
 70
     0
  9
$PDMODE
 70
     0
  9
$PDSIZE
 40
0.0
  9
$PLINEWID
 40
0.0
  9
$SPLFRAME
 70
     0
  9
$SPLINETYPE
 70
     6
  9
$SPLINESEGS
 70
     8
  9
$HANDSEED
  5
C6D
  9
$SURFTAB1
 70
     6
  9
$SURFTAB2
 70
     6
  9
$SURFTYPE
 70
     6
  9
$SURFU
 70
     6
  9
$SURFV
 70
     6
  9
$UCSBASE
  2

  9
$UCSNAME
  2

  9
$UCSORG
 10
0.0
 20
0.0
 30
0.0
  9
$UCSXDIR
 10
1.0
 20
0.0
 30
0.0
  9
$UCSYDIR
 10
0.0
 20
1.0
 30
0.0
  9
$UCSORTHOREF
  2

  9
$UCSORTHOVIEW
 70
     0
  9
$UCSORGTOP
 10
0.0
 20
0.0
 30
0.0
  9
$UCSORGBOTTOM
 10
0.0
 20
0.0
 30
0.0
  9
$UCSORGLEFT
 10
0.0
 20
0.0
 30
0.0
  9
$UCSORGRIGHT
 10
0.0
 20
0.0
 30
0.0
  9
$UCSORGFRONT
 10
0.0
 20
0.0
 30
0.0
  9
$UCSORGBACK
 10
0.0
 20
0.0
 30
0.0
  9
$PUCSBASE
  2

  9
$PUCSNAME
  2

  9
$PUCSORG
 10
0.0
 20
0.0
 30
0.0
  9
$PUCSXDIR
 10
1.0
 20
0.0
 30
0.0
  9
$PUCSYDIR
 10
0.0
 20
1.0
 30
0.0
  9
$PUCSORTHOREF
  2

  9
$PUCSORTHOVIEW
 70
     0
  9
$PUCSORGTOP
 10
0.0
 20
0.0
 30
0.0
  9
$PUCSORGBOTTOM
 10
0.0
 20
0.0
 30
0.0
  9
$PUCSORGLEFT
 10
0.0
 20
0.0
 30
0.0
  9
$PUCSORGRIGHT
 10
0.0
 20
0.0
 30
0.0
  9
$PUCSORGFRONT
 10
0.0
 20
0.0
 30
0.0
  9
$PUCSORGBACK
 10
0.0
 20
0.0
 30
0.0
  9
$USERI1
 70
     0
  9
$USERI2
 70
     0
  9
$USERI3
 70
     0
  9
$USERI4
 70
     0
  9
$USERI5
 70
     0
  9
$USERR1
 40
0.0
  9
$USERR2
 40
0.0
  9
$USERR3
 40
0.0
  9
$USERR4
 40
0.0
  9
$USERR5
 40
0.0
  9
$WORLDVIEW
 70
     1
  9
$SHADEDGE
 70
     3
  9
$SHADEDIF
 70
    70
  9
$TILEMODE
 70
     1
  9
$MAXACTVP
 70
    64
  9
$PINSBASE
 10
0.0
 20
0.0
 30
0.0
  9
$PLIMCHECK
 70
     0
  9
$PEXTMIN
 10
1.000000000000E+20
 20
1.000000000000E+20
 30
1.000000000000E+20
  9
$PEXTMAX
 10
-1.000000000000E+20
 20
-1.000000000000E+20
 30
-1.000000000000E+20
  9
$PLIMMIN
 10
0.0
 20
0.0
  9
$PLIMMAX
 10
12.0
 20
9.0
  9
$UNITMODE
 70
     0
  9
$VISRETAIN
 70
     1
  9
$PLINEGEN
 70
     0
  9
$PSLTSCALE
 70
     1
  9
$TREEDEPTH
 70
  3020
  9
$CMLSTYLE
  2
Standard
  9
$CMLJUST
 70
     0
  9
$CMLSCALE
 40
1.0
  9
$PROXYGRAPHICS
 70
     1
  9
$MEASUREMENT
 70
     0
  9
$CELWEIGHT
370
    -1
  9
$ENDCAPS
280
     0
  9
$JOINSTYLE
280
     0
  9
$LWDISPLAY
290
     0
  9
$INSUNITS
 70
     0
  9
$HYPERLINKBASE
  1

  9
$STYLESHEET
  1

  9
$XEDIT
290
     1
  9
$CEPSNTYPE
380
     0
  9
$PSTYLEMODE
290
     1
  9
$FINGERPRINTGUID
  2
{0222577B-520C-4E84-88AC-6E9AF614043D}
  9
$VERSIONGUID
  2
{FAEB1C32-E019-11D5-929B-00C0DF256EC4}
  9
$EXTNAMES
290
     1
  9
$PSVPSCALE
 40
0.0
  9
$OLESTARTUP
290
     0
  0
ENDSEC
  0
SECTION
  2
CLASSES
  0
CLASS
  1
ACDBDICTIONARYWDFLT
  2
AcDbDictionaryWithDefault
  3
ObjectDBX Classes
 90
        0
280
     0
281
     0
  0
CLASS
  1
SCALE
  2
AcDbScale
  3
ObjectDBX Classes
 90
     1153
280
     0
281
     0
  0
CLASS
  1
DICTIONARYVAR
  2
AcDbDictionaryVar
  3
ObjectDBX Classes
 90
        0
280
     0
281
     0
  0
CLASS
  1
ACDBPLACEHOLDER
  2
AcDbPlaceHolder
  3
ObjectDBX Classes
 90
        0
280
     0
281
     0
  0
CLASS
  1
LAYOUT
  2
AcDbLayout
  3
ObjectDBX Classes
 90
        0
280
     0
281
     0
  0
ENDSEC
  0
SECTION
  2
TABLES
  0
TABLE
  2
VPORT
  5
8
330
0
100
AcDbSymbolTable
 70
     1
  0
VPORT
  5
49A
330
8
100
AcDbSymbolTableRecord
100
AcDbViewportTableRecord
  2
*Active
 70
     0
 10
0.0
 20
0.0
 11
1.0
 21
1.0
 12
155.5
 22
112.7975
 13
0.0
 23
0.0
 14
0.5
 24
0.5
 15
0.5
 25
0.5
 16
0.0
 26
0.0
 36
1.0
 17
0.0
 27
0.0
 37
0.0
 40
240.500126182965
 41
1.319001386963
 42
50.0
 43
0.0
 44
0.0
 50
0.0
 51
0.0
 71
    16
 72
   100
 73
     1
 74
     3
 75
     0
 76
     0
 77
     0
 78
     0
281
     0
 65
     1
110
0.0
120
0.0
130
0.0
111
1.0
121
0.0
131
0.0
112
0.0
122
1.0
132
0.0
 79
     0
146
0.0
  0
ENDTAB
  0
TABLE
  2
LTYPE
  5
5
330
0
100
AcDbSymbolTable
 70
     1
  0
LTYPE
  5
14
330
5
100
AcDbSymbolTableRecord
100
AcDbLinetypeTableRecord
  2
ByBlock
 70
     0
  3

 72
    65
 73
     0
 40
0.0
  0
LTYPE
  5
15
330
5
100
AcDbSymbolTableRecord
100
AcDbLinetypeTableRecord
  2
ByLayer
 70
     0
  3

 72
    65
 73
     0
 40
0.0
  0
LTYPE
  5
16
330
5
100
AcDbSymbolTableRecord
100
AcDbLinetypeTableRecord
  2
Continuous
 70
     0
  3
Solid line
 72
    65
 73
     0
 40
0.0
  0
ENDTAB
  0
TABLE
  2
LAYER
  5
2
330
0
100
AcDbSymbolTable
 70
     1
  0
LAYER
  5
10
330
2
100
AcDbSymbolTableRecord
100
AcDbLayerTableRecord
  2
0
 70
     0
 62
     7
  6
Continuous
370
    -3
390
F
  0
ENDTAB
  0
TABLE
  2
STYLE
  5
3
330
0
100
AcDbSymbolTable
 70
     1
  0
STYLE
  5
11
330
3
100
AcDbSymbolTableRecord
100
AcDbTextStyleTableRecord
  2
Standard
 70
     0
 40
0.0
 41
1.0
 50
0.0
 71
     0
 42
0.2
  3
txt
  4

  0
ENDTAB
  0
TABLE
  2
VIEW
  5
6
330
0
100
AcDbSymbolTable
 70
     0
  0
ENDTAB
  0
TABLE
  2
UCS
  5
7
330
0
100
AcDbSymbolTable
 70
     0
  0
ENDTAB
  0
TABLE
  2
APPID
  5
9
330
0
100
AcDbSymbolTable
 70
     1
  0
APPID
  5
12
330
9
100
AcDbSymbolTableRecord
100
AcDbRegAppTableRecord
  2
ACAD
 70
     0
  0
ENDTAB
  0
TABLE
  2
DIMSTYLE
  5
A
330
0
100
AcDbSymbolTable
 70
     1
100
AcDbDimStyleTable
  0
DIMSTYLE
105
20
330
A
100
AcDbSymbolTableRecord
100
AcDbDimStyleTableRecord
  2
Standard
 70
     0
340
11
  0
ENDTAB
  0
TABLE
  2
BLOCK_RECORD
  5
1
330
0
100
AcDbSymbolTable
 70
     1
  0
BLOCK_RECORD
  5
1D
330
1
100
AcDbSymbolTableRecord
100
AcDbBlockTableRecord
  2
*Model_Space
340
1E
  0
BLOCK_RECORD
  5
1B
330
1
100
AcDbSymbolTableRecord
100
AcDbBlockTableRecord
  2
*Paper_Space
340
1C
  0
ENDTAB
  0
ENDSEC
  0
SECTION
  2
BLOCKS
  0
BLOCK
  5
49D
330
1D
100
AcDbEntity
  8
0
100
AcDbBlockBegin
  2
*Model_Space
 70
     0
 10
0.0
 20
0.0
 30
0.0
  3
*Model_Space
  1
*Model_Space
  0
ENDBLK
  5
49E
330
1D
100
AcDbEntity
  8
0
100
AcDbBlockEnd
  0
BLOCK
  5
49B
330
1B
100
AcDbEntity
 67
     1
  8
0
100
AcDbBlockBegin
  2
*Paper_Space
 70
     0
 10
0.0
 20
0.0
 30
0.0
  3
*Paper_Space
  1
*Paper_Space
  0
ENDBLK
  5
49C
330
1B
100
AcDbEntity
 67
     1
  8
0
100
AcDbBlockEnd
  0
ENDSEC
  0
SECTION
  2
ENTITIES
  0
LINE
  5
3A
330
1D
100
AcDbEntity
  8
0
100
AcDbLine
 10
42.4128
 20
68.196
 30
0.0
 11
45.4916
 21
68.764
 31
0.0
  0
LINE
  5
3B
330
1D
100
AcDbEntity
  8
0
100
AcDbLine
 10
45.4916
 20
68.764
 30
0.0
 11
47.9591
 21
69.504
 31
0.0
  0
LINE
  5
3C
330
1D
100
AcDbEntity
  8
0
100
AcDbLine
 10
41.0342
 20
68.214
 30
0.0
 11
42.4128
 21
68.196
 31
0.0
  0
LINE
  5
3D
330
1D
100
AcDbEntity
  8
0
100
AcDbLine
 10
37.3696
 20
68.477
 30
0.0
 11
41.0342
 21
68.214
 31
0.0
  0
LINE
  5
EA
330
1D
100
AcDbEntity
  8
0
100
AcDbLine
 10
248.531
 20
167.3653
 30
0.0
 11
249.0
 21
167.143438135283
 31
0.0
  0
LINE
  5
EE
330
1D
100
AcDbEntity
  8
0
100
AcDbLine
 10
245.966
 20
168.9673
 30
0.0
 11
248.531
 21
167.3653
 31
0.0
  0
LINE
  5
FD
330
1D
100
AcDbEntity
  8
0
100
AcDbLine
 10
243.604
 20
170.8569
 30
0.0
 11
245.966
 21
168.9673
 31
0.0
  0
LINE
  5
104
330
1D
100
AcDbEntity
  8
0
100
AcDbLine
 10
241.477
 20
173.008
 30
0.0
 11
243.604
 21
170.8569
 31
0.0
  0
LINE
  5
108
330
1D
100
AcDbEntity
  8
0
100
AcDbLine
 10
249.0
 20
165.0947
 30
0.0
 11
249.0
 21
173.6715
 31
0.0
  0
LINE
  5
114
330
1D
100
AcDbEntity
  8
0
100
AcDbLine
 10
239.614
 20
175.3916
 30
0.0
 11
241.477
 21
173.008
 31
0.0
  0
LINE
  5
120
330
1D
100
AcDbEntity
  8
0
100
AcDbLine
 10
236.778
 20
180.7236
 30
0.0
 11
238.041
 21
177.9749
 31
0.0
  0
LINE
  5
12B
330
1D
100
AcDbEntity
  8
0
100
AcDbLine
 10
249.0
 20
182.79789
 30
0.0
 11
249.432
 21
184.16626
 31
0.0
  0
LINE
  5
12C
330
1D
100
AcDbEntity
  8
0
100
AcDbLine
 10
249.0
 20
182.79789
 30
0.0
 11
249.0
 21
173.6715
 31
0.0
  0
LINE
  5
12D
330
1D
100
AcDbEntity
  8
0
100
AcDbLine
 10
249.0
 20
173.6715
 30
0.0
 11
249.0
 21
182.79789
 31
0.0
  0
LINE
  5
12E
330
1D
100
AcDbEntity
  8
0
100
AcDbLine
 10
249.0
 20
173.6715
 30
0.0
 11
249.0
 21
165.0947
 31
0.0
  0
LINE
  5
12F
330
1D
100
AcDbEntity
  8
0
100
AcDbLine
 10
273.0
 20
167.163917296893
 30
0.0
 11
274.532
 21
167.9789
 31
0.0
  0
LINE
  5
130
330
1D
100
AcDbEntity
  8
0
100
AcDbLine
 10
249.0
 20
171.9536
 30
0.0
 11
249.0
 21
163.6353
 31
0.0
  0
LINE
  5
132
330
1D
100
AcDbEntity
  8
0
100
AcDbLine
 10
249.0
 20
163.6353
 30
0.0
 11
249.0
 21
171.9536
 31
0.0
  0
LINE
  5
13B
330
1D
100
AcDbEntity
  8
0
100
AcDbLine
 10
273.0
 20
169.014
 30
0.0
 11
273.0
 21
180.80033
 31
0.0
  0
LINE
  5
152
330
1D
100
AcDbEntity
  8
0
100
AcDbLine
 10
235.842
 20
183.6005
 30
0.0
 11
236.778
 21
180.7236
 31
0.0
  0
LINE
  5
170
330
1D
100
AcDbEntity
  8
0
100
AcDbLine
 10
249.432
 20
184.16626
 30
0.0
 11
250.584
 21
185.44924
 31
0.0
  0
LINE
  5
171
330
1D
100
AcDbEntity
  8
0
100
AcDbLine
 10
250.584
 20
185.44924
 30
0.0
 11
250.872
 21
185.65683
 31
0.0
  0
LINE
  5
195
330
1D
100
AcDbEntity
  8
0
100
AcDbLine
 10
235.247
 20
186.5668
 30
0.0
 11
235.842
 21
183.6005
 31
0.0
  0
LINE
  5
196
330
1D
100
AcDbEntity
  8
0
100
AcDbLine
 10
250.798303763768
 20
185.60370985528
 30
0.0
 11
250.939
 21
185.963
 31
0.0
  0
LINE
  5
19B
330
1D
100
AcDbEntity
  8
0
100
AcDbLine
 10
250.794513115328
 20
185.573439448776
 30
0.0
 11
250.872
 21
185.65683
 31
0.0
  0
LINE
  5
19C
330
1D
100
AcDbEntity
  8
0
100
AcDbLine
 10
250.939
 20
185.963
 30
0.0
 11
251.001
 21
186.0972
 31
0.0
  0
LINE
  5
19D
330
1D
100
AcDbEntity
  8
0
100
AcDbLine
 10
251.001
 20
186.0972
 30
0.0
 11
251.471
 21
186.995
 31
0.0
  0
LINE
  5
19E
330
1D
100
AcDbEntity
  8
0
100
AcDbLine
 10
252.044665142664
 20
186.339995144918
 30
0.0
 11
252.615
 21
186.9831
 31
0.0
  0
LINE
  5
19F
330
1D
100
AcDbEntity
  8
0
100
AcDbLine
 10
252.579167938099
 20
186.651382996759
 30
0.0
 11
252.615
 21
186.9831
 31
0.0
  0
LINE
  5
1A0
330
1D
100
AcDbEntity
  8
0
100
AcDbLine
 10
252.598244714145
 20
186.662496645487
 30
0.0
 11
252.631
 21
187.0005
 31
0.0
  0
LINE
  5
1A1
330
1D
100
AcDbEntity
  8
0
100
AcDbLine
 10
250.872
 20
185.65683
 30
0.0
 11
252.744
 21
186.74741
 31
0.0
  0
LINE
  5
1B4
330
1D
100
AcDbEntity
  8
0
100
AcDbLine
 10
251.471
 20
186.995
 30
0.0
 11
252.037
 21
187.8453
 31
0.0
  0
LINE
  5
1B5
330
1D
100
AcDbEntity
  8
0
100
AcDbLine
 10
252.615
 20
186.9831
 30
0.0
 11
252.623164544325
 21
186.919645559775
 31
0.0
  0
LINE
  5
1B6
330
1D
100
AcDbEntity
  8
0
100
AcDbLine
 10
252.631
 20
187.0005
 30
0.0
 11
253.322
 21
187.6564
 31
0.0
  0
LINE
  5
1B7
330
1D
100
AcDbEntity
  8
0
100
AcDbLine
 10
252.631
 20
187.0005
 30
0.0
 11
253.259352102698
 21
187.013368793064
 31
0.0
  0
LINE
  5
1B8
330
1D
100
AcDbEntity
  8
0
100
AcDbLine
 10
253.270406392477
 20
186.926831146142
 30
0.0
 11
253.335
 21
187.6772
 31
0.0
  0
LINE
  5
1B9
330
1D
100
AcDbEntity
  8
0
100
AcDbLine
 10
253.250251825619
 20
186.919961633276
 30
0.0
 11
253.322
 21
187.6564
 31
0.0
  0
LINE
  5
1BF
330
1D
100
AcDbEntity
  8
0
100
AcDbLine
 10
248.77
 20
187.1495
 30
0.0
 11
249.438
 21
185.1774
 31
0.0
  0
LINE
  5
1C0
330
1D
100
AcDbEntity
  8
0
100
AcDbLine
 10
252.037
 20
187.8453
 30
0.0
 11
252.696
 21
188.6391
 31
0.0
  0
LINE
  5
1C1
330
1D
100
AcDbEntity
  8
0
100
AcDbLine
 10
253.322
 20
187.6564
 30
0.0
 11
253.324638866245
 21
187.556837128838
 31
0.0
  0
LINE
  5
1C2
330
1D
100
AcDbEntity
  8
0
100
AcDbLine
 10
254.02400745119
 20
187.183689663858
 30
0.0
 11
254.114
 21
188.282
 31
0.0
  0
LINE
  5
1C3
330
1D
100
AcDbEntity
  8
0
100
AcDbLine
 10
254.753604845531
 20
187.432366736526
 30
0.0
 11
254.813
 21
188.1783
 31
0.0
  0
LINE
  5
1C4
330
1D
100
AcDbEntity
  8
0
100
AcDbLine
 10
254.814687081752
 20
187.453186097742
 30
0.0
 11
254.926
 21
188.8117
 31
0.0
  0
LINE
  5
1C5
330
1D
100
AcDbEntity
  8
0
100
AcDbLine
 10
254.81336911441
 20
187.452736879772
 30
0.0
 11
254.922
 21
188.8168
 31
0.0
  0
LINE
  5
1C6
330
1D
100
AcDbEntity
  8
0
100
AcDbLine
 10
254.022074440174
 20
187.183030813477
 30
0.0
 11
254.11
 21
188.2871
 31
0.0
  0
LINE
  5
1C7
330
1D
100
AcDbEntity
  8
0
100
AcDbLine
 10
254.853123198344
 20
187.466286721501
 30
0.0
 11
254.947
 21
188.8243
 31
0.0
  0
LINE
  5
1C8
330
1D
100
AcDbEntity
  8
0
100
AcDbLine
 10
253.994679219348
 20
187.173693385229
 30
0.0
 11
254.095
 21
188.2677
 31
0.0
  0
LINE
  5
1C9
330
1D
100
AcDbEntity
  8
0
100
AcDbLine
 10
253.335
 20
187.6772
 30
0.0
 11
254.095
 21
188.2677
 31
0.0
  0
LINE
  5
1CA
330
1D
100
AcDbEntity
  8
0
100
AcDbLine
 10
253.335
 20
187.6772
 30
0.0
 11
254.036355263812
 21
187.628174181981
 31
0.0
  0
LINE
  5
1CB
330
1D
100
AcDbEntity
  8
0
100
AcDbLine
 10
249.011307482708
 20
187.938370886607
 30
0.0
 11
249.019
 21
187.8776
 31
0.0
  0
LINE
  5
1CF
330
1D
100
AcDbEntity
  8
0
100
AcDbLine
 10
252.744
 20
186.74741
 30
0.0
 11
255.192
 21
187.58179
 31
0.0
  0
LINE
  5
1D0
330
1D
100
AcDbEntity
  8
0
100
AcDbLine
 10
255.562002405039
 20
187.650021154714
 30
0.0
 11
255.632
 21
188.6626
 31
0.0
  0
LINE
  5
1D1
330
1D
100
AcDbEntity
  8
0
100
AcDbLine
 10
255.694177882943
 20
187.674395281366
 30
0.0
 11
255.81
 21
189.2839
 31
0.0
  0
LINE
  5
1D2
330
1D
100
AcDbEntity
  8
0
100
AcDbLine
 10
255.693492596356
 20
187.674268909498
 30
0.0
 11
255.806
 21
189.2893
 31
0.0
  0
LINE
  5
1D3
330
1D
100
AcDbEntity
  8
0
100
AcDbLine
 10
256.423255243668
 20
187.808842489061
 30
0.0
 11
256.498
 21
189.0763
 31
0.0
  0
LINE
  5
1D4
330
1D
100
AcDbEntity
  8
0
100
AcDbLine
 10
256.629748215975
 20
187.84692130625
 30
0.0
 11
256.734
 21
189.686
 31
0.0
  0
LINE
  5
1D5
330
1D
100
AcDbEntity
  8
0
100
AcDbLine
 10
256.626484312886
 20
187.846319418604
 30
0.0
 11
256.734
 21
189.686
 31
0.0
  0
LINE
  5
1D6
330
1D
100
AcDbEntity
  8
0
100
AcDbLine
 10
255.737273269148
 20
187.682342386368
 30
0.0
 11
255.829
 21
189.3003
 31
0.0
  0
LINE
  5
1D7
330
1D
100
AcDbEntity
  8
0
100
AcDbLine
 10
257.335168852831
 20
188.017247009184
 30
0.0
 11
257.401
 21
189.4159
 31
0.0
  0
LINE
  5
1D8
330
1D
100
AcDbEntity
  8
0
100
AcDbLine
 10
257.037972577166
 20
187.922200869753
 30
0.0
 11
257.613
 21
188.1061
 31
0.0
  0
LINE
  5
1D9
330
1D
100
AcDbEntity
  8
0
100
AcDbLine
 10
255.192
 20
187.58179
 30
0.0
 11
257.976
 21
188.09518
 31
0.0
  0
LINE
  5
263
330
1D
100
AcDbEntity
  8
0
100
AcDbLine
 10
235.0
 20
189.5822
 30
0.0
 11
235.104
 21
192.6059
 31
0.0
  0
LINE
  5
264
330
1D
100
AcDbEntity
  8
0
100
AcDbLine
 10
235.0
 20
189.5822
 30
0.0
 11
235.247
 21
186.5668
 31
0.0
  0
LINE
  5
265
330
1D
100
AcDbEntity
  8
0
100
AcDbLine
 10
248.436
 20
189.2045
 30
0.0
 11
248.77
 21
187.1495
 31
0.0
  0
LINE
  5
266
330
1D
100
AcDbEntity
  8
0
100
AcDbLine
 10
248.436
 20
189.2045
 30
0.0
 11
248.444
 21
191.2868
 31
0.0
  0
LINE
  5
267
330
1D
100
AcDbEntity
  8
0
100
AcDbLine
 10
248.894
 20
188.6419
 30
0.0
 11
249.592240490048
 21
184.344719499933
 31
0.0
  0
LINE
  5
268
330
1D
100
AcDbEntity
  8
0
100
AcDbLine
 10
254.11
 20
188.2871
 30
0.0
 11
254.922
 21
188.8168
 31
0.0
  0
LINE
  5
269
330
1D
100
AcDbEntity
  8
0
100
AcDbLine
 10
252.696
 20
188.6391
 30
0.0
 11
253.441
 21
189.3685
 31
0.0
  0
LINE
  5
26A
330
1D
100
AcDbEntity
  8
0
100
AcDbLine
 10
254.114
 20
188.282
 30
0.0
 11
254.926
 21
188.8117
 31
0.0
  0
LINE
  5
26B
330
1D
100
AcDbEntity
  8
0
100
AcDbLine
 10
254.114
 20
188.282
 30
0.0
 11
254.813
 21
188.1783
 31
0.0
  0
LINE
  5
26C
330
1D
100
AcDbEntity
  8
0
100
AcDbLine
 10
254.813
 20
188.1783
 30
0.0
 11
254.918040994164
 21
188.767087307111
 31
0.0
  0
LINE
  5
26D
330
1D
100
AcDbEntity
  8
0
100
AcDbLine
 10
254.947
 20
188.8243
 30
0.0
 11
255.806
 21
189.2893
 31
0.0
  0
LINE
  5
26E
330
1D
100
AcDbEntity
  8
0
100
AcDbLine
 10
254.947
 20
188.8243
 30
0.0
 11
255.632
 21
188.6626
 31
0.0
  0
LINE
  5
26F
330
1D
100
AcDbEntity
  8
0
100
AcDbLine
 10
255.632
 20
188.6626
 30
0.0
 11
255.806
 21
189.2893
 31
0.0
  0
LINE
  5
270
330
1D
100
AcDbEntity
  8
0
100
AcDbLine
 10
255.632
 20
188.6626
 30
0.0
 11
255.81
 21
189.2839
 31
0.0
  0
LINE
  5
271
330
1D
100
AcDbEntity
  8
0
100
AcDbLine
 10
257.613
 20
188.1061
 30
0.0
 11
257.699
 21
190.003
 31
0.0
  0
LINE
  5
272
330
1D
100
AcDbEntity
  8
0
100
AcDbLine
 10
258.286725553665
 20
188.271539898897
 30
0.0
 11
258.336
 21
189.6784
 31
0.0
  0
LINE
  5
273
330
1D
100
AcDbEntity
  8
0
100
AcDbLine
 10
257.66
 20
188.1194
 30
0.0
 11
258.626
 21
188.3539
 31
0.0
  0
LINE
  5
274
330
1D
100
AcDbEntity
  8
0
100
AcDbLine
 10
257.66
 20
188.1194
 30
0.0
 11
258.628
 21
188.3475
 31
0.0
  0
LINE
  5
275
330
1D
100
AcDbEntity
  8
0
100
AcDbLine
 10
257.66
 20
188.1194
 30
0.0
 11
257.724
 21
190.0101
 31
0.0
  0
LINE
  5
276
330
1D
100
AcDbEntity
  8
0
100
AcDbLine
 10
258.628
 20
188.3475
 30
0.0
 11
258.692
 21
190.238
 31
0.0
  0
LINE
  5
277
330
1D
100
AcDbEntity
  8
0
100
AcDbLine
 10
258.626
 20
188.3539
 30
0.0
 11
258.692
 21
190.238
 31
0.0
  0
LINE
  5
278
330
1D
100
AcDbEntity
  8
0
100
AcDbLine
 10
259.261404159692
 20
188.447460461648
 30
0.0
 11
259.293
 21
189.8616
 31
0.0
  0
LINE
  5
279
330
1D
100
AcDbEntity
  8
0
100
AcDbLine
 10
259.662
 20
188.5095
 30
0.0
 11
259.705
 21
190.3891
 31
0.0
  0
LINE
  5
27A
330
1D
100
AcDbEntity
  8
0
100
AcDbLine
 10
260.251395750657
 20
188.54515237271
 30
0.0
 11
260.265
 21
189.964
 31
0.0
  0
LINE
  5
27B
330
1D
100
AcDbEntity
  8
0
100
AcDbLine
 10
259.713
 20
188.5081
 30
0.0
 11
260.711
 21
188.5711
 31
0.0
  0
LINE
  5
27C
330
1D
100
AcDbEntity
  8
0
100
AcDbLine
 10
259.713
 20
188.5081
 30
0.0
 11
259.73
 21
190.392
 31
0.0
  0
LINE
  5
27D
330
1D
100
AcDbEntity
  8
0
100
AcDbLine
 10
259.712
 20
188.5147
 30
0.0
 11
260.711
 21
188.5711
 31
0.0
  0
LINE
  5
27E
330
1D
100
AcDbEntity
  8
0
100
AcDbLine
 10
259.712
 20
188.5147
 30
0.0
 11
259.73
 21
190.392
 31
0.0
  0
LINE
  5
27F
330
1D
100
AcDbEntity
  8
0
100
AcDbLine
 10
256.498
 20
189.0763
 30
0.0
 11
256.734
 21
189.686
 31
0.0
  0
LINE
  5
280
330
1D
100
AcDbEntity
  8
0
100
AcDbLine
 10
260.76
 20
188.5788
 30
0.0
 11
261.76
 21
188.5581
 31
0.0
  0
LINE
  5
281
330
1D
100
AcDbEntity
  8
0
100
AcDbLine
 10
260.711
 20
188.5711
 30
0.0
 11
260.728
 21
190.4548
 31
0.0
  0
LINE
  5
282
330
1D
100
AcDbEntity
  8
0
100
AcDbLine
 10
258.676
 20
188.3568
 30
0.0
 11
258.717
 21
190.243
 31
0.0
  0
LINE
  5
283
330
1D
100
AcDbEntity
  8
0
100
AcDbLine
 10
258.676
 20
188.3568
 30
0.0
 11
259.662
 21
188.5095
 31
0.0
  0
LINE
  5
284
330
1D
100
AcDbEntity
  8
0
100
AcDbLine
 10
248.838
 20
189.3075
 30
0.0
 11
248.894
 21
188.6419
 31
0.0
  0
LINE
  5
285
330
1D
100
AcDbEntity
  8
0
100
AcDbLine
 10
253.441
 20
189.3685
 30
0.0
 11
254.262
 21
190.0259
 31
0.0
  0
LINE
  5
286
330
1D
100
AcDbEntity
  8
0
100
AcDbLine
 10
255.829
 20
189.3003
 30
0.0
 11
256.734
 21
189.686
 31
0.0
  0
LINE
  5
287
330
1D
100
AcDbEntity
  8
0
100
AcDbLine
 10
255.829
 20
189.3003
 30
0.0
 11
256.498
 21
189.0763
 31
0.0
  0
LINE
  5
288
330
1D
100
AcDbEntity
  8
0
100
AcDbLine
 10
256.761
 20
189.6888
 30
0.0
 11
257.699
 21
190.003
 31
0.0
  0
LINE
  5
289
330
1D
100
AcDbEntity
  8
0
100
AcDbLine
 10
256.761
 20
189.6888
 30
0.0
 11
257.401
 21
189.4159
 31
0.0
  0
LINE
  5
28A
330
1D
100
AcDbEntity
  8
0
100
AcDbLine
 10
258.336
 20
189.6784
 30
0.0
 11
258.692
 21
190.238
 31
0.0
  0
LINE
  5
28B
330
1D
100
AcDbEntity
  8
0
100
AcDbLine
 10
259.293
 20
189.8616
 30
0.0
 11
259.705
 21
190.3891
 31
0.0
  0
LINE
  5
28C
330
1D
100
AcDbEntity
  8
0
100
AcDbLine
 10
260.265
 20
189.964
 30
0.0
 11
260.728
 21
190.4548
 31
0.0
  0
LINE
  5
28D
330
1D
100
AcDbEntity
  8
0
100
AcDbLine
 10
257.401
 20
189.4159
 30
0.0
 11
257.699
 21
190.003
 31
0.0
  0
LINE
  5
28E
330
1D
100
AcDbEntity
  8
0
100
AcDbLine
 10
254.262
 20
190.0259
 30
0.0
 11
255.153
 21
190.6044
 31
0.0
  0
LINE
  5
28F
330
1D
100
AcDbEntity
  8
0
100
AcDbLine
 10
257.724
 20
190.0101
 30
0.0
 11
258.692
 21
190.238
 31
0.0
  0
LINE
  5
290
330
1D
100
AcDbEntity
  8
0
100
AcDbLine
 10
257.724
 20
190.0101
 30
0.0
 11
258.336
 21
189.6784
 31
0.0
  0
LINE
  5
291
330
1D
100
AcDbEntity
  8
0
100
AcDbLine
 10
248.821
 20
189.6906
 30
0.0
 11
248.834892993072
 21
189.45561545885
 31
0.0
  0
LINE
  5
292
330
1D
100
AcDbEntity
  8
0
100
AcDbLine
 10
235.0
 20
190.196
 30
0.0
 11
235.016963210544
 21
190.075372725018
 31
0.0
  0
LINE
  5
293
330
1D
100
AcDbEntity
  8
0
100
AcDbLine
 10
235.0
 20
190.196
 30
0.0
 11
235.027948317799
 21
190.394743593236
 31
0.0
  0
LINE
  5
294
330
1D
100
AcDbEntity
  8
0
100
AcDbLine
 10
248.444
 20
191.2868
 30
0.0
 11
248.795
 21
193.3395
 31
0.0
  0
LINE
  5
295
330
1D
100
AcDbEntity
  8
0
100
AcDbLine
 10
255.153
 20
190.6044
 30
0.0
 11
256.104
 21
191.0982
 31
0.0
  0
LINE
  5
296
330
1D
100
AcDbEntity
  8
0
100
AcDbLine
 10
258.717
 20
190.243
 30
0.0
 11
259.705
 21
190.3891
 31
0.0
  0
LINE
  5
297
330
1D
100
AcDbEntity
  8
0
100
AcDbLine
 10
258.717
 20
190.243
 30
0.0
 11
259.293
 21
189.8616
 31
0.0
  0
LINE
  5
298
330
1D
100
AcDbEntity
  8
0
100
AcDbLine
 10
260.754
 20
190.4489
 30
0.0
 11
261.754
 21
190.4281
 31
0.0
  0
LINE
  5
299
330
1D
100
AcDbEntity
  8
0
100
AcDbLine
 10
260.754
 20
190.4489
 30
0.0
 11
261.243
 21
189.9846
 31
0.0
  0
LINE
  5
29A
330
1D
100
AcDbEntity
  8
0
100
AcDbLine
 10
259.73
 20
190.392
 30
0.0
 11
260.728
 21
190.4548
 31
0.0
  0
LINE
  5
29B
330
1D
100
AcDbEntity
  8
0
100
AcDbLine
 10
259.73
 20
190.392
 30
0.0
 11
260.265
 21
189.964
 31
0.0
  0
LINE
  5
29C
330
1D
100
AcDbEntity
  8
0
100
AcDbLine
 10
256.104
 20
191.0982
 30
0.0
 11
257.105
 21
191.5024
 31
0.0
  0
LINE
  5
29D
330
1D
100
AcDbEntity
  8
0
100
AcDbLine
 10
248.863
 20
191.2547
 30
0.0
 11
248.966
 21
192.0326
 31
0.0
  0
LINE
  5
29E
330
1D
100
AcDbEntity
  8
0
100
AcDbLine
 10
248.851
 20
191.0574
 30
0.0
 11
248.863
 21
191.2547
 31
0.0
  0
LINE
  5
29F
330
1D
100
AcDbEntity
  8
0
100
AcDbLine
 10
248.818
 20
190.4301
 30
0.0
 11
248.821
 21
189.6906
 31
0.0
  0
LINE
  5
2A0
330
1D
100
AcDbEntity
  8
0
100
AcDbLine
 10
248.818
 20
190.4301
 30
0.0
 11
248.851
 21
191.0574
 31
0.0
  0
LINE
  5
2A8
330
1D
100
AcDbEntity
  8
0
100
AcDbLine
 10
258.146
 20
191.8127
 30
0.0
 11
259.217
 21
192.026
 31
0.0
  0
LINE
  5
2A9
330
1D
100
AcDbEntity
  8
0
100
AcDbLine
 10
257.105
 20
191.5024
 30
0.0
 11
258.146
 21
191.8127
 31
0.0
  0
LINE
  5
2AA
330
1D
100
AcDbEntity
  8
0
100
AcDbLine
 10
259.243
 20
192.0295
 30
0.0
 11
260.315
 21
192.142
 31
0.0
  0
LINE
  5
2AB
330
1D
100
AcDbEntity
  8
0
100
AcDbLine
 10
235.104
 20
192.6059
 30
0.0
 11
235.559
 21
195.5968
 31
0.0
  0
LINE
  5
2AC
330
1D
100
AcDbEntity
  8
0
100
AcDbLine
 10
260.315
 20
192.142
 30
0.0
 11
261.395
 21
192.1551
 31
0.0
  0
LINE
  5
2AD
330
1D
100
AcDbEntity
  8
0
100
AcDbLine
 10
249.092293518382
 20
192.661361302229
 30
0.0
 11
249.162
 21
193.0084
 31
0.0
  0
LINE
  5
2AE
330
1D
100
AcDbEntity
  8
0
100
AcDbLine
 10
248.966
 20
192.0326
 30
0.0
 11
249.052505655584
 21
192.463274585298
 31
0.0
  0
LINE
  5
2BA
330
1D
100
AcDbEntity
  8
0
100
AcDbLine
 10
248.795
 20
193.3395
 30
0.0
 11
249.478
 21
195.3059
 31
0.0
  0
LINE
  5
2BB
330
1D
100
AcDbEntity
  8
0
100
AcDbLine
 10
249.162
 20
193.0084
 30
0.0
 11
249.442
 21
193.9774
 31
0.0
  0
LINE
  5
2E3
330
1D
100
AcDbEntity
  8
0
100
AcDbLine
 10
249.442
 20
193.9774
 30
0.0
 11
249.805
 21
194.932
 31
0.0
  0
LINE
  5
2E4
330
1D
100
AcDbEntity
  8
0
100
AcDbLine
 10
249.478
 20
195.3059
 30
0.0
 11
250.476
 21
197.1333
 31
0.0
  0
LINE
  5
2E5
330
1D
100
AcDbEntity
  8
0
100
AcDbLine
 10
235.559
 20
195.5968
 30
0.0
 11
235.825333333334
 21
196.569333333336
 31
0.0
  0
LINE
  5
2E6
330
1D
100
AcDbEntity
  8
0
100
AcDbLine
 10
235.559
 20
195.5967
 30
0.0
 11
236.358
 21
198.5146
 31
0.0
  0
LINE
  5
2E7
330
1D
100
AcDbEntity
  8
0
100
AcDbLine
 10
250.542
 20
196.3661
 30
0.0
 11
250.831
 21
196.8368
 31
0.0
  0
LINE
  5
2E8
330
1D
100
AcDbEntity
  8
0
100
AcDbLine
 10
250.273
 20
195.9023
 30
0.0
 11
250.542
 21
196.3661
 31
0.0
  0
LINE
  5
2E9
330
1D
100
AcDbEntity
  8
0
100
AcDbLine
 10
249.805
 20
194.932
 30
0.0
 11
250.273
 21
195.9023
 31
0.0
  0
LINE
  5
2EE
330
1D
100
AcDbEntity
  8
0
100
AcDbLine
 10
250.831
 20
196.8368
 30
0.0
 11
251.475
 21
197.7251
 31
0.0
  0
LINE
  5
2FA
330
1D
100
AcDbEntity
  8
0
100
AcDbLine
 10
236.358
 20
198.5146
 30
0.0
 11
237.49
 21
201.3199
 31
0.0
  0
LINE
  5
2FB
330
1D
100
AcDbEntity
  8
0
100
AcDbLine
 10
250.476
 20
197.1333
 30
0.0
 11
251.761
 21
198.7715
 31
0.0
  0
LINE
  5
2FC
330
1D
100
AcDbEntity
  8
0
100
AcDbLine
 10
251.475
 20
197.7251
 30
0.0
 11
252.201
 21
198.5562
 31
0.0
  0
LINE
  5
2FD
330
1D
100
AcDbEntity
  8
0
100
AcDbLine
 10
251.761
 20
198.7715
 30
0.0
 11
253.298
 21
200.1756
 31
0.0
  0
LINE
  5
2FE
330
1D
100
AcDbEntity
  8
0
100
AcDbLine
 10
252.777
 20
199.1209
 30
0.0
 11
253.557
 21
199.7775
 31
0.0
  0
LINE
  5
2FF
330
1D
100
AcDbEntity
  8
0
100
AcDbLine
 10
252.201
 20
198.5562
 30
0.0
 11
252.777
 21
199.1209
 31
0.0
  0
LINE
  5
304
330
1D
100
AcDbEntity
  8
0
100
AcDbLine
 10
253.557
 20
199.7775
 30
0.0
 11
254.393
 21
200.3691
 31
0.0
  0
LINE
  5
305
330
1D
100
AcDbEntity
  8
0
100
AcDbLine
 10
237.112666666667
 20
200.384800000001
 30
0.0
 11
237.49
 21
201.32
 31
0.0
  0
LINE
  5
306
330
1D
100
AcDbEntity
  8
0
100
AcDbLine
 10
253.298
 20
200.1756
 30
0.0
 11
255.045
 21
201.3078
 31
0.0
  0
LINE
  5
307
330
1D
100
AcDbEntity
  8
0
100
AcDbLine
 10
254.393
 20
200.3691
 30
0.0
 11
255.279
 21
200.8899
 31
0.0
  0
LINE
  5
308
330
1D
100
AcDbEntity
  8
0
100
AcDbLine
 10
237.49
 20
201.32
 30
0.0
 11
238.94
 21
203.975
 31
0.0
  0
LINE
  5
309
330
1D
100
AcDbEntity
  8
0
100
AcDbLine
 10
255.045
 20
201.3078
 30
0.0
 11
256.955
 21
202.1366
 31
0.0
  0
LINE
  5
30A
330
1D
100
AcDbEntity
  8
0
100
AcDbLine
 10
256.955
 20
202.1366
 30
0.0
 11
258.975
 21
202.6396
 31
0.0
  0
LINE
  5
30B
330
1D
100
AcDbEntity
  8
0
100
AcDbLine
 10
258.18
 20
201.9878
 30
0.0
 11
259.204
 21
202.1857
 31
0.0
  0
LINE
  5
30C
330
1D
100
AcDbEntity
  8
0
100
AcDbLine
 10
257.179
 20
201.7033
 30
0.0
 11
258.18
 21
201.9878
 31
0.0
  0
LINE
  5
30D
330
1D
100
AcDbEntity
  8
0
100
AcDbLine
 10
256.208
 20
201.3353
 30
0.0
 11
257.179
 21
201.7033
 31
0.0
  0
LINE
  5
30E
330
1D
100
AcDbEntity
  8
0
100
AcDbLine
 10
260.242
 20
202.2953
 30
0.0
 11
261.0
 21
202.3189
 31
0.0
  0
LINE
  5
30F
330
1D
100
AcDbEntity
  8
0
100
AcDbLine
 10
261.0
 20
202.3189
 30
0.0
 11
261.758
 21
202.2952
 31
0.0
  0
LINE
  5
310
330
1D
100
AcDbEntity
  8
0
100
AcDbLine
 10
259.204
 20
202.1857
 30
0.0
 11
260.242
 21
202.2953
 31
0.0
  0
LINE
  5
311
330
1D
100
AcDbEntity
  8
0
100
AcDbLine
 10
255.279
 20
200.8899
 30
0.0
 11
256.208
 21
201.3353
 31
0.0
  0
LINE
  5
319
330
1D
100
AcDbEntity
  8
0
100
AcDbLine
 10
238.361165739023
 20
202.914914347557
 30
0.0
 11
238.432
 21
203.092
 31
0.0
  0
LINE
  5
31A
330
1D
100
AcDbEntity
  8
0
100
AcDbLine
 10
238.432
 20
203.092
 30
0.0
 11
238.525686047304
 21
203.216134012678
 31
0.0
  0
LINE
  5
31B
330
1D
100
AcDbEntity
  8
0
100
AcDbLine
 10
258.975
 20
202.6396
 30
0.0
 11
261.05
 21
202.8035
 31
0.0
  0
LINE
  5
322
330
1D
100
AcDbEntity
  8
0
100
AcDbLine
 10
238.94
 20
203.975
 30
0.0
 11
240.689
 21
206.4433
 31
0.0
  0
LINE
  5
35E
330
1D
100
AcDbEntity
  8
0
100
AcDbLine
 10
240.689
 20
206.4433
 30
0.0
 11
242.711
 21
208.6928
 31
0.0
  0
LINE
  5
375
330
1D
100
AcDbEntity
  8
0
100
AcDbLine
 10
242.711
 20
208.6928
 30
0.0
 11
243.846500000001
 21
209.691900000001
 31
0.0
  0
LINE
  5
379
330
1D
100
AcDbEntity
  8
0
100
AcDbLine
 10
244.982
 20
210.6911
 30
0.0
 11
247.468
 21
212.4131
 31
0.0
  0
LINE
  5
385
330
1D
100
AcDbEntity
  8
0
100
AcDbLine
 10
248.04758928781
 20
212.721425877592
 30
0.0
 11
248.104
 21
212.764
 31
0.0
  0
LINE
  5
386
330
1D
100
AcDbEntity
  8
0
100
AcDbLine
 10
248.04758928781
 20
212.721425877592
 30
0.0
 11
248.104
 21
212.764
 31
0.0
  0
LINE
  5
387
330
1D
100
AcDbEntity
  8
0
100
AcDbLine
 10
248.104
 20
212.764
 30
0.0
 11
248.199209929078
 21
212.802083971631
 31
0.0
  0
LINE
  5
388
330
1D
100
AcDbEntity
  8
0
100
AcDbLine
 10
247.468
 20
212.4131
 30
0.0
 11
250.139
 21
213.834
 31
0.0
  0
LINE
  5
389
330
1D
100
AcDbEntity
  8
0
100
AcDbLine
 10
250.139
 20
213.834
 30
0.0
 11
252.956
 21
214.9353
 31
0.0
  0
LINE
  5
395
330
1D
100
AcDbEntity
  8
0
100
AcDbLine
 10
252.956
 20
214.9353
 30
0.0
 11
255.881
 21
215.7027
 31
0.0
  0
LINE
  5
397
330
1D
100
AcDbEntity
  8
0
100
AcDbLine
 10
255.881
 20
215.7027
 30
0.0
 11
258.875
 21
216.1245
 31
0.0
  0
LINE
  5
398
330
1D
100
AcDbEntity
  8
0
100
AcDbLine
 10
260.818293992933
 20
216.170447592756
 30
0.0
 11
261.0
 21
216.196
 31
0.0
  0
LINE
  5
399
330
1D
100
AcDbEntity
  8
0
100
AcDbLine
 10
261.0
 20
216.196
 30
0.0
 11
261.129398087569
 21
216.177803393936
 31
0.0
  0
LINE
  5
39A
330
1D
100
AcDbEntity
  8
0
100
AcDbLine
 10
258.876
 20
216.1246
 30
0.0
 11
261.899
 21
216.196
 31
0.0
  0
LINE
  5
3DA
330
1D
100
AcDbEntity
  8
0
100
AcDbLine
 10
257.976
 20
188.09518
 30
0.0
 11
261.0
 21
188.28758
 31
0.0
  0
LINE
  5
3DB
330
1D
100
AcDbEntity
  8
0
100
AcDbLine
 10
264.884
 20
187.9612
 30
0.0
 11
265.01283249796
 21
187.912832041621
 31
0.0
  0
LINE
  5
3DC
330
1D
100
AcDbEntity
  8
0
100
AcDbLine
 10
270.883
 20
186.3423
 30
0.0
 11
270.944
 21
186.2095
 31
0.0
  0
LINE
  5
3DD
330
1D
100
AcDbEntity
  8
0
100
AcDbLine
 10
270.944
 20
186.2095
 30
0.0
 11
271.201921136867
 21
185.603547747215
 31
0.0
  0
LINE
  5
3DE
330
1D
100
AcDbEntity
  8
0
100
AcDbLine
 10
269.393720207693
 20
186.667177679431
 30
0.0
 11
269.7
 21
186.6501
 31
0.0
  0
LINE
  5
3DF
330
1D
100
AcDbEntity
  8
0
100
AcDbLine
 10
269.7
 20
186.6501
 30
0.0
 11
269.717336153936
 21
186.478647188697
 31
0.0
  0
LINE
  5
3E0
330
1D
100
AcDbEntity
  8
0
100
AcDbLine
 10
269.716
 20
186.6317
 30
0.0
 11
269.732958455974
 21
186.469546029425
 31
0.0
  0
LINE
  5
3E1
330
1D
100
AcDbEntity
  8
0
100
AcDbLine
 10
269.716
 20
186.6317
 30
0.0
 11
269.94069320429
 21
186.348525002813
 31
0.0
  0
LINE
  5
3E2
330
1D
100
AcDbEntity
  8
0
100
AcDbLine
 10
272.407852306343
 20
184.344616152785
 30
0.0
 11
273.01
 21
187.9822
 31
0.0
  0
LINE
  5
3E3
330
1D
100
AcDbEntity
  8
0
100
AcDbLine
 10
272.544069313392
 20
185.149735711453
 30
0.0
 11
273.205
 21
187.0525
 31
0.0
  0
LINE
  5
3E4
330
1D
100
AcDbEntity
  8
0
100
AcDbLine
 10
272.568
 20
184.16626
 30
0.0
 11
273.0
 21
182.79789
 31
0.0
  0
LINE
  5
3E5
330
1D
100
AcDbEntity
  8
0
100
AcDbLine
 10
271.416
 20
185.44924
 30
0.0
 11
272.568
 21
184.16626
 31
0.0
  0
LINE
  5
3E6
330
1D
100
AcDbEntity
  8
0
100
AcDbLine
 10
271.128
 20
185.65683
 30
0.0
 11
271.205486884672
 21
185.573439448776
 31
0.0
  0
LINE
  5
3E7
330
1D
100
AcDbEntity
  8
0
100
AcDbLine
 10
271.128
 20
185.65683
 30
0.0
 11
271.416
 21
185.44924
 31
0.0
  0
LINE
  5
3E8
330
1D
100
AcDbEntity
  8
0
100
AcDbLine
 10
270.387
 20
187.2282
 30
0.0
 11
270.883
 21
186.3423
 31
0.0
  0
LINE
  5
3E9
330
1D
100
AcDbEntity
  8
0
100
AcDbLine
 10
267.574
 20
187.9132
 30
0.0
 11
268.282
 21
187.9927
 31
0.0
  0
LINE
  5
3EA
330
1D
100
AcDbEntity
  8
0
100
AcDbLine
 10
267.574
 20
187.9132
 30
0.0
 11
267.625575118396
 21
187.303126467611
 31
0.0
  0
LINE
  5
3EB
330
1D
100
AcDbEntity
  8
0
100
AcDbLine
 10
267.574
 20
187.9132
 30
0.0
 11
268.277
 21
187.9877
 31
0.0
  0
LINE
  5
3EC
330
1D
100
AcDbEntity
  8
0
100
AcDbLine
 10
268.301615572878
 20
187.760694705824
 30
0.0
 11
268.303697793233
 21
187.682121508284
 31
0.0
  0
LINE
  5
3ED
330
1D
100
AcDbEntity
  8
0
100
AcDbLine
 10
268.355665659125
 20
187.332298473571
 30
0.0
 11
269.025
 21
187.3511
 31
0.0
  0
LINE
  5
3EE
330
1D
100
AcDbEntity
  8
0
100
AcDbLine
 10
268.277
 20
187.9877
 30
0.0
 11
268.35863951691
 21
187.05326769603
 31
0.0
  0
LINE
  5
3EF
330
1D
100
AcDbEntity
  8
0
100
AcDbLine
 10
268.282
 20
187.9927
 30
0.0
 11
268.361509793013
 21
187.052289386808
 31
0.0
  0
LINE
  5
3F0
330
1D
100
AcDbEntity
  8
0
100
AcDbLine
 10
268.296
 20
187.9726
 30
0.0
 11
268.382422133241
 21
187.045161593328
 31
0.0
  0
LINE
  5
3F1
330
1D
100
AcDbEntity
  8
0
100
AcDbLine
 10
268.296
 20
187.9726
 30
0.0
 11
269.025
 21
187.3511
 31
0.0
  0
LINE
  5
3F2
330
1D
100
AcDbEntity
  8
0
100
AcDbLine
 10
269.033549446748
 20
187.272924017263
 30
0.0
 11
269.038
 21
187.3299
 31
0.0
  0
LINE
  5
3F3
330
1D
100
AcDbEntity
  8
0
100
AcDbLine
 10
269.794
 20
188.0642
 30
0.0
 11
270.387
 21
187.2282
 31
0.0
  0
LINE
  5
3F4
330
1D
100
AcDbEntity
  8
0
100
AcDbLine
 10
269.038
 20
187.3299
 30
0.0
 11
269.092736227473
 21
186.803057069657
 31
0.0
  0
LINE
  5
3F5
330
1D
100
AcDbEntity
  8
0
100
AcDbLine
 10
269.038
 20
187.3299
 30
0.0
 11
269.7
 21
186.6501
 31
0.0
  0
LINE
  5
3F6
330
1D
100
AcDbEntity
  8
0
100
AcDbLine
 10
269.025
 20
187.3511
 30
0.0
 11
269.073959570478
 21
186.809456933654
 31
0.0
  0
LINE
  5
3F7
330
1D
100
AcDbEntity
  8
0
100
AcDbLine
 10
269.256
 20
186.74741
 30
0.0
 11
271.128
 21
185.65683
 31
0.0
  0
LINE
  5
3F8
330
1D
100
AcDbEntity
  8
0
100
AcDbLine
 10
266.808
 20
187.58179
 30
0.0
 11
269.256
 21
186.74741
 31
0.0
  0
LINE
  5
3F9
330
1D
100
AcDbEntity
  8
0
100
AcDbLine
 10
261.243
 20
189.9846
 30
0.0
 11
261.754
 21
190.4281
 31
0.0
  0
LINE
  5
3FA
330
1D
100
AcDbEntity
  8
0
100
AcDbLine
 10
261.243
 20
189.9846
 30
0.0
 11
261.247526508308
 21
188.568708201278
 31
0.0
  0
LINE
  5
3FB
330
1D
100
AcDbEntity
  8
0
100
AcDbLine
 10
263.778
 20
190.1378
 30
0.0
 11
263.831
 21
188.2497
 31
0.0
  0
LINE
  5
3FC
330
1D
100
AcDbEntity
  8
0
100
AcDbLine
 10
262.219
 20
189.9234
 30
0.0
 11
262.774
 21
190.3286
 31
0.0
  0
LINE
  5
3FD
330
1D
100
AcDbEntity
  8
0
100
AcDbLine
 10
262.219
 20
189.9234
 30
0.0
 11
262.241582216532
 21
188.50952742291
 31
0.0
  0
LINE
  5
3FE
330
1D
100
AcDbEntity
  8
0
100
AcDbLine
 10
263.184
 20
189.7807
 30
0.0
 11
263.778
 21
190.1378
 31
0.0
  0
LINE
  5
3FF
330
1D
100
AcDbEntity
  8
0
100
AcDbLine
 10
263.184
 20
189.7807
 30
0.0
 11
263.224609694156
 21
188.36552736179
 31
0.0
  0
LINE
  5
400
330
1D
100
AcDbEntity
  8
0
100
AcDbLine
 10
261.81
 20
188.5549
 30
0.0
 11
262.804
 21
188.4504
 31
0.0
  0
LINE
  5
401
330
1D
100
AcDbEntity
  8
0
100
AcDbLine
 10
261.395
 20
192.1551
 30
0.0
 11
262.471
 21
192.0694
 31
0.0
  0
LINE
  5
402
330
1D
100
AcDbEntity
  8
0
100
AcDbLine
 10
262.493
 20
192.0662
 30
0.0
 11
263.569
 21
191.8795
 31
0.0
  0
LINE
  5
403
330
1D
100
AcDbEntity
  8
0
100
AcDbLine
 10
261.754
 20
190.4281
 30
0.0
 11
261.76
 21
188.5581
 31
0.0
  0
LINE
  5
404
330
1D
100
AcDbEntity
  8
0
100
AcDbLine
 10
261.779
 20
190.4266
 30
0.0
 11
262.774
 21
190.3286
 31
0.0
  0
LINE
  5
405
330
1D
100
AcDbEntity
  8
0
100
AcDbLine
 10
261.779
 20
190.4266
 30
0.0
 11
262.219
 21
189.9234
 31
0.0
  0
LINE
  5
406
330
1D
100
AcDbEntity
  8
0
100
AcDbLine
 10
261.779
 20
190.4266
 30
0.0
 11
261.81
 21
188.5549
 31
0.0
  0
LINE
  5
407
330
1D
100
AcDbEntity
  8
0
100
AcDbLine
 10
263.569
 20
191.8795
 30
0.0
 11
264.619
 21
191.5952
 31
0.0
  0
LINE
  5
408
330
1D
100
AcDbEntity
  8
0
100
AcDbLine
 10
262.774
 20
190.3286
 30
0.0
 11
262.804
 21
188.4504
 31
0.0
  0
LINE
  5
409
330
1D
100
AcDbEntity
  8
0
100
AcDbLine
 10
262.8
 20
190.3247
 30
0.0
 11
263.778
 21
190.1378
 31
0.0
  0
LINE
  5
40A
330
1D
100
AcDbEntity
  8
0
100
AcDbLine
 10
262.8
 20
190.3247
 30
0.0
 11
262.852
 21
188.4367
 31
0.0
  0
LINE
  5
40B
330
1D
100
AcDbEntity
  8
0
100
AcDbLine
 10
262.8
 20
190.3247
 30
0.0
 11
263.184
 21
189.7807
 31
0.0
  0
LINE
  5
40C
330
1D
100
AcDbEntity
  8
0
100
AcDbLine
 10
263.803
 20
190.1319
 30
0.0
 11
264.759
 21
189.8638
 31
0.0
  0
LINE
  5
40D
330
1D
100
AcDbEntity
  8
0
100
AcDbLine
 10
263.803
 20
190.1319
 30
0.0
 11
264.131
 21
189.558
 31
0.0
  0
LINE
  5
40E
330
1D
100
AcDbEntity
  8
0
100
AcDbLine
 10
263.803
 20
190.1319
 30
0.0
 11
263.879
 21
188.2384
 31
0.0
  0
LINE
  5
40F
330
1D
100
AcDbEntity
  8
0
100
AcDbLine
 10
262.852
 20
188.4367
 30
0.0
 11
263.831
 21
188.2497
 31
0.0
  0
LINE
  5
410
330
1D
100
AcDbEntity
  8
0
100
AcDbLine
 10
264.619
 20
191.5952
 30
0.0
 11
265.632
 21
191.2156
 31
0.0
  0
LINE
  5
411
330
1D
100
AcDbEntity
  8
0
100
AcDbLine
 10
264.759
 20
189.8638
 30
0.0
 11
264.836
 21
187.9767
 31
0.0
  0
LINE
  5
412
330
1D
100
AcDbEntity
  8
0
100
AcDbLine
 10
264.131
 20
189.558
 30
0.0
 11
264.759
 21
189.8638
 31
0.0
  0
LINE
  5
413
330
1D
100
AcDbEntity
  8
0
100
AcDbLine
 10
264.131
 20
189.558
 30
0.0
 11
264.188286015622
 21
188.153823040451
 31
0.0
  0
LINE
  5
414
330
1D
100
AcDbEntity
  8
0
100
AcDbLine
 10
265.632
 20
191.2156
 30
0.0
 11
266.597
 21
190.7455
 31
0.0
  0
LINE
  5
415
330
1D
100
AcDbEntity
  8
0
100
AcDbLine
 10
265.051
 20
189.2569
 30
0.0
 11
265.705
 21
189.503
 31
0.0
  0
LINE
  5
416
330
1D
100
AcDbEntity
  8
0
100
AcDbLine
 10
265.051
 20
189.2569
 30
0.0
 11
265.123006803229
 21
187.892515092418
 31
0.0
  0
LINE
  5
417
330
1D
100
AcDbEntity
  8
0
100
AcDbLine
 10
264.783
 20
189.8558
 30
0.0
 11
265.705
 21
189.503
 31
0.0
  0
LINE
  5
418
330
1D
100
AcDbEntity
  8
0
100
AcDbLine
 10
264.783
 20
189.8558
 30
0.0
 11
265.051
 21
189.2569
 31
0.0
  0
LINE
  5
419
330
1D
100
AcDbEntity
  8
0
100
AcDbLine
 10
264.783
 20
189.8558
 30
0.0
 11
264.884
 21
187.9612
 31
0.0
  0
LINE
  5
41A
330
1D
100
AcDbEntity
  8
0
100
AcDbLine
 10
263.879
 20
188.2384
 30
0.0
 11
264.836
 21
187.9767
 31
0.0
  0
LINE
  5
41B
330
1D
100
AcDbEntity
  8
0
100
AcDbLine
 10
265.731
 20
189.4989
 30
0.0
 11
266.616
 21
189.0763
 31
0.0
  0
LINE
  5
41C
330
1D
100
AcDbEntity
  8
0
100
AcDbLine
 10
265.731
 20
189.4989
 30
0.0
 11
265.842442697395
 21
187.759845841805
 31
0.0
  0
LINE
  5
41D
330
1D
100
AcDbEntity
  8
0
100
AcDbLine
 10
265.731
 20
189.4989
 30
0.0
 11
265.937
 21
188.8802
 31
0.0
  0
LINE
  5
41E
330
1D
100
AcDbEntity
  8
0
100
AcDbLine
 10
265.705
 20
189.503
 30
0.0
 11
265.79963214732
 21
187.767740420937
 31
0.0
  0
LINE
  5
41F
330
1D
100
AcDbEntity
  8
0
100
AcDbLine
 10
265.139
 20
202.1043
 30
0.0
 11
267.042
 21
201.2604
 31
0.0
  0
LINE
  5
420
330
1D
100
AcDbEntity
  8
0
100
AcDbLine
 10
264.821
 20
201.7033
 30
0.0
 11
265.792
 21
201.3353
 31
0.0
  0
LINE
  5
421
330
1D
100
AcDbEntity
  8
0
100
AcDbLine
 10
263.82
 20
201.9878
 30
0.0
 11
264.821
 21
201.7033
 31
0.0
  0
LINE
  5
422
330
1D
100
AcDbEntity
  8
0
100
AcDbLine
 10
262.796
 20
202.1857
 30
0.0
 11
263.82
 21
201.9878
 31
0.0
  0
LINE
  5
423
330
1D
100
AcDbEntity
  8
0
100
AcDbLine
 10
265.937
 20
188.8802
 30
0.0
 11
266.616
 21
189.0763
 31
0.0
  0
LINE
  5
424
330
1D
100
AcDbEntity
  8
0
100
AcDbLine
 10
265.937
 20
188.8802
 30
0.0
 11
266.010772511923
 21
187.728804590555
 31
0.0
  0
LINE
  5
425
330
1D
100
AcDbEntity
  8
0
100
AcDbLine
 10
266.639
 20
189.0643
 30
0.0
 11
266.748111323588
 21
187.59283391077
 31
0.0
  0
LINE
  5
426
330
1D
100
AcDbEntity
  8
0
100
AcDbLine
 10
266.639
 20
189.0643
 30
0.0
 11
267.473
 21
188.564
 31
0.0
  0
LINE
  5
427
330
1D
100
AcDbEntity
  8
0
100
AcDbLine
 10
266.639
 20
189.0643
 30
0.0
 11
266.78
 21
188.431
 31
0.0
  0
LINE
  5
428
330
1D
100
AcDbEntity
  8
0
100
AcDbLine
 10
266.597
 20
190.7455
 30
0.0
 11
267.505
 21
190.1889
 31
0.0
  0
LINE
  5
429
330
1D
100
AcDbEntity
  8
0
100
AcDbLine
 10
266.616
 20
189.0763
 30
0.0
 11
266.707968983804
 21
187.600236452372
 31
0.0
  0
LINE
  5
42A
330
1D
100
AcDbEntity
  8
0
100
AcDbLine
 10
265.792
 20
201.3353
 30
0.0
 11
266.721
 21
200.8899
 31
0.0
  0
LINE
  5
42B
330
1D
100
AcDbEntity
  8
0
100
AcDbLine
 10
261.899
 20
216.196
 30
0.0
 11
264.911
 21
215.9158
 31
0.0
  0
LINE
  5
42C
330
1D
100
AcDbEntity
  8
0
100
AcDbLine
 10
261.05
 20
202.8035
 30
0.0
 11
263.124
 21
202.6232
 31
0.0
  0
LINE
  5
42D
330
1D
100
AcDbEntity
  8
0
100
AcDbLine
 10
264.911
 20
215.9158
 30
0.0
 11
267.869
 21
215.2877
 31
0.0
  0
LINE
  5
42E
330
1D
100
AcDbEntity
  8
0
100
AcDbLine
 10
263.124
 20
202.6232
 30
0.0
 11
265.139
 21
202.1043
 31
0.0
  0
LINE
  5
42F
330
1D
100
AcDbEntity
  8
0
100
AcDbLine
 10
261.758
 20
202.2952
 30
0.0
 11
262.796
 21
202.1857
 31
0.0
  0
LINE
  5
430
330
1D
100
AcDbEntity
  8
0
100
AcDbLine
 10
267.498
 20
188.5556
 30
0.0
 11
267.603256364288
 21
187.310733625313
 31
0.0
  0
LINE
  5
431
330
1D
100
AcDbEntity
  8
0
100
AcDbLine
 10
267.498
 20
188.5556
 30
0.0
 11
268.282
 21
187.9927
 31
0.0
  0
LINE
  5
432
330
1D
100
AcDbEntity
  8
0
100
AcDbLine
 10
267.498
 20
188.5556
 30
0.0
 11
267.574
 21
187.9132
 31
0.0
  0
LINE
  5
433
330
1D
100
AcDbEntity
  8
0
100
AcDbLine
 10
267.498
 20
188.5556
 30
0.0
 11
267.599652779888
 21
187.311961876437
 31
0.0
  0
LINE
  5
434
330
1D
100
AcDbEntity
  8
0
100
AcDbLine
 10
266.78
 20
188.431
 30
0.0
 11
267.473
 21
188.564
 31
0.0
  0
LINE
  5
435
330
1D
100
AcDbEntity
  8
0
100
AcDbLine
 10
266.78
 20
188.431
 30
0.0
 11
266.84433158073
 21
187.569406689408
 31
0.0
  0
LINE
  5
436
330
1D
100
AcDbEntity
  8
0
100
AcDbLine
 10
269.112
 20
188.8414
 30
0.0
 11
269.794
 21
188.0642
 31
0.0
  0
LINE
  5
437
330
1D
100
AcDbEntity
  8
0
100
AcDbLine
 10
268.346
 20
189.5522
 30
0.0
 11
269.112
 21
188.8414
 31
0.0
  0
LINE
  5
438
330
1D
100
AcDbEntity
  8
0
100
AcDbLine
 10
267.505
 20
190.1889
 30
0.0
 11
268.346
 21
189.5522
 31
0.0
  0
LINE
  5
439
330
1D
100
AcDbEntity
  8
0
100
AcDbLine
 10
267.473
 20
188.564
 30
0.0
 11
267.568560434943
 21
187.322559438028
 31
0.0
  0
LINE
  5
43A
330
1D
100
AcDbEntity
  8
0
100
AcDbLine
 10
272.928
 20
192.5876
 30
0.0
 11
273.034
 21
192.0327
 31
0.0
  0
LINE
  5
43B
330
1D
100
AcDbEntity
  8
0
100
AcDbLine
 10
272.195
 20
194.932
 30
0.0
 11
272.558
 21
193.9776
 31
0.0
  0
LINE
  5
43C
330
1D
100
AcDbEntity
  8
0
100
AcDbLine
 10
272.562
 20
195.2147
 30
0.0
 11
273.23
 21
193.2426
 31
0.0
  0
LINE
  5
43D
330
1D
100
AcDbEntity
  8
0
100
AcDbLine
 10
272.558
 20
193.9776
 30
0.0
 11
272.838
 21
193.0084
 31
0.0
  0
LINE
  5
43E
330
1D
100
AcDbEntity
  8
0
100
AcDbLine
 10
272.838
 20
193.0084
 30
0.0
 11
272.928
 21
192.5876
 31
0.0
  0
LINE
  5
43F
330
1D
100
AcDbEntity
  8
0
100
AcDbLine
 10
271.727
 20
195.9023
 30
0.0
 11
272.195
 21
194.932
 31
0.0
  0
LINE
  5
440
330
1D
100
AcDbEntity
  8
0
100
AcDbLine
 10
271.579
 20
197.05
 30
0.0
 11
272.562
 21
195.2147
 31
0.0
  0
LINE
  5
441
330
1D
100
AcDbEntity
  8
0
100
AcDbLine
 10
271.458
 20
196.3661
 30
0.0
 11
271.727
 21
195.9023
 31
0.0
  0
LINE
  5
442
330
1D
100
AcDbEntity
  8
0
100
AcDbLine
 10
271.169
 20
196.8368
 30
0.0
 11
271.458
 21
196.3661
 31
0.0
  0
LINE
  5
443
330
1D
100
AcDbEntity
  8
0
100
AcDbLine
 10
268.78
 20
200.1144
 30
0.0
 11
270.306
 21
198.698
 31
0.0
  0
LINE
  5
444
330
1D
100
AcDbEntity
  8
0
100
AcDbLine
 10
268.443
 20
199.7775
 30
0.0
 11
269.223
 21
199.1209
 31
0.0
  0
LINE
  5
445
330
1D
100
AcDbEntity
  8
0
100
AcDbLine
 10
269.223
 20
199.1209
 30
0.0
 11
269.799
 21
198.5563
 31
0.0
  0
LINE
  5
446
330
1D
100
AcDbEntity
  8
0
100
AcDbLine
 10
267.869
 20
215.2877
 30
0.0
 11
270.734
 21
214.3206
 31
0.0
  0
LINE
  5
447
330
1D
100
AcDbEntity
  8
0
100
AcDbLine
 10
267.042
 20
201.2604
 30
0.0
 11
268.78
 21
200.1144
 31
0.0
  0
LINE
  5
448
330
1D
100
AcDbEntity
  8
0
100
AcDbLine
 10
267.607
 20
200.3691
 30
0.0
 11
268.443
 21
199.7775
 31
0.0
  0
LINE
  5
449
330
1D
100
AcDbEntity
  8
0
100
AcDbLine
 10
270.734
 20
214.3206
 30
0.0
 11
273.469
 21
213.0271
 31
0.0
  0
LINE
  5
44A
330
1D
100
AcDbEntity
  8
0
100
AcDbLine
 10
270.306
 20
198.698
 30
0.0
 11
271.579
 21
197.05
 31
0.0
  0
LINE
  5
44B
330
1D
100
AcDbEntity
  8
0
100
AcDbLine
 10
269.799
 20
198.5563
 30
0.0
 11
270.525
 21
197.7251
 31
0.0
  0
LINE
  5
44C
330
1D
100
AcDbEntity
  8
0
100
AcDbLine
 10
270.525
 20
197.7251
 30
0.0
 11
271.169
 21
196.8368
 31
0.0
  0
LINE
  5
44D
330
1D
100
AcDbEntity
  8
0
100
AcDbLine
 10
266.721
 20
200.8899
 30
0.0
 11
267.607
 21
200.3691
 31
0.0
  0
LINE
  5
44E
330
1D
100
AcDbEntity
  8
0
100
AcDbLine
 10
264.024
 20
188.09518
 30
0.0
 11
266.808
 21
187.58179
 31
0.0
  0
LINE
  5
44F
330
1D
100
AcDbEntity
  8
0
100
AcDbLine
 10
261.0
 20
188.28758
 30
0.0
 11
264.024
 21
188.09518
 31
0.0
  0
LINE
  5
450
330
1D
100
AcDbEntity
  8
0
100
AcDbLine
 10
273.0
 20
182.79789
 30
0.0
 11
273.0
 21
180.80033
 31
0.0
  0
LINE
  5
46E
330
1D
100
AcDbEntity
  8
0
100
AcDbLine
 10
273.01
 20
187.9822
 30
0.0
 11
273.106
 21
188.6419
 31
0.0
  0
LINE
  5
46F
330
1D
100
AcDbEntity
  8
0
100
AcDbLine
 10
273.106
 20
188.6419
 30
0.0
 11
273.162
 21
189.3075
 31
0.0
  0
LINE
  5
470
330
1D
100
AcDbEntity
  8
0
100
AcDbLine
 10
273.896
 20
167.628
 30
0.0
 11
273.95241071219
 21
167.670574122408
 31
0.0
  0
LINE
  5
471
330
1D
100
AcDbEntity
  8
0
100
AcDbLine
 10
273.800790070922
 20
167.589916028369
 30
0.0
 11
273.896
 21
167.628
 31
0.0
  0
LINE
  5
472
330
1D
100
AcDbEntity
  8
0
100
AcDbLine
 10
274.532
 20
167.9789
 30
0.0
 11
277.018
 21
169.7009
 31
0.0
  0
LINE
  5
473
330
1D
100
AcDbEntity
  8
0
100
AcDbLine
 10
273.205
 20
187.0525
 30
0.0
 11
273.556
 21
189.1053
 31
0.0
  0
LINE
  5
474
330
1D
100
AcDbEntity
  8
0
100
AcDbLine
 10
273.556
 20
189.1053
 30
0.0
 11
273.564
 21
191.1876
 31
0.0
  0
LINE
  5
475
330
1D
100
AcDbEntity
  8
0
100
AcDbLine
 10
273.179
 20
189.6906
 30
0.0
 11
273.182
 21
190.4302
 31
0.0
  0
LINE
  5
476
330
1D
100
AcDbEntity
  8
0
100
AcDbLine
 10
273.149
 20
191.0574
 30
0.0
 11
273.182
 21
190.4302
 31
0.0
  0
LINE
  5
477
330
1D
100
AcDbEntity
  8
0
100
AcDbLine
 10
273.162
 20
189.3075
 30
0.0
 11
273.179
 21
189.6906
 31
0.0
  0
LINE
  5
478
330
1D
100
AcDbEntity
  8
0
100
AcDbLine
 10
273.137203592648
 20
191.157443792091
 30
0.0
 11
273.149
 21
191.0574
 31
0.0
  0
LINE
  5
479
330
1D
100
AcDbEntity
  8
0
100
AcDbLine
 10
273.469
 20
213.0271
 30
0.0
 11
273.896499999999
 21
212.75995
 31
0.0
  0
LINE
  5
47A
330
1D
100
AcDbEntity
  8
0
100
AcDbLine
 10
273.469
 20
213.027
 30
0.0
 11
276.034
 21
211.4247
 31
0.0
  0
LINE
  5
47B
330
1D
100
AcDbEntity
  8
0
100
AcDbLine
 10
273.23
 20
193.2426
 30
0.0
 11
273.564
 21
191.1876
 31
0.0
  0
LINE
  5
47C
330
1D
100
AcDbEntity
  8
0
100
AcDbLine
 10
273.034
 20
192.0327
 30
0.0
 11
273.091582347263
 21
191.544351623605
 31
0.0
  0
LINE
  5
47D
330
1D
100
AcDbEntity
  8
0
100
AcDbLine
 10
279.408
 20
171.788
 30
0.0
 11
279.613607122076
 21
172.060429436751
 31
0.0
  0
LINE
  5
47E
330
1D
100
AcDbEntity
  8
0
100
AcDbLine
 10
279.28012702319
 20
171.691492092974
 30
0.0
 11
279.408
 21
171.788
 31
0.0
  0
LINE
  5
481
330
1D
100
AcDbEntity
  8
0
100
AcDbLine
 10
276.034
 20
211.4247
 30
0.0
 11
278.396
 21
209.5351
 31
0.0
  0
LINE
  5
482
330
1D
100
AcDbEntity
  8
0
100
AcDbLine
 10
278.396
 20
209.5351
 30
0.0
 11
280.523
 21
207.3841
 31
0.0
  0
LINE
  5
483
330
1D
100
AcDbEntity
  8
0
100
AcDbLine
 10
280.523
 20
207.3841
 30
0.0
 11
282.386
 21
205.0004
 31
0.0
  0
LINE
  5
484
330
1D
100
AcDbEntity
  8
0
100
AcDbLine
 10
282.386
 20
205.0004
 30
0.0
 11
283.959
 21
202.4171
 31
0.0
  0
LINE
  5
487
330
1D
100
AcDbEntity
  8
0
100
AcDbLine
 10
283.568
 20
203.092
 30
0.0
 11
283.606205899792
 21
202.996485250519
 31
0.0
  0
LINE
  5
488
330
1D
100
AcDbEntity
  8
0
100
AcDbLine
 10
283.464714121124
 20
203.22885378951
 30
0.0
 11
283.568
 21
203.092
 31
0.0
  0
LINE
  5
489
330
1D
100
AcDbEntity
  8
0
100
AcDbLine
 10
283.631600784595
 20
202.954779843074
 30
0.0
 11
283.959
 21
202.4174
 31
0.0
  0
LINE
  5
48A
330
1D
100
AcDbEntity
  8
0
100
AcDbLine
 10
283.959
 20
202.4174
 30
0.0
 11
285.222
 21
199.6685
 31
0.0
  0
LINE
  5
48B
330
1D
100
AcDbEntity
  8
0
100
AcDbLine
 10
285.222
 20
199.6685
 30
0.0
 11
286.158
 21
196.7916
 31
0.0
  0
LINE
  5
48C
330
1D
100
AcDbEntity
  8
0
100
AcDbLine
 10
286.158
 20
196.7916
 30
0.0
 11
286.753
 21
193.8253
 31
0.0
  0
LINE
  5
48D
330
1D
100
AcDbEntity
  8
0
100
AcDbLine
 10
286.982905983662
 20
190.317557449517
 30
0.0
 11
287.0
 21
190.196
 31
0.0
  0
LINE
  5
48E
330
1D
100
AcDbEntity
  8
0
100
AcDbLine
 10
286.971694823447
 20
189.99471874451
 30
0.0
 11
287.0
 21
190.196
 31
0.0
  0
LINE
  5
48F
330
1D
100
AcDbEntity
  8
0
100
AcDbLine
 10
286.753
 20
193.8253
 30
0.0
 11
287.0
 21
190.8098
 31
0.0
  0
LINE
  5
490
330
1D
100
AcDbEntity
  8
0
100
AcDbLine
 10
286.895
 20
187.7862
 30
0.0
 11
287.0
 21
190.8098
 31
0.0
  0
LINE
  5
491
330
1D
100
AcDbEntity
  8
0
100
AcDbLine
 10
286.441
 20
184.7953
 30
0.0
 11
286.895
 21
187.7862
 31
0.0
  0
LINE
  5
492
330
1D
100
AcDbEntity
  8
0
100
AcDbLine
 10
285.642
 20
181.8774
 30
0.0
 11
286.441
 21
184.7953
 31
0.0
  0
LINE
  5
493
330
1D
100
AcDbEntity
  8
0
100
AcDbLine
 10
284.51
 20
179.072
 30
0.0
 11
285.076
 21
180.474750000001
 31
0.0
  0
LINE
  5
494
330
1D
100
AcDbEntity
  8
0
100
AcDbLine
 10
283.06
 20
176.4174
 30
0.0
 11
284.51
 21
179.072
 31
0.0
  0
LINE
  5
495
330
1D
100
AcDbEntity
  8
0
100
AcDbLine
 10
277.018
 20
169.7009
 30
0.0
 11
279.289
 21
171.6993
 31
0.0
  0
LINE
  5
498
330
1D
100
AcDbEntity
  8
0
100
AcDbLine
 10
273.0
 20
180.80033
 30
0.0
 11
273.0
 21
169.014
 31
0.0
  0
LINE
  5
499
330
1D
100
AcDbEntity
  8
0
100
AcDbLine
 10
273.0
 20
180.80033
 30
0.0
 11
273.0
 21
182.79789
 31
0.0
  0
LINE
  5
88F
330
1D
100
AcDbEntity
  8
0
100
AcDbLine
 10
150.861
 20
123.196
 30
0.0
 11
155.291
 21
123.3439
 31
0.0
  0
LINE
  5
890
330
1D
100
AcDbEntity
  8
0
100
AcDbLine
 10
147.423
 20
212.8701
 30
0.0
 11
152.561
 21
212.9154
 31
0.0
  0
LINE
  5
891
330
1D
100
AcDbEntity
  8
0
100
AcDbLine
 10
150.115
 20
225.827
 30
0.0
 11
153.44
 21
225.747
 31
0.0
  0
LINE
  5
892
330
1D
100
AcDbEntity
  8
0
100
AcDbLine
 10
26.5294
 20
132.4761
 30
0.0
 11
26.5296
 21
118.1861
 31
0.0
  0
LINE
  5
893
330
1D
100
AcDbEntity
  8
0
100
AcDbLine
 10
55.5291
 20
118.1849
 30
0.0
 11
55.5294
 21
132.477
 31
0.0
  0
LINE
  5
894
330
1D
100
AcDbEntity
  8
0
100
AcDbLine
 10
27.6644
 20
74.971
 30
0.0
 11
29.8919
 21
72.198
 31
0.0
  0
LINE
  5
895
330
1D
100
AcDbEntity
  8
0
100
AcDbLine
 10
39.3976
 20
74.454
 30
0.0
 11
45.8495
 21
75.011
 31
0.0
  0
LINE
  5
896
330
1D
100
AcDbEntity
  8
0
100
AcDbLine
 10
52.7493
 20
72.764
 30
0.0
 11
54.459
 21
75.101
 31
0.0
  0
LINE
  5
897
330
1D
100
AcDbEntity
  8
0
100
AcDbLine
 10
33.2679
 20
76.096
 30
0.0
 11
39.3976
 21
74.454
 31
0.0
  0
LINE
  5
898
330
1D
100
AcDbEntity
  8
0
100
AcDbLine
 10
30.542
 20
71.725
 30
0.0
 11
33.0753
 21
70.028
 31
0.0
  0
LINE
  5
899
330
1D
100
AcDbEntity
  8
0
100
AcDbLine
 10
29.8919
 20
72.198
 30
0.0
 11
30.542
 21
71.725
 31
0.0
  0
LINE
  5
89A
330
1D
100
AcDbEntity
  8
0
100
AcDbLine
 10
33.0753
 20
70.028
 30
0.0
 11
37.3696
 21
68.477
 31
0.0
  0
LINE
  5
89B
330
1D
100
AcDbEntity
  8
0
100
AcDbLine
 10
42.4128
 20
68.196
 30
0.0
 11
45.4916
 21
68.764
 31
0.0
  0
LINE
  5
89C
330
1D
100
AcDbEntity
  8
0
100
AcDbLine
 10
45.4916
 20
68.764
 30
0.0
 11
47.9591
 21
69.504
 31
0.0
  0
LINE
  5
89D
330
1D
100
AcDbEntity
  8
0
100
AcDbLine
 10
41.0342
 20
68.214
 30
0.0
 11
42.4128
 21
68.196
 31
0.0
  0
LINE
  5
89E
330
1D
100
AcDbEntity
  8
0
100
AcDbLine
 10
37.3696
 20
68.477
 30
0.0
 11
41.0342
 21
68.214
 31
0.0
  0
LINE
  5
89F
330
1D
100
AcDbEntity
  8
0
100
AcDbLine
 10
47.9591
 20
69.504
 30
0.0
 11
51.1639
 21
71.356
 31
0.0
  0
LINE
  5
8A0
330
1D
100
AcDbEntity
  8
0
100
AcDbLine
 10
51.1639
 20
71.356
 30
0.0
 11
52.7493
 21
72.764
 31
0.0
  0
LINE
  5
8A1
330
1D
100
AcDbEntity
  8
0
100
AcDbLine
 10
26.7185
 20
77.602
 30
0.0
 11
27.6644
 21
74.971
 31
0.0
  0
LINE
  5
8A2
330
1D
100
AcDbEntity
  8
0
100
AcDbLine
 10
26.5567
 20
80.243
 30
0.0
 11
26.579355741832
 21
84.190118614356
 31
0.0
  0
LINE
  5
8A3
330
1D
100
AcDbEntity
  8
0
100
AcDbLine
 10
26.5567
 20
80.243
 30
0.0
 11
26.7185
 21
77.602
 31
0.0
  0
LINE
  5
8A4
330
1D
100
AcDbEntity
  8
0
100
AcDbLine
 10
29.6929
 20
78.634
 30
0.0
 11
33.2679
 21
76.096
 31
0.0
  0
LINE
  5
8A5
330
1D
100
AcDbEntity
  8
0
100
AcDbLine
 10
45.8495
 20
75.011
 30
0.0
 11
51.735476364614
 21
77.657
 31
0.0
  0
LINE
  5
8A6
330
1D
100
AcDbEntity
  8
0
100
AcDbLine
 10
54.459
 20
75.101
 30
0.0
 11
54.9631
 21
76.41
 31
0.0
  0
LINE
  5
8A7
330
1D
100
AcDbEntity
  8
0
100
AcDbLine
 10
54.9631
 20
76.41
 30
0.0
 11
55.5056
 21
78.888
 31
0.0
  0
LINE
  5
8A8
330
1D
100
AcDbEntity
  8
0
100
AcDbLine
 10
54.0934
 20
80.74
 30
0.0
 11
55.5271
 21
84.309
 31
0.0
  0
LINE
  5
8A9
330
1D
100
AcDbEntity
  8
0
100
AcDbLine
 10
26.5296
 20
118.1861
 30
0.0
 11
26.5316
 21
84.309
 31
0.0
  0
LINE
  5
8AA
330
1D
100
AcDbEntity
  8
0
100
AcDbLine
 10
55.454392984699
 20
84.128005832735
 30
0.0
 11
55.5056
 21
78.888
 31
0.0
  0
LINE
  5
8AB
330
1D
100
AcDbEntity
  8
0
100
AcDbLine
 10
55.5271
 20
84.309
 30
0.0
 11
55.5291
 21
118.1849
 31
0.0
  0
LINE
  5
8AC
330
1D
100
AcDbEntity
  8
0
100
AcDbLine
 10
26.5316
 20
84.309
 30
0.0
 11
27.9653
 21
80.74
 31
0.0
  0
LINE
  5
8AD
330
1D
100
AcDbEntity
  8
0
100
AcDbLine
 10
27.9653
 20
80.74
 30
0.0
 11
29.6929
 21
78.634
 31
0.0
  0
LINE
  5
8AE
330
1D
100
AcDbEntity
  8
0
100
AcDbLine
 10
51.637240475
 20
77.53238316644
 30
0.0
 11
53.8434
 21
80.331
 31
0.0
  0
LINE
  5
8AF
330
1D
100
AcDbEntity
  8
0
100
AcDbLine
 10
53.8434
 20
80.331
 30
0.0
 11
54.0934
 21
80.74
 31
0.0
  0
LINE
  5
8B0
330
1D
100
AcDbEntity
  8
0
100
AcDbLine
 10
62.0575
 20
162.1519
 30
0.0
 11
65.7545
 21
165.5276
 31
0.0
  0
LINE
  5
8B1
330
1D
100
AcDbEntity
  8
0
100
AcDbLine
 10
63.3248
 20
181.379
 30
0.0
 11
63.805
 21
182.745
 31
0.0
  0
LINE
  5
8B2
330
1D
100
AcDbEntity
  8
0
100
AcDbLine
 10
61.8107
 20
202.356
 30
0.0
 11
63.6088
 21
198.398
 31
0.0
  0
LINE
  5
8B3
330
1D
100
AcDbEntity
  8
0
100
AcDbLine
 10
62.0286
 20
218.313
 30
0.0
 11
64.5589
 21
216.137
 31
0.0
  0
LINE
  5
8B4
330
1D
100
AcDbEntity
  8
0
100
AcDbLine
 10
9.609
 20
205.533
 30
0.0
 11
10.2796
 21
207.062
 31
0.0
  0
LINE
  5
8B5
330
1D
100
AcDbEntity
  8
0
100
AcDbLine
 10
22.6221
 20
205.717
 30
0.0
 11
24.3563
 21
207.504
 31
0.0
  0
LINE
  5
8B6
330
1D
100
AcDbEntity
  8
0
100
AcDbLine
 10
58.3121
 20
206.978
 30
0.0
 11
60.1548
 21
204.736
 31
0.0
  0
LINE
  5
8B7
330
1D
100
AcDbEntity
  8
0
100
AcDbLine
 10
19.6475
 20
179.493
 30
0.0
 11
21.0751
 21
176.977
 31
0.0
  0
LINE
  5
8B8
330
1D
100
AcDbEntity
  8
0
100
AcDbLine
 10
17.5004
 20
164.3877
 30
0.0
 11
20.0272
 21
162.2154
 31
0.0
  0
LINE
  5
8B9
330
1D
100
AcDbEntity
  8
0
100
AcDbLine
 10
18.7589
 20
199.135
 30
0.0
 11
20.0187
 21
201.74
 31
0.0
  0
LINE
  5
8BC
330
1D
100
AcDbEntity
  8
0
100
AcDbLine
 10
6.4737
 20
184.463
 30
0.0
 11
7.537148643434
 21
180.48932975141
 31
0.0
  0
LINE
  5
8BD
330
1D
100
AcDbEntity
  8
0
100
AcDbLine
 10
6.4737
 20
184.463
 30
0.0
 11
7.537148643434
 21
180.48932975141
 31
0.0
  0
LINE
  5
8BE
330
1D
100
AcDbEntity
  8
0
100
AcDbLine
 10
17.3111
 20
186.32
 30
0.0
 11
18.0146
 21
183.513
 31
0.0
  0
LINE
  5
8C5
330
1D
100
AcDbEntity
  8
0
100
AcDbLine
 10
8.198
 20
178.02
 30
0.0
 11
9.5688
 21
174.986
 31
0.0
  0
LINE
  5
8C6
330
1D
100
AcDbEntity
  8
0
100
AcDbLine
 10
9.5688
 20
174.986
 30
0.0
 11
11.1053
 21
172.034
 31
0.0
  0
LINE
  5
8C7
330
1D
100
AcDbEntity
  8
0
100
AcDbLine
 10
11.1053
 20
172.034
 30
0.0
 11
13.0295
 21
169.308
 31
0.0
  0
LINE
  5
8C8
330
1D
100
AcDbEntity
  8
0
100
AcDbLine
 10
13.0295
 20
169.308
 30
0.0
 11
15.1008
 21
166.6942
 31
0.0
  0
LINE
  5
8C9
330
1D
100
AcDbEntity
  8
0
100
AcDbLine
 10
15.1008
 20
166.6942
 30
0.0
 11
17.5004
 21
164.3877
 31
0.0
  0
LINE
  5
8CA
330
1D
100
AcDbEntity
  8
0
100
AcDbLine
 10
18.0146
 20
183.513
 30
0.0
 11
19.6475
 21
179.493
 31
0.0
  0
LINE
  5
8CB
330
1D
100
AcDbEntity
  8
0
100
AcDbLine
 10
7.537148643434
 20
180.48932975141
 30
0.0
 11
8.198
 21
178.02
 31
0.0
  0
LINE
  5
8CC
330
1D
100
AcDbEntity
  8
0
100
AcDbLine
 10
7.7193
 20
200.921
 30
0.0
 11
9.609
 21
205.533
 31
0.0
  0
LINE
  5
8CE
330
1D
100
AcDbEntity
  8
0
100
AcDbLine
 10
6.3035
 20
194.416
 30
0.0
 11
7.123
 21
199.359
 31
0.0
  0
LINE
  5
920
330
1D
100
AcDbEntity
  8
0
100
AcDbLine
 10
6.0
 20
191.102
 30
0.0
 11
6.3035
 21
194.416
 31
0.0
  0
LINE
  5
921
330
1D
100
AcDbEntity
  8
0
100
AcDbLine
 10
6.180409489019
 20
188.573525020905
 30
0.0
 11
6.4737
 21
184.463
 31
0.0
  0
LINE
  5
922
330
1D
100
AcDbEntity
  8
0
100
AcDbLine
 10
6.0
 20
191.102
 30
0.0
 11
6.180409489019
 21
188.573525020905
 31
0.0
  0
LINE
  5
931
330
1D
100
AcDbEntity
  8
0
100
AcDbLine
 10
7.123
 20
199.359
 30
0.0
 11
7.7193
 21
200.921
 31
0.0
  0
LINE
  5
932
330
1D
100
AcDbEntity
  8
0
100
AcDbLine
 10
17.2181
 20
187.774
 30
0.0
 11
17.3111
 21
186.32
 31
0.0
  0
LINE
  5
933
330
1D
100
AcDbEntity
  8
0
100
AcDbLine
 10
17.0605
 20
190.664
 30
0.0
 11
17.283
 21
193.547
 31
0.0
  0
LINE
  5
934
330
1D
100
AcDbEntity
  8
0
100
AcDbLine
 10
17.0605
 20
190.664
 30
0.0
 11
17.2181
 21
187.774
 31
0.0
  0
LINE
  5
935
330
1D
100
AcDbEntity
  8
0
100
AcDbLine
 10
17.283
 20
193.547
 30
0.0
 11
17.8829
 21
196.379
 31
0.0
  0
LINE
  5
936
330
1D
100
AcDbEntity
  8
0
100
AcDbLine
 10
17.8829
 20
196.379
 30
0.0
 11
18.7589
 21
199.135
 31
0.0
  0
LINE
  5
937
330
1D
100
AcDbEntity
  8
0
100
AcDbLine
 10
55.5294
 20
161.3729
 30
0.0
 11
55.5294
 21
178.006
 31
0.0
  0
LINE
  5
938
330
1D
100
AcDbEntity
  8
0
100
AcDbLine
 10
26.5293
 20
174.347
 30
0.0
 11
26.5294
 21
151.904
 31
0.0
  0
LINE
  5
939
330
1D
100
AcDbEntity
  8
0
100
AcDbLine
 10
55.5294
 20
178.006
 30
0.0
 11
55.5294
 21
161.3729
 31
0.0
  0
LINE
  5
93A
330
1D
100
AcDbEntity
  8
0
100
AcDbLine
 10
26.5294
 20
132.4761
 30
0.0
 11
26.5294
 21
151.904
 31
0.0
  0
LINE
  5
93B
330
1D
100
AcDbEntity
  8
0
100
AcDbLine
 10
55.5294
 20
132.477
 30
0.0
 11
55.5294
 21
146.9674
 31
0.0
  0
LINE
  5
93C
330
1D
100
AcDbEntity
  8
0
100
AcDbLine
 10
55.5294
 20
146.9674
 30
0.0
 11
55.5294
 21
161.3729
 31
0.0
  0
LINE
  5
93D
330
1D
100
AcDbEntity
  8
0
100
AcDbLine
 10
55.5294
 20
146.9674
 30
0.0
 11
55.5294
 21
132.477
 31
0.0
  0
LINE
  5
93E
330
1D
100
AcDbEntity
  8
0
100
AcDbLine
 10
26.5294
 20
151.904
 30
0.0
 11
26.5294
 21
132.4761
 31
0.0
  0
LINE
  5
93F
330
1D
100
AcDbEntity
  8
0
100
AcDbLine
 10
55.5294
 20
161.3729
 30
0.0
 11
55.5294
 21
146.9674
 31
0.0
  0
LINE
  5
940
330
1D
100
AcDbEntity
  8
0
100
AcDbLine
 10
56.2874
 20
158.8369
 30
0.0
 11
60.6249
 21
161.2946
 31
0.0
  0
LINE
  5
941
330
1D
100
AcDbEntity
  8
0
100
AcDbLine
 10
55.5294
 20
158.465580466064
 30
0.0
 11
56.2874
 21
158.8369
 31
0.0
  0
LINE
  5
942
330
1D
100
AcDbEntity
  8
0
100
AcDbLine
 10
60.6249
 20
161.2946
 30
0.0
 11
62.0575
 21
162.1519
 31
0.0
  0
LINE
  5
943
330
1D
100
AcDbEntity
  8
0
100
AcDbLine
 10
22.8207
 20
160.403
 30
0.0
 11
26.529371211345
 21
158.365037897922
 31
0.0
  0
LINE
  5
944
330
1D
100
AcDbEntity
  8
0
100
AcDbLine
 10
20.0272
 20
162.2154
 30
0.0
 11
22.8207
 21
160.403
 31
0.0
  0
LINE
  5
945
330
1D
100
AcDbEntity
  8
0
100
AcDbLine
 10
41.5121
 20
204.759
 30
0.0
 11
41.795338672198
 21
204.735070176045
 31
0.0
  0
LINE
  5
946
330
1D
100
AcDbEntity
  8
0
100
AcDbLine
 10
26.5293
 20
174.347
 30
0.0
 11
26.5293
 21
188.352
 31
0.0
  0
LINE
  5
947
330
1D
100
AcDbEntity
  8
0
100
AcDbLine
 10
26.5293
 20
188.352
 30
0.0
 11
26.5293
 21
174.347
 31
0.0
  0
LINE
  5
948
330
1D
100
AcDbEntity
  8
0
100
AcDbLine
 10
25.8887
 20
171.585
 30
0.0
 11
26.529314260513
 21
171.146512985257
 31
0.0
  0
LINE
  5
949
330
1D
100
AcDbEntity
  8
0
100
AcDbLine
 10
23.7906
 20
173.588
 30
0.0
 11
25.8887
 21
171.585
 31
0.0
  0
LINE
  5
94A
330
1D
100
AcDbEntity
  8
0
100
AcDbLine
 10
21.0751
 20
176.977
 30
0.0
 11
23.7906
 21
173.588
 31
0.0
  0
LINE
  5
94B
330
1D
100
AcDbEntity
  8
0
100
AcDbLine
 10
26.5293
 20
188.352
 30
0.0
 11
26.5294
 21
190.263
 31
0.0
  0
LINE
  5
94C
330
1D
100
AcDbEntity
  8
0
100
AcDbLine
 10
26.8929
 20
193.489
 30
0.0
 11
27.9653
 21
196.554
 31
0.0
  0
LINE
  5
94D
330
1D
100
AcDbEntity
  8
0
100
AcDbLine
 10
26.8929
 20
193.489
 30
0.0
 11
27.9653
 21
196.554
 31
0.0
  0
LINE
  5
94E
330
1D
100
AcDbEntity
  8
0
100
AcDbLine
 10
26.5294
 20
190.263
 30
0.0
 11
26.8929
 21
193.489
 31
0.0
  0
LINE
  5
94F
330
1D
100
AcDbEntity
  8
0
100
AcDbLine
 10
26.5294
 20
190.263
 30
0.0
 11
26.8929
 21
193.489
 31
0.0
  0
LINE
  5
950
330
1D
100
AcDbEntity
  8
0
100
AcDbLine
 10
27.9653
 20
196.554
 30
0.0
 11
29.6929
 21
199.304
 31
0.0
  0
LINE
  5
951
330
1D
100
AcDbEntity
  8
0
100
AcDbLine
 10
27.9653
 20
196.554
 30
0.0
 11
29.6929
 21
199.304
 31
0.0
  0
LINE
  5
952
330
1D
100
AcDbEntity
  8
0
100
AcDbLine
 10
29.6929
 20
199.304
 30
0.0
 11
31.9889
 21
201.599
 31
0.0
  0
LINE
  5
953
330
1D
100
AcDbEntity
  8
0
100
AcDbLine
 10
20.0187
 20
201.74
 30
0.0
 11
21.5306
 21
204.208
 31
0.0
  0
LINE
  5
954
330
1D
100
AcDbEntity
  8
0
100
AcDbLine
 10
31.9889
 20
201.599
 30
0.0
 11
34.738
 21
203.327
 31
0.0
  0
LINE
  5
955
330
1D
100
AcDbEntity
  8
0
100
AcDbLine
 10
34.738
 20
203.327
 30
0.0
 11
37.8028
 21
204.399
 31
0.0
  0
LINE
  5
956
330
1D
100
AcDbEntity
  8
0
100
AcDbLine
 10
37.8028
 20
204.399
 30
0.0
 11
38.2794
 21
204.5
 31
0.0
  0
LINE
  5
957
330
1D
100
AcDbEntity
  8
0
100
AcDbLine
 10
21.5306
 20
204.208
 30
0.0
 11
22.6221
 21
205.717
 31
0.0
  0
LINE
  5
958
330
1D
100
AcDbEntity
  8
0
100
AcDbLine
 10
38.3969
 20
204.522
 30
0.0
 11
38.7383
 21
204.581
 31
0.0
  0
LINE
  5
959
330
1D
100
AcDbEntity
  8
0
100
AcDbLine
 10
38.2794
 20
204.5
 30
0.0
 11
38.3969
 21
204.522
 31
0.0
  0
LINE
  5
95A
330
1D
100
AcDbEntity
  8
0
100
AcDbLine
 10
39.9873
 20
204.725
 30
0.0
 11
41.0294
 21
204.763
 31
0.0
  0
LINE
  5
95B
330
1D
100
AcDbEntity
  8
0
100
AcDbLine
 10
41.0294
 20
204.763
 30
0.0
 11
41.5121
 21
204.759
 31
0.0
  0
LINE
  5
95C
330
1D
100
AcDbEntity
  8
0
100
AcDbLine
 10
38.7383
 20
204.581
 30
0.0
 11
39.9873
 21
204.725
 31
0.0
  0
LINE
  5
95D
330
1D
100
AcDbEntity
  8
0
100
AcDbLine
 10
55.5294
 20
171.232067338686
 30
0.0
 11
57.7444
 21
172.98
 31
0.0
  0
LINE
  5
95E
330
1D
100
AcDbEntity
  8
0
100
AcDbLine
 10
57.7444
 20
172.98
 30
0.0
 11
61.3963
 21
177.485
 31
0.0
  0
LINE
  5
95F
330
1D
100
AcDbEntity
  8
0
100
AcDbLine
 10
61.3963
 20
177.485
 30
0.0
 11
63.3248
 21
181.379
 31
0.0
  0
LINE
  5
960
330
1D
100
AcDbEntity
  8
0
100
AcDbLine
 10
55.5294
 20
178.006
 30
0.0
 11
55.5294
 21
188.901
 31
0.0
  0
LINE
  5
961
330
1D
100
AcDbEntity
  8
0
100
AcDbLine
 10
55.5294
 20
190.263
 30
0.0
 11
55.5294
 21
188.901
 31
0.0
  0
LINE
  5
962
330
1D
100
AcDbEntity
  8
0
100
AcDbLine
 10
55.1659
 20
193.489
 30
0.0
 11
55.5294
 21
190.263
 31
0.0
  0
LINE
  5
963
330
1D
100
AcDbEntity
  8
0
100
AcDbLine
 10
55.5294
 20
188.901
 30
0.0
 11
55.5294
 21
190.263
 31
0.0
  0
LINE
  5
964
330
1D
100
AcDbEntity
  8
0
100
AcDbLine
 10
55.5294
 20
188.901
 30
0.0
 11
55.5294
 21
178.006
 31
0.0
  0
LINE
  5
965
330
1D
100
AcDbEntity
  8
0
100
AcDbLine
 10
54.0934
 20
196.554
 30
0.0
 11
55.1659
 21
193.489
 31
0.0
  0
LINE
  5
966
330
1D
100
AcDbEntity
  8
0
100
AcDbLine
 10
52.3659
 20
199.304
 30
0.0
 11
54.0934
 21
196.554
 31
0.0
  0
LINE
  5
967
330
1D
100
AcDbEntity
  8
0
100
AcDbLine
 10
50.0701
 20
201.599
 30
0.0
 11
52.3659
 21
199.304
 31
0.0
  0
LINE
  5
968
330
1D
100
AcDbEntity
  8
0
100
AcDbLine
 10
47.3208
 20
203.327
 30
0.0
 11
50.0701
 21
201.599
 31
0.0
  0
LINE
  5
969
330
1D
100
AcDbEntity
  8
0
100
AcDbLine
 10
43.6619
 20
204.522
 30
0.0
 11
43.7794
 21
204.5
 31
0.0
  0
LINE
  5
96A
330
1D
100
AcDbEntity
  8
0
100
AcDbLine
 10
43.3205
 20
204.581
 30
0.0
 11
43.6619
 21
204.522
 31
0.0
  0
LINE
  5
96B
330
1D
100
AcDbEntity
  8
0
100
AcDbLine
 10
43.7794
 20
204.5
 30
0.0
 11
44.2559
 21
204.399
 31
0.0
  0
LINE
  5
96C
330
1D
100
AcDbEntity
  8
0
100
AcDbLine
 10
44.2559
 20
204.399
 30
0.0
 11
47.3208
 21
203.327
 31
0.0
  0
LINE
  5
96D
330
1D
100
AcDbEntity
  8
0
100
AcDbLine
 10
60.1548
 20
204.736
 30
0.0
 11
61.8107
 21
202.356
 31
0.0
  0
LINE
  5
96E
330
1D
100
AcDbEntity
  8
0
100
AcDbLine
 10
41.795338672198
 20
204.735070176045
 30
0.0
 11
43.3205
 21
204.581
 31
0.0
  0
LINE
  5
96F
330
1D
100
AcDbEntity
  8
0
100
AcDbLine
 10
18.7261
 20
217.287
 30
0.0
 11
24.2369
 21
221.017
 31
0.0
  0
LINE
  5
970
330
1D
100
AcDbEntity
  8
0
100
AcDbLine
 10
10.2796
 20
207.062
 30
0.0
 11
12.072
 21
209.875
 31
0.0
  0
LINE
  5
971
330
1D
100
AcDbEntity
  8
0
100
AcDbLine
 10
12.072
 20
209.875
 30
0.0
 11
14.0145
 21
212.578
 31
0.0
  0
LINE
  5
972
330
1D
100
AcDbEntity
  8
0
100
AcDbLine
 10
15.813823888894
 20
214.376330968843
 30
0.0
 11
18.7261
 21
217.287
 31
0.0
  0
LINE
  5
973
330
1D
100
AcDbEntity
  8
0
100
AcDbLine
 10
41.0296
 20
214.263
 30
0.0
 11
41.8347
 21
214.249
 31
0.0
  0
LINE
  5
974
330
1D
100
AcDbEntity
  8
0
100
AcDbLine
 10
40.2086
 20
225.293
 30
0.0
 11
43.534
 21
225.146
 31
0.0
  0
LINE
  5
975
330
1D
100
AcDbEntity
  8
0
100
AcDbLine
 10
28.9338
 20
211.042
 30
0.0
 11
31.709532107337
 21
212.239474020285
 31
0.0
  0
LINE
  5
976
330
1D
100
AcDbEntity
  8
0
100
AcDbLine
 10
28.8291
 20
222.997
 30
0.0
 11
31.9529
 21
224.174
 31
0.0
  0
LINE
  5
977
330
1D
100
AcDbEntity
  8
0
100
AcDbLine
 10
24.3563
 20
207.504
 30
0.0
 11
25.416
 21
208.49
 31
0.0
  0
LINE
  5
978
330
1D
100
AcDbEntity
  8
0
100
AcDbLine
 10
25.416
 20
208.49
 30
0.0
 11
28.9338
 21
211.042
 31
0.0
  0
LINE
  5
979
330
1D
100
AcDbEntity
  8
0
100
AcDbLine
 10
24.2369
 20
221.017
 30
0.0
 11
26.146665208306
 21
221.798380088468
 31
0.0
  0
LINE
  5
97B
330
1D
100
AcDbEntity
  8
0
100
AcDbLine
 10
24.2369
 20
221.017
 30
0.0
 11
26.146665208306
 21
221.798380088468
 31
0.0
  0
LINE
  5
97D
330
1D
100
AcDbEntity
  8
0
100
AcDbLine
 10
32.9147
 20
212.787
 30
0.0
 11
37.1024
 21
213.923
 31
0.0
  0
LINE
  5
97E
330
1D
100
AcDbEntity
  8
0
100
AcDbLine
 10
37.1024
 20
213.923
 30
0.0
 11
38.0344
 21
214.075
 31
0.0
  0
LINE
  5
97F
330
1D
100
AcDbEntity
  8
0
100
AcDbLine
 10
38.8561
 20
214.165
 30
0.0
 11
39.4841
 21
214.213
 31
0.0
  0
LINE
  5
980
330
1D
100
AcDbEntity
  8
0
100
AcDbLine
 10
39.4841
 20
214.213
 30
0.0
 11
40.224
 21
214.249
 31
0.0
  0
LINE
  5
981
330
1D
100
AcDbEntity
  8
0
100
AcDbLine
 10
40.224
 20
214.249
 30
0.0
 11
41.0296
 21
214.263
 31
0.0
  0
LINE
  5
982
330
1D
100
AcDbEntity
  8
0
100
AcDbLine
 10
40.232
 20
214.252
 30
0.0
 11
40.334904865588
 21
214.250927343742
 31
0.0
  0
LINE
  5
983
330
1D
100
AcDbEntity
  8
0
100
AcDbLine
 10
40.102352813276
 20
214.24308122892
 30
0.0
 11
40.232
 21
214.252
 31
0.0
  0
LINE
  5
984
330
1D
100
AcDbEntity
  8
0
100
AcDbLine
 10
38.0344
 20
214.075
 30
0.0
 11
38.0934
 21
214.083
 31
0.0
  0
LINE
  5
985
330
1D
100
AcDbEntity
  8
0
100
AcDbLine
 10
38.0344
 20
214.075
 30
0.0
 11
38.094003680534
 21
214.082291348023
 31
0.0
  0
LINE
  5
986
330
1D
100
AcDbEntity
  8
0
100
AcDbLine
 10
33.6011
 20
224.438
 30
0.0
 11
38.5442
 21
225.109
 31
0.0
  0
LINE
  5
987
330
1D
100
AcDbEntity
  8
0
100
AcDbLine
 10
38.5442
 20
225.109
 30
0.0
 11
40.2086
 21
225.293
 31
0.0
  0
LINE
  5
988
330
1D
100
AcDbEntity
  8
0
100
AcDbLine
 10
31.9529
 20
224.174
 30
0.0
 11
33.6011
 21
224.438
 31
0.0
  0
LINE
  5
989
330
1D
100
AcDbEntity
  8
0
100
AcDbLine
 10
38.094003680534
 20
214.082291348023
 30
0.0
 11
38.8561
 21
214.165
 31
0.0
  0
LINE
  5
98A
330
1D
100
AcDbEntity
  8
0
100
AcDbLine
 10
52.737157035267
 20
211.103201608705
 30
0.0
 11
53.8078
 21
210.629
 31
0.0
  0
LINE
  5
98B
330
1D
100
AcDbEntity
  8
0
100
AcDbLine
 10
53.8078
 20
210.629
 30
0.0
 11
56.052171114279
 21
208.80980524427
 31
0.0
  0
LINE
  5
98C
330
1D
100
AcDbEntity
  8
0
100
AcDbLine
 10
53.8078
 20
210.629
 30
0.0
 11
56.052171114279
 21
208.80980524427
 31
0.0
  0
LINE
  5
98D
330
1D
100
AcDbEntity
  8
0
100
AcDbLine
 10
47.3799
 20
213.476
 30
0.0
 11
49.902
 21
212.533
 31
0.0
  0
LINE
  5
98E
330
1D
100
AcDbEntity
  8
0
100
AcDbLine
 10
44.0243
 20
214.075
 30
0.0
 11
47.3799
 21
213.476
 31
0.0
  0
LINE
  5
98F
330
1D
100
AcDbEntity
  8
0
100
AcDbLine
 10
41.8347
 20
214.249
 30
0.0
 11
42.5405
 21
214.215
 31
0.0
  0
LINE
  5
990
330
1D
100
AcDbEntity
  8
0
100
AcDbLine
 10
59.2409
 20
220.121
 30
0.0
 11
62.0286
 21
218.313
 31
0.0
  0
LINE
  5
991
330
1D
100
AcDbEntity
  8
0
100
AcDbLine
 10
56.346
 20
221.778
 30
0.0
 11
59.2409
 21
220.121
 31
0.0
  0
LINE
  5
992
330
1D
100
AcDbEntity
  8
0
100
AcDbLine
 10
53.2585
 20
223.029
 30
0.0
 11
56.346
 21
221.778
 31
0.0
  0
LINE
  5
993
330
1D
100
AcDbEntity
  8
0
100
AcDbLine
 10
48.5001
 20
224.564
 30
0.0
 11
53.2585
 21
223.029
 31
0.0
  0
LINE
  5
994
330
1D
100
AcDbEntity
  8
0
100
AcDbLine
 10
43.534
 20
225.146
 30
0.0
 11
48.5001
 21
224.564
 31
0.0
  0
LINE
  5
995
330
1D
100
AcDbEntity
  8
0
100
AcDbLine
 10
56.052171114279
 20
208.80980524427
 30
0.0
 11
58.3121
 21
206.978
 31
0.0
  0
LINE
  5
996
330
1D
100
AcDbEntity
  8
0
100
AcDbLine
 10
52.737157035267
 20
211.103201608705
 30
0.0
 11
49.902
 21
212.533
 31
0.0
  0
LINE
  5
997
330
1D
100
AcDbEntity
  8
0
100
AcDbLine
 10
42.5405
 20
214.215
 30
0.0
 11
44.0243
 21
214.075
 31
0.0
  0
LINE
  5
998
330
1D
100
AcDbEntity
  8
0
100
AcDbLine
 10
118.8143
 20
204.6515
 30
0.0
 11
120.2684
 21
207.6429
 31
0.0
  0
LINE
  5
999
330
1D
100
AcDbEntity
  8
0
100
AcDbLine
 10
129.8612
 20
205.8737
 30
0.0
 11
130.4572
 21
206.8519
 31
0.0
  0
LINE
  5
99A
330
1D
100
AcDbEntity
  8
0
100
AcDbLine
 10
70.9532
 20
208.492
 30
0.0
 11
72.4901
 21
205.539
 31
0.0
  0
LINE
  5
99B
330
1D
100
AcDbEntity
  8
0
100
AcDbLine
 10
63.805
 20
182.745
 30
0.0
 11
64.6033
 21
185.535
 31
0.0
  0
LINE
  5
99E
330
1D
100
AcDbEntity
  8
0
100
AcDbLine
 10
75.2016
 20
182.821
 30
0.0
 11
75.8207
 21
186.1
 31
0.0
  0
LINE
  5
99F
330
1D
100
AcDbEntity
  8
0
100
AcDbLine
 10
65.7545
 20
165.5276
 30
0.0
 11
69.124
 21
169.213
 31
0.0
  0
LINE
  5
9A0
330
1D
100
AcDbEntity
  8
0
100
AcDbLine
 10
69.9873
 20
170.651
 30
0.0
 11
73.1772
 21
176.49
 31
0.0
  0
LINE
  5
9A1
330
1D
100
AcDbEntity
  8
0
100
AcDbLine
 10
69.124
 20
169.213
 30
0.0
 11
69.9873
 21
170.651
 31
0.0
  0
LINE
  5
9A2
330
1D
100
AcDbEntity
  8
0
100
AcDbLine
 10
73.1772
 20
176.49
 30
0.0
 11
73.9178
 21
177.985
 31
0.0
  0
LINE
  5
9A3
330
1D
100
AcDbEntity
  8
0
100
AcDbLine
 10
73.9178
 20
177.985
 30
0.0
 11
75.2016
 21
182.821
 31
0.0
  0
LINE
  5
9AA
330
1D
100
AcDbEntity
  8
0
100
AcDbLine
 10
72.4901
 20
205.539
 30
0.0
 11
74.4675
 21
200.952
 31
0.0
  0
LINE
  5
9AB
330
1D
100
AcDbEntity
  8
0
100
AcDbLine
 10
64.6033
 20
185.535
 30
0.0
 11
65.026
 21
189.863
 31
0.0
  0
LINE
  5
9AC
330
1D
100
AcDbEntity
  8
0
100
AcDbLine
 10
64.9907
 20
191.31
 30
0.0
 11
65.026
 21
189.863
 31
0.0
  0
LINE
  5
9AD
330
1D
100
AcDbEntity
  8
0
100
AcDbLine
 10
64.748
 20
194.203
 30
0.0
 11
64.9907
 21
191.31
 31
0.0
  0
LINE
  5
9AE
330
1D
100
AcDbEntity
  8
0
100
AcDbLine
 10
64.0437
 20
197.015
 30
0.0
 11
64.748
 21
194.203
 31
0.0
  0
LINE
  5
9AF
330
1D
100
AcDbEntity
  8
0
100
AcDbLine
 10
63.6088
 20
198.398
 30
0.0
 11
64.0437
 21
197.015
 31
0.0
  0
LINE
  5
9B1
330
1D
100
AcDbEntity
  8
0
100
AcDbLine
 10
75.238400606936
 20
196.774610661522
 30
0.0
 11
75.98
 21
192.756
 31
0.0
  0
LINE
  5
9B2
330
1D
100
AcDbEntity
  8
0
100
AcDbLine
 10
75.238400606936
 20
196.774610661522
 30
0.0
 11
75.98
 21
192.756
 31
0.0
  0
LINE
  5
9B6
330
1D
100
AcDbEntity
  8
0
100
AcDbLine
 10
75.881123563977
 20
188.624665673764
 30
0.0
 11
75.98
 21
192.756
 31
0.0
  0
LINE
  5
9B7
330
1D
100
AcDbEntity
  8
0
100
AcDbLine
 10
75.8207
 20
186.1
 30
0.0
 11
75.881123563977
 21
188.624665673764
 31
0.0
  0
LINE
  5
9DB
330
1D
100
AcDbEntity
  8
0
100
AcDbLine
 10
75.238400606936
 20
196.774610661522
 30
0.0
 11
74.4675
 21
200.952
 31
0.0
  0
LINE
  5
9DC
330
1D
100
AcDbEntity
  8
0
100
AcDbLine
 10
112.963
 20
163.1733
 30
0.0
 11
113.452
 21
160.3635
 31
0.0
  0
LINE
  5
9DD
330
1D
100
AcDbEntity
  8
0
100
AcDbLine
 10
124.13
 20
163.3259
 30
0.0
 11
126.401
 21
161.6147
 31
0.0
  0
LINE
  5
9DE
330
1D
100
AcDbEntity
  8
0
100
AcDbLine
 10
116.671
 20
164.8969
 30
0.0
 11
118.028
 21
161.8747
 31
0.0
  0
LINE
  5
9DF
330
1D
100
AcDbEntity
  8
0
100
AcDbLine
 10
129.5614
 20
166.9971
 30
0.0
 11
129.7885
 21
159.6558
 31
0.0
  0
LINE
  5
9E0
330
1D
100
AcDbEntity
  8
0
100
AcDbLine
 10
126.76
 20
152.4532
 30
0.0
 11
129.248
 21
153.4478
 31
0.0
  0
LINE
  5
9E1
330
1D
100
AcDbEntity
  8
0
100
AcDbLine
 10
128.93
 20
155.3109
 30
0.0
 11
129.939202248815
 21
155.415828001167
 31
0.0
  0
LINE
  5
9E2
330
1D
100
AcDbEntity
  8
0
100
AcDbLine
 10
129.015
 20
160.4947
 30
0.0
 11
129.765796389326
 21
160.389723456798
 31
0.0
  0
LINE
  5
9E3
330
1D
100
AcDbEntity
  8
0
100
AcDbLine
 10
123.977
 20
152.1595
 30
0.0
 11
126.76
 21
152.4532
 31
0.0
  0
LINE
  5
9E4
330
1D
100
AcDbEntity
  8
0
100
AcDbLine
 10
121.168
 20
152.6476
 30
0.0
 11
123.977
 21
152.1595
 31
0.0
  0
LINE
  5
9E5
330
1D
100
AcDbEntity
  8
0
100
AcDbLine
 10
118.604
 20
153.8178
 30
0.0
 11
121.168
 21
152.6476
 31
0.0
  0
LINE
  5
9E6
330
1D
100
AcDbEntity
  8
0
100
AcDbLine
 10
122.679
 20
157.2245
 30
0.0
 11
125.701
 21
155.8667
 31
0.0
  0
LINE
  5
9E7
330
1D
100
AcDbEntity
  8
0
100
AcDbLine
 10
120.051
 20
159.2469
 30
0.0
 11
122.679
 21
157.2245
 31
0.0
  0
LINE
  5
9E8
330
1D
100
AcDbEntity
  8
0
100
AcDbLine
 10
114.622
 20
157.8002
 30
0.0
 11
116.352
 21
155.5478
 31
0.0
  0
LINE
  5
9E9
330
1D
100
AcDbEntity
  8
0
100
AcDbLine
 10
125.701
 20
155.8667
 30
0.0
 11
128.93
 21
155.3109
 31
0.0
  0
LINE
  5
9EA
330
1D
100
AcDbEntity
  8
0
100
AcDbLine
 10
116.352
 20
155.5478
 30
0.0
 11
118.604
 21
153.8178
 31
0.0
  0
LINE
  5
9EB
330
1D
100
AcDbEntity
  8
0
100
AcDbLine
 10
113.452
 20
160.3635
 30
0.0
 11
114.622
 21
157.8002
 31
0.0
  0
LINE
  5
9EC
330
1D
100
AcDbEntity
  8
0
100
AcDbLine
 10
118.028
 20
161.8747
 30
0.0
 11
120.051
 21
159.2469
 31
0.0
  0
LINE
  5
9ED
330
1D
100
AcDbEntity
  8
0
100
AcDbLine
 10
126.401
 20
161.6147
 30
0.0
 11
129.015
 21
160.4947
 31
0.0
  0
LINE
  5
9EE
330
1D
100
AcDbEntity
  8
0
100
AcDbLine
 10
131.2951
 20
132.1877
 30
0.0
 11
132.1512
 21
129.5416
 31
0.0
  0
LINE
  5
9EF
330
1D
100
AcDbEntity
  8
0
100
AcDbLine
 10
136.4732
 20
125.1576
 30
0.0
 11
137.7078
 21
124.6606
 31
0.0
  0
LINE
  5
9F0
330
1D
100
AcDbEntity
  8
0
100
AcDbLine
 10
134.8578
 20
126.1345
 30
0.0
 11
136.4732
 21
125.1576
 31
0.0
  0
LINE
  5
9F1
330
1D
100
AcDbEntity
  8
0
100
AcDbLine
 10
142.944
 20
123.6313
 30
0.0
 11
146.953
 21
123.3164
 31
0.0
  0
LINE
  5
9F2
330
1D
100
AcDbEntity
  8
0
100
AcDbLine
 10
146.953
 20
123.3164
 30
0.0
 11
150.861
 21
123.196
 31
0.0
  0
LINE
  5
9F3
330
1D
100
AcDbEntity
  8
0
100
AcDbLine
 10
139.7793
 20
124.0912
 30
0.0
 11
142.944
 21
123.6313
 31
0.0
  0
LINE
  5
9F4
330
1D
100
AcDbEntity
  8
0
100
AcDbLine
 10
137.7078
 20
124.6606
 30
0.0
 11
139.7793
 21
124.0912
 31
0.0
  0
LINE
  5
9F5
330
1D
100
AcDbEntity
  8
0
100
AcDbLine
 10
133.6458
 20
127.2073
 30
0.0
 11
134.8578
 21
126.1345
 31
0.0
  0
LINE
  5
9F6
330
1D
100
AcDbEntity
  8
0
100
AcDbLine
 10
132.1512
 20
129.5416
 30
0.0
 11
133.6458
 21
127.2073
 31
0.0
  0
LINE
  5
9F7
330
1D
100
AcDbEntity
  8
0
100
AcDbLine
 10
130.6615
 20
138.3741
 30
0.0
 11
130.9202
 21
134.8817
 31
0.0
  0
LINE
  5
9F8
330
1D
100
AcDbEntity
  8
0
100
AcDbLine
 10
130.9202
 20
134.8817
 30
0.0
 11
131.2951
 21
132.1877
 31
0.0
  0
LINE
  5
9F9
330
1D
100
AcDbEntity
  8
0
100
AcDbLine
 10
129.248
 20
153.4478
 30
0.0
 11
129.989702257764
 21
153.995022236388
 31
0.0
  0
LINE
  5
9FA
330
1D
100
AcDbEntity
  8
0
100
AcDbLine
 10
130.0497
 20
152.307
 30
0.0
 11
130.6615
 21
138.3741
 31
0.0
  0
LINE
  5
9FB
330
1D
100
AcDbEntity
  8
0
100
AcDbLine
 10
129.7885
 20
159.6558
 30
0.0
 11
130.0497
 21
152.307
 31
0.0
  0
LINE
  5
9FC
330
1D
100
AcDbEntity
  8
0
100
AcDbLine
 10
128.019
 20
162.7094
 30
0.0
 11
129.203
 21
162.8748
 31
0.0
  0
LINE
  5
9FD
330
1D
100
AcDbEntity
  8
0
100
AcDbLine
 10
127.4253
 20
165.03
 30
0.0
 11
129.679863621328
 21
163.167610861946
 31
0.0
  0
LINE
  5
9FE
330
1D
100
AcDbEntity
  8
0
100
AcDbLine
 10
129.0867
 20
181.8822
 30
0.0
 11
129.5614
 21
166.9971
 31
0.0
  0
LINE
  5
9FF
330
1D
100
AcDbEntity
  8
0
100
AcDbLine
 10
128.845
 20
202.5781
 30
0.0
 11
129.2258
 21
204.2289
 31
0.0
  0
LINE
  5
A00
330
1D
100
AcDbEntity
  8
0
100
AcDbLine
 10
116.4724
 20
185.0984
 30
0.0
 11
117.1793
 21
181.8483
 31
0.0
  0
LINE
  5
A01
330
1D
100
AcDbEntity
  8
0
100
AcDbLine
 10
128.7983
 20
187.4943
 30
0.0
 11
129.0867
 21
181.8822
 31
0.0
  0
LINE
  5
A02
330
1D
100
AcDbEntity
  8
0
100
AcDbLine
 10
117.619
 20
174.5511
 30
0.0
 11
119.10289968378
 21
176.549603397648
 31
0.0
  0
LINE
  5
A03
330
1D
100
AcDbEntity
  8
0
100
AcDbLine
 10
117.227534019779
 20
181.697254118496
 30
0.0
 11
118.1913
 21
178.6792
 31
0.0
  0
LINE
  5
A04
330
1D
100
AcDbEntity
  8
0
100
AcDbLine
 10
117.227534019779
 20
181.697254118496
 30
0.0
 11
118.1913
 21
178.6792
 31
0.0
  0
LINE
  5
A05
330
1D
100
AcDbEntity
  8
0
100
AcDbLine
 10
112.963
 20
163.1733
 30
0.0
 11
113.257
 21
165.9561
 31
0.0
  0
LINE
  5
A06
330
1D
100
AcDbEntity
  8
0
100
AcDbLine
 10
113.257
 20
165.9561
 30
0.0
 11
114.252
 21
168.4441
 31
0.0
  0
LINE
  5
A07
330
1D
100
AcDbEntity
  8
0
100
AcDbLine
 10
116.115
 20
168.1262
 30
0.0
 11
116.388588317106
 21
170.761794923498
 31
0.0
  0
LINE
  5
A08
330
1D
100
AcDbEntity
  8
0
100
AcDbLine
 10
116.115
 20
168.1262
 30
0.0
 11
116.671
 21
164.8969
 31
0.0
  0
LINE
  5
A09
330
1D
100
AcDbEntity
  8
0
100
AcDbLine
 10
114.252
 20
168.4441
 30
0.0
 11
115.829
 21
170.5816
 31
0.0
  0
LINE
  5
A0A
330
1D
100
AcDbEntity
  8
0
100
AcDbLine
 10
116.47
 20
171.5637
 30
0.0
 11
117.619
 21
174.5511
 31
0.0
  0
LINE
  5
A0B
330
1D
100
AcDbEntity
  8
0
100
AcDbLine
 10
115.829
 20
170.5816
 30
0.0
 11
116.431450539082
 21
171.183987809954
 31
0.0
  0
LINE
  5
A0C
330
1D
100
AcDbEntity
  8
0
100
AcDbLine
 10
126.835
 20
162.8748
 30
0.0
 11
128.019
 21
162.7094
 31
0.0
  0
LINE
  5
A0D
330
1D
100
AcDbEntity
  8
0
100
AcDbLine
 10
125.766
 20
163.333
 30
0.0
 11
126.835
 21
162.8748
 31
0.0
  0
LINE
  5
A0E
330
1D
100
AcDbEntity
  8
0
100
AcDbLine
 10
124.137
 20
164.9622
 30
0.0
 11
124.837
 21
164.0331
 31
0.0
  0
LINE
  5
A0F
330
1D
100
AcDbEntity
  8
0
100
AcDbLine
 10
124.837
 20
164.0331
 30
0.0
 11
125.766
 21
163.333
 31
0.0
  0
LINE
  5
A10
330
1D
100
AcDbEntity
  8
0
100
AcDbLine
 10
122.419
 20
165.5972
 30
0.0
 11
124.13
 21
163.3259
 31
0.0
  0
LINE
  5
A11
330
1D
100
AcDbEntity
  8
0
100
AcDbLine
 10
123.679
 20
166.0313
 30
0.0
 11
124.137
 21
164.9622
 31
0.0
  0
LINE
  5
A12
330
1D
100
AcDbEntity
  8
0
100
AcDbLine
 10
120.894
 20
171.1041
 30
0.0
 11
121.113430186045
 21
172.671806773632
 31
0.0
  0
LINE
  5
A13
330
1D
100
AcDbEntity
  8
0
100
AcDbLine
 10
120.894
 20
171.1041
 30
0.0
 11
121.299
 21
168.2106
 31
0.0
  0
LINE
  5
A14
330
1D
100
AcDbEntity
  8
0
100
AcDbLine
 10
121.299
 20
168.2106
 30
0.0
 11
122.419
 21
165.5972
 31
0.0
  0
LINE
  5
A15
330
1D
100
AcDbEntity
  8
0
100
AcDbLine
 10
121.0926
 20
172.7026
 30
0.0
 11
122.9565
 21
169.9472
 31
0.0
  0
LINE
  5
A16
330
1D
100
AcDbEntity
  8
0
100
AcDbLine
 10
119.5001
 20
175.6217
 30
0.0
 11
121.0926
 21
172.7026
 31
0.0
  0
LINE
  5
A17
330
1D
100
AcDbEntity
  8
0
100
AcDbLine
 10
118.1913
 20
178.6792
 30
0.0
 11
119.5001
 21
175.6217
 31
0.0
  0
LINE
  5
A18
330
1D
100
AcDbEntity
  8
0
100
AcDbLine
 10
123.513
 20
167.215
 30
0.0
 11
123.679
 21
166.0313
 31
0.0
  0
LINE
  5
A19
330
1D
100
AcDbEntity
  8
0
100
AcDbLine
 10
123.513
 20
167.215
 30
0.0
 11
123.679
 21
168.3987
 31
0.0
  0
LINE
  5
A1A
330
1D
100
AcDbEntity
  8
0
100
AcDbLine
 10
123.679
 20
168.3987
 30
0.0
 11
123.868978244647
 21
168.842203797329
 31
0.0
  0
LINE
  5
A1B
330
1D
100
AcDbEntity
  8
0
100
AcDbLine
 10
125.0736
 20
167.3823
 30
0.0
 11
127.4253
 21
165.03
 31
0.0
  0
LINE
  5
A1C
330
1D
100
AcDbEntity
  8
0
100
AcDbLine
 10
122.9565
 20
169.9472
 30
0.0
 11
124.015350000018
 21
168.664949999978
 31
0.0
  0
LINE
  5
A1D
330
1D
100
AcDbEntity
  8
0
100
AcDbLine
 10
122.9565
 20
169.9472
 30
0.0
 11
124.015350000018
 21
168.664949999978
 31
0.0
  0
LINE
  5
A1E
330
1D
100
AcDbEntity
  8
0
100
AcDbLine
 10
125.0736
 20
167.3823
 30
0.0
 11
124.015350000018
 21
168.664949999978
 31
0.0
  0
LINE
  5
A1F
330
1D
100
AcDbEntity
  8
0
100
AcDbLine
 10
116.413693978725
 20
185.591083010566
 30
0.0
 11
116.4724
 21
185.0984
 31
0.0
  0
LINE
  5
A20
330
1D
100
AcDbEntity
  8
0
100
AcDbLine
 10
116.413693978725
 20
185.591083010566
 30
0.0
 11
116.4724
 21
185.0984
 31
0.0
  0
LINE
  5
A21
330
1D
100
AcDbEntity
  8
0
100
AcDbLine
 10
116.0781
 20
188.4008
 30
0.0
 11
116.4726
 21
185.0979
 31
0.0
  0
LINE
  5
A22
330
1D
100
AcDbEntity
  8
0
100
AcDbLine
 10
116.0
 20
191.7257
 30
0.0
 11
116.0781
 21
188.4008
 31
0.0
  0
LINE
  5
A23
330
1D
100
AcDbEntity
  8
0
100
AcDbLine
 10
116.006551221683
 20
191.816889266987
 30
0.0
 11
116.2378
 21
195.0428
 31
0.0
  0
LINE
  5
A24
330
1D
100
AcDbEntity
  8
0
100
AcDbLine
 10
116.2378
 20
195.0428
 30
0.0
 11
116.7899
 21
198.3227
 31
0.0
  0
LINE
  5
A25
330
1D
100
AcDbEntity
  8
0
100
AcDbLine
 10
116.7899
 20
198.3227
 30
0.0
 11
117.6519
 21
201.5356
 31
0.0
  0
LINE
  5
A26
330
1D
100
AcDbEntity
  8
0
100
AcDbLine
 10
128.6038
 20
199.6203
 30
0.0
 11
128.7983
 21
187.4943
 31
0.0
  0
LINE
  5
A27
330
1D
100
AcDbEntity
  8
0
100
AcDbLine
 10
117.6519
 20
201.5356
 30
0.0
 11
118.8143
 21
204.6515
 31
0.0
  0
LINE
  5
A28
330
1D
100
AcDbEntity
  8
0
100
AcDbLine
 10
128.845
 20
202.5781
 30
0.0
 11
128.6038
 21
199.6203
 31
0.0
  0
LINE
  5
A29
330
1D
100
AcDbEntity
  8
0
100
AcDbLine
 10
129.203
 20
162.8748
 30
0.0
 11
129.682562918633
 21
163.080352599923
 31
0.0
  0
LINE
  5
A2A
330
1D
100
AcDbEntity
  8
0
100
AcDbLine
 10
129.2258
 20
204.2289
 30
0.0
 11
129.8612
 21
205.8737
 31
0.0
  0
LINE
  5
A2B
330
1D
100
AcDbEntity
  8
0
100
AcDbLine
 10
69.0297
 20
211.217
 30
0.0
 11
70.9532
 21
208.492
 31
0.0
  0
LINE
  5
A2C
330
1D
100
AcDbEntity
  8
0
100
AcDbLine
 10
66.9562
 20
213.834
 30
0.0
 11
69.0297
 21
211.217
 31
0.0
  0
LINE
  5
A2D
330
1D
100
AcDbEntity
  8
0
100
AcDbLine
 10
64.5589
 20
216.137
 30
0.0
 11
66.9562
 21
213.834
 31
0.0
  0
LINE
  5
A2E
330
1D
100
AcDbEntity
  8
0
100
AcDbLine
 10
130.4572
 20
206.8519
 30
0.0
 11
131.2604
 21
207.8698
 31
0.0
  0
LINE
  5
A2F
330
1D
100
AcDbEntity
  8
0
100
AcDbLine
 10
131.2604
 20
207.8698
 30
0.0
 11
132.8692
 21
209.2305
 31
0.0
  0
LINE
  5
A30
330
1D
100
AcDbEntity
  8
0
100
AcDbLine
 10
132.8692
 20
209.2305
 30
0.0
 11
134.6167
 21
210.207
 31
0.0
  0
LINE
  5
A31
330
1D
100
AcDbEntity
  8
0
100
AcDbLine
 10
134.6167
 20
210.207
 30
0.0
 11
136.3073
 21
210.9092
 31
0.0
  0
LINE
  5
A32
330
1D
100
AcDbEntity
  8
0
100
AcDbLine
 10
136.3073
 20
210.9092
 30
0.0
 11
139.173
 21
211.6878
 31
0.0
  0
LINE
  5
A33
330
1D
100
AcDbEntity
  8
0
100
AcDbLine
 10
143.327
 20
212.4517
 30
0.0
 11
147.423
 21
212.8701
 31
0.0
  0
LINE
  5
A34
330
1D
100
AcDbEntity
  8
0
100
AcDbLine
 10
139.173
 20
211.6878
 30
0.0
 11
143.327
 21
212.4517
 31
0.0
  0
LINE
  5
A35
330
1D
100
AcDbEntity
  8
0
100
AcDbLine
 10
124.093363466177
 20
213.253712693491
 30
0.0
 11
126.2311
 21
215.6055
 31
0.0
  0
LINE
  5
A36
330
1D
100
AcDbEntity
  8
0
100
AcDbLine
 10
124.093363466175
 20
213.253712693489
 30
0.0
 11
126.2311
 21
215.6055
 31
0.0
  0
LINE
  5
A37
330
1D
100
AcDbEntity
  8
0
100
AcDbLine
 10
126.2311
 20
215.6055
 30
0.0
 11
128.6933
 21
217.8418
 31
0.0
  0
LINE
  5
A38
330
1D
100
AcDbEntity
  8
0
100
AcDbLine
 10
128.6933
 20
217.8418
 30
0.0
 11
131.3564
 21
219.8344
 31
0.0
  0
LINE
  5
A39
330
1D
100
AcDbEntity
  8
0
100
AcDbLine
 10
131.3564
 20
219.8344
 30
0.0
 11
134.1964
 21
221.5651
 31
0.0
  0
LINE
  5
A3A
330
1D
100
AcDbEntity
  8
0
100
AcDbLine
 10
134.1964
 20
221.5651
 30
0.0
 11
137.1881
 21
223.0181
 31
0.0
  0
LINE
  5
A3B
330
1D
100
AcDbEntity
  8
0
100
AcDbLine
 10
137.1881
 20
223.0181
 30
0.0
 11
140.3048
 21
224.179
 31
0.0
  0
LINE
  5
A3C
330
1D
100
AcDbEntity
  8
0
100
AcDbLine
 10
140.3048
 20
224.179
 30
0.0
 11
143.518
 21
225.04
 31
0.0
  0
LINE
  5
A3D
330
1D
100
AcDbEntity
  8
0
100
AcDbLine
 10
143.518
 20
225.04
 30
0.0
 11
146.797
 21
225.59
 31
0.0
  0
LINE
  5
A3E
330
1D
100
AcDbEntity
  8
0
100
AcDbLine
 10
146.797
 20
225.59
 30
0.0
 11
150.115
 21
225.827
 31
0.0
  0
LINE
  5
A3F
330
1D
100
AcDbEntity
  8
0
100
AcDbLine
 10
124.093363466175
 20
213.253712693489
 30
0.0
 11
121.908755933187
 21
210.262443639248
 31
0.0
  0
LINE
  5
A40
330
1D
100
AcDbEntity
  8
0
100
AcDbLine
 10
121.908755933187
 20
210.262443639248
 30
0.0
 11
120.2684
 21
207.6429
 31
0.0
  0
LINE
  5
A45
330
1D
100
AcDbEntity
  8
0
100
AcDbLine
 10
236.4
 20
5.596
 30
0.0
 11
248.3
 21
1.358
 31
0.0
  0
LINE
  5
A46
330
1D
100
AcDbEntity
  8
0
100
AcDbLine
 10
236.319323404496
 20
90.486270390104
 30
0.0
 11
240.609584589695
 21
92.115151372319
 31
0.0
  0
LINE
  5
A47
330
1D
100
AcDbEntity
  8
0
100
AcDbLine
 10
218.1
 20
21.754
 30
0.0
 11
226.0
 21
12.571
 31
0.0
  0
LINE
  5
A48
330
1D
100
AcDbEntity
  8
0
100
AcDbLine
 10
211.0
 20
44.648
 30
0.0
 11
213.882807187955
 21
30.985259349199
 31
0.0
  0
LINE
  5
A49
330
1D
100
AcDbEntity
  8
0
100
AcDbLine
 10
211.0
 20
44.648
 30
0.0
 11
211.0
 21
45.822
 31
0.0
  0
LINE
  5
A4A
330
1D
100
AcDbEntity
  8
0
100
AcDbLine
 10
211.0
 20
45.822
 30
0.0
 11
211.037349024466
 21
46.056489625271
 31
0.0
  0
LINE
  5
A4B
330
1D
100
AcDbEntity
  8
0
100
AcDbLine
 10
211.0
 20
45.822
 30
0.0
 11
211.0
 21
44.648
 31
0.0
  0
LINE
  5
A4C
330
1D
100
AcDbEntity
  8
0
100
AcDbLine
 10
212.8
 20
62.522
 30
0.0
 11
217.7
 21
73.421
 31
0.0
  0
LINE
  5
A4D
330
1D
100
AcDbEntity
  8
0
100
AcDbLine
 10
211.0
 20
51.221
 30
0.0
 11
211.0
 21
46.291
 31
0.0
  0
LINE
  5
A4E
330
1D
100
AcDbEntity
  8
0
100
AcDbLine
 10
211.0
 20
51.221
 30
0.0
 11
212.8
 21
62.522
 31
0.0
  0
LINE
  5
A4F
330
1D
100
AcDbEntity
  8
0
100
AcDbLine
 10
211.0
 20
46.291
 30
0.0
 11
211.0
 21
51.221
 31
0.0
  0
LINE
  5
A50
330
1D
100
AcDbEntity
  8
0
100
AcDbLine
 10
213.882807187955
 20
30.985259349199
 30
0.0
 11
218.1
 21
21.754
 31
0.0
  0
LINE
  5
A51
330
1D
100
AcDbEntity
  8
0
100
AcDbLine
 10
213.882807187955
 20
30.985259349199
 30
0.0
 11
218.1
 21
21.754
 31
0.0
  0
LINE
  5
A52
330
1D
100
AcDbEntity
  8
0
100
AcDbLine
 10
225.7
 20
83.066
 30
0.0
 11
236.1
 21
90.403
 31
0.0
  0
LINE
  5
A53
330
1D
100
AcDbEntity
  8
0
100
AcDbLine
 10
217.7
 20
73.421
 30
0.0
 11
225.7
 21
83.066
 31
0.0
  0
LINE
  5
A54
330
1D
100
AcDbEntity
  8
0
100
AcDbLine
 10
226.0
 20
12.571
 30
0.0
 11
236.4
 21
5.596
 31
0.0
  0
LINE
  5
A55
330
1D
100
AcDbEntity
  8
0
100
AcDbLine
 10
236.1
 20
90.403
 30
0.0
 11
236.319323404496
 21
90.486270390104
 31
0.0
  0
LINE
  5
A56
330
1D
100
AcDbEntity
  8
0
100
AcDbLine
 10
285.9
 20
90.403
 30
0.0
 11
296.3
 21
83.066
 31
0.0
  0
LINE
  5
A57
330
1D
100
AcDbEntity
  8
0
100
AcDbLine
 10
248.3
 20
1.358
 30
0.0
 11
261.0
 21
-0.232
 31
0.0
  0
LINE
  5
A58
330
1D
100
AcDbEntity
  8
0
100
AcDbLine
 10
261.0
 20
-0.232
 30
0.0
 11
273.7
 21
1.358
 31
0.0
  0
LINE
  5
A59
330
1D
100
AcDbEntity
  8
0
100
AcDbLine
 10
273.7
 20
1.358
 30
0.0
 11
285.6
 21
5.596
 31
0.0
  0
LINE
  5
A5A
330
1D
100
AcDbEntity
  8
0
100
AcDbLine
 10
285.6
 20
5.596
 30
0.0
 11
296.0
 21
12.571
 31
0.0
  0
LINE
  5
A5B
330
1D
100
AcDbEntity
  8
0
100
AcDbLine
 10
296.0
 20
12.571
 30
0.0
 11
303.9
 21
21.754
 31
0.0
  0
LINE
  5
A5C
330
1D
100
AcDbEntity
  8
0
100
AcDbLine
 10
303.9
 20
21.754
 30
0.0
 11
308.117192812045
 21
30.985259349199
 31
0.0
  0
LINE
  5
A5D
330
1D
100
AcDbEntity
  8
0
100
AcDbLine
 10
303.9
 20
21.754
 30
0.0
 11
308.117192812045
 21
30.985259349199
 31
0.0
  0
LINE
  5
A5E
330
1D
100
AcDbEntity
  8
0
100
AcDbLine
 10
309.2
 20
33.346
 30
0.0
 11
311.0
 21
44.648
 31
0.0
  0
LINE
  5
A5F
330
1D
100
AcDbEntity
  8
0
100
AcDbLine
 10
311.0
 20
44.648
 30
0.0
 11
311.0
 21
45.822
 31
0.0
  0
LINE
  5
A60
330
1D
100
AcDbEntity
  8
0
100
AcDbLine
 10
310.962650975534
 20
46.056489625271
 30
0.0
 11
311.0
 21
45.822
 31
0.0
  0
LINE
  5
A61
330
1D
100
AcDbEntity
  8
0
100
AcDbLine
 10
311.0
 20
45.822
 30
0.0
 11
311.0
 21
44.648
 31
0.0
  0
LINE
  5
A62
330
1D
100
AcDbEntity
  8
0
100
AcDbLine
 10
311.0
 20
46.291
 30
0.0
 11
311.0
 21
51.221
 31
0.0
  0
LINE
  5
A63
330
1D
100
AcDbEntity
  8
0
100
AcDbLine
 10
309.2
 20
62.522
 30
0.0
 11
311.0
 21
51.221
 31
0.0
  0
LINE
  5
A64
330
1D
100
AcDbEntity
  8
0
100
AcDbLine
 10
311.0
 20
51.221
 30
0.0
 11
311.0
 21
46.291
 31
0.0
  0
LINE
  5
A65
330
1D
100
AcDbEntity
  8
0
100
AcDbLine
 10
304.3
 20
73.421
 30
0.0
 11
309.2
 21
62.522
 31
0.0
  0
LINE
  5
A66
330
1D
100
AcDbEntity
  8
0
100
AcDbLine
 10
296.3
 20
83.066
 30
0.0
 11
304.3
 21
73.421
 31
0.0
  0
LINE
  5
A67
330
1D
100
AcDbEntity
  8
0
100
AcDbLine
 10
309.2
 20
33.346
 30
0.0
 11
308.117192812045
 21
30.985259349199
 31
0.0
  0
LINE
  5
A68
330
1D
100
AcDbEntity
  8
0
100
AcDbLine
 10
281.431252991275
 20
92.07212442799
 30
0.0
 11
285.6
 21
90.543
 31
0.0
  0
LINE
  5
A69
330
1D
100
AcDbEntity
  8
0
100
AcDbLine
 10
249.0
 20
141.879
 30
0.0
 11
249.0
 21
128.619
 31
0.0
  0
LINE
  5
A6A
330
1D
100
AcDbEntity
  8
0
100
AcDbLine
 10
249.0
 20
128.619
 30
0.0
 11
249.0
 21
141.879
 31
0.0
  0
LINE
  5
A6B
330
1D
100
AcDbEntity
  8
0
100
AcDbLine
 10
273.0
 20
118.247
 30
0.0
 11
273.0
 21
141.879
 31
0.0
  0
LINE
  5
A6C
330
1D
100
AcDbEntity
  8
0
100
AcDbLine
 10
273.0
 20
141.879
 30
0.0
 11
273.0
 21
118.247
 31
0.0
  0
LINE
  5
A6D
330
1D
100
AcDbEntity
  8
0
100
AcDbLine
 10
247.257
 20
100.803
 30
0.0
 11
249.0
 21
108.263
 31
0.0
  0
LINE
  5
A6E
330
1D
100
AcDbEntity
  8
0
100
AcDbLine
 10
244.628
 20
96.349
 30
0.0
 11
247.257
 21
100.803
 31
0.0
  0
LINE
  5
A6F
330
1D
100
AcDbEntity
  8
0
100
AcDbLine
 10
240.609584589695
 20
92.115151372319
 30
0.0
 11
244.628
 21
96.349
 31
0.0
  0
LINE
  5
A70
330
1D
100
AcDbEntity
  8
0
100
AcDbLine
 10
249.0
 20
117.069
 30
0.0
 11
249.0
 21
128.619
 31
0.0
  0
LINE
  5
A71
330
1D
100
AcDbEntity
  8
0
100
AcDbLine
 10
249.0
 20
128.619
 30
0.0
 11
249.0
 21
117.069
 31
0.0
  0
LINE
  5
A72
330
1D
100
AcDbEntity
  8
0
100
AcDbLine
 10
249.0
 20
118.247
 30
0.0
 11
249.0
 21
108.263
 31
0.0
  0
LINE
  5
A73
330
1D
100
AcDbEntity
  8
0
100
AcDbLine
 10
249.0
 20
108.263
 30
0.0
 11
249.0
 21
118.247
 31
0.0
  0
LINE
  5
A74
330
1D
100
AcDbEntity
  8
0
100
AcDbLine
 10
273.0
 20
118.247
 30
0.0
 11
273.0
 21
108.263
 31
0.0
  0
LINE
  5
A75
330
1D
100
AcDbEntity
  8
0
100
AcDbLine
 10
273.0
 20
108.263
 30
0.0
 11
274.743
 21
100.803
 31
0.0
  0
LINE
  5
A76
330
1D
100
AcDbEntity
  8
0
100
AcDbLine
 10
273.0
 20
108.263
 30
0.0
 11
273.0
 21
118.247
 31
0.0
  0
LINE
  5
A77
330
1D
100
AcDbEntity
  8
0
100
AcDbLine
 10
274.743
 20
100.803
 30
0.0
 11
277.372
 21
96.349
 31
0.0
  0
LINE
  5
A78
330
1D
100
AcDbEntity
  8
0
100
AcDbLine
 10
277.372
 20
96.349
 30
0.0
 11
281.431252991275
 21
92.07212442799
 31
0.0
  0
LINE
  5
A79
330
1D
100
AcDbEntity
  8
0
100
AcDbLine
 10
249.0
 20
169.014
 30
0.0
 11
249.0
 21
155.1454
 31
0.0
  0
LINE
  5
A7A
330
1D
100
AcDbEntity
  8
0
100
AcDbLine
 10
249.0
 20
155.1454
 30
0.0
 11
249.0
 21
141.879
 31
0.0
  0
LINE
  5
A7B
330
1D
100
AcDbEntity
  8
0
100
AcDbLine
 10
249.0
 20
155.1454
 30
0.0
 11
249.0
 21
169.014
 31
0.0
  0
LINE
  5
A7C
330
1D
100
AcDbEntity
  8
0
100
AcDbLine
 10
249.0
 20
141.879
 30
0.0
 11
249.0
 21
155.1454
 31
0.0
  0
LINE
  5
A7D
330
1D
100
AcDbEntity
  8
0
100
AcDbLine
 10
273.0
 20
141.879
 30
0.0
 11
273.0
 21
155.1454
 31
0.0
  0
LINE
  5
A7E
330
1D
100
AcDbEntity
  8
0
100
AcDbLine
 10
273.0
 20
155.1454
 30
0.0
 11
273.0
 21
141.879
 31
0.0
  0
LINE
  5
A7F
330
1D
100
AcDbEntity
  8
0
100
AcDbLine
 10
273.0
 20
155.1454
 30
0.0
 11
273.0
 21
169.014
 31
0.0
  0
LINE
  5
A80
330
1D
100
AcDbEntity
  8
0
100
AcDbLine
 10
273.0
 20
169.014
 30
0.0
 11
273.0
 21
155.1454
 31
0.0
  0
LINE
  5
A81
330
1D
100
AcDbEntity
  8
0
100
AcDbLine
 10
285.680676595504
 20
90.486270390104
 30
0.0
 11
285.9
 21
90.403
 31
0.0
  0
LINE
  5
A89
330
1D
100
AcDbEntity
  8
0
100
AcDbLine
 10
170.892
 20
207.5622
 30
0.0
 11
172.148
 21
205.6294
 31
0.0
  0
LINE
  5
A8C
330
1D
100
AcDbEntity
  8
0
100
AcDbLine
 10
172.091
 20
159.6559
 30
0.0
 11
172.318
 21
166.9971
 31
0.0
  0
LINE
  5
A8D
330
1D
100
AcDbEntity
  8
0
100
AcDbLine
 10
158.897
 20
123.66
 30
0.0
 11
162.077
 21
124.0862
 31
0.0
  0
LINE
  5
A8E
330
1D
100
AcDbEntity
  8
0
100
AcDbLine
 10
166.204
 20
125.5663
 30
0.0
 11
167.471
 21
126.5177
 31
0.0
  0
LINE
  5
A8F
330
1D
100
AcDbEntity
  8
0
100
AcDbLine
 10
164.493
 20
124.7665
 30
0.0
 11
166.204
 21
125.5663
 31
0.0
  0
LINE
  5
A90
330
1D
100
AcDbEntity
  8
0
100
AcDbLine
 10
162.077
 20
124.0862
 30
0.0
 11
164.493
 21
124.7665
 31
0.0
  0
LINE
  5
A91
330
1D
100
AcDbEntity
  8
0
100
AcDbLine
 10
155.291
 20
123.3439
 30
0.0
 11
158.897
 21
123.66
 31
0.0
  0
LINE
  5
A92
330
1D
100
AcDbEntity
  8
0
100
AcDbLine
 10
167.471
 20
126.5177
 30
0.0
 11
168.07
 21
127.0964
 31
0.0
  0
LINE
  5
A93
330
1D
100
AcDbEntity
  8
0
100
AcDbLine
 10
168.73
 20
127.8933
 30
0.0
 11
169.722
 21
129.4973
 31
0.0
  0
LINE
  5
A94
330
1D
100
AcDbEntity
  8
0
100
AcDbLine
 10
169.722
 20
129.4973
 30
0.0
 11
170.661
 21
132.629
 31
0.0
  0
LINE
  5
A95
330
1D
100
AcDbEntity
  8
0
100
AcDbLine
 10
168.07
 20
127.0964
 30
0.0
 11
168.73
 21
127.8933
 31
0.0
  0
LINE
  5
A96
330
1D
100
AcDbEntity
  8
0
100
AcDbLine
 10
170.661
 20
132.629
 30
0.0
 11
170.77
 21
133.013
 31
0.0
  0
LINE
  5
A97
330
1D
100
AcDbEntity
  8
0
100
AcDbLine
 10
171.126
 20
137.4096
 30
0.0
 11
171.499
 21
144.8724
 31
0.0
  0
LINE
  5
A98
330
1D
100
AcDbEntity
  8
0
100
AcDbLine
 10
170.77
 20
133.013
 30
0.0
 11
171.126
 21
137.4096
 31
0.0
  0
LINE
  5
A99
330
1D
100
AcDbEntity
  8
0
100
AcDbLine
 10
171.499
 20
144.8724
 30
0.0
 11
171.815
 21
152.3217
 31
0.0
  0
LINE
  5
A9A
330
1D
100
AcDbEntity
  8
0
100
AcDbLine
 10
171.815
 20
152.3217
 30
0.0
 11
172.091
 21
159.6559
 31
0.0
  0
LINE
  5
A9B
330
1D
100
AcDbEntity
  8
0
100
AcDbLine
 10
172.200407379162
 20
163.194144281506
 30
0.0
 11
173.187
 21
163.9322
 31
0.0
  0
LINE
  5
A9C
330
1D
100
AcDbEntity
  8
0
100
AcDbLine
 10
172.712
 20
204.0739
 30
0.0
 11
173.176
 21
201.5004
 31
0.0
  0
LINE
  5
A9D
330
1D
100
AcDbEntity
  8
0
100
AcDbLine
 10
172.318
 20
166.9971
 30
0.0
 11
173.162
 21
191.6046
 31
0.0
  0
LINE
  5
A9E
330
1D
100
AcDbEntity
  8
0
100
AcDbLine
 10
172.148
 20
205.6294
 30
0.0
 11
172.712
 21
204.0739
 31
0.0
  0
LINE
  5
A9F
330
1D
100
AcDbEntity
  8
0
100
AcDbLine
 10
185.09
 20
183.4509
 30
0.0
 11
185.366000000053
 21
185.090950000315
 31
0.0
  0
LINE
  5
AA0
330
1D
100
AcDbEntity
  8
0
100
AcDbLine
 10
185.09
 20
183.4509
 30
0.0
 11
185.366000000053
 21
185.090950000317
 31
0.0
  0
LINE
  5
AA1
330
1D
100
AcDbEntity
  8
0
100
AcDbLine
 10
173.187
 20
163.9322
 30
0.0
 11
175.649
 21
166.1682
 31
0.0
  0
LINE
  5
AA2
330
1D
100
AcDbEntity
  8
0
100
AcDbLine
 10
175.649
 20
166.1682
 30
0.0
 11
177.886
 21
168.6293
 31
0.0
  0
LINE
  5
AA3
330
1D
100
AcDbEntity
  8
0
100
AcDbLine
 10
179.879
 20
171.291
 30
0.0
 11
181.612
 21
174.1309
 31
0.0
  0
LINE
  5
AA4
330
1D
100
AcDbEntity
  8
0
100
AcDbLine
 10
179.879
 20
171.291
 30
0.0
 11
181.612
 21
174.1309
 31
0.0
  0
LINE
  5
AA5
330
1D
100
AcDbEntity
  8
0
100
AcDbLine
 10
181.612
 20
174.1309
 30
0.0
 11
183.066
 21
177.1222
 31
0.0
  0
LINE
  5
AA6
330
1D
100
AcDbEntity
  8
0
100
AcDbLine
 10
183.066
 20
177.1222
 30
0.0
 11
184.228
 21
180.238
 31
0.0
  0
LINE
  5
AA7
330
1D
100
AcDbEntity
  8
0
100
AcDbLine
 10
184.228
 20
180.238
 30
0.0
 11
185.09
 21
183.4509
 31
0.0
  0
LINE
  5
AA8
330
1D
100
AcDbEntity
  8
0
100
AcDbLine
 10
177.886
 20
168.6293
 30
0.0
 11
179.879
 21
171.291
 31
0.0
  0
LINE
  5
AA9
330
1D
100
AcDbEntity
  8
0
100
AcDbLine
 10
185.642
 20
186.7309
 30
0.0
 11
185.88
 21
190.048
 31
0.0
  0
LINE
  5
AAA
330
1D
100
AcDbEntity
  8
0
100
AcDbLine
 10
173.162
 20
191.6046
 30
0.0
 11
173.199
 21
193.239
 31
0.0
  0
LINE
  5
AAB
330
1D
100
AcDbEntity
  8
0
100
AcDbLine
 10
185.802
 20
193.3729
 30
0.0
 11
185.88
 21
190.048
 31
0.0
  0
LINE
  5
AAC
330
1D
100
AcDbEntity
  8
0
100
AcDbLine
 10
173.199
 20
193.239
 30
0.0
 11
173.257
 21
196.506
 31
0.0
  0
LINE
  5
AAD
330
1D
100
AcDbEntity
  8
0
100
AcDbLine
 10
185.407
 20
196.6758
 30
0.0
 11
185.802
 21
193.3729
 31
0.0
  0
LINE
  5
AAE
330
1D
100
AcDbEntity
  8
0
100
AcDbLine
 10
184.701
 20
199.9258
 30
0.0
 11
185.407
 21
196.6758
 31
0.0
  0
LINE
  5
AAF
330
1D
100
AcDbEntity
  8
0
100
AcDbLine
 10
183.689
 20
203.0945
 30
0.0
 11
184.701
 21
199.9258
 31
0.0
  0
LINE
  5
AB1
330
1D
100
AcDbEntity
  8
0
100
AcDbLine
 10
182.527986948721
 20
205.805984338477
 30
0.0
 11
183.689
 21
203.0945
 31
0.0
  0
LINE
  5
AB2
330
1D
100
AcDbEntity
  8
0
100
AcDbLine
 10
182.527986948721
 20
205.805984338477
 30
0.0
 11
183.689
 21
203.0945
 31
0.0
  0
LINE
  5
AB3
330
1D
100
AcDbEntity
  8
0
100
AcDbLine
 10
173.257
 20
196.506
 30
0.0
 11
173.257
 21
201.051146767241
 31
0.0
  0
LINE
  5
AB4
330
1D
100
AcDbEntity
  8
0
100
AcDbLine
 10
173.257
 20
201.051146767241
 30
0.0
 11
173.176
 21
201.5004
 31
0.0
  0
LINE
  5
AB5
330
1D
100
AcDbEntity
  8
0
100
AcDbLine
 10
185.366000000053
 20
185.090950000317
 30
0.0
 11
185.642
 21
186.7309
 31
0.0
  0
LINE
  5
AD5
330
1D
100
AcDbEntity
  8
0
100
AcDbLine
 10
171.891
 20
218.8617
 30
0.0
 11
174.455
 21
216.7437
 31
0.0
  0
LINE
  5
AD9
330
1D
100
AcDbEntity
  8
0
100
AcDbLine
 10
169.683
 20
208.677
 30
0.0
 11
170.892
 21
207.5622
 31
0.0
  0
LINE
  5
ADA
330
1D
100
AcDbEntity
  8
0
100
AcDbLine
 10
167.966
 20
209.8715
 30
0.0
 11
169.683
 21
208.677
 31
0.0
  0
LINE
  5
ADB
330
1D
100
AcDbEntity
  8
0
100
AcDbLine
 10
165.515
 20
210.8911
 30
0.0
 11
167.966
 21
209.8715
 31
0.0
  0
LINE
  5
ADC
330
1D
100
AcDbEntity
  8
0
100
AcDbLine
 10
161.371
 20
212.0198
 30
0.0
 11
165.515
 21
210.8911
 31
0.0
  0
LINE
  5
ADD
330
1D
100
AcDbEntity
  8
0
100
AcDbLine
 10
152.561
 20
212.9154
 30
0.0
 11
157.165
 21
212.6206
 31
0.0
  0
LINE
  5
ADE
330
1D
100
AcDbEntity
  8
0
100
AcDbLine
 10
157.165
 20
212.6206
 30
0.0
 11
161.371
 21
212.0198
 31
0.0
  0
LINE
  5
AE0
330
1D
100
AcDbEntity
  8
0
100
AcDbLine
 10
169.136
 20
220.7265
 30
0.0
 11
171.891
 21
218.8617
 31
0.0
  0
LINE
  5
AE3
330
1D
100
AcDbEntity
  8
0
100
AcDbLine
 10
166.218
 20
222.3208
 30
0.0
 11
169.136
 21
220.7265
 31
0.0
  0
LINE
  5
AE4
330
1D
100
AcDbEntity
  8
0
100
AcDbLine
 10
163.16
 20
223.631
 30
0.0
 11
166.218
 21
222.3208
 31
0.0
  0
LINE
  5
AE6
330
1D
100
AcDbEntity
  8
0
100
AcDbLine
 10
159.993
 20
224.644
 30
0.0
 11
163.16
 21
223.631
 31
0.0
  0
LINE
  5
AE8
330
1D
100
AcDbEntity
  8
0
100
AcDbLine
 10
156.743
 20
225.351
 30
0.0
 11
159.993
 21
224.644
 31
0.0
  0
LINE
  5
AE9
330
1D
100
AcDbEntity
  8
0
100
AcDbLine
 10
153.44
 20
225.747
 30
0.0
 11
156.743
 21
225.351
 31
0.0
  0
LINE
  5
AF0
330
1D
100
AcDbEntity
  8
0
100
AcDbLine
 10
180.787
 20
209.0715
 30
0.0
 11
182.38
 21
206.152
 31
0.0
  0
LINE
  5
AF1
330
1D
100
AcDbEntity
  8
0
100
AcDbLine
 10
178.923
 20
211.8261
 30
0.0
 11
180.787
 21
209.0715
 31
0.0
  0
LINE
  5
AF7
330
1D
100
AcDbEntity
  8
0
100
AcDbLine
 10
176.806
 20
214.3914
 30
0.0
 11
178.923
 21
211.8261
 31
0.0
  0
LINE
  5
AF9
330
1D
100
AcDbEntity
  8
0
100
AcDbLine
 10
174.455
 20
216.7437
 30
0.0
 11
176.806
 21
214.3914
 31
0.0
  0
LINE
  5
C5A
330
1D
100
AcDbEntity
  8
0
100
AcDbLine
 10
279.613607122076
 20
172.060429436751
 30
0.0
 11
283.06
 21
176.4174
 31
0.0
  0
LINE
  5
C5B
330
1D
100
AcDbEntity
  8
0
100
AcDbLine
 10
285.076
 20
180.474750000001
 30
0.0
 11
285.642
 21
181.8774
 31
0.0
  0
LINE
  5
C5C
330
1D
100
AcDbEntity
  8
0
100
AcDbLine
 10
244.982
 20
210.6911
 30
0.0
 11
243.846500000001
 21
209.691900000001
 31
0.0
  0
LINE
  5
C5D
330
1D
100
AcDbEntity
  8
0
100
AcDbLine
 10
273.137203592648
 20
191.157443792091
 30
0.0
 11
273.091582347263
 21
191.544351623605
 31
0.0
  0
LINE
  5
C5E
330
1D
100
AcDbEntity
  8
0
100
AcDbLine
 10
238.041
 20
177.9749
 30
0.0
 11
239.614
 21
175.3916
 31
0.0
  0
LINE
  5
C62
330
1D
100
AcDbEntity
  8
0
100
AcDbLine
 10
14.0145
 20
212.578
 30
0.0
 11
15.813823888894
 21
214.376330968843
 31
0.0
  0
LINE
  5
C63
330
1D
100
AcDbEntity
  8
0
100
AcDbLine
 10
31.709532107337
 20
212.239474020285
 30
0.0
 11
32.9147
 21
212.787
 31
0.0
  0
LINE
  5
C64
330
1D
100
AcDbEntity
  8
0
100
AcDbLine
 10
26.146665208306
 20
221.798380088468
 30
0.0
 11
28.8291
 21
222.997
 31
0.0
  0
ENDSEC
  0
SECTION
  2
OBJECTS
  0
DICTIONARY
  5
C
330
0
100
AcDbDictionary
281
     1
  3
ACAD_GROUP
350
D
  3
ACAD_LAYOUT
350
1A
  3
ACAD_MLEADERSTYLE
350
C67
  3
ACAD_MLINESTYLE
350
17
  3
ACAD_PLOTSETTINGS
350
19
  3
ACAD_PLOTSTYLENAME
350
E
  3
ACAD_SCALELIST
350
49F
  3
AcDbVariableDictionary
350
C65
  3
DWGPROPS
350
C6C
  0
DICTIONARY
  5
D
102
{ACAD_REACTORS
330
C
102
}
330
C
100
AcDbDictionary
281
     1
  0
DICTIONARY
  5
1A
102
{ACAD_REACTORS
330
C
102
}
330
C
100
AcDbDictionary
281
     1
  3
Layout1
350
1C
  3
Model
350
1E
  0
DICTIONARY
  5
C67
102
{ACAD_REACTORS
330
C
102
}
330
C
100
AcDbDictionary
281
     1
  0
DICTIONARY
  5
17
102
{ACAD_REACTORS
330
C
102
}
330
C
100
AcDbDictionary
281
     1
  3
Standard
350
18
  0
DICTIONARY
  5
19
102
{ACAD_REACTORS
330
C
102
}
330
C
100
AcDbDictionary
281
     1
  0
ACDBDICTIONARYWDFLT
  5
E
102
{ACAD_REACTORS
330
C
102
}
330
C
100
AcDbDictionary
281
     1
  3
Normal
350
F
100
AcDbDictionaryWithDefault
340
F
  0
DICTIONARY
  5
49F
102
{ACAD_REACTORS
330
C
102
}
330
C
100
AcDbDictionary
281
     1
  3
A0
350
4A0
  3
A1
350
4A1
  3
A2
350
4A2
  3
A3
350
4A3
  3
A4
350
4A4
  3
A5
350
4A5
  3
A6
350
4A6
  3
A7
350
4A7
  3
A8
350
4A8
  3
A9
350
4A9
  3
B0
350
4AA
  3
B1
350
4AB
  3
B2
350
4AC
  3
B3
350
4AD
  3
B4
350
4AE
  3
B5
350
4AF
  3
B6
350
4B0
  3
B7
350
4B1
  3
B8
350
4B2
  3
B9
350
4B3
  3
C0
350
4B4
  3
C1
350
4B5
  3
C2
350
4B6
  3
C3
350
4B7
  3
C4
350
4B8
  3
C5
350
4B9
  3
C6
350
4BA
  3
C7
350
4BB
  3
C8
350
4BC
  3
C9
350
4BD
  3
D0
350
4BE
  3
D1
350
4BF
  3
D2
350
4C0
  0
DICTIONARY
  5
C65
102
{ACAD_REACTORS
330
C
102
}
330
C
100
AcDbDictionary
281
     1
  3
CANNOSCALE
350
C68
  0
XRECORD
  5
C6C
102
{ACAD_REACTORS
330
C
102
}
330
C
100
AcDbXrecord
280
     1
  1
DWGPROPS COOKIE
  2

  3

  4

  6

  7

  8
MARTIN
  9

300
=
301
=
302
=
303
=
304
=
305
=
306
=
307
=
308
=
309
=
 40
0.0
 41
2456646.591503357
 42
2456646.60839228
  1

 90
        0
  0
LAYOUT
  5
1C
102
{ACAD_REACTORS
330
1A
102
}
330
1A
100
AcDbPlotSettings
  1

  2
none_device
  4

  6

 40
0.0
 41
0.0
 42
0.0
 43
0.0
 44
0.0
 45
0.0
 46
0.0
 47
0.0
 48
0.0
 49
0.0
140
0.0
141
0.0
142
1.0
143
1.0
 70
   688
 72
     0
 73
     0
 74
     5
  7

 75
    16
147
1.0
148
0.0
149
0.0
100
AcDbLayout
  1
Layout1
 70
     1
 71
     1
 10
0.0
 20
0.0
 11
12.0
 21
9.0
 12
0.0
 22
0.0
 32
0.0
 14
1.000000000000E+20
 24
1.000000000000E+20
 34
1.000000000000E+20
 15
-1.000000000000E+20
 25
-1.000000000000E+20
 35
-1.000000000000E+20
146
0.0
 13
0.0
 23
0.0
 33
0.0
 16
1.0
 26
0.0
 36
0.0
 17
0.0
 27
1.0
 37
0.0
 76
     0
330
1B
  0
LAYOUT
  5
1E
102
{ACAD_REACTORS
330
1A
102
}
330
1A
100
AcDbPlotSettings
  1

  2
none_device
  4

  6

 40
0.0
 41
0.0
 42
0.0
 43
0.0
 44
0.0
 45
0.0
 46
0.0
 47
0.0
 48
0.0
 49
0.0
140
0.0
141
0.0
142
1.0
143
1.0
 70
  1712
 72
     0
 73
     0
 74
     0
  7

 75
     0
147
1.0
148
0.0
149
0.0
100
AcDbLayout
  1
Model
 70
     1
 71
     0
 10
0.0
 20
0.0
 11
12.0
 21
9.0
 12
0.0
 22
0.0
 32
0.0
 14
6.0
 24
-0.232
 34
0.0
 15
311.0
 25
225.827
 35
0.0
146
0.0
 13
0.0
 23
0.0
 33
0.0
 16
1.0
 26
0.0
 36
0.0
 17
0.0
 27
1.0
 37
0.0
 76
     0
330
1D
331
49A
  0
MLINESTYLE
  5
18
102
{ACAD_REACTORS
330
17
102
}
330
17
100
AcDbMlineStyle
  2
Standard
 70
     0
  3

 62
   256
 51
90.0
 52
90.0
 71
     2
 49
0.5
 62
   256
  6
BYLAYER
 49
-0.5
 62
   256
  6
BYLAYER
  0
ACDBPLACEHOLDER
  5
F
102
{ACAD_REACTORS
330
E
102
}
330
E
  0
SCALE
  5
4A0
102
{ACAD_REACTORS
330
49F
102
}
330
49F
100
AcDbScale
 70
     0
300
1:1
140
1.0
141
1.0
290
     1
  0
SCALE
  5
4A1
102
{ACAD_REACTORS
330
49F
102
}
330
49F
100
AcDbScale
 70
     0
300
1:2
140
1.0
141
2.0
290
     0
  0
SCALE
  5
4A2
102
{ACAD_REACTORS
330
49F
102
}
330
49F
100
AcDbScale
 70
     0
300
1:4
140
1.0
141
4.0
290
     0
  0
SCALE
  5
4A3
102
{ACAD_REACTORS
330
49F
102
}
330
49F
100
AcDbScale
 70
     0
300
1:5
140
1.0
141
5.0
290
     0
  0
SCALE
  5
4A4
102
{ACAD_REACTORS
330
49F
102
}
330
49F
100
AcDbScale
 70
     0
300
1:8
140
1.0
141
8.0
290
     0
  0
SCALE
  5
4A5
102
{ACAD_REACTORS
330
49F
102
}
330
49F
100
AcDbScale
 70
     0
300
1:10
140
1.0
141
10.0
290
     0
  0
SCALE
  5
4A6
102
{ACAD_REACTORS
330
49F
102
}
330
49F
100
AcDbScale
 70
     0
300
1:16
140
1.0
141
16.0
290
     0
  0
SCALE
  5
4A7
102
{ACAD_REACTORS
330
49F
102
}
330
49F
100
AcDbScale
 70
     0
300
1:20
140
1.0
141
20.0
290
     0
  0
SCALE
  5
4A8
102
{ACAD_REACTORS
330
49F
102
}
330
49F
100
AcDbScale
 70
     0
300
1:30
140
1.0
141
30.0
290
     0
  0
SCALE
  5
4A9
102
{ACAD_REACTORS
330
49F
102
}
330
49F
100
AcDbScale
 70
     0
300
1:40
140
1.0
141
40.0
290
     0
  0
SCALE
  5
4AA
102
{ACAD_REACTORS
330
49F
102
}
330
49F
100
AcDbScale
 70
     0
300
1:50
140
1.0
141
50.0
290
     0
  0
SCALE
  5
4AB
102
{ACAD_REACTORS
330
49F
102
}
330
49F
100
AcDbScale
 70
     0
300
1:100
140
1.0
141
100.0
290
     0
  0
SCALE
  5
4AC
102
{ACAD_REACTORS
330
49F
102
}
330
49F
100
AcDbScale
 70
     0
300
2:1
140
2.0
141
1.0
290
     0
  0
SCALE
  5
4AD
102
{ACAD_REACTORS
330
49F
102
}
330
49F
100
AcDbScale
 70
     0
300
4:1
140
4.0
141
1.0
290
     0
  0
SCALE
  5
4AE
102
{ACAD_REACTORS
330
49F
102
}
330
49F
100
AcDbScale
 70
     0
300
8:1
140
8.0
141
1.0
290
     0
  0
SCALE
  5
4AF
102
{ACAD_REACTORS
330
49F
102
}
330
49F
100
AcDbScale
 70
     0
300
10:1
140
10.0
141
1.0
290
     0
  0
SCALE
  5
4B0
102
{ACAD_REACTORS
330
49F
102
}
330
49F
100
AcDbScale
 70
     0
300
100:1
140
100.0
141
1.0
290
     0
  0
SCALE
  5
4B1
102
{ACAD_REACTORS
330
49F
102
}
330
49F
100
AcDbScale
 70
     0
300
1/128" = 1'-0"
140
0.0078125
141
12.0
290
     0
  0
SCALE
  5
4B2
102
{ACAD_REACTORS
330
49F
102
}
330
49F
100
AcDbScale
 70
     0
300
1/64" = 1'-0"
140
0.015625
141
12.0
290
     0
  0
SCALE
  5
4B3
102
{ACAD_REACTORS
330
49F
102
}
330
49F
100
AcDbScale
 70
     0
300
1/32" = 1'-0"
140
0.03125
141
12.0
290
     0
  0
SCALE
  5
4B4
102
{ACAD_REACTORS
330
49F
102
}
330
49F
100
AcDbScale
 70
     0
300
1/16" = 1'-0"
140
0.0625
141
12.0
290
     0
  0
SCALE
  5
4B5
102
{ACAD_REACTORS
330
49F
102
}
330
49F
100
AcDbScale
 70
     0
300
3/32" = 1'-0"
140
0.09375
141
12.0
290
     0
  0
SCALE
  5
4B6
102
{ACAD_REACTORS
330
49F
102
}
330
49F
100
AcDbScale
 70
     0
300
1/8" = 1'-0"
140
0.125
141
12.0
290
     0
  0
SCALE
  5
4B7
102
{ACAD_REACTORS
330
49F
102
}
330
49F
100
AcDbScale
 70
     0
300
3/16" = 1'-0"
140
0.1875
141
12.0
290
     0
  0
SCALE
  5
4B8
102
{ACAD_REACTORS
330
49F
102
}
330
49F
100
AcDbScale
 70
     0
300
1/4" = 1'-0"
140
0.25
141
12.0
290
     0
  0
SCALE
  5
4B9
102
{ACAD_REACTORS
330
49F
102
}
330
49F
100
AcDbScale
 70
     0
300
3/8" = 1'-0"
140
0.375
141
12.0
290
     0
  0
SCALE
  5
4BA
102
{ACAD_REACTORS
330
49F
102
}
330
49F
100
AcDbScale
 70
     0
300
1/2" = 1'-0"
140
0.5
141
12.0
290
     0
  0
SCALE
  5
4BB
102
{ACAD_REACTORS
330
49F
102
}
330
49F
100
AcDbScale
 70
     0
300
3/4" = 1'-0"
140
0.75
141
12.0
290
     0
  0
SCALE
  5
4BC
102
{ACAD_REACTORS
330
49F
102
}
330
49F
100
AcDbScale
 70
     0
300
1" = 1'-0"
140
1.0
141
12.0
290
     0
  0
SCALE
  5
4BD
102
{ACAD_REACTORS
330
49F
102
}
330
49F
100
AcDbScale
 70
     0
300
1-1/2" = 1'-0"
140
1.5
141
12.0
290
     0
  0
SCALE
  5
4BE
102
{ACAD_REACTORS
330
49F
102
}
330
49F
100
AcDbScale
 70
     0
300
3" = 1'-0"
140
3.0
141
12.0
290
     0
  0
SCALE
  5
4BF
102
{ACAD_REACTORS
330
49F
102
}
330
49F
100
AcDbScale
 70
     0
300
6" = 1'-0"
140
6.0
141
12.0
290
     0
  0
SCALE
  5
4C0
102
{ACAD_REACTORS
330
49F
102
}
330
49F
100
AcDbScale
 70
     0
300
1'-0" = 1'-0"
140
12.0
141
12.0
290
     0
  0
DICTIONARYVAR
  5
C68
102
{ACAD_REACTORS
330
C65
102
}
330
C65
100
DictionaryVariables
280
     0
  1
1:1
  0
ENDSEC
  0
SECTION
  2
THUMBNAILIMAGE
 90
    16364
310
28000000B40000005500000001000800000000000000000000000000000000000000000000000000FFFFFF000000FF0000FFFF0000FF0000FFFF0000FF000000FF00FF000000000080808000C0C0C0000000FF007F7FFF000000A5005252A50000007F003F3F7F0000004C0026264C000000260013132600003FFF007F9FFF
310
000029A5005267A500001F7F003F4F7F0000134C00262F4C000009260013172600007FFF007FBFFF000052A500527CA500003F7F003F5F7F0000264C0026394C0000132600131C260000BFFF007FDFFF00007CA5005291A500005F7F003F6F7F0000394C0026424C00001C26001321260000FFFF007FFFFF0000A5A50052A5
310
A500007F7F003F7F7F00004C4C00264C4C00002626001326260000FFBF007FFFDF0000A57C0052A59100007F5F003F7F6F00004C3900264C420000261C001326210000FF7F007FFFBF0000A5520052A57C00007F3F003F7F5F00004C2600264C39000026130013261C0000FF3F007FFF9F0000A5290052A56700007F1F003F
310
7F4F00004C1300264C2F00002609001326170000FF00007FFF7F0000A5000052A55200007F00003F7F3F00004C0000264C260000260000132613003FFF00009FFF7F0029A5000067A552001F7F00004F7F3F00134C00002F4C260009260000172613007FFF0000BFFF7F0052A500007CA552003F7F00005F7F3F00264C0000
310
394C2600132600001C261300BFFF0000DFFF7F007CA5000091A552005F7F00006F7F3F00394C0000424C26001C26000021261300FFFF0000FFFF7F00A5A50000A5A552007F7F00007F7F3F004C4C00004C4C26002626000026261300FFBF0000FFDF7F00A57C0000A59152007F5F00007F6F3F004C3900004C422600261C00
310
0026211300FF7F0000FFBF7F00A5520000A57C52007F3F00007F5F3F004C2600004C39260026130000261C1300FF3F0000FF9F7F00A5290000A56752007F1F00007F4F3F004C1300004C2F26002609000026171300FF000000FF7F7F00A5000000A55252007F0000007F3F3F004C0000004C2626002600000026131300FF00
310
3F00FF7F9F00A5002900A55267007F001F007F3F4F004C0013004C262F002600090026131700FF007F00FF7FBF00A5005200A5527C007F003F007F3F5F004C0026004C2639002600130026131C00FF00BF00FF7FDF00A5007C00A55291007F005F007F3F6F004C0039004C26420026001C0026132100FF00FF00FF7FFF00A5
310
00A500A552A5007F007F007F3F7F004C004C004C264C002600260026132600BF00FF00DF7FFF007C00A5009152A5005F007F006F3F7F0039004C0042264C001C002600211326007F00FF00BF7FFF005200A5007C52A5003F007F005F3F7F0026004C0039264C00130026001C1326003F00FF009F7FFF002900A5006752A500
310
1F007F004F3F7F0013004C002F264C000900260017132600000000002D2D2D005B5B5B0089898900B7B7B700B3B3B30000000000000000000000000000000000000000000000000000000000000000000000000000000000000000000000000000000000000000000000000000000000000000000000000000000000000000
310
00000000000000000000000000000000000000000000000000000000000000000000000000000000000000000000000000000000000000000000000000000000000000000000000000000000000000000000000000000000000000000000000000000000000000000000000000000000000000000000000000000000000000
310
00000000000000000000000000000000000000000000000000000000000000000000000000000000000000000000000000000000000000000000000000000000000000000000000000000000000000000000000000000000000000000000000000000000070707070000000000000000000000000000000000000000000000
310
00000000000000000000000000000000000000000000000000000000000000000000000000000000000000000000000000000000000000000000000000000000000000000000000000000000000000000000000000000000000000000000000000000000000000000000000000000000000000000000000000000000000000
310
00000000000000000000000000000000000000000000070707070000000007070707000000000000000000000000000000000000000000000000000000000000000000000000000000000000000000000000000000000000000000000000000000000000000000000000000000000000000000000000000000000000000000
310
00000000000000000000000000000000000000000000000000000000000000000000000000000000000000000000000000000000000000000000000000000000000000000000000007070700000000000000000000000007070700000000000000000000000000000000000000000000000000000000000000000000000000
310
00000000000000000000000000000000000000000000000000000000000000000000000000000000000000000000000000000000000000000000000000000000000000000000000000000000000000000000000000000000000000000000000000000000000000000000000000000000000000000000000000000000070000
310
00000000000000000000000000000000070000000000000000000000000000000000000000000000000000000000000000000000000000000000000000000000000000000000000000000000000000000000000000000000000000000000000000000000000000000000000000000000000000000000000000000000000000
310
00000000000000000000000000000000000000000000000000000000000000000000000000000000000000000000000007070000000000000000000000000000000000000000070700000000000000000000000000000000000000000000000000000000000000000000000000000000000000000000000000000000000000
310
00000000000000000000000000000000000000000000000000000000000000000000000000000000000000000000000000000000000000000000000000000000000000000000000000000000000000000000000000000000000000000000000000000000070000000000000000000000000000000000000000000000000700
310
00000000000000000000000000000000000000000000000000000000000000000000000000000000000000000000000000000000000000000000000000000000000000000000000000000000000000000000000000000000000000000000000000000000000000000000000000000000000000000000000000000000000000
310
00000000000000000000000000000000000000000000000000070000000000000000000000000000000000000000000000000000070000000000000000000000000000000000000000000000000000000000000000000000000000000000000000000000000000000000000000000000000000000000000000000000000000
310
00000000000000000000000000000000000000000000000000000000000000000000000000000000000000000000000000000000000000000000000000000000000000000000000000000000000700000000000000000000000000000000000000000000000000000007000000000000000000000000000000000000000000
310
00000000000000000000000000000000000000000000000000000000000000000000000000000000000000000000000000000000000000000000000000000000000000000000000000000000000000000000000000000000000000000000000000000000000000000000000000000000000000000000000000000000000000
310
00000700000000000000000000000000000000000000000000000000000000000700000000000000000000000000000000000000000000000000000000000000000000000000000000000000000000000000000000000000000000000000000000000000000000000000000000000000000000000000000000000000000000
310
00000000000000000000000000000000000000000000000000000000000000000000000000000000000000000000000000000000000000070000000000000000000000000000000000000000000000000000000000000700000000000000000000000000000000000000000000000000000000000000000000000000000000
310
00000000000000000000000000000000000000000000000000000000000000000000000000000000000000000000000000000000000000000000000000000000000000000000000000000000000000000000000000000000000000000000000000000000000000000000000700000000000000000000000000000000000000
310
00000000000000000000000007000000000000000000000000000000000000000000000000000000000000000000000000000000000000000000000000000000000000000000000000000000000000000000000000000000000000000000000000000000000000000000000000000000000000000000000000000000000000
310
00000000000000000000000000000000000000000000000000000000000000000007000000000000000000000000000000000000000000000000000000000000000000000000000000000000000000000000000000000000000000000000000000000000000000000000000000000000000000000000000000000000000000
310
00000000000000000000000000000000000000000000000000000000000000000000000000000000000000000000000000000000000000000000000000000000000000000000000000000000000000000000000000000700000000000000000000000000000000000000000000000000000000000000000700000000000000
310
00000000000000000000000000000000000000000000000000000000000000000000000000000000000000000000000000000000000000000000000000000000000000000000000000000000000000000000000000000000000000000000000000000000000000000000000000000000000000000000000000000000000000
310
00000000000000000000000007000000000000000000000000000000000000000000000000000000000000000007000000000000000000000000000000000000000000000000000000000000000000000000000000000000000000000000000000000000000000000000000000000000000000000000000000000000000000
310
00000000000000000000000000000000000000000000000000000000000000000000000000000000000000000000000000000000000000000000000000000000070000000000000000000000000000000000000000000000000000000000000000000700000000000000000000000000000000000000000000000000000000
310
00000000000000000000000000000000000000000000000000000000000000000000000000000000000000000000000000000000000000000000000000000000000000000000000000000000000000000000000000000000000000000000000000000000000000000000000000000000000000000007000000000000000000
310
00000000000000000000000000000000000000000000000000070000000000000000000000000000000000000000000000000000000000000000000000000000000000000000000000000000000000000000000000000000000000000000000000000000000000000000000000000000000000000000000000000000000000
310
00000000000000000000000000000000000000000000000000000000000000000000000000000000000000070000000000000000000000000000000000000000000000000000000000000000000007000000000000000000000000000000000000000000000000000000000000000000000000000000000000000000000000
310
00000000000000000000000000000000000000000000000000000000000000000000000000000000000000000000000000000000000000000000000000000000000000000000000000000000000000000000000000000000000000000000000007000000000000000000000000000000000000000000000000000000000000
310
00000000070000000000000000000000000000000000000000000000000000000000000000000000000000000000000000000000000000000000000000000000000000000000000000000000000000000000000000000000000000000000000000000000000000000000000000000000000000000000000000000000000000
310
00000000000000000000000000000000000000000000070000000000000000000000000000000000000000000000000000000000000000000007000000000000000000000000000000000000000000000000000000000000000000000000000000000000000000000000000000000000000000000000000000000000000000
310
00000000000000000000000000000000000000000000000000000000000000000000000000000000000000000000000000000000000000000000000000000000000000000000000000000007000000000000000000000000000000000000000000000000000000000000000000000700000000000000000000000000000000
310
00000000000000000000000000000000000000000000000000000000000000000000000000000000000000000000000000000000000000000000000000000000000000000000000000000000000000000000000000000000000000000000000000000000000000000000000000000000000000000000000000000000000000
310
00070000000000000000000000000000000000000000000000000000000000000000000700000000000000000000000000000000000000000000000000000000000000000000000000000000000000000000000000000000000000000000000000000000000000000000000000000000000000000000000000000000000000
310
00000000000000000000000000000000000000000000000000000000000000000000000000000000000000000000000000000000000007000000000000000000000000000000000000000000000000000000000000000000070000000000000000000000000000000000000000000000000000000000000000000000000000
310
00000000000000000000000000000000000000000000000000000000000000000000000000000000000000000000000000000000000000000000000000000000000000000000000000000000000000000000000000000000000000000000000000000000000000000000000700000000000000000000000000000000000000
310
00000000000000000000000000000700000000000000000000000000000000000000000000000000000000000000000000000000000000000000000000000000000000000000000000000000000000000000000000000000000000000000000000000000000000000000000000000000000000000000000000000000000000
310
00000000000000000000000000000000000000000000000000000000000000000007000000000000000000000000000000000000000000000000000000000000000000070000000000000000000000000000000000000000000000000000000000000000000000000000000000000000000000000000000000000000000000
310
00000000000000000000000000000000000000000000000007070700000000000000000000000000000000000000000000000000000000000000000000000000000000000000000000000000000000000000000000000007000000000000000000000000000000000000000000000000000000000000000700000000000000
310
00000000000000000000000000000000000000000000000000000000000000000000000000000000000000000000000000000000000000000000000000000000000000000000000000000000070000000707070000000000000000000000000000000000000000000000000000000000000000000000000000000000000000
310
00000000000000000000000000070000000000000000000000000000000000000000000000000000000000000007000000000000000000000000000000000000000000000000000000000000000000000000000000000000000000000000000000000000000000000000000000000000000000000000000000000000000000
310
00070000000000000007000000000000000000000000000000000000000000000000000000000000000000000000000000000000000000000000000000000000000000070000000000000000000000000000000000000000000000000000000000000700000000000000000000000000000000000000000000000000000000
310
00000000000000000000000000000000000000000000000000000000000000000000000000000000000000000000000000000000000700070707070700000700000000000000000000000000000000000000000000000000000000000000000000000000000000000000000000000000000000000000000000070000000000
310
00000000000000000000000000000000000000000000000700000000000000000000000000000000000000000000000000000000000000000000000000000000000000000000000000000000000000000000000000000000000000000000000000000000000000000007000700000000000707000000000000000000000000
310
00000000000000000000000000000000000000000000000000000000000000000000000000000000000000000000000700000000000000000000000000000000000000000000000000000007000000000000000000000000000000000000000000000000000000000000000000000000000000000000000000000000000000
310
00000000000000000000000000000000000000000000000000000000000000070700000000000000000707000000000000000000000000000000000000000000000000000000000000000000000000000000000000000000000000000000000000000000000700000000000000000000000000000000000000000000000000
310
00070000000000000000000000000000000000000000000000000000000000000000000000000000000000000000000000000000000000000000000000000000000000000000000000000000000000000000000007000000000000000000000700000000000000000000000000000000000000000000000000000000000000
310
00000000000000000000000000000000000000000000000000000000070000000000000000000000000000000000000000000000000700000000000000000000000000000000000000000000000000000000000000000000000000000000000000000000000000000000000000000000000000000000000000000000000000
310
00000000000000000000070000000000000000000007000000000000000000000000000000000000000000000000000000000000000000000000000000000000000000000000000000000000000000000000070700000000000000000000000000000000000000000707000000000000000000000000000000000000000000
310
00000000000000000000000000000000000000000000000000000000000000000000000000000000000000000000000000000000000000000000000000000007000000000000000000000700000000000000000000000000000000000000000000000000000000000000000000000000000000000000000000000000000000
310
00000000000000000000070700000000000000000000000000000000070700000000000000000000000000000000000000000000000000000000000000000000000000000000000000000000000000000000000000000000000000000000000000000000000000000000000000000000000000000700000000000000000000
310
07000000000000000000000000000000000000000000000000000000000000000000000000000000000000000000000000000000000000000000000000000000000700000000000000000000000000000700000000000000000000000000000000000000000000000000000000000000000000000000000000000000000000
310
00000000000000000000000000000000000000000000000000000000000000000000000000000000000007000000000000000000000700000000000000000000000000000000000000000000000000000000000000000000000000000000000000000000000000000000000000000000000000000000000707000000000000
310
00000000070700000000000000000000000000000000000000000000000000000000000000000000000000000000000000000000000000000000000000000000000000000000000000000000000000000000000000000000000000000000000700000000000000000000070000000000000000000000000000000000000000
310
00000000000000000000000000000000000000000000000000000000000000000000000000000000000000000000070000000000000000000700000000000000000000000000000000000000000000000000000000000000000000000000000000000000000000000000000000000000000000000000000000000000000000
310
00000000000000000000000000000000000000000007000000000000000000000700000000000000000000000000000000000000000000000000000000000000000000000000000000000000000000000000000000000000000000000000000000000007000000000000000000070000000000000000000000000000000000
310
00000000000000000000000000000000000000000000000000000000000000000000000000000000000000000000000000000000000000000000000000000000000000000000000000000700000000000000000000070000000000000000000000000000000000000000000000000000000000000000000000000000000000
310
00000000000000000000000000000000000000000000000000070000000000000000000700000000000000000000000000000000000000000000000000000000000000000000000000000000000000000000000000000000000000000000000000000000000000000000000000000000000000000000000000000000000000
310
07000000000000000000000700000000000000000000000000000000000000000000000000000000000000000000000000000000000000000000000000000000000000000000000000000000000000070000000000000000070000000000000000000000000000000000000000000000000000000000000000000000000000
310
00000000000000000000000000000000000000000000000000000000000000000000000000000000000000000000000000000000000700000000000000000000070000000000000000000000000000000000000000000000000000000000000000000000000000000000000000000000000000000000000000000000000000
310
00000000000700000000000000000700000000000000000000000000000000000000000000000000000000000000000000000000000000000000000000000000000000000000000000000000000000000000000000000000000000000000000000000000000000000000070000000000000000000007000000000000000000
310
00000000000000000000000000000000000000000000000000000000000000000000000000000000000000000000000000000000000000000000070000000000000000070000000000000000000000000000000000000000000000000000000000000000000000000000000000000000000000000000000000000000000000
310
00000000000000000000000000000000000000000000000000000000000000000700000000000000000000070000000000000000000000000000000000000000000000000000000000000000000000000000000000000000000000000000000000000000000000000000000000000007000000000000000007000000000000
310
00000000000000000000000000000000000000000000000000000000000000000000000000000000000000000000000000000000000000000000000000000000000000000000000000000000000000000000000000070000000000000000000007000000000000000000000000000000000000000000000000000000000000
310
00000000000000000000000000000000000000000000000000000000000000000000000000070000000000000000070000000000000000000000000000000000000000000000000000000000000000000000000000000000000000000000000000000000000000000000000000000000000000000000000000000000000000
310
00000000000000000000000700000000000000000000070000000000000000000000000000000000000000000000000000000000000000000000000000000000000000000000000000000000000000000000000000000000000007000000000000000007000000000000000000000000000000000000000000000000000000
310
00000000000000000000000000000000000000000000000000000000000000000000000000000000000000000000000000000000000000000000000000000000070000000000000000000007000000000000000000000000000000000000000000000000000000070707070707070707070700000000000000000000000000
310
00000000000000000000000000000000070000000000000000070000000000000000000000000000000000000000000000000000000000000000000000000000000000000000000000000000000000000000000000000000000000000000000000000000000000000000000000000000000000000007000000000000000000
310
00070000000000000000000000000000000000000000000000000000070700000000000000000000070700000000000000000000000000000000000000000000000000000007000000000000000007000000000000000000000000000000000000000000000000000000000000000000000000000000000000000000000000
310
00000000000000000000000000000000000000000000000000000000000000000000000000000000000000070000000000000000000007000000000000000000000000000000000000000000000000000007000000000000000000000000070000000000000000000000000000000000000000000000000000000700000000
310
00000000070000000000000000000000000000000000000000000000000000000000000000000000000000000000000000000000000000000000000000000000000000000000000000000000000000000000000000000000000000000000000007000000000000000000000700000000000000000000000000000000000000
310
00000000000007000000000000000000000000000700000000000000000000000000000000000000000000000000000007000000000000000007000000000000000000000000000000000000000000000000000000000000000000000000000000000000000000000000000000000000000000000000000000000000000000
310
00000000000000000000000000000000000000000000070000000000000000000007000000000000000000000000000000000000000000000000000700000000000000000000000000070000000000000000000000000000000000000000000000000000000700000000000000000700000000000000000000000000000000
310
00000000000000000000000000000000000000000000000000000000000000000000000000000000000000000000000000000000000000000000000000000000000000000000000000000007000000000000000000000700000000000000000000000000000000000000000000000000070000000000000000000000000000
310
07000000000000000000000000000000000000000000000000000007000000000000000007000000000000000000000000000000000000000000000000000000000000000000000000000000000000000000000000000000000000000000000000000000000000000000000000000000000000000000000000000000000000
310
00070000000000000000000007000000000000000000000000000000000000000000000000000700000000000000000000000000000700000000000000000000000000000000000000000000000000000700000000000000000700000000000000000000000000000000000000000000000000000000000000000000000000
310
00000000000000000000000000000000000000000000000000000000000000000000000000000000000000000000000000000000000007000000000000000000000700000000000000000000000000000000000000000000000000070000000000000000000000000000070000000000000000000000000000000000000000
310
00000000000007000000000000000007000000000000000000000000000000000000000000000000000000000000000000000000000000000000000000000000000000000000000000000000000000000000000000000000000000000000000000000000000000000000000700000000000000000000070000000000000000
310
00000000000000000000000000000000000700000000000000000000000000000700000000000000000000000000000000000000000000000000000700000000000000000700000000000000000000000000000000000000000000000000000000000000000000000000000000000000000000000000000000000000000000
310
00000000000000000000000000000000000000000000000000000000000000000007000000000000000000000700000000000000000000000000000000000000000000000000070000000000000000000000000000070000000000000000000000000000000000000000000000000000070000000000000000070000000000
310
00000000000000000000000000000000000000000000000000000000000000000000000000000000000000000000000000000000000000000000000000000000000000000000000000000000000000000000000000000700000000000000000000070000000000000000000000000000000000000000000007070707000000
310
00000000000000000000000700000000000000000000000000000000000000000000000000000700000000000000000700000000000000000000000000000000000000000000000000000000000000000000000000000000000000000000000000000000000000000000000000000000000000000000000000000000000000
310
00000000000000000000000007000000000000000000000700000000000000000000000000000000000000000707000707070000000000000000000000000000070000000000000000000000000000000000000000000000000000070000000000000000070000000000000000000000000000000000000000000000000000
310
00000000000000000000000000000000000000000000000000000000000000000000000000000000000000000000000000000000000000000000000000000000000700000000000000000000070000000000000000000000000000000000000000070707000007000000000000000000000000000007000000000000000000
310
00000000000000000000000000000000000700000000000000000700000000000000000000000000000000000000000000000000000000000000000000000000000000000000000000000000000000000000000000000000000000000000000000000000000000000000000000000000000000000007070000000000000000
310
00000707000000000000000000000000000000000000070007000007070000000000000000000000000000070000000000000000000000000000000000000000000000000000070000000000000000070000000000000000000000000000000000000000000000000000000000000000000000000000000000000000000000
310
00000000000000000000000000000000000000000000000000000000000000000000000000000000000707000700000000000000000000070007000000000000000000000000000000000007070000070707000000000000000000000000000007000000000000000000000000000000000000000000000000000007000000
310
00000000000700000000000000000000000000000000000000000000000000000000000000000000000000000000000000000000000000000000000000000000000000000000000000000000000000000000000000000000000000000007000000070000000000000000000007000007000000000000000000000000000000
310
00070700070707070000000000000000000000000000070700000000000000000000000000000000000000000000000000070000000000000000070000000000000000000000000000000000000000000000000000000000000000000000000000000000000000000000000000000000000000000000000000000000000000
310
00000000000000000000000000000000000000070000000700000000000000000000070000000700000000000000000000000000000007070007070007000000000000000000000000000007000700000000000000000000000000000000000000000000000707000000000000000007070000000000000000000000000000
310
00000000000000000000000000000000000000000000000000000000000000000000000000000000000000000000000000000000000000000000000000000000000000000000000700000000070000000000000000000007000000000700000000000000000000000000000007000700000700000000000000000000000000
310
00070000070000000000000000000000000000000000000000070700070000000000000000070007000000000000000000000000000000000000000000000000000000000000000000000000000000000000000000000000000000000000000000000000000000000000000000000000000000000000000000000007000000
310
00070700000000000000000000070700000007000000000000000000000000000000000700000007000000000000000000000000000007000007000000000000000000000000000000000000000007000007000000000000000007000700000000000000000000000000000000000000000000000000000000000000000000
310
00000000000000000000000000000000000000000000000000000000000000000000000000000000000000000000000000070000000700070000000000000000000007000700000007000000000000000000000000000000070000000700000000000000000000000000000700000007000000000000000000000000000000
310
00000007000000070000000000000000070000070700000000000000000000000000000000000000000000000000000000000000000000000000000000000000000000000000000000000000000000000000000000000000000000000000000000000000000007000000070007000000000000000000000700070000000700
310
00000000000000000000000000070000000007000000000000000000000000000007000000070000000000000000000000000000000000000700000007000000000000000007000000070000000000000000000000000000000000000000000000000000000000000000000000000000000000000000000000000000000000
310
00000000000000000000000000000000000000000000000000070707000000070000070000000000000000000007000007000000070707000000000000000000000007000000000700000000000000000000000000000700000007000000000000000000000000000000000007000000000700000000000000070700000007
310
00000000000000000000000000000000000000000000000000000000000000000000000000000000000000000000000000000000000000000000000000000000000000000000000000000000000007070700000007000007000000000000000000000700000700000007070700000000000000000000000700000000070000
310
00000000000000000000000007000000000700000000000000000000000000000000070000000007070700000000070707000000070000000000000000000000000000000000000000000000000000000000000000000000000000000000000000000000000000000000000000000000000000000000000000000000000000
310
00000000070007000000070000070000000000000000000007000000000000070007000000000000000000000007000000000700000000000000000000000000000700000000000000000000000000000000000000000007000000000707070707070707000700000007000000000000000000000000000000000000000000
310
00000000000000000000000000000000000000000000000000000000000000000000000000000000000000000000000000000000000000000007000700000007000007000000000000000000000700000700000000000700000000000000000000000700000000070000000000000000000000000000070000000007000000
310
00000000000000000000000000070000000007000707070707000707000000000000000000000000000000000000000000000000000000000000000000000000000000000000000000000000000000000000000000000000000000000000000000000000000000000000000000000707070000000700000007000000000000
310
00000007000007000000070707000000000000000000000007000000070000000000000000000000000000000700000000070000000000000000000000000000000007000000000700000000000000070700000007000000000000000000000000000000000000000000000000000000000000000000000000000000000000
310
00000000000000000000000000000000000000000000000000000000000000000000000007070700000007000000070000000000000000070000000700000007070700000000000000000000000700000007000000000000000000000000000000070000000007000000000000000000000000000000000007000000000700
310
00000000070700000000070000000000000000000000000000000000000000000000000000000000000000000000000000000000000000000000000000000000000000000000000000000000000000000000000000000000000000000700000007000000070000000000000707000007000000000000000000000000000000
310
00000000070000070000000000000000000000000000000700000007000000000000000000000000000000000000070000000007070700000707000000000007000000000000000000000000000000000000000000000000000000000000000000000000000000000000000000000000000000000000000000000000000000
310
00000000000000000000000000000000000007000000070700000007070707070700000000070000000700000000000000000000000000000007000000070000000000000000000000000000070000000700000000000000000000000000000000000007000000000000070707070000000000070000000000000000000000
310
00000000000000000000000000000000000000000000000000000000000000000000000000000000000000000000000000000000000000000000000000000000000000000000000707000000070000000000070700000000000700000000070000000000000000000000000000000700000007000000000000000000000000
310
00000700000007000000000000000000000000000000000000000700000000000000000000000000000700000000000000000000000000000000000000000000000000000000000000000000000000000000000000000000000000000000000000000000000000000000000000000000000000000000000000000000000700
310
00000007000000000000000000000700000000070000000000000000000000000000000000000000070700000000000000000000000707000000070007000000000000000000000000000000000000000700000000000000000000000707000000000000000000000000000000000000000000000000000000000000000000
310
00000000000000000000000000000000000000000000000000000000000000000000000000000000000000000000000000000000070000000007070700000000000007000000000700000000000000000000000000000000000007000000000707070707070707070707070000000707000700000000000000000000000000
310
00000000000000070700000000000000000707000000000000000000000000000000000000000000000000000000000000000000000000000000000000000000000000000000000000000000000000000000000000000000000000000000000000000000000000000000070000000000000707070707000000000000070000
310
00000000000000000000000000000000000707000000000000000000000000000000000007070007070000000000000000000000000000000000000000070707000000000707000000000000000000000000000000000000000000000000000000000000000000000000000000000000000000000000000000000000000000
310
00000000000000000000000000000000000000000000000000000000000000000007000000000000000000000000000007070000000000000000000000000000000000000000000007000000000000000000000000000007070700070000000000000000000000000000000000000000000000000007070707000000000000
310
00000000000000000000000000000000000000000000000000000000000000000000000000000000000000000000000000000000000000000000000000000000000000000000000000000000000000000000000000000007070000000000000000000000070000000000000000000000000000000000000000000000000700
310
00000000000000000000000007070700070000070000000000000000000000000000000000000000000000000000000000000000000000000000000000000000000000000000000000000000000000000000000000000000000000000000000000000000000000000000000000000000000000000000000000000000000000
310
00000000000000000000000000000707070000000000000007070000000000000000000000000000000000000000000000000000070707070000000000000007070000000700000700000000000000000000000000000000000000000000000000000000000000000000000000000000000000000000000000000000000000
310
00000000000000000000000000000000000000000000000000000000000000000000000000000000000000000000000000000000000000000000000000000000000000000000070707070707070000000000000000000000000000000000000000000000000000000000000000070707070707070000070707000007070000
310
00000000000000000000000000000000000000000000000000000000000000000000000000000000000000000000000000000000000000000000000000000000000000000000000000000000000000000000000000000000000000000000000000000000000000000000000000000000000000000000000000000000000000
310
00000000000000000000000000000000000000000000000000000000000000000000000000000000000000000000070707000000000000000000000000000000000000000000000000000000000000000000000000000000000000000000000000000000000000000000000000000000000000000000000000000000000000
310
00000000000000000000000000000000000000000000000000000000000000000000000000000000000000000000000000000000000000000000000000000000000000000000000000000000000000000000000000000000000000000000000000000000000000000000000000000000000000000000000000000000000000
310
00000000000000000000000000000000000000000000000000000000000000000000000000000000000000000000000000000000000000000000000000000000000000000000000000000000000000000000000000000000000000000000000000000000000000000000000000000000000000000000000000000000000000
310
000000000000000000000000000000000000000000000000000000000000000000000000000000000000000000000000000000000000000000000000000000000000000000000000000000000000000000000000000000000000000000000000000000000000000000000000
  0
ENDSEC
  0
EOF
