  0
SECTION
  2
HEADER
  9
$ACADVER
  1
AC1015
  9
$ACADMAINTVER
 70
     6
  9
$DWGCODEPAGE
  3
ANSI_1252
  9
$INSBASE
 10
0.0
 20
0.0
 30
0.0
  9
$EXTMIN
 10
205.0
 20
0.177
 30
0.0
  9
$EXTMAX
 10
510.0
 20
282.454
 30
0.0
  9
$LIMMIN
 10
0.0
 20
0.0
  9
$LIMMAX
 10
12.0
 20
9.0
  9
$ORTHOMODE
 70
     0
  9
$REGENMODE
 70
     1
  9
$FILLMODE
 70
     1
  9
$QTEXTMODE
 70
     0
  9
$MIRRTEXT
 70
     1
  9
$LTSCALE
 40
1.0
  9
$ATTMODE
 70
     1
  9
$TEXTSIZE
 40
0.2
  9
$TRACEWID
 40
0.05
  9
$TEXTSTYLE
  7
Standard
  9
$CLAYER
  8
0
  9
$CELTYPE
  6
ByBlock
  9
$CECOLOR
 62
   256
  9
$CELTSCALE
 40
1.0
  9
$DISPSILH
 70
     0
  9
$DIMSCALE
 40
1.0
  9
$DIMASZ
 40
0.18
  9
$DIMEXO
 40
0.0625
  9
$DIMDLI
 40
0.38
  9
$DIMRND
 40
0.0
  9
$DIMDLE
 40
0.0
  9
$DIMEXE
 40
0.18
  9
$DIMTP
 40
0.0
  9
$DIMTM
 40
0.0
  9
$DIMTXT
 40
0.18
  9
$DIMCEN
 40
0.09
  9
$DIMTSZ
 40
0.0
  9
$DIMTOL
 70
     0
  9
$DIMLIM
 70
     0
  9
$DIMTIH
 70
     1
  9
$DIMTOH
 70
     1
  9
$DIMSE1
 70
     0
  9
$DIMSE2
 70
     0
  9
$DIMTAD
 70
     0
  9
$DIMZIN
 70
     0
  9
$DIMBLK
  1

  9
$DIMASO
 70
     1
  9
$DIMSHO
 70
     1
  9
$DIMPOST
  1

  9
$DIMAPOST
  1

  9
$DIMALT
 70
     0
  9
$DIMALTD
 70
     2
  9
$DIMALTF
 40
25.4
  9
$DIMLFAC
 40
1.0
  9
$DIMTOFL
 70
     0
  9
$DIMTVP
 40
0.0
  9
$DIMTIX
 70
     0
  9
$DIMSOXD
 70
     0
  9
$DIMSAH
 70
     0
  9
$DIMBLK1
  1

  9
$DIMBLK2
  1

  9
$DIMSTYLE
  2
Standard
  9
$DIMCLRD
 70
     0
  9
$DIMCLRE
 70
     0
  9
$DIMCLRT
 70
     0
  9
$DIMTFAC
 40
1.0
  9
$DIMGAP
 40
0.09
  9
$DIMJUST
 70
     0
  9
$DIMSD1
 70
     0
  9
$DIMSD2
 70
     0
  9
$DIMTOLJ
 70
     1
  9
$DIMTZIN
 70
     0
  9
$DIMALTZ
 70
     0
  9
$DIMALTTZ
 70
     0
  9
$DIMUPT
 70
     0
  9
$DIMDEC
 70
     4
  9
$DIMTDEC
 70
     4
  9
$DIMALTU
 70
     2
  9
$DIMALTTD
 70
     2
  9
$DIMTXSTY
  7
Standard
  9
$DIMAUNIT
 70
     0
  9
$DIMADEC
 70
     0
  9
$DIMALTRND
 40
0.0
  9
$DIMAZIN
 70
     0
  9
$DIMDSEP
 70
    46
  9
$DIMATFIT
 70
     3
  9
$DIMFRAC
 70
     0
  9
$DIMLDRBLK
  1

  9
$DIMLUNIT
 70
     2
  9
$DIMLWD
 70
    -2
  9
$DIMLWE
 70
    -2
  9
$DIMTMOVE
 70
     2
  9
$LUNITS
 70
     2
  9
$LUPREC
 70
     4
  9
$SKETCHINC
 40
0.1
  9
$FILLETRAD
 40
0.5
  9
$AUNITS
 70
     0
  9
$AUPREC
 70
     0
  9
$MENU
  1
.
  9
$ELEVATION
 40
0.0
  9
$PELEVATION
 40
0.0
  9
$THICKNESS
 40
0.0
  9
$LIMCHECK
 70
     0
  9
$CHAMFERA
 40
0.5
  9
$CHAMFERB
 40
0.5
  9
$CHAMFERC
 40
1.0
  9
$CHAMFERD
 40
0.0
  9
$SKPOLY
 70
     0
  9
$TDCREATE
 40
2456646.607630208
  9
$TDUCREATE
 40
2456646.565963542
  9
$TDUPDATE
 40
2456646.632479745
  9
$TDUUPDATE
 40
2456646.590813079
  9
$TDINDWG
 40
0.0246538773
  9
$TDUSRTIMER
 40
0.0246538773
  9
$USRTIMER
 70
     1
  9
$ANGBASE
 50
0.0
  9
$ANGDIR
 70
     0
  9
$PDMODE
 70
     0
  9
$PDSIZE
 40
0.0
  9
$PLINEWID
 40
0.0
  9
$SPLFRAME
 70
     0
  9
$SPLINETYPE
 70
     6
  9
$SPLINESEGS
 70
     8
  9
$HANDSEED
  5
6D2
  9
$SURFTAB1
 70
     6
  9
$SURFTAB2
 70
     6
  9
$SURFTYPE
 70
     6
  9
$SURFU
 70
     6
  9
$SURFV
 70
     6
  9
$UCSBASE
  2

  9
$UCSNAME
  2

  9
$UCSORG
 10
0.0
 20
0.0
 30
0.0
  9
$UCSXDIR
 10
1.0
 20
0.0
 30
0.0
  9
$UCSYDIR
 10
0.0
 20
1.0
 30
0.0
  9
$UCSORTHOREF
  2

  9
$UCSORTHOVIEW
 70
     0
  9
$UCSORGTOP
 10
0.0
 20
0.0
 30
0.0
  9
$UCSORGBOTTOM
 10
0.0
 20
0.0
 30
0.0
  9
$UCSORGLEFT
 10
0.0
 20
0.0
 30
0.0
  9
$UCSORGRIGHT
 10
0.0
 20
0.0
 30
0.0
  9
$UCSORGFRONT
 10
0.0
 20
0.0
 30
0.0
  9
$UCSORGBACK
 10
0.0
 20
0.0
 30
0.0
  9
$PUCSBASE
  2

  9
$PUCSNAME
  2

  9
$PUCSORG
 10
0.0
 20
0.0
 30
0.0
  9
$PUCSXDIR
 10
1.0
 20
0.0
 30
0.0
  9
$PUCSYDIR
 10
0.0
 20
1.0
 30
0.0
  9
$PUCSORTHOREF
  2

  9
$PUCSORTHOVIEW
 70
     0
  9
$PUCSORGTOP
 10
0.0
 20
0.0
 30
0.0
  9
$PUCSORGBOTTOM
 10
0.0
 20
0.0
 30
0.0
  9
$PUCSORGLEFT
 10
0.0
 20
0.0
 30
0.0
  9
$PUCSORGRIGHT
 10
0.0
 20
0.0
 30
0.0
  9
$PUCSORGFRONT
 10
0.0
 20
0.0
 30
0.0
  9
$PUCSORGBACK
 10
0.0
 20
0.0
 30
0.0
  9
$USERI1
 70
     0
  9
$USERI2
 70
     0
  9
$USERI3
 70
     0
  9
$USERI4
 70
     0
  9
$USERI5
 70
     0
  9
$USERR1
 40
0.0
  9
$USERR2
 40
0.0
  9
$USERR3
 40
0.0
  9
$USERR4
 40
0.0
  9
$USERR5
 40
0.0
  9
$WORLDVIEW
 70
     1
  9
$SHADEDGE
 70
     3
  9
$SHADEDIF
 70
    70
  9
$TILEMODE
 70
     1
  9
$MAXACTVP
 70
    64
  9
$PINSBASE
 10
0.0
 20
0.0
 30
0.0
  9
$PLIMCHECK
 70
     0
  9
$PEXTMIN
 10
1.000000000000E+20
 20
1.000000000000E+20
 30
1.000000000000E+20
  9
$PEXTMAX
 10
-1.000000000000E+20
 20
-1.000000000000E+20
 30
-1.000000000000E+20
  9
$PLIMMIN
 10
0.0
 20
0.0
  9
$PLIMMAX
 10
12.0
 20
9.0
  9
$UNITMODE
 70
     0
  9
$VISRETAIN
 70
     1
  9
$PLINEGEN
 70
     0
  9
$PSLTSCALE
 70
     1
  9
$TREEDEPTH
 70
  3020
  9
$CMLSTYLE
  2
Standard
  9
$CMLJUST
 70
     0
  9
$CMLSCALE
 40
1.0
  9
$PROXYGRAPHICS
 70
     1
  9
$MEASUREMENT
 70
     0
  9
$CELWEIGHT
370
    -1
  9
$ENDCAPS
280
     0
  9
$JOINSTYLE
280
     0
  9
$LWDISPLAY
290
     0
  9
$INSUNITS
 70
     0
  9
$HYPERLINKBASE
  1

  9
$STYLESHEET
  1

  9
$XEDIT
290
     1
  9
$CEPSNTYPE
380
     0
  9
$PSTYLEMODE
290
     1
  9
$FINGERPRINTGUID
  2
{516A3D01-B238-479A-BD16-BCFA858CAFDA}
  9
$VERSIONGUID
  2
{FAEB1C32-E019-11D5-929B-00C0DF256EC4}
  9
$EXTNAMES
290
     1
  9
$PSVPSCALE
 40
0.0
  9
$OLESTARTUP
290
     0
  0
ENDSEC
  0
SECTION
  2
CLASSES
  0
CLASS
  1
ACDBDICTIONARYWDFLT
  2
AcDbDictionaryWithDefault
  3
ObjectDBX Classes
 90
        0
280
     0
281
     0
  0
CLASS
  1
SCALE
  2
AcDbScale
  3
ObjectDBX Classes
 90
     1153
280
     0
281
     0
  0
CLASS
  1
ACDBPLACEHOLDER
  2
AcDbPlaceHolder
  3
ObjectDBX Classes
 90
        0
280
     0
281
     0
  0
CLASS
  1
LAYOUT
  2
AcDbLayout
  3
ObjectDBX Classes
 90
        0
280
     0
281
     0
  0
ENDSEC
  0
SECTION
  2
TABLES
  0
TABLE
  2
VPORT
  5
8
330
0
100
AcDbSymbolTable
 70
     1
  0
VPORT
  5
684
330
8
100
AcDbSymbolTableRecord
100
AcDbViewportTableRecord
  2
*Active
 70
     0
 10
0.0
 20
0.0
 11
1.0
 21
1.0
 12
255.0
 22
141.227
 13
0.0
 23
0.0
 14
0.5
 24
0.5
 15
0.5
 25
0.5
 16
0.0
 26
0.0
 36
1.0
 17
0.0
 27
0.0
 37
0.0
 40
394.38927444795
 41
1.319001386963
 42
50.0
 43
0.0
 44
0.0
 50
0.0
 51
0.0
 71
    16
 72
   100
 73
     1
 74
     3
 75
     0
 76
     0
 77
     0
 78
     0
281
     0
 65
     1
110
0.0
120
0.0
130
0.0
111
1.0
121
0.0
131
0.0
112
0.0
122
1.0
132
0.0
 79
     0
146
0.0
  0
ENDTAB
  0
TABLE
  2
LTYPE
  5
5
330
0
100
AcDbSymbolTable
 70
     1
  0
LTYPE
  5
14
330
5
100
AcDbSymbolTableRecord
100
AcDbLinetypeTableRecord
  2
ByBlock
 70
     0
  3

 72
    65
 73
     0
 40
0.0
  0
LTYPE
  5
15
330
5
100
AcDbSymbolTableRecord
100
AcDbLinetypeTableRecord
  2
ByLayer
 70
     0
  3

 72
    65
 73
     0
 40
0.0
  0
LTYPE
  5
16
330
5
100
AcDbSymbolTableRecord
100
AcDbLinetypeTableRecord
  2
Continuous
 70
     0
  3
Solid line
 72
    65
 73
     0
 40
0.0
  0
ENDTAB
  0
TABLE
  2
LAYER
  5
2
330
0
100
AcDbSymbolTable
 70
     1
  0
LAYER
  5
10
330
2
100
AcDbSymbolTableRecord
100
AcDbLayerTableRecord
  2
0
 70
     0
 62
     7
  6
Continuous
370
    -3
390
F
  0
ENDTAB
  0
TABLE
  2
STYLE
  5
3
330
0
100
AcDbSymbolTable
 70
     1
  0
STYLE
  5
11
330
3
100
AcDbSymbolTableRecord
100
AcDbTextStyleTableRecord
  2
Standard
 70
     0
 40
0.0
 41
1.0
 50
0.0
 71
     0
 42
0.2
  3
txt
  4

  0
ENDTAB
  0
TABLE
  2
VIEW
  5
6
330
0
100
AcDbSymbolTable
 70
     0
  0
ENDTAB
  0
TABLE
  2
UCS
  5
7
330
0
100
AcDbSymbolTable
 70
     0
  0
ENDTAB
  0
TABLE
  2
APPID
  5
9
330
0
100
AcDbSymbolTable
 70
     1
  0
APPID
  5
12
330
9
100
AcDbSymbolTableRecord
100
AcDbRegAppTableRecord
  2
ACAD
 70
     0
  0
ENDTAB
  0
TABLE
  2
DIMSTYLE
  5
A
330
0
100
AcDbSymbolTable
 70
     1
100
AcDbDimStyleTable
  0
DIMSTYLE
105
20
330
A
100
AcDbSymbolTableRecord
100
AcDbDimStyleTableRecord
  2
Standard
 70
     0
340
11
  0
ENDTAB
  0
TABLE
  2
BLOCK_RECORD
  5
1
330
0
100
AcDbSymbolTable
 70
     0
  0
BLOCK_RECORD
  5
1D
330
1
100
AcDbSymbolTableRecord
100
AcDbBlockTableRecord
  2
*Model_Space
340
1E
  0
BLOCK_RECORD
  5
1B
330
1
100
AcDbSymbolTableRecord
100
AcDbBlockTableRecord
  2
*Paper_Space
340
1C
  0
ENDTAB
  0
ENDSEC
  0
SECTION
  2
BLOCKS
  0
BLOCK
  5
687
330
1D
100
AcDbEntity
  8
0
100
AcDbBlockBegin
  2
*Model_Space
 70
     0
 10
0.0
 20
0.0
 30
0.0
  3
*Model_Space
  1
*Model_Space
  0
ENDBLK
  5
688
330
1D
100
AcDbEntity
  8
0
100
AcDbBlockEnd
  0
BLOCK
  5
685
330
1B
100
AcDbEntity
 67
     1
  8
0
100
AcDbBlockBegin
  2
*Paper_Space
 70
     0
 10
0.0
 20
0.0
 30
0.0
  3
*Paper_Space
  1
*Paper_Space
  0
ENDBLK
  5
686
330
1B
100
AcDbEntity
 67
     1
  8
0
100
AcDbBlockEnd
  0
ENDSEC
  0
SECTION
  2
ENTITIES
  0
LINE
  5
21
330
1D
100
AcDbEntity
  8
0
100
AcDbLine
 10
417.1
 20
22.163
 30
0.0
 11
425.0
 21
12.98
 31
0.0
  0
LINE
  5
24
330
1D
100
AcDbEntity
  8
0
100
AcDbLine
 10
410.0
 20
45.057
 30
0.0
 11
412.882807187955
 21
31.394259349199
 31
0.0
  0
LINE
  5
25
330
1D
100
AcDbEntity
  8
0
100
AcDbLine
 10
410.0
 20
45.057
 30
0.0
 11
410.0
 21
46.231
 31
0.0
  0
LINE
  5
27
330
1D
100
AcDbEntity
  8
0
100
AcDbLine
 10
410.0
 20
46.231
 30
0.0
 11
410.037349024466
 21
46.465489625271
 31
0.0
  0
LINE
  5
28
330
1D
100
AcDbEntity
  8
0
100
AcDbLine
 10
410.0
 20
46.231
 30
0.0
 11
410.0
 21
45.057
 31
0.0
  0
LINE
  5
2A
330
1D
100
AcDbEntity
  8
0
100
AcDbLine
 10
411.8
 20
62.931
 30
0.0
 11
416.7
 21
73.83
 31
0.0
  0
LINE
  5
2B
330
1D
100
AcDbEntity
  8
0
100
AcDbLine
 10
410.0
 20
51.63
 30
0.0
 11
410.0
 21
46.7
 31
0.0
  0
LINE
  5
2C
330
1D
100
AcDbEntity
  8
0
100
AcDbLine
 10
410.0
 20
51.63
 30
0.0
 11
411.8
 21
62.931
 31
0.0
  0
LINE
  5
2E
330
1D
100
AcDbEntity
  8
0
100
AcDbLine
 10
410.0
 20
46.7
 30
0.0
 11
410.0
 21
51.63
 31
0.0
  0
LINE
  5
2F
330
1D
100
AcDbEntity
  8
0
100
AcDbLine
 10
412.882807187955
 20
31.394259349199
 30
0.0
 11
417.1
 21
22.163
 31
0.0
  0
LINE
  5
30
330
1D
100
AcDbEntity
  8
0
100
AcDbLine
 10
412.882807187955
 20
31.394259349199
 30
0.0
 11
417.1
 21
22.163
 31
0.0
  0
LINE
  5
31
330
1D
100
AcDbEntity
  8
0
100
AcDbLine
 10
424.7
 20
83.475
 30
0.0
 11
435.1
 21
90.812
 31
0.0
  0
LINE
  5
32
330
1D
100
AcDbEntity
  8
0
100
AcDbLine
 10
416.7
 20
73.83
 30
0.0
 11
424.7
 21
83.475
 31
0.0
  0
LINE
  5
35
330
1D
100
AcDbEntity
  8
0
100
AcDbLine
 10
435.4
 20
6.005
 30
0.0
 11
447.3
 21
1.767
 31
0.0
  0
LINE
  5
37
330
1D
100
AcDbEntity
  8
0
100
AcDbLine
 10
425.0
 20
12.98
 30
0.0
 11
435.4
 21
6.005
 31
0.0
  0
LINE
  5
3B
330
1D
100
AcDbEntity
  8
0
100
AcDbLine
 10
435.1
 20
90.812
 30
0.0
 11
435.319323404496
 21
90.895270390104
 31
0.0
  0
LINE
  5
3C
330
1D
100
AcDbEntity
  8
0
100
AcDbLine
 10
229.542
 20
128.352
 30
0.0
 11
232.0753
 21
126.655
 31
0.0
  0
LINE
  5
3D
330
1D
100
AcDbEntity
  8
0
100
AcDbLine
 10
226.6644
 20
131.598
 30
0.0
 11
228.8919
 21
128.825
 31
0.0
  0
LINE
  5
3E
330
1D
100
AcDbEntity
  8
0
100
AcDbLine
 10
228.8919
 20
128.825
 30
0.0
 11
229.542
 21
128.352
 31
0.0
  0
LINE
  5
3F
330
1D
100
AcDbEntity
  8
0
100
AcDbLine
 10
232.0753
 20
126.655
 30
0.0
 11
236.3696
 21
125.104
 31
0.0
  0
LINE
  5
40
330
1D
100
AcDbEntity
  8
0
100
AcDbLine
 10
225.7185
 20
134.229
 30
0.0
 11
226.6644
 21
131.598
 31
0.0
  0
LINE
  5
41
330
1D
100
AcDbEntity
  8
0
100
AcDbLine
 10
225.5567
 20
136.87
 30
0.0
 11
225.579355741832
 21
140.817118614356
 31
0.0
  0
LINE
  5
42
330
1D
100
AcDbEntity
  8
0
100
AcDbLine
 10
225.5567
 20
136.87
 30
0.0
 11
225.7185
 21
134.229
 31
0.0
  0
LINE
  5
43
330
1D
100
AcDbEntity
  8
0
100
AcDbLine
 10
228.6929
 20
135.261
 30
0.0
 11
232.2679
 21
132.723
 31
0.0
  0
LINE
  5
47
330
1D
100
AcDbEntity
  8
0
100
AcDbLine
 10
241.4128
 20
124.823
 30
0.0
 11
244.4916
 21
125.391
 31
0.0
  0
LINE
  5
48
330
1D
100
AcDbEntity
  8
0
100
AcDbLine
 10
244.4916
 20
125.391
 30
0.0
 11
246.9591
 21
126.131
 31
0.0
  0
LINE
  5
49
330
1D
100
AcDbEntity
  8
0
100
AcDbLine
 10
240.0342
 20
124.841
 30
0.0
 11
241.4128
 21
124.823
 31
0.0
  0
LINE
  5
4A
330
1D
100
AcDbEntity
  8
0
100
AcDbLine
 10
236.3696
 20
125.104
 30
0.0
 11
240.0342
 21
124.841
 31
0.0
  0
LINE
  5
4B
330
1D
100
AcDbEntity
  8
0
100
AcDbLine
 10
238.3976
 20
131.081
 30
0.0
 11
244.8495
 21
131.638
 31
0.0
  0
LINE
  5
4C
330
1D
100
AcDbEntity
  8
0
100
AcDbLine
 10
244.8495
 20
131.638
 30
0.0
 11
250.735476364614
 21
134.284
 31
0.0
  0
LINE
  5
50
330
1D
100
AcDbEntity
  8
0
100
AcDbLine
 10
246.9591
 20
126.131
 30
0.0
 11
250.1639
 21
127.983
 31
0.0
  0
LINE
  5
54
330
1D
100
AcDbEntity
  8
0
100
AcDbLine
 10
251.7493
 20
129.391
 30
0.0
 11
253.459
 21
131.728
 31
0.0
  0
LINE
  5
55
330
1D
100
AcDbEntity
  8
0
100
AcDbLine
 10
253.459
 20
131.728
 30
0.0
 11
253.9631
 21
133.037
 31
0.0
  0
LINE
  5
56
330
1D
100
AcDbEntity
  8
0
100
AcDbLine
 10
250.1639
 20
127.983
 30
0.0
 11
251.7493
 21
129.391
 31
0.0
  0
LINE
  5
57
330
1D
100
AcDbEntity
  8
0
100
AcDbLine
 10
253.9631
 20
133.037
 30
0.0
 11
254.5056
 21
135.515
 31
0.0
  0
LINE
  5
5A
330
1D
100
AcDbEntity
  8
0
100
AcDbLine
 10
253.0934
 20
137.367
 30
0.0
 11
254.5271
 21
140.936
 31
0.0
  0
LINE
  5
5F
330
1D
100
AcDbEntity
  8
0
100
AcDbLine
 10
232.2679
 20
132.723
 30
0.0
 11
238.3976
 21
131.081
 31
0.0
  0
LINE
  5
67
330
1D
100
AcDbEntity
  8
0
100
AcDbLine
 10
225.5294
 20
189.1031
 30
0.0
 11
225.5294
 21
208.531
 31
0.0
  0
LINE
  5
68
330
1D
100
AcDbEntity
  8
0
100
AcDbLine
 10
225.5294
 20
189.1031
 30
0.0
 11
225.5296
 21
174.8131
 31
0.0
  0
LINE
  5
69
330
1D
100
AcDbEntity
  8
0
100
AcDbLine
 10
225.5296
 20
174.8131
 30
0.0
 11
225.5316
 21
140.936
 31
0.0
  0
LINE
  5
6E
330
1D
100
AcDbEntity
  8
0
100
AcDbLine
 10
254.454392984699
 20
140.755005832735
 30
0.0
 11
254.5056
 21
135.515
 31
0.0
  0
LINE
  5
72
330
1D
100
AcDbEntity
  8
0
100
AcDbLine
 10
330.2951
 20
188.8147
 30
0.0
 11
331.1512
 21
186.1686
 31
0.0
  0
LINE
  5
73
330
1D
100
AcDbEntity
  8
0
100
AcDbLine
 10
335.4732
 20
181.7846
 30
0.0
 11
336.7078
 21
181.2876
 31
0.0
  0
LINE
  5
74
330
1D
100
AcDbEntity
  8
0
100
AcDbLine
 10
333.8578
 20
182.7615
 30
0.0
 11
335.4732
 21
181.7846
 31
0.0
  0
LINE
  5
75
330
1D
100
AcDbEntity
  8
0
100
AcDbLine
 10
341.944
 20
180.2583
 30
0.0
 11
345.953
 21
179.9434
 31
0.0
  0
LINE
  5
76
330
1D
100
AcDbEntity
  8
0
100
AcDbLine
 10
345.953
 20
179.9434
 30
0.0
 11
349.861
 21
179.823
 31
0.0
  0
LINE
  5
77
330
1D
100
AcDbEntity
  8
0
100
AcDbLine
 10
338.7793
 20
180.7182
 30
0.0
 11
341.944
 21
180.2583
 31
0.0
  0
LINE
  5
78
330
1D
100
AcDbEntity
  8
0
100
AcDbLine
 10
357.897
 20
180.287
 30
0.0
 11
361.077
 21
180.7132
 31
0.0
  0
LINE
  5
79
330
1D
100
AcDbEntity
  8
0
100
AcDbLine
 10
365.204
 20
182.1933
 30
0.0
 11
366.471
 21
183.1447
 31
0.0
  0
LINE
  5
7A
330
1D
100
AcDbEntity
  8
0
100
AcDbLine
 10
363.493
 20
181.3935
 30
0.0
 11
365.204
 21
182.1933
 31
0.0
  0
LINE
  5
7B
330
1D
100
AcDbEntity
  8
0
100
AcDbLine
 10
361.077
 20
180.7132
 30
0.0
 11
363.493
 21
181.3935
 31
0.0
  0
LINE
  5
7C
330
1D
100
AcDbEntity
  8
0
100
AcDbLine
 10
354.291
 20
179.9709
 30
0.0
 11
357.897
 21
180.287
 31
0.0
  0
LINE
  5
7D
330
1D
100
AcDbEntity
  8
0
100
AcDbLine
 10
349.861
 20
179.823
 30
0.0
 11
354.291
 21
179.9709
 31
0.0
  0
LINE
  5
7E
330
1D
100
AcDbEntity
  8
0
100
AcDbLine
 10
336.7078
 20
181.2876
 30
0.0
 11
338.7793
 21
180.7182
 31
0.0
  0
LINE
  5
81
330
1D
100
AcDbEntity
  8
0
100
AcDbLine
 10
332.6458
 20
183.8343
 30
0.0
 11
333.8578
 21
182.7615
 31
0.0
  0
LINE
  5
85
330
1D
100
AcDbEntity
  8
0
100
AcDbLine
 10
331.1512
 20
186.1686
 30
0.0
 11
332.6458
 21
183.8343
 31
0.0
  0
LINE
  5
86
330
1D
100
AcDbEntity
  8
0
100
AcDbLine
 10
366.471
 20
183.1447
 30
0.0
 11
367.07
 21
183.7234
 31
0.0
  0
LINE
  5
8A
330
1D
100
AcDbEntity
  8
0
100
AcDbLine
 10
367.73
 20
184.5203
 30
0.0
 11
368.722
 21
186.1243
 31
0.0
  0
LINE
  5
8B
330
1D
100
AcDbEntity
  8
0
100
AcDbLine
 10
368.722
 20
186.1243
 30
0.0
 11
369.661
 21
189.256
 31
0.0
  0
LINE
  5
8E
330
1D
100
AcDbEntity
  8
0
100
AcDbLine
 10
367.07
 20
183.7234
 30
0.0
 11
367.73
 21
184.5203
 31
0.0
  0
LINE
  5
93
330
1D
100
AcDbEntity
  8
0
100
AcDbLine
 10
369.661
 20
189.256
 30
0.0
 11
369.77
 21
189.64
 31
0.0
  0
LINE
  5
95
330
1D
100
AcDbEntity
  8
0
100
AcDbLine
 10
329.6615
 20
195.0011
 30
0.0
 11
329.9202
 21
191.5087
 31
0.0
  0
LINE
  5
96
330
1D
100
AcDbEntity
  8
0
100
AcDbLine
 10
329.9202
 20
191.5087
 30
0.0
 11
330.2951
 21
188.8147
 31
0.0
  0
LINE
  5
98
330
1D
100
AcDbEntity
  8
0
100
AcDbLine
 10
370.126
 20
194.0366
 30
0.0
 11
370.499
 21
201.4994
 31
0.0
  0
LINE
  5
99
330
1D
100
AcDbEntity
  8
0
100
AcDbLine
 10
369.77
 20
189.64
 30
0.0
 11
370.126
 21
194.0366
 31
0.0
  0
LINE
  5
9A
330
1D
100
AcDbEntity
  8
0
100
AcDbLine
 10
254.5294
 20
189.104
 30
0.0
 11
254.5294
 21
203.5944
 31
0.0
  0
LINE
  5
9B
330
1D
100
AcDbEntity
  8
0
100
AcDbLine
 10
254.5291
 20
174.8119
 30
0.0
 11
254.5294
 21
189.104
 31
0.0
  0
LINE
  5
9C
330
1D
100
AcDbEntity
  8
0
100
AcDbLine
 10
254.5271
 20
140.936
 30
0.0
 11
254.5291
 21
174.8119
 31
0.0
  0
LINE
  5
9D
330
1D
100
AcDbEntity
  8
0
100
AcDbLine
 10
225.5316
 20
140.936
 30
0.0
 11
226.9653
 21
137.367
 31
0.0
  0
LINE
  5
9E
330
1D
100
AcDbEntity
  8
0
100
AcDbLine
 10
226.9653
 20
137.367
 30
0.0
 11
228.6929
 21
135.261
 31
0.0
  0
LINE
  5
9F
330
1D
100
AcDbEntity
  8
0
100
AcDbLine
 10
435.319323404496
 20
90.895270390104
 30
0.0
 11
439.609584589695
 21
92.524151372319
 31
0.0
  0
LINE
  5
A1
330
1D
100
AcDbEntity
  8
0
100
AcDbLine
 10
446.257
 20
101.212
 30
0.0
 11
448.0
 21
108.672
 31
0.0
  0
LINE
  5
A2
330
1D
100
AcDbEntity
  8
0
100
AcDbLine
 10
443.628
 20
96.758
 30
0.0
 11
446.257
 21
101.212
 31
0.0
  0
LINE
  5
A3
330
1D
100
AcDbEntity
  8
0
100
AcDbLine
 10
439.609584589695
 20
92.524151372319
 30
0.0
 11
443.628
 21
96.758
 31
0.0
  0
LINE
  5
A5
330
1D
100
AcDbEntity
  8
0
100
AcDbLine
 10
446.522
 20
196.919
 30
0.0
 11
448.0
 21
195.339358841779
 31
0.0
  0
LINE
  5
A6
330
1D
100
AcDbEntity
  8
0
100
AcDbLine
 10
446.174049608484
 20
197.075082779564
 30
0.0
 11
447.649
 21
195.35
 31
0.0
  0
LINE
  5
A7
330
1D
100
AcDbEntity
  8
0
100
AcDbLine
 10
447.3
 20
1.767
 30
0.0
 11
460.0
 21
0.177
 31
0.0
  0
LINE
  5
AA
330
1D
100
AcDbEntity
  8
0
100
AcDbLine
 10
444.939
 20
199.303
 30
0.0
 11
445.004919206101
 21
199.194130414899
 31
0.0
  0
LINE
  5
AB
330
1D
100
AcDbEntity
  8
0
100
AcDbLine
 10
444.922567617897
 20
199.354946956843
 30
0.0
 11
444.939
 21
199.303
 31
0.0
  0
LINE
  5
AC
330
1D
100
AcDbEntity
  8
0
100
AcDbLine
 10
446.051
 20
197.219
 30
0.0
 11
446.522
 21
196.919
 31
0.0
  0
LINE
  5
AD
330
1D
100
AcDbEntity
  8
0
100
AcDbLine
 10
446.065
 20
197.124
 30
0.0
 11
446.522
 21
196.919
 31
0.0
  0
LINE
  5
AE
330
1D
100
AcDbEntity
  8
0
100
AcDbLine
 10
448.0
 20
117.478
 30
0.0
 11
448.0
 21
129.028
 31
0.0
  0
LINE
  5
AF
330
1D
100
AcDbEntity
  8
0
100
AcDbLine
 10
448.0
 20
188.3675
 30
0.0
 11
448.0
 21
205.7619
 31
0.0
  0
LINE
  5
B0
330
1D
100
AcDbEntity
  8
0
100
AcDbLine
 10
448.0
 20
205.7619
 30
0.0
 11
448.0
 21
188.3675
 31
0.0
  0
LINE
  5
B1
330
1D
100
AcDbEntity
  8
0
100
AcDbLine
 10
448.0
 20
194.4071
 30
0.0
 11
448.0
 21
183.7265
 31
0.0
  0
LINE
  5
B2
330
1D
100
AcDbEntity
  8
0
100
AcDbLine
 10
448.0
 20
183.7265
 30
0.0
 11
448.0
 21
169.423
 31
0.0
  0
LINE
  5
B3
330
1D
100
AcDbEntity
  8
0
100
AcDbLine
 10
448.0
 20
183.7265
 30
0.0
 11
448.0
 21
194.4071
 31
0.0
  0
LINE
  5
B4
330
1D
100
AcDbEntity
  8
0
100
AcDbLine
 10
448.0
 20
169.423
 30
0.0
 11
448.0
 21
155.5544
 31
0.0
  0
LINE
  5
B5
330
1D
100
AcDbEntity
  8
0
100
AcDbLine
 10
448.0
 20
169.423
 30
0.0
 11
448.0
 21
183.7265
 31
0.0
  0
LINE
  5
B6
330
1D
100
AcDbEntity
  8
0
100
AcDbLine
 10
448.0
 20
155.5544
 30
0.0
 11
448.0
 21
142.288
 31
0.0
  0
LINE
  5
B7
330
1D
100
AcDbEntity
  8
0
100
AcDbLine
 10
448.0
 20
155.5544
 30
0.0
 11
448.0
 21
169.423
 31
0.0
  0
LINE
  5
B8
330
1D
100
AcDbEntity
  8
0
100
AcDbLine
 10
448.0
 20
142.288
 30
0.0
 11
448.0
 21
129.028
 31
0.0
  0
LINE
  5
B9
330
1D
100
AcDbEntity
  8
0
100
AcDbLine
 10
448.0
 20
142.288
 30
0.0
 11
448.0
 21
155.5544
 31
0.0
  0
LINE
  5
BA
330
1D
100
AcDbEntity
  8
0
100
AcDbLine
 10
448.0
 20
129.028
 30
0.0
 11
448.0
 21
142.288
 31
0.0
  0
LINE
  5
BB
330
1D
100
AcDbEntity
  8
0
100
AcDbLine
 10
448.0
 20
129.028
 30
0.0
 11
448.0
 21
117.478
 31
0.0
  0
LINE
  5
BC
330
1D
100
AcDbEntity
  8
0
100
AcDbLine
 10
448.0
 20
118.656
 30
0.0
 11
448.0
 21
108.672
 31
0.0
  0
LINE
  5
BD
330
1D
100
AcDbEntity
  8
0
100
AcDbLine
 10
448.0
 20
108.672
 30
0.0
 11
448.0
 21
118.656
 31
0.0
  0
LINE
  5
BE
330
1D
100
AcDbEntity
  8
0
100
AcDbLine
 10
447.649
 20
195.35
 30
0.0
 11
448.0
 21
195.075241803279
 31
0.0
  0
LINE
  5
BF
330
1D
100
AcDbEntity
  8
0
100
AcDbLine
 10
370.499
 20
201.4994
 30
0.0
 11
370.815
 21
208.9487
 31
0.0
  0
LINE
  5
C0
330
1D
100
AcDbEntity
  8
0
100
AcDbLine
 10
254.5294
 20
203.5944
 30
0.0
 11
254.5294
 21
217.9999
 31
0.0
  0
LINE
  5
C1
330
1D
100
AcDbEntity
  8
0
100
AcDbLine
 10
254.5294
 20
203.5944
 30
0.0
 11
254.5294
 21
189.104
 31
0.0
  0
LINE
  5
C9
330
1D
100
AcDbEntity
  8
0
100
AcDbLine
 10
370.815
 20
208.9487
 30
0.0
 11
371.091
 21
216.2829
 31
0.0
  0
LINE
  5
CA
330
1D
100
AcDbEntity
  8
0
100
AcDbLine
 10
329.0497
 20
208.934
 30
0.0
 11
329.6615
 21
195.0011
 31
0.0
  0
LINE
  5
CB
330
1D
100
AcDbEntity
  8
0
100
AcDbLine
 10
225.5294
 20
208.531
 30
0.0
 11
225.5294
 21
189.1031
 31
0.0
  0
LINE
  5
CD
330
1D
100
AcDbEntity
  8
0
100
AcDbLine
 10
443.967
 20
204.03
 30
0.0
 11
444.15
 21
201.628
 31
0.0
  0
LINE
  5
CE
330
1D
100
AcDbEntity
  8
0
100
AcDbLine
 10
443.967
 20
204.03
 30
0.0
 11
444.49
 21
206.702
 31
0.0
  0
LINE
  5
D0
330
1D
100
AcDbEntity
  8
0
100
AcDbLine
 10
448.0
 20
205.7619
 30
0.0
 11
448.0
 21
208.4099
 31
0.0
  0
LINE
  5
D2
330
1D
100
AcDbEntity
  8
0
100
AcDbLine
 10
444.49
 20
206.702
 30
0.0
 11
445.795
 21
209.218
 31
0.0
  0
LINE
  5
D4
330
1D
100
AcDbEntity
  8
0
100
AcDbLine
 10
448.0
 20
208.4099
 30
0.0
 11
448.0
 21
205.7619
 31
0.0
  0
LINE
  5
D5
330
1D
100
AcDbEntity
  8
0
100
AcDbLine
 10
445.795
 20
209.218
 30
0.0
 11
447.729
 21
211.484
 31
0.0
  0
LINE
  5
D7
330
1D
100
AcDbEntity
  8
0
100
AcDbLine
 10
444.15
 20
201.628
 30
0.0
 11
444.603
 21
199.979
 31
0.0
  0
LINE
  5
D9
330
1D
100
AcDbEntity
  8
0
100
AcDbLine
 10
254.5294
 20
217.9999
 30
0.0
 11
254.5294
 21
203.5944
 31
0.0
  0
LINE
  5
DA
330
1D
100
AcDbEntity
  8
0
100
AcDbLine
 10
254.5294
 20
217.9999
 30
0.0
 11
254.5294
 21
234.633
 31
0.0
  0
LINE
  5
DB
330
1D
100
AcDbEntity
  8
0
100
AcDbLine
 10
255.2874
 20
215.4639
 30
0.0
 11
259.6249
 21
217.9216
 31
0.0
  0
LINE
  5
DC
330
1D
100
AcDbEntity
  8
0
100
AcDbLine
 10
254.5294
 20
215.092580466064
 30
0.0
 11
255.2874
 21
215.4639
 31
0.0
  0
LINE
  5
E4
330
1D
100
AcDbEntity
  8
0
100
AcDbLine
 10
328.7885
 20
216.2828
 30
0.0
 11
329.0497
 21
208.934
 31
0.0
  0
LINE
  5
E9
330
1D
100
AcDbEntity
  8
0
100
AcDbLine
 10
371.091
 20
216.2829
 30
0.0
 11
371.318
 21
223.6241
 31
0.0
  0
LINE
  5
EA
330
1D
100
AcDbEntity
  8
0
100
AcDbLine
 10
259.6249
 20
217.9216
 30
0.0
 11
261.0575
 21
218.7789
 31
0.0
  0
LINE
  5
EB
330
1D
100
AcDbEntity
  8
0
100
AcDbLine
 10
261.0575
 20
218.7789
 30
0.0
 11
264.7545
 21
222.1546
 31
0.0
  0
LINE
  5
EC
330
1D
100
AcDbEntity
  8
0
100
AcDbLine
 10
221.8207
 20
217.03
 30
0.0
 11
225.529371211345
 21
214.992037897922
 31
0.0
  0
LINE
  5
15B
330
1D
100
AcDbEntity
  8
0
100
AcDbLine
 10
205.3035
 20
251.043
 30
0.0
 11
206.123
 21
255.986
 31
0.0
  0
LINE
  5
15C
330
1D
100
AcDbEntity
  8
0
100
AcDbLine
 10
205.0
 20
247.729
 30
0.0
 11
205.3035
 21
251.043
 31
0.0
  0
LINE
  5
15D
330
1D
100
AcDbEntity
  8
0
100
AcDbLine
 10
205.180409489019
 20
245.200525020905
 30
0.0
 11
205.4737
 21
241.09
 31
0.0
  0
LINE
  5
15E
330
1D
100
AcDbEntity
  8
0
100
AcDbLine
 10
205.4737
 20
241.09
 30
0.0
 11
206.537148643434
 21
237.11632975141
 31
0.0
  0
LINE
  5
15F
330
1D
100
AcDbEntity
  8
0
100
AcDbLine
 10
205.4737
 20
241.09
 30
0.0
 11
206.537148643434
 21
237.11632975141
 31
0.0
  0
LINE
  5
160
330
1D
100
AcDbEntity
  8
0
100
AcDbLine
 10
207.198
 20
234.647
 30
0.0
 11
208.5688
 21
231.613
 31
0.0
  0
LINE
  5
161
330
1D
100
AcDbEntity
  8
0
100
AcDbLine
 10
208.5688
 20
231.613
 30
0.0
 11
210.1053
 21
228.661
 31
0.0
  0
LINE
  5
162
330
1D
100
AcDbEntity
  8
0
100
AcDbLine
 10
210.1053
 20
228.661
 30
0.0
 11
212.0295
 21
225.935
 31
0.0
  0
LINE
  5
163
330
1D
100
AcDbEntity
  8
0
100
AcDbLine
 10
212.0295
 20
225.935
 30
0.0
 11
214.1008
 21
223.3212
 31
0.0
  0
LINE
  5
164
330
1D
100
AcDbEntity
  8
0
100
AcDbLine
 10
216.2181
 20
244.401
 30
0.0
 11
216.3111
 21
242.947
 31
0.0
  0
LINE
  5
165
330
1D
100
AcDbEntity
  8
0
100
AcDbLine
 10
216.3111
 20
242.947
 30
0.0
 11
217.0146
 21
240.14
 31
0.0
  0
LINE
  5
166
330
1D
100
AcDbEntity
  8
0
100
AcDbLine
 10
216.0605
 20
247.291
 30
0.0
 11
216.283
 21
250.174
 31
0.0
  0
LINE
  5
167
330
1D
100
AcDbEntity
  8
0
100
AcDbLine
 10
216.0605
 20
247.291
 30
0.0
 11
216.2181
 21
244.401
 31
0.0
  0
LINE
  5
168
330
1D
100
AcDbEntity
  8
0
100
AcDbLine
 10
216.283
 20
250.174
 30
0.0
 11
216.8829
 21
253.006
 31
0.0
  0
LINE
  5
16D
330
1D
100
AcDbEntity
  8
0
100
AcDbLine
 10
214.1008
 20
223.3212
 30
0.0
 11
216.5004
 21
221.0147
 31
0.0
  0
LINE
  5
16E
330
1D
100
AcDbEntity
  8
0
100
AcDbLine
 10
264.7545
 20
222.1546
 30
0.0
 11
268.124
 21
225.84
 31
0.0
  0
LINE
  5
16F
330
1D
100
AcDbEntity
  8
0
100
AcDbLine
 10
254.5294
 20
227.859067338686
 30
0.0
 11
256.7444
 21
229.607
 31
0.0
  0
LINE
  5
173
330
1D
100
AcDbEntity
  8
0
100
AcDbLine
 10
256.7444
 20
229.607
 30
0.0
 11
260.3963
 21
234.112
 31
0.0
  0
LINE
  5
175
330
1D
100
AcDbEntity
  8
0
100
AcDbLine
 10
224.8887
 20
228.212
 30
0.0
 11
225.529314260513
 21
227.773512985257
 31
0.0
  0
LINE
  5
176
330
1D
100
AcDbEntity
  8
0
100
AcDbLine
 10
222.7906
 20
230.215
 30
0.0
 11
224.8887
 21
228.212
 31
0.0
  0
LINE
  5
178
330
1D
100
AcDbEntity
  8
0
100
AcDbLine
 10
220.0751
 20
233.604
 30
0.0
 11
222.7906
 21
230.215
 31
0.0
  0
LINE
  5
179
330
1D
100
AcDbEntity
  8
0
100
AcDbLine
 10
260.3963
 20
234.112
 30
0.0
 11
262.3248
 21
238.006
 31
0.0
  0
LINE
  5
17E
330
1D
100
AcDbEntity
  8
0
100
AcDbLine
 10
225.5293
 20
230.974
 30
0.0
 11
225.5294
 21
208.531
 31
0.0
  0
LINE
  5
17F
330
1D
100
AcDbEntity
  8
0
100
AcDbLine
 10
225.5293
 20
230.974
 30
0.0
 11
225.5293
 21
244.979
 31
0.0
  0
LINE
  5
180
330
1D
100
AcDbEntity
  8
0
100
AcDbLine
 10
268.9873
 20
227.278
 30
0.0
 11
272.1772
 21
233.117
 31
0.0
  0
LINE
  5
181
330
1D
100
AcDbEntity
  8
0
100
AcDbLine
 10
268.124
 20
225.84
 30
0.0
 11
268.9873
 21
227.278
 31
0.0
  0
LINE
  5
182
330
1D
100
AcDbEntity
  8
0
100
AcDbLine
 10
272.1772
 20
233.117
 30
0.0
 11
272.9178
 21
234.612
 31
0.0
  0
LINE
  5
185
330
1D
100
AcDbEntity
  8
0
100
AcDbLine
 10
218.6475
 20
236.12
 30
0.0
 11
220.0751
 21
233.604
 31
0.0
  0
LINE
  5
187
330
1D
100
AcDbEntity
  8
0
100
AcDbLine
 10
217.0146
 20
240.14
 30
0.0
 11
218.6475
 21
236.12
 31
0.0
  0
LINE
  5
189
330
1D
100
AcDbEntity
  8
0
100
AcDbLine
 10
262.3248
 20
238.006
 30
0.0
 11
262.805
 21
239.372
 31
0.0
  0
LINE
  5
18B
330
1D
100
AcDbEntity
  8
0
100
AcDbLine
 10
263.6033
 20
242.162
 30
0.0
 11
264.026
 21
246.49
 31
0.0
  0
LINE
  5
18D
330
1D
100
AcDbEntity
  8
0
100
AcDbLine
 10
262.805
 20
239.372
 30
0.0
 11
263.6033
 21
242.162
 31
0.0
  0
LINE
  5
18E
330
1D
100
AcDbEntity
  8
0
100
AcDbLine
 10
254.5294
 20
234.633
 30
0.0
 11
254.5294
 21
245.528
 31
0.0
  0
LINE
  5
18F
330
1D
100
AcDbEntity
  8
0
100
AcDbLine
 10
254.5294
 20
234.633
 30
0.0
 11
254.5294
 21
217.9999
 31
0.0
  0
LINE
  5
190
330
1D
100
AcDbEntity
  8
0
100
AcDbLine
 10
225.5293
 20
244.979
 30
0.0
 11
225.5294
 21
246.89
 31
0.0
  0
LINE
  5
191
330
1D
100
AcDbEntity
  8
0
100
AcDbLine
 10
225.5293
 20
244.979
 30
0.0
 11
225.5293
 21
230.974
 31
0.0
  0
LINE
  5
192
330
1D
100
AcDbEntity
  8
0
100
AcDbLine
 10
272.9178
 20
234.612
 30
0.0
 11
274.2016
 21
239.448
 31
0.0
  0
LINE
  5
19D
330
1D
100
AcDbEntity
  8
0
100
AcDbLine
 10
371.200407379162
 20
219.821144281506
 30
0.0
 11
372.187
 21
220.5592
 31
0.0
  0
LINE
  5
1A1
330
1D
100
AcDbEntity
  8
0
100
AcDbLine
 10
326.4253
 20
221.657
 30
0.0
 11
328.679863621328
 21
219.794610861946
 31
0.0
  0
LINE
  5
1A2
330
1D
100
AcDbEntity
  8
0
100
AcDbLine
 10
372.187
 20
220.5592
 30
0.0
 11
374.649
 21
222.7952
 31
0.0
  0
LINE
  5
1AC
330
1D
100
AcDbEntity
  8
0
100
AcDbLine
 10
320.0926
 20
229.3296
 30
0.0
 11
321.9565
 21
226.5742
 31
0.0
  0
LINE
  5
1AD
330
1D
100
AcDbEntity
  8
0
100
AcDbLine
 10
318.5001
 20
232.2487
 30
0.0
 11
320.0926
 21
229.3296
 31
0.0
  0
LINE
  5
1AE
330
1D
100
AcDbEntity
  8
0
100
AcDbLine
 10
317.1913
 20
235.3062
 30
0.0
 11
318.5001
 21
232.2487
 31
0.0
  0
LINE
  5
1AF
330
1D
100
AcDbEntity
  8
0
100
AcDbLine
 10
316.227534019779
 20
238.324254118496
 30
0.0
 11
317.1913
 21
235.3062
 31
0.0
  0
LINE
  5
1B0
330
1D
100
AcDbEntity
  8
0
100
AcDbLine
 10
316.227534019779
 20
238.324254118496
 30
0.0
 11
317.1913
 21
235.3062
 31
0.0
  0
LINE
  5
1B4
330
1D
100
AcDbEntity
  8
0
100
AcDbLine
 10
324.0736
 20
224.0093
 30
0.0
 11
326.4253
 21
221.657
 31
0.0
  0
LINE
  5
1B5
330
1D
100
AcDbEntity
  8
0
100
AcDbLine
 10
321.9565
 20
226.5742
 30
0.0
 11
323.015350000018
 21
225.291949999978
 31
0.0
  0
LINE
  5
1B6
330
1D
100
AcDbEntity
  8
0
100
AcDbLine
 10
321.9565
 20
226.5742
 30
0.0
 11
323.015350000018
 21
225.291949999978
 31
0.0
  0
LINE
  5
1DF
330
1D
100
AcDbEntity
  8
0
100
AcDbLine
 10
315.413693978725
 20
242.218083010566
 30
0.0
 11
315.4724
 21
241.7254
 31
0.0
  0
LINE
  5
1E0
330
1D
100
AcDbEntity
  8
0
100
AcDbLine
 10
315.4724
 20
241.7254
 30
0.0
 11
316.1793
 21
238.4753
 31
0.0
  0
LINE
  5
1E1
330
1D
100
AcDbEntity
  8
0
100
AcDbLine
 10
315.413693978725
 20
242.218083010566
 30
0.0
 11
315.4724
 21
241.7254
 31
0.0
  0
LINE
  5
1E2
330
1D
100
AcDbEntity
  8
0
100
AcDbLine
 10
328.0867
 20
238.5092
 30
0.0
 11
328.5614
 21
223.6241
 31
0.0
  0
LINE
  5
1E7
330
1D
100
AcDbEntity
  8
0
100
AcDbLine
 10
328.5614
 20
223.6241
 30
0.0
 11
328.7885
 21
216.2828
 31
0.0
  0
LINE
  5
1E8
330
1D
100
AcDbEntity
  8
0
100
AcDbLine
 10
374.649
 20
222.7952
 30
0.0
 11
376.886
 21
225.2563
 31
0.0
  0
LINE
  5
1E9
330
1D
100
AcDbEntity
  8
0
100
AcDbLine
 10
378.879
 20
227.918
 30
0.0
 11
380.612
 21
230.7579
 31
0.0
  0
LINE
  5
1EA
330
1D
100
AcDbEntity
  8
0
100
AcDbLine
 10
378.879
 20
227.918
 30
0.0
 11
380.612
 21
230.7579
 31
0.0
  0
LINE
  5
1EB
330
1D
100
AcDbEntity
  8
0
100
AcDbLine
 10
380.612
 20
230.7579
 30
0.0
 11
382.066
 21
233.7492
 31
0.0
  0
LINE
  5
1EC
330
1D
100
AcDbEntity
  8
0
100
AcDbLine
 10
382.066
 20
233.7492
 30
0.0
 11
383.228
 21
236.865
 31
0.0
  0
LINE
  5
1ED
330
1D
100
AcDbEntity
  8
0
100
AcDbLine
 10
383.228
 20
236.865
 30
0.0
 11
384.09
 21
240.0779
 31
0.0
  0
LINE
  5
1F0
330
1D
100
AcDbEntity
  8
0
100
AcDbLine
 10
384.642
 20
243.3579
 30
0.0
 11
384.88
 21
246.675
 31
0.0
  0
LINE
  5
1F1
330
1D
100
AcDbEntity
  8
0
100
AcDbLine
 10
384.09
 20
240.0779
 30
0.0
 11
384.366000000053
 21
241.717950000315
 31
0.0
  0
LINE
  5
1F2
330
1D
100
AcDbEntity
  8
0
100
AcDbLine
 10
384.09
 20
240.0779
 30
0.0
 11
384.366000000053
 21
241.717950000317
 31
0.0
  0
LINE
  5
1F3
330
1D
100
AcDbEntity
  8
0
100
AcDbLine
 10
376.886
 20
225.2563
 30
0.0
 11
378.879
 21
227.918
 31
0.0
  0
LINE
  5
1F7
330
1D
100
AcDbEntity
  8
0
100
AcDbLine
 10
315.0781
 20
245.0278
 30
0.0
 11
315.4726
 21
241.7249
 31
0.0
  0
LINE
  5
1FA
330
1D
100
AcDbEntity
  8
0
100
AcDbLine
 10
274.2016
 20
239.448
 30
0.0
 11
274.8207
 21
242.727
 31
0.0
  0
LINE
  5
1FC
330
1D
100
AcDbEntity
  8
0
100
AcDbLine
 10
254.5294
 20
246.89
 30
0.0
 11
254.5294
 21
245.528
 31
0.0
  0
LINE
  5
1FD
330
1D
100
AcDbEntity
  8
0
100
AcDbLine
 10
254.1659
 20
250.116
 30
0.0
 11
254.5294
 21
246.89
 31
0.0
  0
LINE
  5
20A
330
1D
100
AcDbEntity
  8
0
100
AcDbLine
 10
315.0
 20
248.3527
 30
0.0
 11
315.0781
 21
245.0278
 31
0.0
  0
LINE
  5
20B
330
1D
100
AcDbEntity
  8
0
100
AcDbLine
 10
315.006551221683
 20
248.443889266987
 30
0.0
 11
315.2378
 21
251.6698
 31
0.0
  0
LINE
  5
20C
330
1D
100
AcDbEntity
  8
0
100
AcDbLine
 10
372.162
 20
248.2316
 30
0.0
 11
372.199
 21
249.866
 31
0.0
  0
LINE
  5
20D
330
1D
100
AcDbEntity
  8
0
100
AcDbLine
 10
384.802
 20
249.9999
 30
0.0
 11
384.88
 21
246.675
 31
0.0
  0
LINE
  5
20E
330
1D
100
AcDbEntity
  8
0
100
AcDbLine
 10
372.199
 20
249.866
 30
0.0
 11
372.257
 21
253.133
 31
0.0
  0
LINE
  5
20F
330
1D
100
AcDbEntity
  8
0
100
AcDbLine
 10
263.9907
 20
247.937
 30
0.0
 11
264.026
 21
246.49
 31
0.0
  0
LINE
  5
210
330
1D
100
AcDbEntity
  8
0
100
AcDbLine
 10
254.5294
 20
245.528
 30
0.0
 11
254.5294
 21
246.89
 31
0.0
  0
LINE
  5
211
330
1D
100
AcDbEntity
  8
0
100
AcDbLine
 10
254.5294
 20
245.528
 30
0.0
 11
254.5294
 21
234.633
 31
0.0
  0
LINE
  5
212
330
1D
100
AcDbEntity
  8
0
100
AcDbLine
 10
225.8929
 20
250.116
 30
0.0
 11
226.9653
 21
253.181
 31
0.0
  0
LINE
  5
220
330
1D
100
AcDbEntity
  8
0
100
AcDbLine
 10
263.748
 20
250.83
 30
0.0
 11
263.9907
 21
247.937
 31
0.0
  0
LINE
  5
221
330
1D
100
AcDbEntity
  8
0
100
AcDbLine
 10
225.8929
 20
250.116
 30
0.0
 11
226.9653
 21
253.181
 31
0.0
  0
LINE
  5
222
330
1D
100
AcDbEntity
  8
0
100
AcDbLine
 10
225.5294
 20
246.89
 30
0.0
 11
225.8929
 21
250.116
 31
0.0
  0
LINE
  5
223
330
1D
100
AcDbEntity
  8
0
100
AcDbLine
 10
225.5294
 20
246.89
 30
0.0
 11
225.8929
 21
250.116
 31
0.0
  0
LINE
  5
224
330
1D
100
AcDbEntity
  8
0
100
AcDbLine
 10
274.881123563977
 20
245.251665673764
 30
0.0
 11
274.98
 21
249.383
 31
0.0
  0
LINE
  5
225
330
1D
100
AcDbEntity
  8
0
100
AcDbLine
 10
216.5004
 20
221.0147
 30
0.0
 11
219.0272
 21
218.8424
 31
0.0
  0
LINE
  5
226
330
1D
100
AcDbEntity
  8
0
100
AcDbLine
 10
219.0272
 20
218.8424
 30
0.0
 11
221.8207
 21
217.03
 31
0.0
  0
LINE
  5
22B
330
1D
100
AcDbEntity
  8
0
100
AcDbLine
 10
430.977
 20
227.275
 30
0.0
 11
432.944
 21
224.62
 31
0.0
  0
LINE
  5
230
330
1D
100
AcDbEntity
  8
0
100
AcDbLine
 10
432.944
 20
224.62
 30
0.0
 11
435.214
 21
222.178
 31
0.0
  0
LINE
  5
232
330
1D
100
AcDbEntity
  8
0
100
AcDbLine
 10
435.214
 20
222.178
 30
0.0
 11
437.655
 21
219.906
 31
0.0
  0
LINE
  5
23B
330
1D
100
AcDbEntity
  8
0
100
AcDbLine
 10
437.655
 20
219.906
 30
0.0
 11
440.374
 21
217.929
 31
0.0
  0
LINE
  5
243
330
1D
100
AcDbEntity
  8
0
100
AcDbLine
 10
437.548
 20
229.419
 30
0.0
 11
439.447
 21
227.228
 31
0.0
  0
LINE
  5
246
330
1D
100
AcDbEntity
  8
0
100
AcDbLine
 10
443.219
 20
216.261
 30
0.0
 11
443.993088335217
 21
215.883402246379
 31
0.0
  0
LINE
  5
24D
330
1D
100
AcDbEntity
  8
0
100
AcDbLine
 10
440.374
 20
217.929
 30
0.0
 11
443.221
 21
216.259
 31
0.0
  0
LINE
  5
24E
330
1D
100
AcDbEntity
  8
0
100
AcDbLine
 10
441.559
 20
225.24
 30
0.0
 11
443.863
 21
223.479
 31
0.0
  0
LINE
  5
251
330
1D
100
AcDbEntity
  8
0
100
AcDbLine
 10
443.974
 20
216.074
 30
0.0
 11
444.006941382611
 21
216.394551423679
 31
0.0
  0
LINE
  5
252
330
1D
100
AcDbEntity
  8
0
100
AcDbLine
 10
443.974
 20
216.074
 30
0.0
 11
443.993192344521
 21
215.887239977428
 31
0.0
  0
LINE
  5
253
330
1D
100
AcDbEntity
  8
0
100
AcDbLine
 10
443.974
 20
216.074
 30
0.0
 11
443.994246320771
 21
215.926129550083
 31
0.0
  0
LINE
  5
254
330
1D
100
AcDbEntity
  8
0
100
AcDbLine
 10
443.974
 20
216.074
 30
0.0
 11
443.974
 21
241.893
 31
0.0
  0
LINE
  5
255
330
1D
100
AcDbEntity
  8
0
100
AcDbLine
 10
443.974
 20
216.074
 30
0.0
 11
444.004233474032
 21
216.29463512347
 31
0.0
  0
LINE
  5
25A
330
1D
100
AcDbEntity
  8
0
100
AcDbLine
 10
443.965
 20
214.847
 30
0.0
 11
443.984626138759
 21
214.738357473371
 31
0.0
  0
LINE
  5
25B
330
1D
100
AcDbEntity
  8
0
100
AcDbLine
 10
443.965
 20
214.847
 30
0.0
 11
444.014
 21
216.655
 31
0.0
  0
LINE
  5
25C
330
1D
100
AcDbEntity
  8
0
100
AcDbLine
 10
444.121306124247
 20
217.148997364733
 30
0.0
 11
444.204
 21
217.752473282442
 31
0.0
  0
LINE
  5
25D
330
1D
100
AcDbEntity
  8
0
100
AcDbLine
 10
444.051399804562
 20
216.827174747944
 30
0.0
 11
444.171
 21
217.991
 31
0.0
  0
LINE
  5
25E
330
1D
100
AcDbEntity
  8
0
100
AcDbLine
 10
444.014
 20
216.655
 30
0.0
 11
444.204
 21
217.529689119171
 31
0.0
  0
LINE
  5
25F
330
1D
100
AcDbEntity
  8
0
100
AcDbLine
 10
444.204
 20
217.85
 30
0.0
 11
445.432
 21
220.707
 31
0.0
  0
LINE
  5
260
330
1D
100
AcDbEntity
  8
0
100
AcDbLine
 10
444.223618492412
 20
217.895643349202
 30
0.0
 11
444.367
 21
218.942
 31
0.0
  0
LINE
  5
261
330
1D
100
AcDbEntity
  8
0
100
AcDbLine
 10
444.171
 20
217.991
 30
0.0
 11
444.757
 21
219.861
 31
0.0
  0
LINE
  5
262
330
1D
100
AcDbEntity
  8
0
100
AcDbLine
 10
444.4
 20
218.432
 30
0.0
 11
445.136
 21
220.146
 31
0.0
  0
LINE
  5
263
330
1D
100
AcDbEntity
  8
0
100
AcDbLine
 10
444.230580092179
 20
217.652053947674
 30
0.0
 11
444.4
 21
218.432
 31
0.0
  0
LINE
  5
264
330
1D
100
AcDbEntity
  8
0
100
AcDbLine
 10
443.982
 20
214.845
 30
0.0
 11
444.009707367469
 21
204.248191368791
 31
0.0
  0
LINE
  5
265
330
1D
100
AcDbEntity
  8
0
100
AcDbLine
 10
443.982
 20
214.845
 30
0.0
 11
444.204
 21
217.85
 31
0.0
  0
LINE
  5
266
330
1D
100
AcDbEntity
  8
0
100
AcDbLine
 10
443.863
 20
223.479
 30
0.0
 11
443.974
 21
223.410764872521
 31
0.0
  0
LINE
  5
267
330
1D
100
AcDbEntity
  8
0
100
AcDbLine
 10
444.757
 20
219.861
 30
0.0
 11
445.717
 21
221.638
 31
0.0
  0
LINE
  5
268
330
1D
100
AcDbEntity
  8
0
100
AcDbLine
 10
444.367
 20
218.942
 30
0.0
 11
445.717
 21
221.639
 31
0.0
  0
LINE
  5
269
330
1D
100
AcDbEntity
  8
0
100
AcDbLine
 10
443.512
 20
223.909
 30
0.0
 11
443.974
 21
223.618932964755
 31
0.0
  0
LINE
  5
26A
330
1D
100
AcDbEntity
  8
0
100
AcDbLine
 10
439.447
 20
227.228
 30
0.0
 11
441.559
 21
225.24
 31
0.0
  0
LINE
  5
26C
330
1D
100
AcDbEntity
  8
0
100
AcDbLine
 10
443.583
 20
228.91
 30
0.0
 11
443.974
 21
228.422753846154
 31
0.0
  0
LINE
  5
26D
330
1D
100
AcDbEntity
  8
0
100
AcDbLine
 10
440.857
 20
226.061
 30
0.0
 11
443.512
 21
223.909
 31
0.0
  0
LINE
  5
26E
330
1D
100
AcDbEntity
  8
0
100
AcDbLine
 10
438.481
 20
228.517
 30
0.0
 11
440.857
 21
226.061
 31
0.0
  0
LINE
  5
270
330
1D
100
AcDbEntity
  8
0
100
AcDbLine
 10
427.844
 20
233.176
 30
0.0
 11
429.296
 21
230.184
 31
0.0
  0
LINE
  5
277
330
1D
100
AcDbEntity
  8
0
100
AcDbLine
 10
433.317
 20
236.987
 30
0.0
 11
434.467
 21
234.324
 31
0.0
  0
LINE
  5
27B
330
1D
100
AcDbEntity
  8
0
100
AcDbLine
 10
435.883
 20
231.794
 30
0.0
 11
437.548
 21
229.419
 31
0.0
  0
LINE
  5
27D
330
1D
100
AcDbEntity
  8
0
100
AcDbLine
 10
441.904
 20
231.73
 30
0.0
 11
443.583
 21
228.91
 31
0.0
  0
LINE
  5
27E
330
1D
100
AcDbEntity
  8
0
100
AcDbLine
 10
436.419
 20
231.242
 30
0.0
 11
438.481
 21
228.517
 31
0.0
  0
LINE
  5
27F
330
1D
100
AcDbEntity
  8
0
100
AcDbLine
 10
434.467
 20
234.324
 30
0.0
 11
435.883
 21
231.794
 31
0.0
  0
LINE
  5
280
330
1D
100
AcDbEntity
  8
0
100
AcDbLine
 10
439.255
 20
239.006
 30
0.0
 11
439.895
 21
236.606
 31
0.0
  0
LINE
  5
281
330
1D
100
AcDbEntity
  8
0
100
AcDbLine
 10
440.73
 20
234.266
 30
0.0
 11
441.904
 21
231.729
 31
0.0
  0
LINE
  5
282
330
1D
100
AcDbEntity
  8
0
100
AcDbLine
 10
439.895
 20
236.606
 30
0.0
 11
440.73
 21
234.266
 31
0.0
  0
LINE
  5
285
330
1D
100
AcDbEntity
  8
0
100
AcDbLine
 10
434.699
 20
234.196
 30
0.0
 11
436.419
 21
231.242
 31
0.0
  0
LINE
  5
286
330
1D
100
AcDbEntity
  8
0
100
AcDbLine
 10
433.349
 20
237.335
 30
0.0
 11
434.699
 21
234.196
 31
0.0
  0
LINE
  5
287
330
1D
100
AcDbEntity
  8
0
100
AcDbLine
 10
429.296
 20
230.184
 30
0.0
 11
430.977
 21
227.275
 31
0.0
  0
LINE
  5
288
330
1D
100
AcDbEntity
  8
0
100
AcDbLine
 10
426.661
 20
236.287
 30
0.0
 11
427.844
 21
233.176
 31
0.0
  0
LINE
  5
292
330
1D
100
AcDbEntity
  8
0
100
AcDbLine
 10
431.56
 20
245.478
 30
0.0
 11
431.56
 21
248.378
 31
0.0
  0
LINE
  5
293
330
1D
100
AcDbEntity
  8
0
100
AcDbLine
 10
431.56
 20
245.478
 30
0.0
 11
431.856
 21
242.593
 31
0.0
  0
LINE
  5
29B
330
1D
100
AcDbEntity
  8
0
100
AcDbLine
 10
431.56
 20
248.378
 30
0.0
 11
431.856
 21
251.262
 31
0.0
  0
LINE
  5
2A1
330
1D
100
AcDbEntity
  8
0
100
AcDbLine
 10
431.678
 20
247.4
 30
0.0
 11
431.827
 21
243.985
 31
0.0
  0
LINE
  5
2A2
330
1D
100
AcDbEntity
  8
0
100
AcDbLine
 10
431.678
 20
247.4
 30
0.0
 11
431.941
 21
250.807
 31
0.0
  0
LINE
  5
2A3
330
1D
100
AcDbEntity
  8
0
100
AcDbLine
 10
431.856
 20
242.593
 30
0.0
 11
432.443
 21
239.752
 31
0.0
  0
LINE
  5
2A4
330
1D
100
AcDbEntity
  8
0
100
AcDbLine
 10
432.443
 20
239.752
 30
0.0
 11
433.317
 21
236.987
 31
0.0
  0
LINE
  5
2B1
330
1D
100
AcDbEntity
  8
0
100
AcDbLine
 10
443.984
 20
242.632
 30
0.0
 11
444.064
 21
244.115
 31
0.0
  0
LINE
  5
2B2
330
1D
100
AcDbEntity
  8
0
100
AcDbLine
 10
443.974
 20
241.893
 30
0.0
 11
443.974
 21
216.074
 31
0.0
  0
LINE
  5
2B5
330
1D
100
AcDbEntity
  8
0
100
AcDbLine
 10
443.974
 20
241.893
 30
0.0
 11
443.984
 21
242.632
 31
0.0
  0
LINE
  5
2BB
330
1D
100
AcDbEntity
  8
0
100
AcDbLine
 10
444.064
 20
244.115
 30
0.0
 11
444.758
 21
248.656
 31
0.0
  0
LINE
  5
2BF
330
1D
100
AcDbEntity
  8
0
100
AcDbLine
 10
438.807
 20
241.439
 30
0.0
 11
439.255
 21
239.006
 31
0.0
  0
LINE
  5
2C0
330
1D
100
AcDbEntity
  8
0
100
AcDbLine
 10
438.595
 20
243.281
 30
0.0
 11
438.806
 21
241.438
 31
0.0
  0
LINE
  5
2C1
330
1D
100
AcDbEntity
  8
0
100
AcDbLine
 10
438.595
 20
243.281
 30
0.0
 11
438.807
 21
241.439
 31
0.0
  0
LINE
  5
2C2
330
1D
100
AcDbEntity
  8
0
100
AcDbLine
 10
438.806
 20
241.438
 30
0.0
 11
439.255
 21
239.003
 31
0.0
  0
LINE
  5
2C3
330
1D
100
AcDbEntity
  8
0
100
AcDbLine
 10
432.387
 20
240.614
 30
0.0
 11
433.349
 21
237.335
 31
0.0
  0
LINE
  5
2C4
330
1D
100
AcDbEntity
  8
0
100
AcDbLine
 10
438.516
 20
247.744
 30
0.0
 11
438.717
 21
250.215
 31
0.0
  0
LINE
  5
2C7
330
1D
100
AcDbEntity
  8
0
100
AcDbLine
 10
444.758
 20
248.656
 30
0.0
 11
446.282
 21
252.702
 31
0.0
  0
LINE
  5
2C9
330
1D
100
AcDbEntity
  8
0
100
AcDbLine
 10
438.717
 20
250.215
 30
0.0
 11
439.291
 21
253.424
 31
0.0
  0
LINE
  5
2CC
330
1D
100
AcDbEntity
  8
0
100
AcDbLine
 10
431.941
 20
250.807
 30
0.0
 11
432.613
 21
254.158
 31
0.0
  0
LINE
  5
2CD
330
1D
100
AcDbEntity
  8
0
100
AcDbLine
 10
438.474
 20
246.089
 30
0.0
 11
438.515
 21
247.744
 31
0.0
  0
LINE
  5
2CF
330
1D
100
AcDbEntity
  8
0
100
AcDbLine
 10
438.474
 20
246.089
 30
0.0
 11
438.516
 21
247.744
 31
0.0
  0
LINE
  5
2D1
330
1D
100
AcDbEntity
  8
0
100
AcDbLine
 10
431.827
 20
243.985
 30
0.0
 11
432.387
 21
240.614
 31
0.0
  0
LINE
  5
2D2
330
1D
100
AcDbEntity
  8
0
100
AcDbLine
 10
425.821
 20
239.504
 30
0.0
 11
426.661
 21
236.287
 31
0.0
  0
LINE
  5
2D3
330
1D
100
AcDbEntity
  8
0
100
AcDbLine
 10
425.052
 20
244.438
 30
0.0
 11
425.821
 21
239.504
 31
0.0
  0
LINE
  5
2D4
330
1D
100
AcDbEntity
  8
0
100
AcDbLine
 10
425.052
 20
244.438
 30
0.0
 11
425.212
 21
251.088
 31
0.0
  0
LINE
  5
2F8
330
1D
100
AcDbEntity
  8
0
100
AcDbLine
 10
315.2378
 20
251.6698
 30
0.0
 11
315.7899
 21
254.9497
 31
0.0
  0
LINE
  5
2F9
330
1D
100
AcDbEntity
  8
0
100
AcDbLine
 10
253.0934
 20
253.181
 30
0.0
 11
254.1659
 21
250.116
 31
0.0
  0
LINE
  5
2FA
330
1D
100
AcDbEntity
  8
0
100
AcDbLine
 10
226.9653
 20
253.181
 30
0.0
 11
228.6929
 21
255.931
 31
0.0
  0
LINE
  5
2FB
330
1D
100
AcDbEntity
  8
0
100
AcDbLine
 10
226.9653
 20
253.181
 30
0.0
 11
228.6929
 21
255.931
 31
0.0
  0
LINE
  5
301
330
1D
100
AcDbEntity
  8
0
100
AcDbLine
 10
384.407
 20
253.3028
 30
0.0
 11
384.802
 21
249.9999
 31
0.0
  0
LINE
  5
303
330
1D
100
AcDbEntity
  8
0
100
AcDbLine
 10
274.238400606936
 20
253.401610661522
 30
0.0
 11
274.98
 21
249.383
 31
0.0
  0
LINE
  5
304
330
1D
100
AcDbEntity
  8
0
100
AcDbLine
 10
216.8829
 20
253.006
 30
0.0
 11
217.7589
 21
255.762
 31
0.0
  0
LINE
  5
313
330
1D
100
AcDbEntity
  8
0
100
AcDbLine
 10
315.7899
 20
254.9497
 30
0.0
 11
316.6519
 21
258.1626
 31
0.0
  0
LINE
  5
316
330
1D
100
AcDbEntity
  8
0
100
AcDbLine
 10
263.0437
 20
253.642
 30
0.0
 11
263.748
 21
250.83
 31
0.0
  0
LINE
  5
319
330
1D
100
AcDbEntity
  8
0
100
AcDbLine
 10
217.7589
 20
255.762
 30
0.0
 11
219.0187
 21
258.367
 31
0.0
  0
LINE
  5
31B
330
1D
100
AcDbEntity
  8
0
100
AcDbLine
 10
262.6088
 20
255.025
 30
0.0
 11
263.0437
 21
253.642
 31
0.0
  0
LINE
  5
31E
330
1D
100
AcDbEntity
  8
0
100
AcDbLine
 10
274.238400606936
 20
253.401610661522
 30
0.0
 11
274.98
 21
249.383
 31
0.0
  0
LINE
  5
322
330
1D
100
AcDbEntity
  8
0
100
AcDbLine
 10
228.6929
 20
255.931
 30
0.0
 11
230.9889
 21
258.226
 31
0.0
  0
LINE
  5
323
330
1D
100
AcDbEntity
  8
0
100
AcDbLine
 10
383.701
 20
256.5528
 30
0.0
 11
384.407
 21
253.3028
 31
0.0
  0
LINE
  5
324
330
1D
100
AcDbEntity
  8
0
100
AcDbLine
 10
327.6038
 20
256.2473
 30
0.0
 11
327.7983
 21
244.1213
 31
0.0
  0
LINE
  5
326
330
1D
100
AcDbEntity
  8
0
100
AcDbLine
 10
251.3659
 20
255.931
 30
0.0
 11
253.0934
 21
253.181
 31
0.0
  0
LINE
  5
327
330
1D
100
AcDbEntity
  8
0
100
AcDbLine
 10
206.123
 20
255.986
 30
0.0
 11
206.7193
 21
257.548
 31
0.0
  0
LINE
  5
329
330
1D
100
AcDbEntity
  8
0
100
AcDbLine
 10
431.856
 20
251.262
 30
0.0
 11
432.443
 21
254.102
 31
0.0
  0
LINE
  5
32A
330
1D
100
AcDbEntity
  8
0
100
AcDbLine
 10
432.613
 20
254.158
 30
0.0
 11
433.684
 21
257.403
 31
0.0
  0
LINE
  5
32B
330
1D
100
AcDbEntity
  8
0
100
AcDbLine
 10
432.443
 20
254.102
 30
0.0
 11
433.317
 21
256.868
 31
0.0
  0
LINE
  5
333
330
1D
100
AcDbEntity
  8
0
100
AcDbLine
 10
433.317
 20
256.868
 30
0.0
 11
434.467
 21
259.53
 31
0.0
  0
LINE
  5
335
330
1D
100
AcDbEntity
  8
0
100
AcDbLine
 10
440.198
 20
256.563
 30
0.0
 11
441.12
 21
258.83
 31
0.0
  0
LINE
  5
336
330
1D
100
AcDbEntity
  8
0
100
AcDbLine
 10
439.291
 20
253.424
 30
0.0
 11
440.198
 21
256.563
 31
0.0
  0
LINE
  5
339
330
1D
100
AcDbEntity
  8
0
100
AcDbLine
 10
206.7193
 20
257.548
 30
0.0
 11
208.609
 21
262.16
 31
0.0
  0
LINE
  5
33A
330
1D
100
AcDbEntity
  8
0
100
AcDbLine
 10
219.0187
 20
258.367
 30
0.0
 11
220.5306
 21
260.835
 31
0.0
  0
LINE
  5
33D
330
1D
100
AcDbEntity
  8
0
100
AcDbLine
 10
249.0701
 20
258.226
 30
0.0
 11
251.3659
 21
255.931
 31
0.0
  0
LINE
  5
33E
330
1D
100
AcDbEntity
  8
0
100
AcDbLine
 10
316.6519
 20
258.1626
 30
0.0
 11
317.8143
 21
261.2785
 31
0.0
  0
LINE
  5
344
330
1D
100
AcDbEntity
  8
0
100
AcDbLine
 10
260.8107
 20
258.983
 30
0.0
 11
262.6088
 21
255.025
 31
0.0
  0
LINE
  5
345
330
1D
100
AcDbEntity
  8
0
100
AcDbLine
 10
230.9889
 20
258.226
 30
0.0
 11
233.738
 21
259.954
 31
0.0
  0
LINE
  5
346
330
1D
100
AcDbEntity
  8
0
100
AcDbLine
 10
426.562
 20
257.279
 30
0.0
 11
427.813
 21
260.736
 31
0.0
  0
LINE
  5
347
330
1D
100
AcDbEntity
  8
0
100
AcDbLine
 10
233.738
 20
259.954
 30
0.0
 11
236.8028
 21
261.026
 31
0.0
  0
LINE
  5
348
330
1D
100
AcDbEntity
  8
0
100
AcDbLine
 10
236.8028
 20
261.026
 30
0.0
 11
237.2794
 21
261.127
 31
0.0
  0
LINE
  5
349
330
1D
100
AcDbEntity
  8
0
100
AcDbLine
 10
220.5306
 20
260.835
 30
0.0
 11
221.6221
 21
262.344
 31
0.0
  0
LINE
  5
34D
330
1D
100
AcDbEntity
  8
0
100
AcDbLine
 10
237.3969
 20
261.149
 30
0.0
 11
237.7383
 21
261.208
 31
0.0
  0
LINE
  5
34E
330
1D
100
AcDbEntity
  8
0
100
AcDbLine
 10
237.2794
 20
261.127
 30
0.0
 11
237.3969
 21
261.149
 31
0.0
  0
LINE
  5
350
330
1D
100
AcDbEntity
  8
0
100
AcDbLine
 10
238.9873
 20
261.352
 30
0.0
 11
240.0294
 21
261.39
 31
0.0
  0
LINE
  5
355
330
1D
100
AcDbEntity
  8
0
100
AcDbLine
 10
246.3208
 20
259.954
 30
0.0
 11
249.0701
 21
258.226
 31
0.0
  0
LINE
  5
356
330
1D
100
AcDbEntity
  8
0
100
AcDbLine
 10
382.689
 20
259.7215
 30
0.0
 11
383.701
 21
256.5528
 31
0.0
  0
LINE
  5
357
330
1D
100
AcDbEntity
  8
0
100
AcDbLine
 10
327.845
 20
259.2051
 30
0.0
 11
328.2258
 21
260.8559
 31
0.0
  0
LINE
  5
35A
330
1D
100
AcDbEntity
  8
0
100
AcDbLine
 10
242.6619
 20
261.149
 30
0.0
 11
242.7794
 21
261.127
 31
0.0
  0
LINE
  5
35B
330
1D
100
AcDbEntity
  8
0
100
AcDbLine
 10
242.3205
 20
261.208
 30
0.0
 11
242.6619
 21
261.149
 31
0.0
  0
LINE
  5
35D
330
1D
100
AcDbEntity
  8
0
100
AcDbLine
 10
242.7794
 20
261.127
 30
0.0
 11
243.2559
 21
261.026
 31
0.0
  0
LINE
  5
35E
330
1D
100
AcDbEntity
  8
0
100
AcDbLine
 10
243.2559
 20
261.026
 30
0.0
 11
246.3208
 21
259.954
 31
0.0
  0
LINE
  5
35F
330
1D
100
AcDbEntity
  8
0
100
AcDbLine
 10
317.8143
 20
261.2785
 30
0.0
 11
319.2684
 21
264.2699
 31
0.0
  0
LINE
  5
361
330
1D
100
AcDbEntity
  8
0
100
AcDbLine
 10
328.2258
 20
260.8559
 30
0.0
 11
328.8612
 21
262.5007
 31
0.0
  0
LINE
  5
362
330
1D
100
AcDbEntity
  8
0
100
AcDbLine
 10
371.712
 20
260.7009
 30
0.0
 11
372.176
 21
258.1274
 31
0.0
  0
LINE
  5
363
330
1D
100
AcDbEntity
  8
0
100
AcDbLine
 10
259.1548
 20
261.363
 30
0.0
 11
260.8107
 21
258.983
 31
0.0
  0
LINE
  5
366
330
1D
100
AcDbEntity
  8
0
100
AcDbLine
 10
208.609
 20
262.16
 30
0.0
 11
209.2796
 21
263.689
 31
0.0
  0
LINE
  5
368
330
1D
100
AcDbEntity
  8
0
100
AcDbLine
 10
240.0294
 20
261.39
 30
0.0
 11
240.5121
 21
261.386
 31
0.0
  0
LINE
  5
36B
330
1D
100
AcDbEntity
  8
0
100
AcDbLine
 10
223.3563
 20
264.131
 30
0.0
 11
224.416
 21
265.117
 31
0.0
  0
LINE
  5
36D
330
1D
100
AcDbEntity
  8
0
100
AcDbLine
 10
221.6221
 20
262.344
 30
0.0
 11
223.3563
 21
264.131
 31
0.0
  0
LINE
  5
36E
330
1D
100
AcDbEntity
  8
0
100
AcDbLine
 10
328.8612
 20
262.5007
 30
0.0
 11
329.4572
 21
263.4789
 31
0.0
  0
LINE
  5
36F
330
1D
100
AcDbEntity
  8
0
100
AcDbLine
 10
381.527986948721
 20
262.432984338477
 30
0.0
 11
382.689
 21
259.7215
 31
0.0
  0
LINE
  5
371
330
1D
100
AcDbEntity
  8
0
100
AcDbLine
 10
381.527986948721
 20
262.432984338477
 30
0.0
 11
382.689
 21
259.7215
 31
0.0
  0
LINE
  5
372
330
1D
100
AcDbEntity
  8
0
100
AcDbLine
 10
371.148
 20
262.2564
 30
0.0
 11
371.712
 21
260.7009
 31
0.0
  0
LINE
  5
373
330
1D
100
AcDbEntity
  8
0
100
AcDbLine
 10
329.4572
 20
263.4789
 30
0.0
 11
330.2604
 21
264.4968
 31
0.0
  0
LINE
  5
374
330
1D
100
AcDbEntity
  8
0
100
AcDbLine
 10
369.892
 20
264.1892
 30
0.0
 11
371.148
 21
262.2564
 31
0.0
  0
LINE
  5
375
330
1D
100
AcDbEntity
  8
0
100
AcDbLine
 10
330.2604
 20
264.4968
 30
0.0
 11
331.8692
 21
265.8575
 31
0.0
  0
LINE
  5
376
330
1D
100
AcDbEntity
  8
0
100
AcDbLine
 10
257.3121
 20
263.605
 30
0.0
 11
259.1548
 21
261.363
 31
0.0
  0
LINE
  5
378
330
1D
100
AcDbEntity
  8
0
100
AcDbLine
 10
271.4901
 20
262.166
 30
0.0
 11
273.4675
 21
257.579
 31
0.0
  0
LINE
  5
379
330
1D
100
AcDbEntity
  8
0
100
AcDbLine
 10
209.2796
 20
263.689
 30
0.0
 11
211.072
 21
266.502
 31
0.0
  0
LINE
  5
37A
330
1D
100
AcDbEntity
  8
0
100
AcDbLine
 10
240.5121
 20
261.386
 30
0.0
 11
240.795338672198
 21
261.362070176045
 31
0.0
  0
LINE
  5
37D
330
1D
100
AcDbEntity
  8
0
100
AcDbLine
 10
428.51
 20
262.22
 30
0.0
 11
430.105
 21
265.141
 31
0.0
  0
LINE
  5
37F
330
1D
100
AcDbEntity
  8
0
100
AcDbLine
 10
427.813
 20
260.736
 30
0.0
 11
428.51
 21
262.22
 31
0.0
  0
LINE
  5
384
330
1D
100
AcDbEntity
  8
0
100
AcDbLine
 10
224.416
 20
265.117
 30
0.0
 11
227.9338
 21
267.669
 31
0.0
  0
LINE
  5
386
330
1D
100
AcDbEntity
  8
0
100
AcDbLine
 10
368.683
 20
265.304
 30
0.0
 11
369.892
 21
264.1892
 31
0.0
  0
LINE
  5
388
330
1D
100
AcDbEntity
  8
0
100
AcDbLine
 10
269.9532
 20
265.119
 30
0.0
 11
271.4901
 21
262.166
 31
0.0
  0
LINE
  5
389
330
1D
100
AcDbEntity
  8
0
100
AcDbLine
 10
430.105
 20
265.141
 30
0.0
 11
431.952
 21
267.913
 31
0.0
  0
LINE
  5
38C
330
1D
100
AcDbEntity
  8
0
100
AcDbLine
 10
433.684
 20
257.403
 30
0.0
 11
435.138
 21
260.495
 31
0.0
  0
LINE
  5
38D
330
1D
100
AcDbEntity
  8
0
100
AcDbLine
 10
435.138
 20
260.495
 30
0.0
 11
436.955
 21
263.39
 31
0.0
  0
LINE
  5
38E
330
1D
100
AcDbEntity
  8
0
100
AcDbLine
 10
434.467
 20
259.53
 30
0.0
 11
435.883
 21
262.061
 31
0.0
  0
LINE
  5
390
330
1D
100
AcDbEntity
  8
0
100
AcDbLine
 10
435.883
 20
262.061
 30
0.0
 11
437.548
 21
264.435
 31
0.0
  0
LINE
  5
395
330
1D
100
AcDbEntity
  8
0
100
AcDbLine
 10
331.8692
 20
265.8575
 30
0.0
 11
333.6167
 21
266.834
 31
0.0
  0
LINE
  5
397
330
1D
100
AcDbEntity
  8
0
100
AcDbLine
 10
379.787
 20
265.6985
 30
0.0
 11
381.38
 21
262.779
 31
0.0
  0
LINE
  5
39C
330
1D
100
AcDbEntity
  8
0
100
AcDbLine
 10
441.12
 20
258.83
 30
0.0
 11
441.827
 21
260.302
 31
0.0
  0
LINE
  5
39D
330
1D
100
AcDbEntity
  8
0
100
AcDbLine
 10
437.548
 20
264.435
 30
0.0
 11
439.447
 21
266.627
 31
0.0
  0
LINE
  5
39E
330
1D
100
AcDbEntity
  8
0
100
AcDbLine
 10
436.955
 20
263.39
 30
0.0
 11
439.107
 21
266.044
 31
0.0
  0
LINE
  5
39F
330
1D
100
AcDbEntity
  8
0
100
AcDbLine
 10
211.072
 20
266.502
 30
0.0
 11
213.0145
 21
269.205
 31
0.0
  0
LINE
  5
3A3
330
1D
100
AcDbEntity
  8
0
100
AcDbLine
 10
366.966
 20
266.4985
 30
0.0
 11
368.683
 21
265.304
 31
0.0
  0
LINE
  5
3A4
330
1D
100
AcDbEntity
  8
0
100
AcDbLine
 10
333.6167
 20
266.834
 30
0.0
 11
335.3073
 21
267.5362
 31
0.0
  0
LINE
  5
3A5
330
1D
100
AcDbEntity
  8
0
100
AcDbLine
 10
227.9338
 20
267.669
 30
0.0
 11
230.709532107337
 21
268.866474020285
 31
0.0
  0
LINE
  5
3A6
330
1D
100
AcDbEntity
  8
0
100
AcDbLine
 10
251.737157035267
 20
267.730201608705
 30
0.0
 11
252.8078
 21
267.256
 31
0.0
  0
LINE
  5
3A7
330
1D
100
AcDbEntity
  8
0
100
AcDbLine
 10
252.8078
 20
267.256
 30
0.0
 11
255.052171114279
 21
265.43680524427
 31
0.0
  0
LINE
  5
3A8
330
1D
100
AcDbEntity
  8
0
100
AcDbLine
 10
252.8078
 20
267.256
 30
0.0
 11
255.052171114279
 21
265.43680524427
 31
0.0
  0
LINE
  5
3AE
330
1D
100
AcDbEntity
  8
0
100
AcDbLine
 10
335.3073
 20
267.5362
 30
0.0
 11
338.173
 21
268.3148
 31
0.0
  0
LINE
  5
3AF
330
1D
100
AcDbEntity
  8
0
100
AcDbLine
 10
364.515
 20
267.5181
 30
0.0
 11
366.966
 21
266.4985
 31
0.0
  0
LINE
  5
3B0
330
1D
100
AcDbEntity
  8
0
100
AcDbLine
 10
268.0297
 20
267.844
 30
0.0
 11
269.9532
 21
265.119
 31
0.0
  0
LINE
  5
3B1
330
1D
100
AcDbEntity
  8
0
100
AcDbLine
 10
231.9147
 20
269.414
 30
0.0
 11
236.1024
 21
270.55
 31
0.0
  0
LINE
  5
3B3
330
1D
100
AcDbEntity
  8
0
100
AcDbLine
 10
377.923
 20
268.4531
 30
0.0
 11
379.787
 21
265.6985
 31
0.0
  0
LINE
  5
3B6
330
1D
100
AcDbEntity
  8
0
100
AcDbLine
 10
360.371
 20
268.6468
 30
0.0
 11
364.515
 21
267.5181
 31
0.0
  0
LINE
  5
3B7
330
1D
100
AcDbEntity
  8
0
100
AcDbLine
 10
342.327
 20
269.0787
 30
0.0
 11
346.423
 21
269.4971
 31
0.0
  0
LINE
  5
3B8
330
1D
100
AcDbEntity
  8
0
100
AcDbLine
 10
338.173
 20
268.3148
 30
0.0
 11
342.327
 21
269.0787
 31
0.0
  0
LINE
  5
3B9
330
1D
100
AcDbEntity
  8
0
100
AcDbLine
 10
323.093363466177
 20
269.880712693491
 30
0.0
 11
325.2311
 21
272.2325
 31
0.0
  0
LINE
  5
3BA
330
1D
100
AcDbEntity
  8
0
100
AcDbLine
 10
323.093363466175
 20
269.880712693489
 30
0.0
 11
325.2311
 21
272.2325
 31
0.0
  0
LINE
  5
3BB
330
1D
100
AcDbEntity
  8
0
100
AcDbLine
 10
346.423
 20
269.4971
 30
0.0
 11
351.561
 21
269.5424
 31
0.0
  0
LINE
  5
3BC
330
1D
100
AcDbEntity
  8
0
100
AcDbLine
 10
351.561
 20
269.5424
 30
0.0
 11
356.165
 21
269.2476
 31
0.0
  0
LINE
  5
3BE
330
1D
100
AcDbEntity
  8
0
100
AcDbLine
 10
356.165
 20
269.2476
 30
0.0
 11
360.371
 21
268.6468
 31
0.0
  0
LINE
  5
3C1
330
1D
100
AcDbEntity
  8
0
100
AcDbLine
 10
246.3799
 20
270.103
 30
0.0
 11
248.902
 21
269.16
 31
0.0
  0
LINE
  5
3C3
330
1D
100
AcDbEntity
  8
0
100
AcDbLine
 10
431.952
 20
267.913
 30
0.0
 11
434.046
 21
270.508
 31
0.0
  0
LINE
  5
3CC
330
1D
100
AcDbEntity
  8
0
100
AcDbLine
 10
265.9562
 20
270.461
 30
0.0
 11
268.0297
 21
267.844
 31
0.0
  0
LINE
  5
3CD
330
1D
100
AcDbEntity
  8
0
100
AcDbLine
 10
236.1024
 20
270.55
 30
0.0
 11
237.0344
 21
270.702
 31
0.0
  0
LINE
  5
3D3
330
1D
100
AcDbEntity
  8
0
100
AcDbLine
 10
243.0243
 20
270.702
 30
0.0
 11
246.3799
 21
270.103
 31
0.0
  0
LINE
  5
3D5
330
1D
100
AcDbEntity
  8
0
100
AcDbLine
 10
237.8561
 20
270.792
 30
0.0
 11
238.4841
 21
270.84
 31
0.0
  0
LINE
  5
3DA
330
1D
100
AcDbEntity
  8
0
100
AcDbLine
 10
238.4841
 20
270.84
 30
0.0
 11
239.224
 21
270.876
 31
0.0
  0
LINE
  5
3DC
330
1D
100
AcDbEntity
  8
0
100
AcDbLine
 10
239.224
 20
270.876
 30
0.0
 11
240.0296
 21
270.89
 31
0.0
  0
LINE
  5
3DE
330
1D
100
AcDbEntity
  8
0
100
AcDbLine
 10
240.0296
 20
270.89
 30
0.0
 11
240.8347
 21
270.876
 31
0.0
  0
LINE
  5
3DF
330
1D
100
AcDbEntity
  8
0
100
AcDbLine
 10
240.8347
 20
270.876
 30
0.0
 11
241.5405
 21
270.842
 31
0.0
  0
LINE
  5
3E4
330
1D
100
AcDbEntity
  8
0
100
AcDbLine
 10
239.232
 20
270.879
 30
0.0
 11
239.334904865588
 21
270.877927343742
 31
0.0
  0
LINE
  5
3E7
330
1D
100
AcDbEntity
  8
0
100
AcDbLine
 10
239.102352813276
 20
270.87008122892
 30
0.0
 11
239.232
 21
270.879
 31
0.0
  0
LINE
  5
3E9
330
1D
100
AcDbEntity
  8
0
100
AcDbLine
 10
237.0344
 20
270.702
 30
0.0
 11
237.0934
 21
270.71
 31
0.0
  0
LINE
  5
3EA
330
1D
100
AcDbEntity
  8
0
100
AcDbLine
 10
237.0344
 20
270.702
 30
0.0
 11
237.094003680534
 21
270.709291348023
 31
0.0
  0
LINE
  5
3EF
330
1D
100
AcDbEntity
  8
0
100
AcDbLine
 10
375.806
 20
271.0184
 30
0.0
 11
377.923
 21
268.4531
 31
0.0
  0
LINE
  5
3F0
330
1D
100
AcDbEntity
  8
0
100
AcDbLine
 10
325.2311
 20
272.2325
 30
0.0
 11
327.6933
 21
274.4688
 31
0.0
  0
LINE
  5
3F1
330
1D
100
AcDbEntity
  8
0
100
AcDbLine
 10
214.813823888894
 20
271.003330968843
 30
0.0
 11
217.7261
 21
273.914
 31
0.0
  0
LINE
  5
3F2
330
1D
100
AcDbEntity
  8
0
100
AcDbLine
 10
434.046
 20
270.508
 30
0.0
 11
437.352
 21
273.66
 31
0.0
  0
LINE
  5
3F4
330
1D
100
AcDbEntity
  8
0
100
AcDbLine
 10
263.5589
 20
272.764
 30
0.0
 11
265.9562
 21
270.461
 31
0.0
  0
LINE
  5
3F5
330
1D
100
AcDbEntity
  8
0
100
AcDbLine
 10
217.7261
 20
273.914
 30
0.0
 11
223.2369
 21
277.644
 31
0.0
  0
LINE
  5
3F7
330
1D
100
AcDbEntity
  8
0
100
AcDbLine
 10
327.6933
 20
274.4688
 30
0.0
 11
330.3564
 21
276.4614
 31
0.0
  0
LINE
  5
3FD
330
1D
100
AcDbEntity
  8
0
100
AcDbLine
 10
373.455
 20
273.3707
 30
0.0
 11
375.806
 21
271.0184
 31
0.0
  0
LINE
  5
402
330
1D
100
AcDbEntity
  8
0
100
AcDbLine
 10
370.891
 20
275.4887
 30
0.0
 11
373.455
 21
273.3707
 31
0.0
  0
LINE
  5
403
330
1D
100
AcDbEntity
  8
0
100
AcDbLine
 10
330.3564
 20
276.4614
 30
0.0
 11
333.1964
 21
278.1921
 31
0.0
  0
LINE
  5
404
330
1D
100
AcDbEntity
  8
0
100
AcDbLine
 10
261.0286
 20
274.94
 30
0.0
 11
263.5589
 21
272.764
 31
0.0
  0
LINE
  5
405
330
1D
100
AcDbEntity
  8
0
100
AcDbLine
 10
258.2409
 20
276.748
 30
0.0
 11
261.0286
 21
274.94
 31
0.0
  0
LINE
  5
408
330
1D
100
AcDbEntity
  8
0
100
AcDbLine
 10
438.977
 20
274.989
 30
0.0
 11
441.723
 21
276.827
 31
0.0
  0
LINE
  5
40B
330
1D
100
AcDbEntity
  8
0
100
AcDbLine
 10
437.352
 20
273.66
 30
0.0
 11
438.977
 21
274.989
 31
0.0
  0
LINE
  5
410
330
1D
100
AcDbEntity
  8
0
100
AcDbLine
 10
439.447
 20
266.627
 30
0.0
 11
441.559
 21
268.614
 31
0.0
  0
LINE
  5
411
330
1D
100
AcDbEntity
  8
0
100
AcDbLine
 10
441.559
 20
268.614
 30
0.0
 11
443.863
 21
270.376
 31
0.0
  0
LINE
  5
414
330
1D
100
AcDbEntity
  8
0
100
AcDbLine
 10
439.107
 20
266.044
 30
0.0
 11
441.563
 21
268.421
 31
0.0
  0
LINE
  5
415
330
1D
100
AcDbEntity
  8
0
100
AcDbLine
 10
441.827
 20
260.302
 30
0.0
 11
442.62
 21
261.729
 31
0.0
  0
LINE
  5
419
330
1D
100
AcDbEntity
  8
0
100
AcDbLine
 10
441.563
 20
268.421
 30
0.0
 11
444.288
 21
270.483
 31
0.0
  0
LINE
  5
41B
330
1D
100
AcDbEntity
  8
0
100
AcDbLine
 10
444.058
 20
263.889
 30
0.0
 11
445.708
 21
265.885
 31
0.0
  0
LINE
  5
41C
330
1D
100
AcDbEntity
  8
0
100
AcDbLine
 10
442.62
 20
261.729
 30
0.0
 11
444.058
 21
263.889
 31
0.0
  0
LINE
  5
41E
330
1D
100
AcDbEntity
  8
0
100
AcDbLine
 10
443.863
 20
270.376
 30
0.0
 11
446.334
 21
271.895
 31
0.0
  0
LINE
  5
41F
330
1D
100
AcDbEntity
  8
0
100
AcDbLine
 10
444.288
 20
270.483
 30
0.0
 11
447.242
 21
272.202
 31
0.0
  0
LINE
  5
424
330
1D
100
AcDbEntity
  8
0
100
AcDbLine
 10
368.136
 20
277.3535
 30
0.0
 11
370.891
 21
275.4887
 31
0.0
  0
LINE
  5
42E
330
1D
100
AcDbEntity
  8
0
100
AcDbLine
 10
333.1964
 20
278.1921
 30
0.0
 11
336.1881
 21
279.6451
 31
0.0
  0
LINE
  5
433
330
1D
100
AcDbEntity
  8
0
100
AcDbLine
 10
365.218
 20
278.9478
 30
0.0
 11
368.136
 21
277.3535
 31
0.0
  0
LINE
  5
434
330
1D
100
AcDbEntity
  8
0
100
AcDbLine
 10
362.16
 20
280.258
 30
0.0
 11
365.218
 21
278.9478
 31
0.0
  0
LINE
  5
435
330
1D
100
AcDbEntity
  8
0
100
AcDbLine
 10
336.1881
 20
279.6451
 30
0.0
 11
339.3048
 21
280.806
 31
0.0
  0
LINE
  5
436
330
1D
100
AcDbEntity
  8
0
100
AcDbLine
 10
255.346
 20
278.405
 30
0.0
 11
258.2409
 21
276.748
 31
0.0
  0
LINE
  5
437
330
1D
100
AcDbEntity
  8
0
100
AcDbLine
 10
252.2585
 20
279.656
 30
0.0
 11
255.346
 21
278.405
 31
0.0
  0
LINE
  5
438
330
1D
100
AcDbEntity
  8
0
100
AcDbLine
 10
232.6011
 20
281.065
 30
0.0
 11
237.5442
 21
281.736
 31
0.0
  0
LINE
  5
43A
330
1D
100
AcDbEntity
  8
0
100
AcDbLine
 10
339.3048
 20
280.806
 30
0.0
 11
342.518
 21
281.667
 31
0.0
  0
LINE
  5
43F
330
1D
100
AcDbEntity
  8
0
100
AcDbLine
 10
358.993
 20
281.271
 30
0.0
 11
362.16
 21
280.258
 31
0.0
  0
LINE
  5
440
330
1D
100
AcDbEntity
  8
0
100
AcDbLine
 10
342.518
 20
281.667
 30
0.0
 11
345.797
 21
282.217
 31
0.0
  0
LINE
  5
441
330
1D
100
AcDbEntity
  8
0
100
AcDbLine
 10
247.5001
 20
281.191
 30
0.0
 11
252.2585
 21
279.656
 31
0.0
  0
LINE
  5
442
330
1D
100
AcDbEntity
  8
0
100
AcDbLine
 10
242.534
 20
281.773
 30
0.0
 11
247.5001
 21
281.191
 31
0.0
  0
LINE
  5
444
330
1D
100
AcDbEntity
  8
0
100
AcDbLine
 10
355.743
 20
281.978
 30
0.0
 11
358.993
 21
281.271
 31
0.0
  0
LINE
  5
445
330
1D
100
AcDbEntity
  8
0
100
AcDbLine
 10
352.44
 20
282.374
 30
0.0
 11
355.743
 21
281.978
 31
0.0
  0
LINE
  5
44B
330
1D
100
AcDbEntity
  8
0
100
AcDbLine
 10
349.115
 20
282.454
 30
0.0
 11
352.44
 21
282.374
 31
0.0
  0
LINE
  5
44C
330
1D
100
AcDbEntity
  8
0
100
AcDbLine
 10
345.797
 20
282.217
 30
0.0
 11
349.115
 21
282.454
 31
0.0
  0
LINE
  5
44D
330
1D
100
AcDbEntity
  8
0
100
AcDbLine
 10
239.2086
 20
281.92
 30
0.0
 11
242.534
 21
281.773
 31
0.0
  0
LINE
  5
44E
330
1D
100
AcDbEntity
  8
0
100
AcDbLine
 10
237.5442
 20
281.736
 30
0.0
 11
239.2086
 21
281.92
 31
0.0
  0
LINE
  5
44F
330
1D
100
AcDbEntity
  8
0
100
AcDbLine
 10
230.9529
 20
280.801
 30
0.0
 11
232.6011
 21
281.065
 31
0.0
  0
LINE
  5
450
330
1D
100
AcDbEntity
  8
0
100
AcDbLine
 10
227.8291
 20
279.624
 30
0.0
 11
230.9529
 21
280.801
 31
0.0
  0
LINE
  5
451
330
1D
100
AcDbEntity
  8
0
100
AcDbLine
 10
223.2369
 20
277.644
 30
0.0
 11
227.8291
 21
279.624
 31
0.0
  0
LINE
  5
455
330
1D
100
AcDbEntity
  8
0
100
AcDbLine
 10
441.723
 20
276.827
 30
0.0
 11
444.709
 21
278.367
 31
0.0
  0
LINE
  5
457
330
1D
100
AcDbEntity
  8
0
100
AcDbLine
 10
444.709
 20
278.367
 30
0.0
 11
447.77
 21
279.762
 31
0.0
  0
LINE
  5
458
330
1D
100
AcDbEntity
  8
0
100
AcDbLine
 10
425.212
 20
251.088
 30
0.0
 11
426.562
 21
257.279
 31
0.0
  0
LINE
  5
45C
330
1D
100
AcDbEntity
  8
0
100
AcDbLine
 10
445.136
 20
220.146
 30
0.0
 11
445.432018208212
 21
220.597595959687
 31
0.0
  0
LINE
  5
45D
330
1D
100
AcDbEntity
  8
0
100
AcDbLine
 10
445.432
 20
220.707
 30
0.0
 11
447.473
 21
223.272
 31
0.0
  0
LINE
  5
45E
330
1D
100
AcDbEntity
  8
0
100
AcDbLine
 10
445.446047636764
 20
220.618998809494
 30
0.0
 11
446.192
 21
221.757
 31
0.0
  0
LINE
  5
460
330
1D
100
AcDbEntity
  8
0
100
AcDbLine
 10
447.729
 20
211.484
 30
0.0
 11
450.614
 21
213.521
 31
0.0
  0
LINE
  5
463
330
1D
100
AcDbEntity
  8
0
100
AcDbLine
 10
454.428
 20
215.074
 30
0.0
 11
458.253
 21
215.768
 31
0.0
  0
LINE
  5
464
330
1D
100
AcDbEntity
  8
0
100
AcDbLine
 10
450.614
 20
213.521
 30
0.0
 11
454.428
 21
215.074
 31
0.0
  0
LINE
  5
465
330
1D
100
AcDbEntity
  8
0
100
AcDbLine
 10
445.717
 20
221.639
 30
0.0
 11
447.771
 21
224.059
 31
0.0
  0
LINE
  5
466
330
1D
100
AcDbEntity
  8
0
100
AcDbLine
 10
445.717
 20
221.638
 30
0.0
 11
447.029
 21
223.278
 31
0.0
  0
LINE
  5
468
330
1D
100
AcDbEntity
  8
0
100
AcDbLine
 10
445.708
 20
265.885
 30
0.0
 11
447.566
 21
267.684
 31
0.0
  0
LINE
  5
46A
330
1D
100
AcDbEntity
  8
0
100
AcDbLine
 10
447.487708840808
 20
223.175596368139
 30
0.0
 11
447.995
 21
223.731
 31
0.0
  0
LINE
  5
46B
330
1D
100
AcDbEntity
  8
0
100
AcDbLine
 10
447.029
 20
223.278
 30
0.0
 11
448.66
 21
224.741
 31
0.0
  0
LINE
  5
46C
330
1D
100
AcDbEntity
  8
0
100
AcDbLine
 10
447.473
 20
223.272
 30
0.0
 11
450.935
 21
225.721
 31
0.0
  0
LINE
  5
46D
330
1D
100
AcDbEntity
  8
0
100
AcDbLine
 10
446.432
 20
222.115
 30
0.0
 11
447.110834256421
 21
222.816852948417
 31
0.0
  0
LINE
  5
46E
330
1D
100
AcDbEntity
  8
0
100
AcDbLine
 10
446.432
 20
222.115
 30
0.0
 11
446.923674701784
 21
222.581642631101
 31
0.0
  0
LINE
  5
470
330
1D
100
AcDbEntity
  8
0
100
AcDbLine
 10
446.283
 20
252.702
 30
0.0
 11
447.24
 21
254.448
 31
0.0
  0
LINE
  5
471
330
1D
100
AcDbEntity
  8
0
100
AcDbLine
 10
447.771
 20
224.059
 30
0.0
 11
451.589
 21
226.556
 31
0.0
  0
LINE
  5
472
330
1D
100
AcDbEntity
  8
0
100
AcDbLine
 10
447.24
 20
254.448
 30
0.0
 11
448.416
 21
256.336
 31
0.0
  0
LINE
  5
473
330
1D
100
AcDbEntity
  8
0
100
AcDbLine
 10
447.566
 20
267.684
 30
0.0
 11
448.679
 21
268.581
 31
0.0
  0
LINE
  5
475
330
1D
100
AcDbEntity
  8
0
100
AcDbLine
 10
448.66
 20
224.741
 30
0.0
 11
450.569
 21
225.99
 31
0.0
  0
LINE
  5
476
330
1D
100
AcDbEntity
  8
0
100
AcDbLine
 10
447.995
 20
223.731
 30
0.0
 11
449.673
 21
225.01
 31
0.0
  0
LINE
  5
477
330
1D
100
AcDbEntity
  8
0
100
AcDbLine
 10
450.935
 20
225.721
 30
0.0
 11
454.439
 21
227.075
 31
0.0
  0
LINE
  5
478
330
1D
100
AcDbEntity
  8
0
100
AcDbLine
 10
450.569
 20
225.99
 30
0.0
 11
452.71
 21
226.995
 31
0.0
  0
LINE
  5
479
330
1D
100
AcDbEntity
  8
0
100
AcDbLine
 10
449.673
 20
225.01
 30
0.0
 11
452.088
 21
226.317
 31
0.0
  0
LINE
  5
47A
330
1D
100
AcDbEntity
  8
0
100
AcDbLine
 10
452.782919025046
 20
226.435064600432
 30
0.0
 11
453.14
 21
226.596
 31
0.0
  0
LINE
  5
47B
330
1D
100
AcDbEntity
  8
0
100
AcDbLine
 10
452.447
 20
226.307
 30
0.0
 11
452.558777742496
 21
226.348452929035
 31
0.0
  0
LINE
  5
47C
330
1D
100
AcDbEntity
  8
0
100
AcDbLine
 10
452.088
 20
226.317
 30
0.0
 11
455.19
 21
227.255
 31
0.0
  0
LINE
  5
47D
330
1D
100
AcDbEntity
  8
0
100
AcDbLine
 10
452.088
 20
226.317
 30
0.0
 11
453.889349183471
 21
226.862606391102
 31
0.0
  0
LINE
  5
47E
330
1D
100
AcDbEntity
  8
0
100
AcDbLine
 10
452.71
 20
226.995
 30
0.0
 11
455.029
 21
227.731
 31
0.0
  0
LINE
  5
47F
330
1D
100
AcDbEntity
  8
0
100
AcDbLine
 10
453.14
 20
226.596
 30
0.0
 11
453.393680869511
 21
226.67107245928
 31
0.0
  0
LINE
  5
480
330
1D
100
AcDbEntity
  8
0
100
AcDbLine
 10
451.589
 20
226.556
 30
0.0
 11
456.23
 21
228.029
 31
0.0
  0
LINE
  5
481
330
1D
100
AcDbEntity
  8
0
100
AcDbLine
 10
448.679
 20
268.581
 30
0.0
 11
449.85
 21
269.4
 31
0.0
  0
LINE
  5
482
330
1D
100
AcDbEntity
  8
0
100
AcDbLine
 10
452.642
 20
260.458
 30
0.0
 11
454.312
 21
261.428
 31
0.0
  0
LINE
  5
485
330
1D
100
AcDbEntity
  8
0
100
AcDbLine
 10
451.101
 20
259.274
 30
0.0
 11
452.642
 21
260.458
 31
0.0
  0
LINE
  5
488
330
1D
100
AcDbEntity
  8
0
100
AcDbLine
 10
446.334
 20
271.895
 30
0.0
 11
448.895
 21
273.132
 31
0.0
  0
LINE
  5
489
330
1D
100
AcDbEntity
  8
0
100
AcDbLine
 10
451.711
 20
270.494
 30
0.0
 11
454.246
 21
271.552
 31
0.0
  0
LINE
  5
48A
330
1D
100
AcDbEntity
  8
0
100
AcDbLine
 10
450.381
 20
273.552
 30
0.0
 11
453.66
 21
274.515
 31
0.0
  0
LINE
  5
48C
330
1D
100
AcDbEntity
  8
0
100
AcDbLine
 10
448.895
 20
273.132
 30
0.0
 11
451.566
 21
274.106
 31
0.0
  0
LINE
  5
48E
330
1D
100
AcDbEntity
  8
0
100
AcDbLine
 10
451.566
 20
274.106
 30
0.0
 11
454.321
 21
274.811
 31
0.0
  0
LINE
  5
492
330
1D
100
AcDbEntity
  8
0
100
AcDbLine
 10
447.77
 20
279.762
 30
0.0
 11
450.92
 21
280.744
 31
0.0
  0
LINE
  5
494
330
1D
100
AcDbEntity
  8
0
100
AcDbLine
 10
452.538
 20
281.152
 30
0.0
 11
454.945
 21
281.593
 31
0.0
  0
LINE
  5
495
330
1D
100
AcDbEntity
  8
0
100
AcDbLine
 10
450.92
 20
280.744
 30
0.0
 11
452.538
 21
281.152
 31
0.0
  0
LINE
  5
498
330
1D
100
AcDbEntity
  8
0
100
AcDbLine
 10
447.242
 20
272.202
 30
0.0
 11
450.381
 21
273.552
 31
0.0
  0
LINE
  5
49A
330
1D
100
AcDbEntity
  8
0
100
AcDbLine
 10
449.85
 20
269.4
 30
0.0
 11
451.671
 21
270.456
 31
0.0
  0
LINE
  5
49C
330
1D
100
AcDbEntity
  8
0
100
AcDbLine
 10
454.312
 20
261.428
 30
0.0
 11
456.101
 21
262.158
 31
0.0
  0
LINE
  5
49D
330
1D
100
AcDbEntity
  8
0
100
AcDbLine
 10
454.439
 20
227.075
 30
0.0
 11
457.478
 21
227.681
 31
0.0
  0
LINE
  5
4A0
330
1D
100
AcDbEntity
  8
0
100
AcDbLine
 10
454.321
 20
274.811
 30
0.0
 11
457.133
 21
275.236
 31
0.0
  0
LINE
  5
4A2
330
1D
100
AcDbEntity
  8
0
100
AcDbLine
 10
454.246
 20
271.552
 30
0.0
 11
456.8
 21
272.195
 31
0.0
  0
LINE
  5
4A3
330
1D
100
AcDbEntity
  8
0
100
AcDbLine
 10
453.66
 20
274.515
 30
0.0
 11
457.031
 21
275.074
 31
0.0
  0
LINE
  5
4A4
330
1D
100
AcDbEntity
  8
0
100
AcDbLine
 10
447.720157648977
 20
223.446837978724
 30
0.0
 11
447.995
 21
223.731
 31
0.0
  0
LINE
  5
4A5
330
1D
100
AcDbEntity
  8
0
100
AcDbLine
 10
446.192
 20
221.757
 30
0.0
 11
446.432
 21
222.115
 31
0.0
  0
LINE
  5
4A6
330
1D
100
AcDbEntity
  8
0
100
AcDbLine
 10
446.192
 20
221.757
 30
0.0
 11
447.46875886356
 21
223.154849138474
 31
0.0
  0
LINE
  5
4A7
330
1D
100
AcDbEntity
  8
0
100
AcDbLine
 10
446.053217673645
 20
221.487707169475
 30
0.0
 11
446.432
 21
222.115
 31
0.0
  0
LINE
  5
4A8
330
1D
100
AcDbEntity
  8
0
100
AcDbLine
 10
444.984
 20
219.717
 30
0.0
 11
445.061994792785
 21
219.846165409598
 31
0.0
  0
LINE
  5
4AB
330
1D
100
AcDbEntity
  8
0
100
AcDbLine
 10
455.029
 20
227.731
 30
0.0
 11
457.471
 21
228.18
 31
0.0
  0
LINE
  5
4AC
330
1D
100
AcDbEntity
  8
0
100
AcDbLine
 10
454.937970638562
 20
227.174498587354
 30
0.0
 11
455.274
 21
227.282
 31
0.0
  0
LINE
  5
4AE
330
1D
100
AcDbEntity
  8
0
100
AcDbLine
 10
456.23
 20
228.029
 30
0.0
 11
461.233
 21
228.33
 31
0.0
  0
LINE
  5
4AF
330
1D
100
AcDbEntity
  8
0
100
AcDbLine
 10
456.101
 20
262.158
 30
0.0
 11
457.696
 21
262.567
 31
0.0
  0
LINE
  5
4B3
330
1D
100
AcDbEntity
  8
0
100
AcDbLine
 10
455.274
 20
227.282
 30
0.0
 11
456.769
 21
227.546
 31
0.0
  0
LINE
  5
4B4
330
1D
100
AcDbEntity
  8
0
100
AcDbLine
 10
455.19
 20
227.255
 30
0.0
 11
458.297
 21
227.826
 31
0.0
  0
LINE
  5
4B5
330
1D
100
AcDbEntity
  8
0
100
AcDbLine
 10
454.882672239971
 20
227.163471660883
 30
0.0
 11
455.274
 21
227.282
 31
0.0
  0
LINE
  5
4B6
330
1D
100
AcDbEntity
  8
0
100
AcDbLine
 10
456.769
 20
227.546
 30
0.0
 11
457.163765909817
 21
227.618339302846
 31
0.0
  0
LINE
  5
4B7
330
1D
100
AcDbEntity
  8
0
100
AcDbLine
 10
456.769
 20
227.546
 30
0.0
 11
456.850945750964
 21
227.555960554486
 31
0.0
  0
LINE
  5
4B9
330
1D
100
AcDbEntity
  8
0
100
AcDbLine
 10
457.471
 20
228.18
 30
0.0
 11
459.974
 21
228.331
 31
0.0
  0
LINE
  5
4BC
330
1D
100
AcDbEntity
  8
0
100
AcDbLine
 10
457.514648342375
 20
227.682637130802
 30
0.0
 11
458.297
 21
227.826
 31
0.0
  0
LINE
  5
4BD
330
1D
100
AcDbEntity
  8
0
100
AcDbLine
 10
457.478
 20
227.681
 30
0.0
 11
460.612
 21
227.821
 31
0.0
  0
LINE
  5
4C0
330
1D
100
AcDbEntity
  8
0
100
AcDbLine
 10
457.133
 20
275.236
 30
0.0
 11
459.973
 21
275.377
 31
0.0
  0
LINE
  5
4C2
330
1D
100
AcDbEntity
  8
0
100
AcDbLine
 10
457.031
 20
275.074
 30
0.0
 11
460.446
 21
275.224
 31
0.0
  0
LINE
  5
4C3
330
1D
100
AcDbEntity
  8
0
100
AcDbLine
 10
456.8
 20
272.195
 30
0.0
 11
458.694
 21
272.429
 31
0.0
  0
LINE
  5
4C4
330
1D
100
AcDbEntity
  8
0
100
AcDbLine
 10
454.945
 20
281.593
 30
0.0
 11
460.813
 21
281.888
 31
0.0
  0
LINE
  5
4C6
330
1D
100
AcDbEntity
  8
0
100
AcDbLine
 10
444.603
 20
199.979
 30
0.0
 11
446.065
 21
197.124
 31
0.0
  0
LINE
  5
4C7
330
1D
100
AcDbEntity
  8
0
100
AcDbLine
 10
460.0
 20
0.177
 30
0.0
 11
472.7
 21
1.767
 31
0.0
  0
LINE
  5
4CA
330
1D
100
AcDbEntity
  8
0
100
AcDbLine
 10
472.0
 20
118.656
 30
0.0
 11
472.0
 21
142.288
 31
0.0
  0
LINE
  5
4CB
330
1D
100
AcDbEntity
  8
0
100
AcDbLine
 10
472.0
 20
118.656
 30
0.0
 11
472.0
 21
108.672
 31
0.0
  0
LINE
  5
4CD
330
1D
100
AcDbEntity
  8
0
100
AcDbLine
 10
472.0
 20
142.288
 30
0.0
 11
472.0
 21
155.5544
 31
0.0
  0
LINE
  5
4CE
330
1D
100
AcDbEntity
  8
0
100
AcDbLine
 10
472.0
 20
155.5544
 30
0.0
 11
472.0
 21
142.288
 31
0.0
  0
LINE
  5
4CF
330
1D
100
AcDbEntity
  8
0
100
AcDbLine
 10
472.0
 20
155.5544
 30
0.0
 11
472.0
 21
169.423
 31
0.0
  0
LINE
  5
4D0
330
1D
100
AcDbEntity
  8
0
100
AcDbLine
 10
472.0
 20
169.423
 30
0.0
 11
472.0
 21
194.4071
 31
0.0
  0
LINE
  5
4D1
330
1D
100
AcDbEntity
  8
0
100
AcDbLine
 10
472.0
 20
169.423
 30
0.0
 11
472.0
 21
155.5544
 31
0.0
  0
LINE
  5
4D2
330
1D
100
AcDbEntity
  8
0
100
AcDbLine
 10
472.0
 20
142.288
 30
0.0
 11
472.0
 21
118.656
 31
0.0
  0
LINE
  5
4D3
330
1D
100
AcDbEntity
  8
0
100
AcDbLine
 10
472.0
 20
108.672
 30
0.0
 11
473.743
 21
101.212
 31
0.0
  0
LINE
  5
4D4
330
1D
100
AcDbEntity
  8
0
100
AcDbLine
 10
472.0
 20
108.672
 30
0.0
 11
472.0
 21
118.656
 31
0.0
  0
LINE
  5
4D5
330
1D
100
AcDbEntity
  8
0
100
AcDbLine
 10
472.7
 20
1.767
 30
0.0
 11
484.6
 21
6.005
 31
0.0
  0
LINE
  5
4D6
330
1D
100
AcDbEntity
  8
0
100
AcDbLine
 10
472.0
 20
194.4071
 30
0.0
 11
472.0
 21
205.7619
 31
0.0
  0
LINE
  5
4D7
330
1D
100
AcDbEntity
  8
0
100
AcDbLine
 10
472.0
 20
194.4071
 30
0.0
 11
472.0
 21
169.423
 31
0.0
  0
LINE
  5
4D9
330
1D
100
AcDbEntity
  8
0
100
AcDbLine
 10
472.0
 20
195.122563492063
 30
0.0
 11
472.721
 21
195.864
 31
0.0
  0
LINE
  5
4DC
330
1D
100
AcDbEntity
  8
0
100
AcDbLine
 10
480.431252991275
 20
92.48112442799
 30
0.0
 11
484.6
 21
90.952
 31
0.0
  0
LINE
  5
4DF
330
1D
100
AcDbEntity
  8
0
100
AcDbLine
 10
484.6
 20
6.005
 30
0.0
 11
495.0
 21
12.98
 31
0.0
  0
LINE
  5
4E1
330
1D
100
AcDbEntity
  8
0
100
AcDbLine
 10
495.0
 20
12.98
 30
0.0
 11
502.9
 21
22.163
 31
0.0
  0
LINE
  5
4E4
330
1D
100
AcDbEntity
  8
0
100
AcDbLine
 10
502.9
 20
22.163
 30
0.0
 11
507.117192812045
 21
31.394259349199
 31
0.0
  0
LINE
  5
4E5
330
1D
100
AcDbEntity
  8
0
100
AcDbLine
 10
502.9
 20
22.163
 30
0.0
 11
507.117192812045
 21
31.394259349199
 31
0.0
  0
LINE
  5
4E9
330
1D
100
AcDbEntity
  8
0
100
AcDbLine
 10
508.2
 20
33.755
 30
0.0
 11
510.0
 21
45.057
 31
0.0
  0
LINE
  5
4EB
330
1D
100
AcDbEntity
  8
0
100
AcDbLine
 10
510.0
 20
45.057
 30
0.0
 11
510.0
 21
46.231
 31
0.0
  0
LINE
  5
4EC
330
1D
100
AcDbEntity
  8
0
100
AcDbLine
 10
509.962650975534
 20
46.465489625271
 30
0.0
 11
510.0
 21
46.231
 31
0.0
  0
LINE
  5
4ED
330
1D
100
AcDbEntity
  8
0
100
AcDbLine
 10
510.0
 20
46.231
 30
0.0
 11
510.0
 21
45.057
 31
0.0
  0
LINE
  5
4EE
330
1D
100
AcDbEntity
  8
0
100
AcDbLine
 10
510.0
 20
46.7
 30
0.0
 11
510.0
 21
51.63
 31
0.0
  0
LINE
  5
4F0
330
1D
100
AcDbEntity
  8
0
100
AcDbLine
 10
508.2
 20
62.931
 30
0.0
 11
510.0
 21
51.63
 31
0.0
  0
LINE
  5
4F1
330
1D
100
AcDbEntity
  8
0
100
AcDbLine
 10
510.0
 20
51.63
 30
0.0
 11
510.0
 21
46.7
 31
0.0
  0
LINE
  5
4F2
330
1D
100
AcDbEntity
  8
0
100
AcDbLine
 10
503.3
 20
73.83
 30
0.0
 11
508.2
 21
62.931
 31
0.0
  0
LINE
  5
4F4
330
1D
100
AcDbEntity
  8
0
100
AcDbLine
 10
484.680676595504
 20
90.895270390104
 30
0.0
 11
484.9
 21
90.812
 31
0.0
  0
LINE
  5
4F5
330
1D
100
AcDbEntity
  8
0
100
AcDbLine
 10
484.9
 20
90.812
 30
0.0
 11
495.3
 21
83.475
 31
0.0
  0
LINE
  5
4F6
330
1D
100
AcDbEntity
  8
0
100
AcDbLine
 10
495.3
 20
83.475
 30
0.0
 11
503.3
 21
73.83
 31
0.0
  0
LINE
  5
4FC
330
1D
100
AcDbEntity
  8
0
100
AcDbLine
 10
473.743
 20
101.212
 30
0.0
 11
476.372
 21
96.758
 31
0.0
  0
LINE
  5
4FD
330
1D
100
AcDbEntity
  8
0
100
AcDbLine
 10
476.372
 20
96.758
 30
0.0
 11
480.431252991275
 21
92.48112442799
 31
0.0
  0
LINE
  5
4FE
330
1D
100
AcDbEntity
  8
0
100
AcDbLine
 10
472.721
 20
195.864
 30
0.0
 11
474.611
 21
198.277
 31
0.0
  0
LINE
  5
4FF
330
1D
100
AcDbEntity
  8
0
100
AcDbLine
 10
472.0
 20
205.7619
 30
0.0
 11
472.0
 21
194.4071
 31
0.0
  0
LINE
  5
501
330
1D
100
AcDbEntity
  8
0
100
AcDbLine
 10
472.786
 20
210.956
 30
0.0
 11
474.015
 21
209.416
 31
0.0
  0
LINE
  5
503
330
1D
100
AcDbEntity
  8
0
100
AcDbLine
 10
474.998
 20
199.22
 30
0.0
 11
475.599
 21
200.656
 31
0.0
  0
LINE
  5
504
330
1D
100
AcDbEntity
  8
0
100
AcDbLine
 10
475.599
 20
200.656
 30
0.0
 11
475.98
 21
203.049
 31
0.0
  0
LINE
  5
506
330
1D
100
AcDbEntity
  8
0
100
AcDbLine
 10
474.015
 20
209.416
 30
0.0
 11
475.008
 21
207.776
 31
0.0
  0
LINE
  5
50B
330
1D
100
AcDbEntity
  8
0
100
AcDbLine
 10
475.008
 20
207.776
 30
0.0
 11
475.798
 21
205.449
 31
0.0
  0
LINE
  5
50D
330
1D
100
AcDbEntity
  8
0
100
AcDbLine
 10
475.798
 20
205.449
 30
0.0
 11
475.98
 21
203.049
 31
0.0
  0
LINE
  5
513
330
1D
100
AcDbEntity
  8
0
100
AcDbLine
 10
474.611
 20
198.277
 30
0.0
 11
475.599
 21
200.656
 31
0.0
  0
LINE
  5
517
330
1D
100
AcDbEntity
  8
0
100
AcDbLine
 10
458.253
 20
215.768
 30
0.0
 11
463.346
 21
215.566
 31
0.0
  0
LINE
  5
51D
330
1D
100
AcDbEntity
  8
0
100
AcDbLine
 10
467.424
 20
214.464
 30
0.0
 11
470.931
 21
212.519
 31
0.0
  0
LINE
  5
51E
330
1D
100
AcDbEntity
  8
0
100
AcDbLine
 10
475.940750379031
 20
214.734127317919
 30
0.0
 11
475.996
 21
215.072
 31
0.0
  0
LINE
  5
51F
330
1D
100
AcDbEntity
  8
0
100
AcDbLine
 10
475.961
 20
214.468
 30
0.0
 11
475.98
 21
203.049
 31
0.0
  0
LINE
  5
520
330
1D
100
AcDbEntity
  8
0
100
AcDbLine
 10
470.931
 20
212.519
 30
0.0
 11
472.786
 21
210.956
 31
0.0
  0
LINE
  5
521
330
1D
100
AcDbEntity
  8
0
100
AcDbLine
 10
475.935893539194
 20
215.796297954839
 30
0.0
 11
475.974
 21
216.074
 31
0.0
  0
LINE
  5
522
330
1D
100
AcDbEntity
  8
0
100
AcDbLine
 10
475.94016834975
 20
215.744785413561
 30
0.0
 11
475.974
 21
216.074
 31
0.0
  0
LINE
  5
524
330
1D
100
AcDbEntity
  8
0
100
AcDbLine
 10
463.346
 20
215.566
 30
0.0
 11
467.424
 21
214.464
 31
0.0
  0
LINE
  5
526
330
1D
100
AcDbEntity
  8
0
100
AcDbLine
 10
457.696
 20
262.567
 30
0.0
 11
459.599
 21
262.774
 31
0.0
  0
LINE
  5
527
330
1D
100
AcDbEntity
  8
0
100
AcDbLine
 10
458.291
 20
227.731
 30
0.0
 11
459.30430714461
 21
227.762583599313
 31
0.0
  0
LINE
  5
528
330
1D
100
AcDbEntity
  8
0
100
AcDbLine
 10
458.297
 20
227.826
 30
0.0
 11
460.605601297911
 21
227.771966379087
 31
0.0
  0
LINE
  5
529
330
1D
100
AcDbEntity
  8
0
100
AcDbLine
 10
458.113030050994
 20
227.70936764746
 30
0.0
 11
458.291
 21
227.731
 31
0.0
  0
LINE
  5
52A
330
1D
100
AcDbEntity
  8
0
100
AcDbLine
 10
460.618382709897
 20
227.771667225669
 30
0.0
 11
462.185
 21
227.735
 31
0.0
  0
LINE
  5
52B
330
1D
100
AcDbEntity
  8
0
100
AcDbLine
 10
459.974
 20
228.331
 30
0.0
 11
462.476
 21
228.18
 31
0.0
  0
LINE
  5
52C
330
1D
100
AcDbEntity
  8
0
100
AcDbLine
 10
460.612
 20
227.821
 30
0.0
 11
463.723
 21
227.49
 31
0.0
  0
LINE
  5
52E
330
1D
100
AcDbEntity
  8
0
100
AcDbLine
 10
459.599
 20
262.774
 30
0.0
 11
461.493
 21
262.658
 31
0.0
  0
LINE
  5
52F
330
1D
100
AcDbEntity
  8
0
100
AcDbLine
 10
460.016
 20
272.475
 30
0.0
 11
461.928
 21
272.372
 31
0.0
  0
LINE
  5
530
330
1D
100
AcDbEntity
  8
0
100
AcDbLine
 10
459.973
 20
275.377
 30
0.0
 11
462.813
 21
275.236
 31
0.0
  0
LINE
  5
532
330
1D
100
AcDbEntity
  8
0
100
AcDbLine
 10
460.446
 20
275.224
 30
0.0
 11
463.853
 21
274.96
 31
0.0
  0
LINE
  5
537
330
1D
100
AcDbEntity
  8
0
100
AcDbLine
 10
458.694
 20
272.429
 30
0.0
 11
460.016
 21
272.475
 31
0.0
  0
LINE
  5
538
330
1D
100
AcDbEntity
  8
0
100
AcDbLine
 10
474.020483650729
 20
221.495366203863
 30
0.0
 11
474.096
 21
221.489
 31
0.0
  0
LINE
  5
539
330
1D
100
AcDbEntity
  8
0
100
AcDbLine
 10
474.015
 20
221.436
 30
0.0
 11
475.022
 21
219.807
 31
0.0
  0
LINE
  5
53A
330
1D
100
AcDbEntity
  8
0
100
AcDbLine
 10
472.918
 20
223.278
 30
0.0
 11
474.23
 21
221.638
 31
0.0
  0
LINE
  5
53B
330
1D
100
AcDbEntity
  8
0
100
AcDbLine
 10
472.546
 20
223.222
 30
0.0
 11
474.096
 21
221.489
 31
0.0
  0
LINE
  5
53E
330
1D
100
AcDbEntity
  8
0
100
AcDbLine
 10
475.797
 20
217.47
 30
0.0
 11
475.996
 21
215.072
 31
0.0
  0
LINE
  5
53F
330
1D
100
AcDbEntity
  8
0
100
AcDbLine
 10
474.799
 20
220.782
 30
0.0
 11
475.777
 21
217.991
 31
0.0
  0
LINE
  5
540
330
1D
100
AcDbEntity
  8
0
100
AcDbLine
 10
474.23
 20
221.638
 30
0.0
 11
475.191
 21
219.861
 31
0.0
  0
LINE
  5
541
330
1D
100
AcDbEntity
  8
0
100
AcDbLine
 10
475.687
 20
218.069
 30
0.0
 11
475.961
 21
214.468
 31
0.0
  0
LINE
  5
542
330
1D
100
AcDbEntity
  8
0
100
AcDbLine
 10
475.777
 20
217.991
 30
0.0
 11
475.974
 21
216.074
 31
0.0
  0
LINE
  5
544
330
1D
100
AcDbEntity
  8
0
100
AcDbLine
 10
475.191
 20
219.861
 30
0.0
 11
475.777
 21
217.991
 31
0.0
  0
LINE
  5
545
330
1D
100
AcDbEntity
  8
0
100
AcDbLine
 10
475.974
 20
223.411379603399
 30
0.0
 11
476.084
 21
223.479
 31
0.0
  0
LINE
  5
547
330
1D
100
AcDbEntity
  8
0
100
AcDbLine
 10
475.022
 20
219.807
 30
0.0
 11
475.672292791182
 21
217.846052576784
 31
0.0
  0
LINE
  5
548
330
1D
100
AcDbEntity
  8
0
100
AcDbLine
 10
475.68941508039
 20
217.794420589842
 30
0.0
 11
475.797
 21
217.47
 31
0.0
  0
LINE
  5
549
330
1D
100
AcDbEntity
  8
0
100
AcDbLine
 10
474.06
 20
221.453
 30
0.0
 11
475.687
 21
218.069
 31
0.0
  0
LINE
  5
54A
330
1D
100
AcDbEntity
  8
0
100
AcDbLine
 10
471.746
 20
223.882
 30
0.0
 11
474.058
 21
221.456
 31
0.0
  0
LINE
  5
54B
330
1D
100
AcDbEntity
  8
0
100
AcDbLine
 10
472.176
 20
224.059
 30
0.0
 11
474.799
 21
220.782
 31
0.0
  0
LINE
  5
54C
330
1D
100
AcDbEntity
  8
0
100
AcDbLine
 10
471.288
 20
224.741
 30
0.0
 11
472.918
 21
223.278
 31
0.0
  0
LINE
  5
54D
330
1D
100
AcDbEntity
  8
0
100
AcDbLine
 10
470.621
 20
224.727
 30
0.0
 11
472.546
 21
223.222
 31
0.0
  0
LINE
  5
54E
330
1D
100
AcDbEntity
  8
0
100
AcDbLine
 10
468.361
 20
226.555
 30
0.0
 11
472.176
 21
224.059
 31
0.0
  0
LINE
  5
54F
330
1D
100
AcDbEntity
  8
0
100
AcDbLine
 10
467.238
 20
226.995
 30
0.0
 11
469.378
 21
225.99
 31
0.0
  0
LINE
  5
550
330
1D
100
AcDbEntity
  8
0
100
AcDbLine
 10
466.7
 20
226.721
 30
0.0
 11
468.584
 21
225.969
 31
0.0
  0
LINE
  5
551
330
1D
100
AcDbEntity
  8
0
100
AcDbLine
 10
469.378
 20
225.99
 30
0.0
 11
471.288
 21
224.741
 31
0.0
  0
LINE
  5
552
330
1D
100
AcDbEntity
  8
0
100
AcDbLine
 10
468.584
 20
225.969
 30
0.0
 11
470.621
 21
224.727
 31
0.0
  0
LINE
  5
553
330
1D
100
AcDbEntity
  8
0
100
AcDbLine
 10
469.399
 20
225.482
 30
0.0
 11
471.746
 21
223.882
 31
0.0
  0
LINE
  5
554
330
1D
100
AcDbEntity
  8
0
100
AcDbLine
 10
466.69
 20
226.701
 30
0.0
 11
469.399
 21
225.482
 31
0.0
  0
LINE
  5
555
330
1D
100
AcDbEntity
  8
0
100
AcDbLine
 10
461.37
 20
227.752
 30
0.0
 11
462.231287928109
 21
227.648713177691
 31
0.0
  0
LINE
  5
556
330
1D
100
AcDbEntity
  8
0
100
AcDbLine
 10
461.233
 20
228.33
 30
0.0
 11
464.918
 21
227.731
 31
0.0
  0
LINE
  5
557
330
1D
100
AcDbEntity
  8
0
100
AcDbLine
 10
461.238899276466
 20
227.754300012694
 30
0.0
 11
461.37
 21
227.752
 31
0.0
  0
LINE
  5
558
330
1D
100
AcDbEntity
  8
0
100
AcDbLine
 10
462.476
 20
228.18
 30
0.0
 11
464.918
 21
227.731
 31
0.0
  0
LINE
  5
559
330
1D
100
AcDbEntity
  8
0
100
AcDbLine
 10
475.974
 20
228.426605633803
 30
0.0
 11
476.436
 21
229.055
 31
0.0
  0
LINE
  5
55A
330
1D
100
AcDbEntity
  8
0
100
AcDbLine
 10
464.918
 20
227.731
 30
0.0
 11
467.238
 21
226.995
 31
0.0
  0
LINE
  5
55B
330
1D
100
AcDbEntity
  8
0
100
AcDbLine
 10
464.918
 20
227.731
 30
0.0
 11
468.361
 21
226.555
 31
0.0
  0
LINE
  5
55C
330
1D
100
AcDbEntity
  8
0
100
AcDbLine
 10
463.753
 20
227.563
 30
0.0
 11
466.7
 21
226.721
 31
0.0
  0
LINE
  5
55D
330
1D
100
AcDbEntity
  8
0
100
AcDbLine
 10
462.185
 20
227.735
 30
0.0
 11
463.753
 21
227.563
 31
0.0
  0
LINE
  5
55E
330
1D
100
AcDbEntity
  8
0
100
AcDbLine
 10
463.723
 20
227.49
 30
0.0
 11
466.69
 21
226.701
 31
0.0
  0
LINE
  5
560
330
1D
100
AcDbEntity
  8
0
100
AcDbLine
 10
475.974
 20
223.609690161527
 30
0.0
 11
478.384
 21
225.434
 31
0.0
  0
LINE
  5
561
330
1D
100
AcDbEntity
  8
0
100
AcDbLine
 10
476.084
 20
223.479
 30
0.0
 11
478.388
 21
225.241
 31
0.0
  0
LINE
  5
564
330
1D
100
AcDbEntity
  8
0
100
AcDbLine
 10
470.513
 20
257.614
 30
0.0
 11
472.284
 21
255.241
 31
0.0
  0
LINE
  5
566
330
1D
100
AcDbEntity
  8
0
100
AcDbLine
 10
473.716
 20
252.652
 30
0.0
 11
474.865
 21
249.531
 31
0.0
  0
LINE
  5
567
330
1D
100
AcDbEntity
  8
0
100
AcDbLine
 10
472.284
 20
255.241
 30
0.0
 11
473.716
 21
252.652
 31
0.0
  0
LINE
  5
56C
330
1D
100
AcDbEntity
  8
0
100
AcDbLine
 10
461.493
 20
262.658
 30
0.0
 11
463.025
 21
262.409
 31
0.0
  0
LINE
  5
56D
330
1D
100
AcDbEntity
  8
0
100
AcDbLine
 10
463.025
 20
262.409
 30
0.0
 11
464.971
 21
261.746
 31
0.0
  0
LINE
  5
570
330
1D
100
AcDbEntity
  8
0
100
AcDbLine
 10
466.845
 20
260.733
 30
0.0
 11
468.574
 21
259.515
 31
0.0
  0
LINE
  5
571
330
1D
100
AcDbEntity
  8
0
100
AcDbLine
 10
468.574
 20
259.515
 30
0.0
 11
470.513
 21
257.614
 31
0.0
  0
LINE
  5
574
330
1D
100
AcDbEntity
  8
0
100
AcDbLine
 10
464.971
 20
261.746
 30
0.0
 11
466.845
 21
260.733
 31
0.0
  0
LINE
  5
57C
330
1D
100
AcDbEntity
  8
0
100
AcDbLine
 10
474.865
 20
249.531
 30
0.0
 11
475.702
 21
246.005
 31
0.0
  0
LINE
  5
57D
330
1D
100
AcDbEntity
  8
0
100
AcDbLine
 10
475.702
 20
246.005
 30
0.0
 11
475.93
 21
241.906
 31
0.0
  0
LINE
  5
581
330
1D
100
AcDbEntity
  8
0
100
AcDbLine
 10
471.094
 20
268.711
 30
0.0
 11
473.035
 21
267.097
 31
0.0
  0
LINE
  5
582
330
1D
100
AcDbEntity
  8
0
100
AcDbLine
 10
473.035
 20
267.097
 30
0.0
 11
474.022
 21
266.117
 31
0.0
  0
LINE
  5
583
330
1D
100
AcDbEntity
  8
0
100
AcDbLine
 10
466.47
 20
271.257
 30
0.0
 11
467.687
 21
270.74
 31
0.0
  0
LINE
  5
584
330
1D
100
AcDbEntity
  8
0
100
AcDbLine
 10
467.687
 20
270.74
 30
0.0
 11
469.4
 21
269.838
 31
0.0
  0
LINE
  5
585
330
1D
100
AcDbEntity
  8
0
100
AcDbLine
 10
465.221
 20
271.687
 30
0.0
 11
466.47
 21
271.257
 31
0.0
  0
LINE
  5
586
330
1D
100
AcDbEntity
  8
0
100
AcDbLine
 10
463.945
 20
272.027
 30
0.0
 11
465.221
 21
271.687
 31
0.0
  0
LINE
  5
588
330
1D
100
AcDbEntity
  8
0
100
AcDbLine
 10
462.813
 20
275.236
 30
0.0
 11
465.626
 21
274.811
 31
0.0
  0
LINE
  5
589
330
1D
100
AcDbEntity
  8
0
100
AcDbLine
 10
461.928
 20
272.372
 30
0.0
 11
463.945
 21
272.027
 31
0.0
  0
LINE
  5
590
330
1D
100
AcDbEntity
  8
0
100
AcDbLine
 10
465.626
 20
274.811
 30
0.0
 11
468.381
 21
274.106
 31
0.0
  0
LINE
  5
593
330
1D
100
AcDbEntity
  8
0
100
AcDbLine
 10
465.912
 20
281.456
 30
0.0
 11
472.224
 21
279.738
 31
0.0
  0
LINE
  5
595
330
1D
100
AcDbEntity
  8
0
100
AcDbLine
 10
463.853
 20
274.96
 30
0.0
 11
467.204
 21
274.288
 31
0.0
  0
LINE
  5
598
330
1D
100
AcDbEntity
  8
0
100
AcDbLine
 10
467.204
 20
274.288
 30
0.0
 11
470.449
 21
273.218
 31
0.0
  0
LINE
  5
59A
330
1D
100
AcDbEntity
  8
0
100
AcDbLine
 10
471.052
 20
273.132
 30
0.0
 11
473.613
 21
271.895
 31
0.0
  0
LINE
  5
59B
330
1D
100
AcDbEntity
  8
0
100
AcDbLine
 10
469.4
 20
269.838
 30
0.0
 11
471.094
 21
268.711
 31
0.0
  0
LINE
  5
59C
330
1D
100
AcDbEntity
  8
0
100
AcDbLine
 10
468.381
 20
274.106
 30
0.0
 11
471.052
 21
273.132
 31
0.0
  0
LINE
  5
5A4
330
1D
100
AcDbEntity
  8
0
100
AcDbLine
 10
472.224
 20
279.738
 30
0.0
 11
476.746
 21
277.629
 31
0.0
  0
LINE
  5
5A7
330
1D
100
AcDbEntity
  8
0
100
AcDbLine
 10
470.449
 20
273.218
 30
0.0
 11
473.541
 21
271.764
 31
0.0
  0
LINE
  5
5AA
330
1D
100
AcDbEntity
  8
0
100
AcDbLine
 10
475.817
 20
263.987
 30
0.0
 11
476.622
 21
262.848
 31
0.0
  0
LINE
  5
5AB
330
1D
100
AcDbEntity
  8
0
100
AcDbLine
 10
474.95
 20
265.079
 30
0.0
 11
475.817
 21
263.987
 31
0.0
  0
LINE
  5
5AC
330
1D
100
AcDbEntity
  8
0
100
AcDbLine
 10
474.022
 20
266.117
 30
0.0
 11
474.95
 21
265.079
 31
0.0
  0
LINE
  5
5AE
330
1D
100
AcDbEntity
  8
0
100
AcDbLine
 10
473.613
 20
271.895
 30
0.0
 11
476.084
 21
270.376
 31
0.0
  0
LINE
  5
5B8
330
1D
100
AcDbEntity
  8
0
100
AcDbLine
 10
473.541
 20
271.764
 30
0.0
 11
476.436
 21
269.947
 31
0.0
  0
LINE
  5
5BC
330
1D
100
AcDbEntity
  8
0
100
AcDbLine
 10
475.930723103196
 20
241.893
 30
0.0
 11
475.974
 21
216.074
 31
0.0
  0
LINE
  5
5BD
330
1D
100
AcDbEntity
  8
0
100
AcDbLine
 10
476.084
 20
270.376
 30
0.0
 11
478.388
 21
268.615
 31
0.0
  0
LINE
  5
5C6
330
1D
100
AcDbEntity
  8
0
100
AcDbLine
 10
460.813
 20
281.888
 30
0.0
 11
465.912
 21
281.456
 31
0.0
  0
LINE
  5
5C7
330
1D
100
AcDbEntity
  8
0
100
AcDbLine
 10
475.953107158879
 20
215.870692505437
 30
0.0
 11
479.603
 21
217.95
 31
0.0
  0
LINE
  5
5C8
330
1D
100
AcDbEntity
  8
0
100
AcDbLine
 10
476.436
 20
229.055
 30
0.0
 11
477.339
 21
230.468
 31
0.0
  0
LINE
  5
5D0
330
1D
100
AcDbEntity
  8
0
100
AcDbLine
 10
479.603
 20
217.95
 30
0.0
 11
480.947
 21
218.898
 31
0.0
  0
LINE
  5
5D2
330
1D
100
AcDbEntity
  8
0
100
AcDbLine
 10
478.388
 20
225.241
 30
0.0
 11
480.5
 21
227.228
 31
0.0
  0
LINE
  5
5D3
330
1D
100
AcDbEntity
  8
0
100
AcDbLine
 10
478.384
 20
225.434
 30
0.0
 11
480.841
 21
227.811
 31
0.0
  0
LINE
  5
5D4
330
1D
100
AcDbEntity
  8
0
100
AcDbLine
 10
477.339
 20
230.468
 30
0.0
 11
478.292
 21
232.213
 31
0.0
  0
LINE
  5
5D7
330
1D
100
AcDbEntity
  8
0
100
AcDbLine
 10
479.033
 20
233.82
 30
0.0
 11
479.674
 21
235.468
 31
0.0
  0
LINE
  5
5D8
330
1D
100
AcDbEntity
  8
0
100
AcDbLine
 10
478.292
 20
232.213
 30
0.0
 11
479.033
 21
233.82
 31
0.0
  0
LINE
  5
5DD
330
1D
100
AcDbEntity
  8
0
100
AcDbLine
 10
480.5
 20
227.228
 30
0.0
 11
482.399
 21
229.42
 31
0.0
  0
LINE
  5
5DF
330
1D
100
AcDbEntity
  8
0
100
AcDbLine
 10
479.674
 20
235.468
 30
0.0
 11
480.228
 21
237.198
 31
0.0
  0
LINE
  5
5E2
330
1D
100
AcDbEntity
  8
0
100
AcDbLine
 10
480.228
 20
237.198
 30
0.0
 11
480.684
 21
238.966
 31
0.0
  0
LINE
  5
5E5
330
1D
100
AcDbEntity
  8
0
100
AcDbLine
 10
480.947
 20
218.898
 30
0.0
 11
483.501
 21
221.037
 31
0.0
  0
LINE
  5
5E6
330
1D
100
AcDbEntity
  8
0
100
AcDbLine
 10
483.501
 20
221.037
 30
0.0
 11
486.976
 21
224.625
 31
0.0
  0
LINE
  5
5ED
330
1D
100
AcDbEntity
  8
0
100
AcDbLine
 10
486.976
 20
224.625
 30
0.0
 11
490.709
 21
230.136
 31
0.0
  0
LINE
  5
5F6
330
1D
100
AcDbEntity
  8
0
100
AcDbLine
 10
490.709
 20
230.136
 30
0.0
 11
493.329
 21
236.161
 31
0.0
  0
LINE
  5
5FC
330
1D
100
AcDbEntity
  8
0
100
AcDbLine
 10
482.399
 20
229.42
 30
0.0
 11
484.065
 21
231.794
 31
0.0
  0
LINE
  5
5FD
330
1D
100
AcDbEntity
  8
0
100
AcDbLine
 10
484.065
 20
231.794
 30
0.0
 11
485.48
 21
234.325
 31
0.0
  0
LINE
  5
5FF
330
1D
100
AcDbEntity
  8
0
100
AcDbLine
 10
485.48
 20
234.325
 30
0.0
 11
486.63
 21
236.987
 31
0.0
  0
LINE
  5
60A
330
1D
100
AcDbEntity
  8
0
100
AcDbLine
 10
486.63
 20
236.987
 30
0.0
 11
487.504
 21
239.753
 31
0.0
  0
LINE
  5
60B
330
1D
100
AcDbEntity
  8
0
100
AcDbLine
 10
487.504
 20
239.753
 30
0.0
 11
488.091
 21
242.593
 31
0.0
  0
LINE
  5
60C
330
1D
100
AcDbEntity
  8
0
100
AcDbLine
 10
487.335
 20
239.698
 30
0.0
 11
488.006
 21
243.048
 31
0.0
  0
LINE
  5
60D
330
1D
100
AcDbEntity
  8
0
100
AcDbLine
 10
486.264
 20
236.453
 30
0.0
 11
487.335
 21
239.698
 31
0.0
  0
LINE
  5
60E
330
1D
100
AcDbEntity
  8
0
100
AcDbLine
 10
484.81
 20
233.36
 30
0.0
 11
486.264
 21
236.453
 31
0.0
  0
LINE
  5
60F
330
1D
100
AcDbEntity
  8
0
100
AcDbLine
 10
482.993
 20
230.466
 30
0.0
 11
484.81
 21
233.36
 31
0.0
  0
LINE
  5
610
330
1D
100
AcDbEntity
  8
0
100
AcDbLine
 10
480.841
 20
227.811
 30
0.0
 11
482.993
 21
230.466
 31
0.0
  0
LINE
  5
611
330
1D
100
AcDbEntity
  8
0
100
AcDbLine
 10
481.277
 20
242.505
 30
0.0
 11
481.425
 21
244.294
 31
0.0
  0
LINE
  5
612
330
1D
100
AcDbEntity
  8
0
100
AcDbLine
 10
488.091
 20
242.593
 30
0.0
 11
488.387
 21
245.477
 31
0.0
  0
LINE
  5
613
330
1D
100
AcDbEntity
  8
0
100
AcDbLine
 10
488.006
 20
243.048
 30
0.0
 11
488.27
 21
246.456
 31
0.0
  0
LINE
  5
614
330
1D
100
AcDbEntity
  8
0
100
AcDbLine
 10
481.277
 20
242.506
 30
0.0
 11
481.424
 21
244.294
 31
0.0
  0
LINE
  5
616
330
1D
100
AcDbEntity
  8
0
100
AcDbLine
 10
480.684
 20
238.966
 30
0.0
 11
481.03
 21
240.727
 31
0.0
  0
LINE
  5
61C
330
1D
100
AcDbEntity
  8
0
100
AcDbLine
 10
480.693
 20
253.174
 30
0.0
 11
481.15
 21
250.648
 31
0.0
  0
LINE
  5
61E
330
1D
100
AcDbEntity
  8
0
100
AcDbLine
 10
480.053
 20
255.57
 30
0.0
 11
480.693
 21
253.174
 31
0.0
  0
LINE
  5
620
330
1D
100
AcDbEntity
  8
0
100
AcDbLine
 10
481.425
 20
244.294
 30
0.0
 11
481.474
 21
246.089
 31
0.0
  0
LINE
  5
621
330
1D
100
AcDbEntity
  8
0
100
AcDbLine
 10
481.453126723216
 20
247.042212973142
 30
0.0
 11
481.474
 21
246.089
 31
0.0
  0
LINE
  5
622
330
1D
100
AcDbEntity
  8
0
100
AcDbLine
 10
486.598
 20
256.52
 30
0.0
 11
487.561
 21
253.241
 31
0.0
  0
LINE
  5
623
330
1D
100
AcDbEntity
  8
0
100
AcDbLine
 10
481.15
 20
250.648
 30
0.0
 11
481.353
 21
248.896
 31
0.0
  0
LINE
  5
624
330
1D
100
AcDbEntity
  8
0
100
AcDbLine
 10
486.63
 20
256.868
 30
0.0
 11
487.504
 21
254.103
 31
0.0
  0
LINE
  5
625
330
1D
100
AcDbEntity
  8
0
100
AcDbLine
 10
487.504
 20
254.103
 30
0.0
 11
488.091
 21
251.262
 31
0.0
  0
LINE
  5
627
330
1D
100
AcDbEntity
  8
0
100
AcDbLine
 10
488.387
 20
248.377
 30
0.0
 11
488.387
 21
245.477
 31
0.0
  0
LINE
  5
629
330
1D
100
AcDbEntity
  8
0
100
AcDbLine
 10
488.091
 20
251.262
 30
0.0
 11
488.387
 21
248.377
 31
0.0
  0
LINE
  5
62A
330
1D
100
AcDbEntity
  8
0
100
AcDbLine
 10
488.12
 20
249.87
 30
0.0
 11
488.27
 21
246.456
 31
0.0
  0
LINE
  5
62B
330
1D
100
AcDbEntity
  8
0
100
AcDbLine
 10
487.561
 20
253.241
 30
0.0
 11
488.12
 21
249.87
 31
0.0
  0
LINE
  5
62C
330
1D
100
AcDbEntity
  8
0
100
AcDbLine
 10
481.424
 20
244.294
 30
0.0
 11
481.474
 21
246.089
 31
0.0
  0
LINE
  5
630
330
1D
100
AcDbEntity
  8
0
100
AcDbLine
 10
478.045
 20
260.446
 30
0.0
 11
479.218
 21
257.91
 31
0.0
  0
LINE
  5
632
330
1D
100
AcDbEntity
  8
0
100
AcDbLine
 10
479.218
 20
257.91
 30
0.0
 11
480.053
 21
255.57
 31
0.0
  0
LINE
  5
633
330
1D
100
AcDbEntity
  8
0
100
AcDbLine
 10
476.622
 20
262.848
 30
0.0
 11
478.045
 21
260.446
 31
0.0
  0
LINE
  5
634
330
1D
100
AcDbEntity
  8
0
100
AcDbLine
 10
478.388
 20
268.615
 30
0.0
 11
480.5
 21
266.628
 31
0.0
  0
LINE
  5
635
330
1D
100
AcDbEntity
  8
0
100
AcDbLine
 10
480.5
 20
266.628
 30
0.0
 11
482.399
 21
264.436
 31
0.0
  0
LINE
  5
636
330
1D
100
AcDbEntity
  8
0
100
AcDbLine
 10
479.09
 20
267.795
 30
0.0
 11
481.467
 21
265.338
 31
0.0
  0
LINE
  5
637
330
1D
100
AcDbEntity
  8
0
100
AcDbLine
 10
478.046
 20
260.446
 30
0.0
 11
479.218
 21
257.91
 31
0.0
  0
LINE
  5
638
330
1D
100
AcDbEntity
  8
0
100
AcDbLine
 10
483.529
 20
262.613
 30
0.0
 11
485.248
 21
259.659
 31
0.0
  0
LINE
  5
639
330
1D
100
AcDbEntity
  8
0
100
AcDbLine
 10
482.399
 20
264.436
 30
0.0
 11
484.065
 21
262.061
 31
0.0
  0
LINE
  5
63A
330
1D
100
AcDbEntity
  8
0
100
AcDbLine
 10
485.248
 20
259.659
 30
0.0
 11
486.598
 21
256.52
 31
0.0
  0
LINE
  5
641
330
1D
100
AcDbEntity
  8
0
100
AcDbLine
 10
484.065
 20
262.061
 30
0.0
 11
485.48
 21
259.531
 31
0.0
  0
LINE
  5
642
330
1D
100
AcDbEntity
  8
0
100
AcDbLine
 10
485.48
 20
259.531
 30
0.0
 11
486.63
 21
256.868
 31
0.0
  0
LINE
  5
643
330
1D
100
AcDbEntity
  8
0
100
AcDbLine
 10
481.467
 20
265.338
 30
0.0
 11
483.529
 21
262.613
 31
0.0
  0
LINE
  5
64C
330
1D
100
AcDbEntity
  8
0
100
AcDbLine
 10
476.436
 20
269.947
 30
0.0
 11
479.09
 21
267.795
 31
0.0
  0
LINE
  5
64D
330
1D
100
AcDbEntity
  8
0
100
AcDbLine
 10
486.93
 20
269.171
 30
0.0
 11
489.87
 21
265.146
 31
0.0
  0
LINE
  5
654
330
1D
100
AcDbEntity
  8
0
100
AcDbLine
 10
492.104
 20
260.679
 30
0.0
 11
493.266
 21
257.561
 31
0.0
  0
LINE
  5
655
330
1D
100
AcDbEntity
  8
0
100
AcDbLine
 10
489.87
 20
265.146
 30
0.0
 11
492.104
 21
260.679
 31
0.0
  0
LINE
  5
656
330
1D
100
AcDbEntity
  8
0
100
AcDbLine
 10
493.266
 20
257.561
 30
0.0
 11
494.496
 21
252.661
 31
0.0
  0
LINE
  5
664
330
1D
100
AcDbEntity
  8
0
100
AcDbLine
 10
494.496
 20
252.661
 30
0.0
 11
494.913
 21
247.753
 31
0.0
  0
LINE
  5
665
330
1D
100
AcDbEntity
  8
0
100
AcDbLine
 10
494.855
 20
244.426
 30
0.0
 11
494.913
 21
247.753
 31
0.0
  0
LINE
  5
666
330
1D
100
AcDbEntity
  8
0
100
AcDbLine
 10
494.438
 20
241.124
 30
0.0
 11
494.855
 21
244.426
 31
0.0
  0
LINE
  5
667
330
1D
100
AcDbEntity
  8
0
100
AcDbLine
 10
493.329
 20
236.161
 30
0.0
 11
494.438
 21
241.124
 31
0.0
  0
LINE
  5
672
330
1D
100
AcDbEntity
  8
0
100
AcDbLine
 10
476.727521434841
 20
277.595122630543
 30
0.0
 11
479.641
 21
275.915
 31
0.0
  0
LINE
  5
679
330
1D
100
AcDbEntity
  8
0
100
AcDbLine
 10
479.641
 20
275.915
 30
0.0
 11
482.268
 21
273.919
 31
0.0
  0
LINE
  5
67A
330
1D
100
AcDbEntity
  8
0
100
AcDbLine
 10
482.268
 20
273.919
 30
0.0
 11
483.505
 21
272.836
 31
0.0
  0
LINE
  5
67E
330
1D
100
AcDbEntity
  8
0
100
AcDbLine
 10
483.505
 20
272.836
 30
0.0
 11
486.93
 21
269.171
 31
0.0
  0
LINE
  5
6AB
330
1D
100
AcDbEntity
  8
0
100
AcDbLine
 10
508.2
 20
33.755
 30
0.0
 11
507.117192812045
 21
31.394259349199
 31
0.0
  0
LINE
  5
6AC
330
1D
100
AcDbEntity
  8
0
100
AcDbLine
 10
451.101
 20
259.274
 30
0.0
 11
449.665444391352
 21
257.835127776577
 31
0.0
  0
LINE
  5
6AD
330
1D
100
AcDbEntity
  8
0
100
AcDbLine
 10
449.665444391352
 20
257.835127776577
 30
0.0
 11
448.416
 21
256.336
 31
0.0
  0
LINE
  5
6AE
330
1D
100
AcDbEntity
  8
0
100
AcDbLine
 10
481.453126723216
 20
247.042212973142
 30
0.0
 11
481.353
 21
248.896
 31
0.0
  0
LINE
  5
6AF
330
1D
100
AcDbEntity
  8
0
100
AcDbLine
 10
481.277
 20
242.506
 30
0.0
 11
481.03
 21
240.727
 31
0.0
  0
LINE
  5
6B0
330
1D
100
AcDbEntity
  8
0
100
AcDbLine
 10
438.474
 20
246.089
 30
0.0
 11
438.595
 21
243.281
 31
0.0
  0
LINE
  5
6B1
330
1D
100
AcDbEntity
  8
0
100
AcDbLine
 10
371.318
 20
223.6241
 30
0.0
 11
372.162
 21
248.2316
 31
0.0
  0
LINE
  5
6B2
330
1D
100
AcDbEntity
  8
0
100
AcDbLine
 10
372.257
 20
253.133
 30
0.0
 11
372.257
 21
257.678146767241
 31
0.0
  0
LINE
  5
6B3
330
1D
100
AcDbEntity
  8
0
100
AcDbLine
 10
372.257
 20
257.678146767241
 30
0.0
 11
372.176
 21
258.1274
 31
0.0
  0
LINE
  5
6B4
330
1D
100
AcDbEntity
  8
0
100
AcDbLine
 10
327.845
 20
259.2051
 30
0.0
 11
327.6038
 21
256.2473
 31
0.0
  0
LINE
  5
6B5
330
1D
100
AcDbEntity
  8
0
100
AcDbLine
 10
327.7983
 20
244.1213
 30
0.0
 11
328.0867
 21
238.5092
 31
0.0
  0
LINE
  5
6B6
330
1D
100
AcDbEntity
  8
0
100
AcDbLine
 10
323.093363466175
 20
269.880712693489
 30
0.0
 11
320.908755933187
 21
266.889443639248
 31
0.0
  0
LINE
  5
6B7
330
1D
100
AcDbEntity
  8
0
100
AcDbLine
 10
320.908755933187
 20
266.889443639248
 30
0.0
 11
319.2684
 21
264.2699
 31
0.0
  0
LINE
  5
6B8
330
1D
100
AcDbEntity
  8
0
100
AcDbLine
 10
384.366000000053
 20
241.717950000317
 30
0.0
 11
384.642
 21
243.3579
 31
0.0
  0
LINE
  5
6B9
330
1D
100
AcDbEntity
  8
0
100
AcDbLine
 10
324.0736
 20
224.0093
 30
0.0
 11
323.015350000018
 21
225.291949999978
 31
0.0
  0
LINE
  5
6BA
330
1D
100
AcDbEntity
  8
0
100
AcDbLine
 10
255.052171114279
 20
265.43680524427
 30
0.0
 11
257.3121
 21
263.605
 31
0.0
  0
LINE
  5
6BB
330
1D
100
AcDbEntity
  8
0
100
AcDbLine
 10
251.737157035267
 20
267.730201608705
 30
0.0
 11
248.902
 21
269.16
 31
0.0
  0
LINE
  5
6BC
330
1D
100
AcDbEntity
  8
0
100
AcDbLine
 10
241.5405
 20
270.842
 30
0.0
 11
243.0243
 21
270.702
 31
0.0
  0
LINE
  5
6BD
330
1D
100
AcDbEntity
  8
0
100
AcDbLine
 10
237.094003680534
 20
270.709291348023
 30
0.0
 11
237.8561
 21
270.792
 31
0.0
  0
LINE
  5
6BE
330
1D
100
AcDbEntity
  8
0
100
AcDbLine
 10
237.7383
 20
261.208
 30
0.0
 11
238.9873
 21
261.352
 31
0.0
  0
LINE
  5
6BF
330
1D
100
AcDbEntity
  8
0
100
AcDbLine
 10
240.795338672198
 20
261.362070176045
 30
0.0
 11
242.3205
 21
261.208
 31
0.0
  0
LINE
  5
6C0
330
1D
100
AcDbEntity
  8
0
100
AcDbLine
 10
250.637240475
 20
134.15938316644
 30
0.0
 11
252.8434
 21
136.958
 31
0.0
  0
LINE
  5
6C1
330
1D
100
AcDbEntity
  8
0
100
AcDbLine
 10
252.8434
 20
136.958
 30
0.0
 11
253.0934
 21
137.367
 31
0.0
  0
LINE
  5
6C2
330
1D
100
AcDbEntity
  8
0
100
AcDbLine
 10
205.0
 20
247.729
 30
0.0
 11
205.180409489019
 21
245.200525020905
 31
0.0
  0
LINE
  5
6C3
330
1D
100
AcDbEntity
  8
0
100
AcDbLine
 10
206.537148643434
 20
237.11632975141
 30
0.0
 11
207.198
 21
234.647
 31
0.0
  0
LINE
  5
6C4
330
1D
100
AcDbEntity
  8
0
100
AcDbLine
 10
274.238400606936
 20
253.401610661522
 30
0.0
 11
273.4675
 21
257.579
 31
0.0
  0
LINE
  5
6C5
330
1D
100
AcDbEntity
  8
0
100
AcDbLine
 10
274.8207
 20
242.727
 30
0.0
 11
274.881123563977
 21
245.251665673764
 31
0.0
  0
LINE
  5
6CD
330
1D
100
AcDbEntity
  8
0
100
AcDbLine
 10
213.0145
 20
269.205
 30
0.0
 11
214.813823888894
 21
271.003330968843
 31
0.0
  0
LINE
  5
6CE
330
1D
100
AcDbEntity
  8
0
100
AcDbLine
 10
230.709532107337
 20
268.866474020285
 30
0.0
 11
231.9147
 21
269.414
 31
0.0
  0
ENDSEC
  0
SECTION
  2
OBJECTS
  0
DICTIONARY
  5
C
330
0
100
AcDbDictionary
281
     1
  3
ACAD_GROUP
350
D
  3
ACAD_LAYOUT
350
1A
  3
ACAD_MLEADERSTYLE
350
6C8
  3
ACAD_MLINESTYLE
350
17
  3
ACAD_PLOTSETTINGS
350
19
  3
ACAD_PLOTSTYLENAME
350
E
  3
ACAD_SCALELIST
350
689
  3
AcDbVariableDictionary
350
6CA
  3
DWGPROPS
350
6D1
  0
DICTIONARY
  5
D
102
{ACAD_REACTORS
330
C
102
}
330
C
100
AcDbDictionary
281
     1
  0
DICTIONARY
  5
1A
102
{ACAD_REACTORS
330
C
102
}
330
C
100
AcDbDictionary
281
     1
  3
Layout1
350
1C
  3
Model
350
1E
  0
DICTIONARY
  5
6C8
102
{ACAD_REACTORS
330
C
102
}
330
C
100
AcDbDictionary
281
     1
  0
DICTIONARY
  5
17
102
{ACAD_REACTORS
330
C
102
}
330
C
100
AcDbDictionary
281
     1
  3
Standard
350
18
  0
DICTIONARY
  5
19
102
{ACAD_REACTORS
330
C
102
}
330
C
100
AcDbDictionary
281
     1
  0
ACDBDICTIONARYWDFLT
  5
E
102
{ACAD_REACTORS
330
C
102
}
330
C
100
AcDbDictionary
281
     1
  3
Normal
350
F
100
AcDbDictionaryWithDefault
340
F
  0
DICTIONARY
  5
689
102
{ACAD_REACTORS
330
C
102
}
330
C
100
AcDbDictionary
281
     1
  3
A0
350
68A
  3
A1
350
68B
  3
A2
350
68C
  3
A3
350
68D
  3
A4
350
68E
  3
A5
350
68F
  3
A6
350
690
  3
A7
350
691
  3
A8
350
692
  3
A9
350
693
  3
B0
350
694
  3
B1
350
695
  3
B2
350
696
  3
B3
350
697
  3
B4
350
698
  3
B5
350
699
  3
B6
350
69A
  3
B7
350
69B
  3
B8
350
69C
  3
B9
350
69D
  3
C0
350
69E
  3
C1
350
69F
  3
C2
350
6A0
  3
C3
350
6A1
  3
C4
350
6A2
  3
C5
350
6A3
  3
C6
350
6A4
  3
C7
350
6A5
  3
C8
350
6A6
  3
C9
350
6A7
  3
D0
350
6A8
  3
D1
350
6A9
  3
D2
350
6AA
  0
DICTIONARY
  5
6CA
102
{ACAD_REACTORS
330
C
102
}
330
C
100
AcDbDictionary
281
     1
  0
XRECORD
  5
6D1
102
{ACAD_REACTORS
330
C
102
}
330
C
100
AcDbXrecord
280
     1
  1
DWGPROPS COOKIE
  2

  3

  4

  6

  7

  8
MARTIN
  9

300
=
301
=
302
=
303
=
304
=
305
=
306
=
307
=
308
=
309
=
 40
0.0
 41
2456646.565963542
 42
2456646.590813079
  1

 90
        0
  0
LAYOUT
  5
1C
102
{ACAD_REACTORS
330
1A
102
}
330
1A
100
AcDbPlotSettings
  1

  2
none_device
  4

  6

 40
0.0
 41
0.0
 42
0.0
 43
0.0
 44
0.0
 45
0.0
 46
0.0
 47
0.0
 48
0.0
 49
0.0
140
0.0
141
0.0
142
1.0
143
1.0
 70
   688
 72
     0
 73
     0
 74
     5
  7

 75
    16
147
1.0
148
0.0
149
0.0
100
AcDbLayout
  1
Layout1
 70
     1
 71
     1
 10
0.0
 20
0.0
 11
12.0
 21
9.0
 12
0.0
 22
0.0
 32
0.0
 14
1.000000000000E+20
 24
1.000000000000E+20
 34
1.000000000000E+20
 15
-1.000000000000E+20
 25
-1.000000000000E+20
 35
-1.000000000000E+20
146
0.0
 13
0.0
 23
0.0
 33
0.0
 16
1.0
 26
0.0
 36
0.0
 17
0.0
 27
1.0
 37
0.0
 76
     0
330
1B
  0
LAYOUT
  5
1E
102
{ACAD_REACTORS
330
1A
102
}
330
1A
100
AcDbPlotSettings
  1

  2
none_device
  4

  6

 40
0.0
 41
0.0
 42
0.0
 43
0.0
 44
0.0
 45
0.0
 46
0.0
 47
0.0
 48
0.0
 49
0.0
140
0.0
141
0.0
142
1.0
143
1.0
 70
  1712
 72
     0
 73
     0
 74
     0
  7

 75
     0
147
1.0
148
0.0
149
0.0
100
AcDbLayout
  1
Model
 70
     1
 71
     0
 10
0.0
 20
0.0
 11
12.0
 21
9.0
 12
0.0
 22
0.0
 32
0.0
 14
205.0
 24
0.177
 34
0.0
 15
510.0
 25
282.454
 35
0.0
146
0.0
 13
0.0
 23
0.0
 33
0.0
 16
1.0
 26
0.0
 36
0.0
 17
0.0
 27
1.0
 37
0.0
 76
     0
330
1D
331
684
  0
MLINESTYLE
  5
18
102
{ACAD_REACTORS
330
17
102
}
330
17
100
AcDbMlineStyle
  2
Standard
 70
     0
  3

 62
   256
 51
90.0
 52
90.0
 71
     2
 49
0.5
 62
   256
  6
BYLAYER
 49
-0.5
 62
   256
  6
BYLAYER
  0
ACDBPLACEHOLDER
  5
F
102
{ACAD_REACTORS
330
E
102
}
330
E
  0
SCALE
  5
68A
102
{ACAD_REACTORS
330
689
102
}
330
689
100
AcDbScale
 70
     0
300
1:1
140
1.0
141
1.0
290
     1
  0
SCALE
  5
68B
102
{ACAD_REACTORS
330
689
102
}
330
689
100
AcDbScale
 70
     0
300
1:2
140
1.0
141
2.0
290
     0
  0
SCALE
  5
68C
102
{ACAD_REACTORS
330
689
102
}
330
689
100
AcDbScale
 70
     0
300
1:4
140
1.0
141
4.0
290
     0
  0
SCALE
  5
68D
102
{ACAD_REACTORS
330
689
102
}
330
689
100
AcDbScale
 70
     0
300
1:5
140
1.0
141
5.0
290
     0
  0
SCALE
  5
68E
102
{ACAD_REACTORS
330
689
102
}
330
689
100
AcDbScale
 70
     0
300
1:8
140
1.0
141
8.0
290
     0
  0
SCALE
  5
68F
102
{ACAD_REACTORS
330
689
102
}
330
689
100
AcDbScale
 70
     0
300
1:10
140
1.0
141
10.0
290
     0
  0
SCALE
  5
690
102
{ACAD_REACTORS
330
689
102
}
330
689
100
AcDbScale
 70
     0
300
1:16
140
1.0
141
16.0
290
     0
  0
SCALE
  5
691
102
{ACAD_REACTORS
330
689
102
}
330
689
100
AcDbScale
 70
     0
300
1:20
140
1.0
141
20.0
290
     0
  0
SCALE
  5
692
102
{ACAD_REACTORS
330
689
102
}
330
689
100
AcDbScale
 70
     0
300
1:30
140
1.0
141
30.0
290
     0
  0
SCALE
  5
693
102
{ACAD_REACTORS
330
689
102
}
330
689
100
AcDbScale
 70
     0
300
1:40
140
1.0
141
40.0
290
     0
  0
SCALE
  5
694
102
{ACAD_REACTORS
330
689
102
}
330
689
100
AcDbScale
 70
     0
300
1:50
140
1.0
141
50.0
290
     0
  0
SCALE
  5
695
102
{ACAD_REACTORS
330
689
102
}
330
689
100
AcDbScale
 70
     0
300
1:100
140
1.0
141
100.0
290
     0
  0
SCALE
  5
696
102
{ACAD_REACTORS
330
689
102
}
330
689
100
AcDbScale
 70
     0
300
2:1
140
2.0
141
1.0
290
     0
  0
SCALE
  5
697
102
{ACAD_REACTORS
330
689
102
}
330
689
100
AcDbScale
 70
     0
300
4:1
140
4.0
141
1.0
290
     0
  0
SCALE
  5
698
102
{ACAD_REACTORS
330
689
102
}
330
689
100
AcDbScale
 70
     0
300
8:1
140
8.0
141
1.0
290
     0
  0
SCALE
  5
699
102
{ACAD_REACTORS
330
689
102
}
330
689
100
AcDbScale
 70
     0
300
10:1
140
10.0
141
1.0
290
     0
  0
SCALE
  5
69A
102
{ACAD_REACTORS
330
689
102
}
330
689
100
AcDbScale
 70
     0
300
100:1
140
100.0
141
1.0
290
     0
  0
SCALE
  5
69B
102
{ACAD_REACTORS
330
689
102
}
330
689
100
AcDbScale
 70
     0
300
1/128" = 1'-0"
140
0.0078125
141
12.0
290
     0
  0
SCALE
  5
69C
102
{ACAD_REACTORS
330
689
102
}
330
689
100
AcDbScale
 70
     0
300
1/64" = 1'-0"
140
0.015625
141
12.0
290
     0
  0
SCALE
  5
69D
102
{ACAD_REACTORS
330
689
102
}
330
689
100
AcDbScale
 70
     0
300
1/32" = 1'-0"
140
0.03125
141
12.0
290
     0
  0
SCALE
  5
69E
102
{ACAD_REACTORS
330
689
102
}
330
689
100
AcDbScale
 70
     0
300
1/16" = 1'-0"
140
0.0625
141
12.0
290
     0
  0
SCALE
  5
69F
102
{ACAD_REACTORS
330
689
102
}
330
689
100
AcDbScale
 70
     0
300
3/32" = 1'-0"
140
0.09375
141
12.0
290
     0
  0
SCALE
  5
6A0
102
{ACAD_REACTORS
330
689
102
}
330
689
100
AcDbScale
 70
     0
300
1/8" = 1'-0"
140
0.125
141
12.0
290
     0
  0
SCALE
  5
6A1
102
{ACAD_REACTORS
330
689
102
}
330
689
100
AcDbScale
 70
     0
300
3/16" = 1'-0"
140
0.1875
141
12.0
290
     0
  0
SCALE
  5
6A2
102
{ACAD_REACTORS
330
689
102
}
330
689
100
AcDbScale
 70
     0
300
1/4" = 1'-0"
140
0.25
141
12.0
290
     0
  0
SCALE
  5
6A3
102
{ACAD_REACTORS
330
689
102
}
330
689
100
AcDbScale
 70
     0
300
3/8" = 1'-0"
140
0.375
141
12.0
290
     0
  0
SCALE
  5
6A4
102
{ACAD_REACTORS
330
689
102
}
330
689
100
AcDbScale
 70
     0
300
1/2" = 1'-0"
140
0.5
141
12.0
290
     0
  0
SCALE
  5
6A5
102
{ACAD_REACTORS
330
689
102
}
330
689
100
AcDbScale
 70
     0
300
3/4" = 1'-0"
140
0.75
141
12.0
290
     0
  0
SCALE
  5
6A6
102
{ACAD_REACTORS
330
689
102
}
330
689
100
AcDbScale
 70
     0
300
1" = 1'-0"
140
1.0
141
12.0
290
     0
  0
SCALE
  5
6A7
102
{ACAD_REACTORS
330
689
102
}
330
689
100
AcDbScale
 70
     0
300
1-1/2" = 1'-0"
140
1.5
141
12.0
290
     0
  0
SCALE
  5
6A8
102
{ACAD_REACTORS
330
689
102
}
330
689
100
AcDbScale
 70
     0
300
3" = 1'-0"
140
3.0
141
12.0
290
     0
  0
SCALE
  5
6A9
102
{ACAD_REACTORS
330
689
102
}
330
689
100
AcDbScale
 70
     0
300
6" = 1'-0"
140
6.0
141
12.0
290
     0
  0
SCALE
  5
6AA
102
{ACAD_REACTORS
330
689
102
}
330
689
100
AcDbScale
 70
     0
300
1'-0" = 1'-0"
140
12.0
141
12.0
290
     0
  0
ENDSEC
  0
SECTION
  2
THUMBNAILIMAGE
 90
    16364
310
28000000B40000005500000001000800000000000000000000000000000000000000000000000000FFFFFF000000FF0000FFFF0000FF0000FFFF0000FF000000FF00FF000000000080808000C0C0C0000000FF007F7FFF000000A5005252A50000007F003F3F7F0000004C0026264C000000260013132600003FFF007F9FFF
310
000029A5005267A500001F7F003F4F7F0000134C00262F4C000009260013172600007FFF007FBFFF000052A500527CA500003F7F003F5F7F0000264C0026394C0000132600131C260000BFFF007FDFFF00007CA5005291A500005F7F003F6F7F0000394C0026424C00001C26001321260000FFFF007FFFFF0000A5A50052A5
310
A500007F7F003F7F7F00004C4C00264C4C00002626001326260000FFBF007FFFDF0000A57C0052A59100007F5F003F7F6F00004C3900264C420000261C001326210000FF7F007FFFBF0000A5520052A57C00007F3F003F7F5F00004C2600264C39000026130013261C0000FF3F007FFF9F0000A5290052A56700007F1F003F
310
7F4F00004C1300264C2F00002609001326170000FF00007FFF7F0000A5000052A55200007F00003F7F3F00004C0000264C260000260000132613003FFF00009FFF7F0029A5000067A552001F7F00004F7F3F00134C00002F4C260009260000172613007FFF0000BFFF7F0052A500007CA552003F7F00005F7F3F00264C0000
310
394C2600132600001C261300BFFF0000DFFF7F007CA5000091A552005F7F00006F7F3F00394C0000424C26001C26000021261300FFFF0000FFFF7F00A5A50000A5A552007F7F00007F7F3F004C4C00004C4C26002626000026261300FFBF0000FFDF7F00A57C0000A59152007F5F00007F6F3F004C3900004C422600261C00
310
0026211300FF7F0000FFBF7F00A5520000A57C52007F3F00007F5F3F004C2600004C39260026130000261C1300FF3F0000FF9F7F00A5290000A56752007F1F00007F4F3F004C1300004C2F26002609000026171300FF000000FF7F7F00A5000000A55252007F0000007F3F3F004C0000004C2626002600000026131300FF00
310
3F00FF7F9F00A5002900A55267007F001F007F3F4F004C0013004C262F002600090026131700FF007F00FF7FBF00A5005200A5527C007F003F007F3F5F004C0026004C2639002600130026131C00FF00BF00FF7FDF00A5007C00A55291007F005F007F3F6F004C0039004C26420026001C0026132100FF00FF00FF7FFF00A5
310
00A500A552A5007F007F007F3F7F004C004C004C264C002600260026132600BF00FF00DF7FFF007C00A5009152A5005F007F006F3F7F0039004C0042264C001C002600211326007F00FF00BF7FFF005200A5007C52A5003F007F005F3F7F0026004C0039264C00130026001C1326003F00FF009F7FFF002900A5006752A500
310
1F007F004F3F7F0013004C002F264C000900260017132600000000002D2D2D005B5B5B0089898900B7B7B700B3B3B30000000000000000000000000000000000000000000000000000000000000000000000000000000000000000000000000000000000000000000000000000000000000000000000000000000000000000
310
00000000000000000000000000000000000000000000000000000000000000000000000000000000000000000000000000000000000000000000000000000000000000000000000000000000000000000000000000000000000000000000000000000000000000000000000000000000000000000000000000000000000000
310
00000000000000000000000000000000000000000000000000000000000000000000000000000000000000000000000000000000000000000000000000000000000000000000000000000000000000000000000000000000000000000000000000000000000000000000000000000000000000000000000000000000000000
310
00000000000000000000000000000000000000000000000000000000000000000000000000000000000000000000000000000000000000000000000000000000000000000000000000000000000000000000000000000000000000000000000000000000000000000000000000000000000000000000000000000000000000
310
00000000000000000000000000000000000000000000000000000000000000000000000000000000000000000000000000000000000000000000000000000000000000000000000000000000000000000000000000000000000000000000000000000000000000000000000000000000000000000000000000000000000000
310
00000000000000000000000000000000000000000000000000000000000000000000000000000000000000000000000000000000000000000000000000000000000000000000000000000000000000000000000000000000000000000000000000000000000000000000000000000000000000000000000000000000000000
310
00000000000000000000000000000000000000000000000000000000000000000000000000000000000000000000000000000000000000000000000000000000000000000000000000000000000000000000000000000000000000000000000000000000000000000000000000000000000000000000000000000000000000
310
00000000000000000000000000000000000000000000000000000000000000000000000000000000000000000000000000000000000000000000000000000000000000000000000000000000000000000000000000000000000000000000000000000000000000000000000000000000000000000000000000000000000000
310
00000000000000000000000000000000000000000000000000000000000000000000000000000000000000000000000000000000000000000000000000000000000000000000000000000000000000000000000000000000000000000000000000000000000000000000000000000000000000000000000000000000000000
310
00000000000000000000000000000000000000000000000000000000000000000000000000000000000000000000000000000000000000000000000000000000000000000000000000000000000000000000000000000000000000000000000000000000000000000000000000000000000000000000000000000000000000
310
00000000000000000000000000000000000000000000000000000000000000000000000000000000000000000000000000000000000000000000000000000000000000000000000000000000000000000000000000000000000000000000000000000000000000000000000000000000000000000000000000000000000000
310
00000000000000000000000000000000000000000000000000000000000000000000000000000000000000000000000000000000000000000000000000000000000000000000000000000000000000000000000000000000000000000000000000000000000000000000000000000000000000000000000000000000000000
310
00000000000000000000000000000000000000000000000000000000000000000000000000000000000000000000000000000000000000000000000000000000000000000000000000000000000000000000000000000000000000000000000000000000000000000000000000000000000000000000000000000000000000
310
00000000000000000000000000000000000000000000000000000000000000000000000000000000000000000000000000000000000000000000000000000000000000000000000000000000000000000000000000000000000000000000000000000000000000000000000000000000000000000000000000000000000000
310
00000000000000000000000000000000000000000000000000000000000000000000000000000000000000000000000000000000000000000000000000000000000000000000000000000000000000000000000000000000000000000000000000000000000000000000000000000000000000000000000000000000000000
310
00000000000000000000000000000000000000000000000000000000000000000000000000000000000000000000000000000000000000000000000000000000000000000000000000000000000000000000000000000000000000000000000000000000000000000000000000000000000000000000000000000000000000
310
00000000000000000000000000000000000000000000000000000000000000000000000000000000000000000000000000000000000000000000000000000000000000000000000000000000000000000000000000000000000000000000000000000000000000000000000000000000000000000000000000000000000000
310
00000000000000000000000000000000000000000000000000000000000000000000000000000000000000000000000000000000000000000000000000000000000000000000000000000000000000000000000000000000000000000000000000000000000000000000000000000000000000000000000000000000000000
310
00000000000000000000000000000000000000000000000000000000000000000000000000000000000000000000000000000000000000000000000000000000000000000000000000000000000000000000000000000000000000000000000000000000000000000000000000000000000000000000000000000000000000
310
00000000000000000000000000000000000000000000000000000000000000000000000000000000000000000000000000000000000000000000000000000000000000000000000000000000000000000000000000000000000000000000000000000000000000000000000000000000000000000000000000000000000000
310
00000000000000000000000000000000000000000000000000000000000000000000000000000000000000000000000000000000000000000000000000000000000000000000000000000000000000000000000000000000000000000000000000000000000000000000000000000000000000000000000000000000000000
310
00000000000000000700000000000000000000000000000000000000000000000000000000000000000000000000000000000000000000000000000000000000000000000000000000000000000000000000000000000000000000000000000000000000000000000000000000000000000000000000000000000000000000
310
00000000000000000000000000000000000000000000000000000000000000000000000000000000000000000000000000000000000000000007070707000707070700000000000000000000000000000000000000000000000000000000000000000000000000000000000000000000000000000000000000000000000000
310
00000000000000000000000000000000000000000000000000000000000000000000000000000000000000000000000000000000000000000000000000000000000000000000000000000000000000000000000000000000000000000000000000000000000000000000000000070000000000000000000707000000000000
310
00000000000000000000000000000000000000000000000000000000000000000000000000000000000000000000000000000000000000000000000000000000000000000000000000000000000000000000000000000000000000000000000000000000000000000000000000000000000000000000000000000000000000
310
00000000000000000000000000000000000000000000000000000000000000000000070000000000000000000000070000000000000000000000000000000000000000000000000000000000000000000000000000000000000000000000000000000000000000000000000000000000000000000000000000000000000000
310
00000000000000000000000000000000000000000000000000000000000000000000000000000000000000000000000000000000000000000000000000000000000000000000000000000000000000000000000000000007000000000000000000000000070000000000000000000000000000000000000000000000000000
310
00000000000000000000000000000000000000000000000000000000000000000000000000000000000000000000000000000000000000000000000000000000000000000000000000000000000000000000000000000000000000000000000000000000000000000000000000000000000000000000000000000000000000
310
00000000000000000000000007000000000000000000000000000000000000000000000000000000000000000000000000000000000000000000000000000000000000000000000000000000000000000000000000000000000000000000000000000000000000000000000000000000000000000000000000000000000000
310
00000000000000000000000000000000000000000000000000000000000000000000000000000000000000000000000000000000000000000000000000000000070000000000000000000000000000000700000000000000000000000000000000000000000000000000000000000000000000000000000000000000000000
310
00000000000000000000000000000000000000000000000000000000000000000000000000000000000000000000000000000000000000000000000000000000000000000000000000000000000000000000000000000000000000000000000000000000000000000000000000000000000000000007000000000000000000
310
00000000000007000000000000000000000000000000000000000000000000000000000000000000000000000000000000000000000000000000000000000000000000000000000000000000000000000000000000000000000000000000000000000000000000000000000000000000000000000000000000000000000000
310
00000000000000000000000000000000000000000000000000000000000000000000000000000000000000070000000000000000000000000000000700000000000000000000000000000000000000000000000000000000000000000000000000000000000000000000000000000000000000000000000000000000000000
310
00000000000000000000000000000000000000000000000000000000000000000000000000000000000000000000000000000000000000000000000000000000000000000000000000000000000000000000000000000000000000000000000007000000000000000000000000000000070000000000000000000000000000
310
00000000000000000000000000000000000000000000000000000000000000000000000000000000000000000000000000000000000000000000000000000000000000000000000000000000000000000000000000000000000000000000000000000000000000000000000000000000000000000000000000000000000000
310
00000000000000000000000000000000000000000000000700000000000000000000000000000700000000000000000000000000000000000000000000000000000000000000000000000000000000000000000000000000000000000000000000000000000000000000000000000000000000000000000000000000000000
310
00000000000000000000000000000000000000000000000000000000000000000000000000000000000000000000000000000000000000000000000000000000000000000000000000000000070000000000000000000000000007000000000000000000000000000000000000000000000000000000000000000000000000
310
00000000000000000000000000000000000000000000000000000000000000000000000000000000000000000000000000000000000000000000000000000000000000000000000000000000000000000000000000000000000000000000000000000000000000000000000000000000000000000000000000000000000000
310
00000700000000000000000000000000070000000000000000000000000000000000000000000000000000000000000000000000000000000000000000000000000000000000000000000000000000000000000000000000000000000000000000000000000000000000000000000000000000000000000000000000000000
310
00000000000000000000000000000000000000000000000000000000000000000000000000000000000000000000000000000000000000000707000000000000000000000700000000000000000000000000000000000000000000000000000000000000000000000000000000000000000000000000000000000000000000
310
00000000000000000000000000000000000000000000000000000000000000000000000000000000000000000000000000000000000000000000000000000000000000000000000000000000000000000000000000000000000000000000000000000000000000000000000000000700000000000000000007000000000000
310
00000000000000000000000000000000000000000000000000000000000000000000000000000000000000000000000000000000000000000000000000000000000000000000000000000000000000000000000000000000000000000000000000000000000000000000000000000000000000000000000000000000000000
310
00000000000000000000000000000000000000000000000000000000000000000000000000070707000000000707000000000000000000000000000000000000000000000000000000000000000000000000000000000000000000000000000000000000000000000000000000000000000000000000000000000000000000
310
00000000000000000000000000000000000000000000000000000000000000000000000000000000000000000000000000000000000000000000000000000000000000000000000000000000000000000000000000000000000000000700000007000000000000000000000000000000000000000000000000000000000000
310
00000000000000000000000000000000000000000000000000000000000000000000000000000000000000000000000000000000000000000000000000000000000000000000000000000000000000000000000000000000000000000000000000000000000000000000000000000000000000000000000000000000000000
310
00000000000000000000000000000000000007000000070000000000000000000000000000000000000000000000000000000000000000000000000000000000000000000000000000000000000000000000000000000000000000000000000000000000000000000000000000000000000000000000000000000000000000
310
00000000000000000000000000000000000000000000000000000000000000000000000000000000000000000000000000000000000000000000000000000000000000000000000700000007000000000000000000000000000000000000000000000000000000000000000000000000000000000000000000000000000000
310
00000000000000000000000000000000000000000000000000000000000000000000000000000000000000000000000000000000000000000000000000000000000000000000000000000000000000000000000000000000000000000000000000000000000000000000000000000000000000000000000000000000070000
310
00070000000000000000000000000000000000000000000000000000000000000000000000000000000000000000000000000000000000000000000000000000000000000000000000000000000000000000000000000000000000000000000000000000000000000000000000000000000000000000000000000000000000
310
00000000000000000000000000000000070707070000000000000000000000000000000000000000000000000000000000000700000007000000000000000000000000000000000000000000000000000000000000000000000000000000000000000000000000000000000000000000000000000000000000000000000000
310
00000000000000000000000000000000000000000000000000000000000000000000000000000000000000000000000000000000000000000000000000000000000000000707070707070000000000000000000000000000000000000000000000000000000000070000000700000000000000000000000000000000000000
310
00000000000000000000000000000000000000000000000000000000000000000000000000000000000000000000000000000000000000000000000000000000000000000000000000000000000000000000000000000000000000000000000000000000000000000000000000000000000000000000000000070700000007
310
00000000000000000000000000000000000000000000000000000000000700000007000000000000000000000000000000000000000000000000000000000000000000000000000000000000000000000000000000000000000000000000000000000000000000000000000000000000000000000000000000000000000000
310
00000000000000000000000007070707070707070707070707070707070707070707070707070707070707070707070700000000070707070707070707070707070707070707070707070707070707070707070000000707070707070707070707070707070707070707070707070707070707070707070707070700000000
310
00000000000000000000000000000000000000000000000000000000000000000000000000000000000000000000000000000000000000000000000000000000000700070707000000000000000000000000000000000000000000000000000000000000070000000007000000000000000000000000000000000000000000
310
00000000000000000700000007000000000000000000000000000000000000000000000000000000000000000707070007000000000000000000000000000000000000000000000000000000000000000000000000000000000000000000000000000000000000000000000000000000000000000000070000000007070700
310
00000000000000000000000000000000000000000000000000000700000000070000000000000000000000000000000000000000000000000000000000070000000700000000000000000000000000000000000000000000000000000000070707000000000700000000000000000000000000000000000000000000000000
310
00000000000000000000000000000000000000000000000000000000000000000000000000000000000000000700000000000000070707000000000000000000000000000000000000000000000000070000000007000000000000000000000000000000000000000000000000000000000007000000070000000000000000
310
00000000000000000000000000000000000707070000000000000007000000000000000000000000000000000000000000000000000000000000000000000000000000000000000000000000000000000000000000000000000000000000000000070000000000000000000007070000000000000000000000000000000000
310
00000000000700000000070000000000000000000000000000000000000000000000000000000000070000000700000000000000000000000000000000000000000000000707000000000000000000000700000000000000000000000000000000000000000000000000000000000000000000000000000000000000000000
310
00000000000000000000000000000000000000000000000700000000000000000000000007070700000000000000000000000000000000000000070000000007000000000000000000000000000000000000000000000000000000000007000000070000000000000000000000000000000000000000070707000000000000
310
00000000000007000000000000000000000000000000000000000000000000000000000000000000000000000000000000000000000000000000000000000000000000000000000000000000070000000000000000000000000000000707070000000000000000000000000000000007000000000700000000000000000000
310
00070707070707070000000000000000000000070000000700000000000000000000000000000000000707070000000000000000000000000000000700000000000000000000000000000000000000000000000000000000000000000000000000000000000000000000000000000000000000000000000000000000000000
310
00000700000000000000000000000000000000000007070700000000000000000000000000070000000007000000000000000000000007000000000007000000000000000000000007000000070000000000000000000000000000070707000000000000000000000000000000000000070000000000000000000000000000
310
00000000000000000000000000000000000000000000000000000000000000000000000000000000000000000000000000000000000000070000000000000000000000000000000000000000000707070707070707070707070707000000000707070707070707070707070700000000000707070707070707070707070700
310
00000707070707070707070707070707070000000000000000000000000000000000000000000700000000000000000000000000000000000000000000000000000000000000000000000000000000000000000000000000000000000000000000000000000000000000000007000000000000000000000000000000000000
310
00000000070000000000000000000000070000000007000000000000000000000007000000000007000000000000000000000007000000070700000000000000000000000700000000000000000000000000000000000000000000070000000000000000000000000000000000000000000000000000000000000000000000
310
00000000000000000000000000000000000000000000000000000000000000000000070000000000000000000000000000000000000000000007000000000000000000000007000000000700000000000000000007070700000000000700000000000000000000000700000007070000000000000000000000070000000000
310
00000000000000000000000000000000000700000000000000000000000000000000000000000000000000000000000000000000000000000000000000000000000000000000000000000000000000000000000000000007000000000000000000000000000000000000000000000700000000000000000000000700000000
310
07070000000000000007070707000000000007000000000000000000000707070707070700000000000000000000000700000000000000000000000000000000000000000000070000000000000000000000000000000000000000000000000000000000000000000000000000000000000000000000000000000000000000
310
00000000000000000000000000070000000000000000000000000000000000000000000007000000000000000000000707000000000707070000000000000707070700000000000707000000000000000007070700000007070700000000000000000000070000000000000000000000000000000000000000000007000000
310
00000000000000000000000000000000000000000000000000000000000000000000000000000000000000000000000000000000000000000000000000000000000007000000000000000000000000000000000000000000000700000000000000000007000700000000070007000000000000070707070000000000070707
310
00000000000007070707070707070707070000000000000000000700000000000000000000000000000000000000000000070000000000000000000000000000000000000000000000000000000000000000000000000000000000000000000000000000000000000000000000000000000000000000000700000000000000
310
00000000000000000000000000000007000000000000000000070707000000000707000700000000000007000700000000000700070000000000000707070700000000070700070000000000000000070000000000000000000000000000000000000000000007000000000000000000000000000000000000000000000000
310
00000000000000000000000000000000000000000000000000000000000000000000000000000000000000000007000000000000000000000000000000000000000000000700000000000000070700070700000000070700070700000000000700070000000000070007000000000000070707070000000007070707000000
310
00000000000700000000000000000000000000000000000000000000070000000000000000000000000000000000000000000000000000000000000000000000000000000000000000000000000000000000000000000000000000000000000000000700000000000000000000000000000000000000000000070000000000
310
00000707000707000000000707000707000000000007000700000000000700000000000000000707070700000000070707070000000000000000070000000000000000000000000000000000000000000007000000000000000000000000000000000000000000000000000000000000000000000000000000000000000000
310
00000000000000000000000000000000000000000000000007000000000000000000000000000000000000000000000700000000000000070700070007000000070700070700000000000707000000000000070007000000000000070707070000000707070707000000000000000007000000000000000000000000000000
310
00000000000000070000000000000000000000000000000000000000000000000000000000000000000000000000000000000000000000000000000000000000000000000000000000000000000700000000000000000000000000000000000000000000070000000000000000000707070707070700070007000000000000
310
07070700000000000700070000000000000707070707070707070707000000000000000000070000000000000000000000000000000000000000000007000000000000000000000000000000000000000000000000000000000000000000000000000000000000000000000000000000000000000000000000000000000000
310
00000007000000000000000000000000000000000000000000000700000000000000000007000707000000070007000000000000000700070700000007070707070000000000000707070007070707070700000000000000000007000000000000000000000000000000000000000000000700000000000000000000000000
310
00000000000000000000000000000000000000000000000000000000000000000000000000000000000000000000000000000000000000000700000000000000000000000000000000000000000000070000000000000000000007000707070700070700000000000000000700000707070000070707000000000000070707
310
07070707070707000000000000000000070000000000000000000000000000000000000000000007000000000000000000000000000000000000000000000000000000000000000000000000000000000000000000000000000000000000000000000000000000000000000000070000000000000000000000000000000000
310
00000000000700000000000000000000000707070007070700000000000000000000070707000707070707070000000000000007070707070707000000000000000000000007000000000000000000000000000000000000000000000700000000000000000000000000000000000000000000000000000000000000000000
310
00000000000000000000000000000000000000000000000000000000000000000000000700000000000000000000000000000000000000000000070000000000000000000000000007070000000000000000000000000000000707070007070700000000000000000000000700000000000000000000000000000700000000
310
00000000000000000000000000000000000007000000000000000000000000000000000000000000000000000000000000000000000000000000000000000000000000000000000000000000000000000000000000000000070000000000000000000000000000000000000000000007000000000000000000000000000000
310
00000000000000000000000000000000000000000000000000000000000000000000000000000000000000000000000007000000000000000000000000000000000000000000000700000000000000000000000000000000000000000000000000000000000000000000000000000000000000000000000000000000000000
310
00000000000000000000000000000700000000000000000000000000000000000000000007070707070707070707070707070707070707070707070707070707070707070707070707070707070707070707070707070707070707070707070707070707070707000000000000000000000000000000000000000000070000
310
00000000000000000000000000000000000000000000000000000000000000000000000000000000000000000000000000000000000000000000000000000000000000070000000000000000000000000000000000000707070000000000000000000000000000000000000000000000000000000000000000000000000000
310
00000000000000000000000000000000000000000000000000000000000707070000000000000000000000000000000000000700000000000000000000000000000000000000000000000000000000000000000000000000000000000000000000000000000000000000000000000000000000000000000007000000000000
310
00000000000000000007070700000000000000000000000000000000000000000000000000000000000000000000000000000000000000000000000000000000000000000000000000000000000000000000000000070707000000000000000000000000000000070000000000000000000000000000000000000000000000
310
00000000000000000000000000000000000000000000000000000000000000000000000000000000000000000000070000000000000000000000000707070000000000000000000000000000000000000000000000000000000000000000000000000000000000000000000000000000000000000000000000000000000000
310
00000000000000000000000000000707070000000000000000000000000700000000000000000000000000000000000000000000000000000000000000000000000000000000000000000000000000000000000000000000000000000000000000000007000000000000000000000707000000000000000000000000000000
310
00000000000000000000000000000000000000000000000000000000000000000000000000000000000000000000000000000000000000000000000000000000000000000000070700000000000000000000070000000000000000000000000000000000000000000000000000000000000000000000000000000000000000
310
00000000000000000000000000000000000000000000000000070000000000000007070700000000000000000000000000000000000000000000000000000000000000000000000000000000000000000000000000000000000000000000000000000000000000000000000000000000000000000000000000000000000707
310
07000000000000000700000000000000000000000000000000000000000000000000000000000000000000000000000000000000000000000000000000000000000000000000000000000000000007000000000707070000000000000000000000000000000000000000000000000000000000000000000000000000000000
310
00000000000000000000000000000000000000000000000000000000000000000000000000000000000000000000000000000000000007070700000000070000000000000000000000000000000000000000000000000000000000000000000000000000000000000000000000000000000000000000000000000000000000
310
00000000070007070700000000000000000000000000000000000000000000000000000000000000000000000000000000000000000000000000000000000000000000000000000000000000000000000000000000000000000000000000000000000000000000000000000000000707070007000000000000000000000000
310
00000000000000000000000000000000000000000000000000000000000000000000000000000000000000000000000000000000000000000007070707070707070707070707070707070707070707070707070707070707070707070707070707070707070707070707070707070707070707070707070707070707070707
310
07070707070707070707070707070707070707070707070707070707070707070707070707070707070000000000000000000000000000000000000000000000000000000000000000000000000000000000000000000000000000000000000000000000000000000000000000000000000000000000000000000000000000
310
00000000000000000000000000000000000000000000000000000000000000000000000000000000000000000000000000000000000000000000000000000000000000000000000000000000000000000000000000000000000000000000000000000000000000000000000000000000000000000000000000000000000000
310
00000000000000000000000000000000000000000000000000000000000000000000000000000000000000000000000000000000000000000000000000000000000000000000000000000000000000000000000000000000000000000000000000000000000000000000000000000000000000000000000000000000000000
310
00000000000000000000000000000000000000000000000000000000000000000000000000000000000000000000000000000000000000000000000000000000000000000000000000000000000000000000000000000000000000000000000000000000000000000000000000000000000000000000000000000000000000
310
00000000000000000000000000000000000000000000000000000000000000000000000000000000000000000000000000000000000000000000000000000000000000000000000000000000000000000000000000000000000000000000000000000000000000000000000000000000000000000000000000000000000000
310
00000000000000000000000000000000000000000000000000000000000000000000000000000000000000000000000000000000000000000000000000000000000000000000000000000000000000000000000000000000000000000000000000000000000000000000000000000000000000000000000000000000000000
310
00000000000000000000000000000000000000000000000000000000000000000000000000000000000000000000000000000000000000000000000000000000000000000000000000000000000000000000000000000000000000000000000000000000000000000000000000000000000000000000000000000000000000
310
00000000000000000000000000000000000000000000000000000000000000000000000000000000000000000000000000000000000000000000000000000000000000000000000000000000000000000000000000000000000000000000000000000000000000000000000000000000000000000000000000000000000000
310
00000000000000000000000000000000000000000000000000000000000000000000000000000000000000000000000000000000000000000000000000000000000000000000000000000000000000000000000000000000000000000000000000000000000000000000000000000000000000000000000000000000000000
310
00000000000000000000000000000000000000000000000000000000000000000000000000000000000000000000000000000000000000000000000000000000000000000000000000000000000000000000000000000000000000000000000000000000000000000000000000000000000000000000000000000000000000
310
00000000000000000000000000000000000000000000000000000000000000000000000000000000000000000000000000000000000000000000000000000000000000000000000000000000000000000000000000000000000000000000000000000000000000000000000000000000000000000000000000000000000000
310
00000000000000000000000000000000000000000000000000000000000000000000000000000000000000000000000000000000000000000000000000000000000000000000000000000000000000000000000000000000000000000000000000000000000000000000000000000000000000000000000000000000000000
310
00000000000000000000000000000000000000000000000000000000000000000000000000000000000000000000000000000000000000000000000000000000000000000000000000000000000000000000000000000000000000000000000000000000000000000000000000000000000000000000000000000000000000
310
00000000000000000000000000000000000000000000000000000000000000000000000000000000000000000000000000000000000000000000000000000000000000000000000000000000000000000000000000000000000000000000000000000000000000000000000000000000000000000000000000000000000000
310
00000000000000000000000000000000000000000000000000000000000000000000000000000000000000000000000000000000000000000000000000000000000000000000000000000000000000000000000000000000000000000000000000000000000000000000000000000000000000000000000000000000000000
310
00000000000000000000000000000000000000000000000000000000000000000000000000000000000000000000000000000000000000000000000000000000000000000000000000000000000000000000000000000000000000000000000000000000000000000000000000000000000000000000000000000000000000
310
00000000000000000000000000000000000000000000000000000000000000000000000000000000000000000000000000000000000000000000000000000000000000000000000000000000000000000000000000000000000000000000000000000000000000000000000000000000000000000000000000000000000000
310
00000000000000000000000000000000000000000000000000000000000000000000000000000000000000000000000000000000000000000000000000000000000000000000000000000000000000000000000000000000000000000000000000000000000000000000000000000000000000000000000000000000000000
310
00000000000000000000000000000000000000000000000000000000000000000000000000000000000000000000000000000000000000000000000000000000000000000000000000000000000000000000000000000000000000000000000000000000000000000000000000000000000000000000000000000000000000
310
00000000000000000000000000000000000000000000000000000000000000000000000000000000000000000000000000000000000000000000000000000000000000000000000000000000000000000000000000000000000000000000000000000000000000000000000000000000000000000000000000000000000000
310
00000000000000000000000000000000000000000000000000000000000000000000000000000000000000000000000000000000000000000000000000000000000000000000000000000000000000000000000000000000000000000000000000000000000000000000000000000000000000000000000000000000000000
310
000000000000000000000000000000000000000000000000000000000000000000000000000000000000000000000000000000000000000000000000000000000000000000000000000000000000000000000000000000000000000000000000000000000000000000000000
  0
ENDSEC
  0
EOF
