  0
SECTION
  2
HEADER
  9
$ACADVER
  1
AC1015
  9
$ACADMAINTVER
 70
     6
  9
$DWGCODEPAGE
  3
ANSI_1252
  9
$INSBASE
 10
0.0
 20
0.0
 30
0.0
  9
$EXTMIN
 10
0.009
 20
-0.008
 30
0.0
  9
$EXTMAX
 10
279.991
 20
157.008
 30
0.0
  9
$LIMMIN
 10
0.0
 20
0.0
  9
$LIMMAX
 10
12.0
 20
9.0
  9
$ORTHOMODE
 70
     0
  9
$REGENMODE
 70
     1
  9
$FILLMODE
 70
     1
  9
$QTEXTMODE
 70
     0
  9
$MIRRTEXT
 70
     1
  9
$LTSCALE
 40
1.0
  9
$ATTMODE
 70
     1
  9
$TEXTSIZE
 40
0.2
  9
$TRACEWID
 40
0.05
  9
$TEXTSTYLE
  7
Standard
  9
$CLAYER
  8
0
  9
$CELTYPE
  6
ByBlock
  9
$CECOLOR
 62
   256
  9
$CELTSCALE
 40
1.0
  9
$DISPSILH
 70
     0
  9
$DIMSCALE
 40
1.0
  9
$DIMASZ
 40
0.18
  9
$DIMEXO
 40
0.0625
  9
$DIMDLI
 40
0.38
  9
$DIMRND
 40
0.0
  9
$DIMDLE
 40
0.0
  9
$DIMEXE
 40
0.18
  9
$DIMTP
 40
0.0
  9
$DIMTM
 40
0.0
  9
$DIMTXT
 40
0.18
  9
$DIMCEN
 40
0.09
  9
$DIMTSZ
 40
0.0
  9
$DIMTOL
 70
     0
  9
$DIMLIM
 70
     0
  9
$DIMTIH
 70
     1
  9
$DIMTOH
 70
     1
  9
$DIMSE1
 70
     0
  9
$DIMSE2
 70
     0
  9
$DIMTAD
 70
     0
  9
$DIMZIN
 70
     0
  9
$DIMBLK
  1

  9
$DIMASO
 70
     1
  9
$DIMSHO
 70
     1
  9
$DIMPOST
  1

  9
$DIMAPOST
  1

  9
$DIMALT
 70
     0
  9
$DIMALTD
 70
     2
  9
$DIMALTF
 40
25.4
  9
$DIMLFAC
 40
1.0
  9
$DIMTOFL
 70
     0
  9
$DIMTVP
 40
0.0
  9
$DIMTIX
 70
     0
  9
$DIMSOXD
 70
     0
  9
$DIMSAH
 70
     0
  9
$DIMBLK1
  1

  9
$DIMBLK2
  1

  9
$DIMSTYLE
  2
Standard
  9
$DIMCLRD
 70
     0
  9
$DIMCLRE
 70
     0
  9
$DIMCLRT
 70
     0
  9
$DIMTFAC
 40
1.0
  9
$DIMGAP
 40
0.09
  9
$DIMJUST
 70
     0
  9
$DIMSD1
 70
     0
  9
$DIMSD2
 70
     0
  9
$DIMTOLJ
 70
     1
  9
$DIMTZIN
 70
     0
  9
$DIMALTZ
 70
     0
  9
$DIMALTTZ
 70
     0
  9
$DIMUPT
 70
     0
  9
$DIMDEC
 70
     4
  9
$DIMTDEC
 70
     4
  9
$DIMALTU
 70
     2
  9
$DIMALTTD
 70
     2
  9
$DIMTXSTY
  7
Standard
  9
$DIMAUNIT
 70
     0
  9
$DIMADEC
 70
     0
  9
$DIMALTRND
 40
0.0
  9
$DIMAZIN
 70
     0
  9
$DIMDSEP
 70
    46
  9
$DIMATFIT
 70
     3
  9
$DIMFRAC
 70
     0
  9
$DIMLDRBLK
  1

  9
$DIMLUNIT
 70
     2
  9
$DIMLWD
 70
    -2
  9
$DIMLWE
 70
    -2
  9
$DIMTMOVE
 70
     2
  9
$LUNITS
 70
     2
  9
$LUPREC
 70
     4
  9
$SKETCHINC
 40
0.1
  9
$FILLETRAD
 40
0.5
  9
$AUNITS
 70
     0
  9
$AUPREC
 70
     0
  9
$MENU
  1
.
  9
$ELEVATION
 40
0.0
  9
$PELEVATION
 40
0.0
  9
$THICKNESS
 40
0.0
  9
$LIMCHECK
 70
     0
  9
$CHAMFERA
 40
0.5
  9
$CHAMFERB
 40
0.5
  9
$CHAMFERC
 40
1.0
  9
$CHAMFERD
 40
0.0
  9
$SKPOLY
 70
     0
  9
$TDCREATE
 40
2456646.571253067
  9
$TDUCREATE
 40
2456646.5295864
  9
$TDUPDATE
 40
2456646.592212813
  9
$TDUUPDATE
 40
2456646.550546146
  9
$TDINDWG
 40
0.0209595718
  9
$TDUSRTIMER
 40
0.0209595718
  9
$USRTIMER
 70
     1
  9
$ANGBASE
 50
0.0
  9
$ANGDIR
 70
     0
  9
$PDMODE
 70
     0
  9
$PDSIZE
 40
0.0
  9
$PLINEWID
 40
0.0
  9
$SPLFRAME
 70
     0
  9
$SPLINETYPE
 70
     6
  9
$SPLINESEGS
 70
     8
  9
$HANDSEED
  5
734
  9
$SURFTAB1
 70
     6
  9
$SURFTAB2
 70
     6
  9
$SURFTYPE
 70
     6
  9
$SURFU
 70
     6
  9
$SURFV
 70
     6
  9
$UCSBASE
  2

  9
$UCSNAME
  2

  9
$UCSORG
 10
0.0
 20
0.0
 30
0.0
  9
$UCSXDIR
 10
1.0
 20
0.0
 30
0.0
  9
$UCSYDIR
 10
0.0
 20
1.0
 30
0.0
  9
$UCSORTHOREF
  2

  9
$UCSORTHOVIEW
 70
     0
  9
$UCSORGTOP
 10
0.0
 20
0.0
 30
0.0
  9
$UCSORGBOTTOM
 10
0.0
 20
0.0
 30
0.0
  9
$UCSORGLEFT
 10
0.0
 20
0.0
 30
0.0
  9
$UCSORGRIGHT
 10
0.0
 20
0.0
 30
0.0
  9
$UCSORGFRONT
 10
0.0
 20
0.0
 30
0.0
  9
$UCSORGBACK
 10
0.0
 20
0.0
 30
0.0
  9
$PUCSBASE
  2

  9
$PUCSNAME
  2

  9
$PUCSORG
 10
0.0
 20
0.0
 30
0.0
  9
$PUCSXDIR
 10
1.0
 20
0.0
 30
0.0
  9
$PUCSYDIR
 10
0.0
 20
1.0
 30
0.0
  9
$PUCSORTHOREF
  2

  9
$PUCSORTHOVIEW
 70
     0
  9
$PUCSORGTOP
 10
0.0
 20
0.0
 30
0.0
  9
$PUCSORGBOTTOM
 10
0.0
 20
0.0
 30
0.0
  9
$PUCSORGLEFT
 10
0.0
 20
0.0
 30
0.0
  9
$PUCSORGRIGHT
 10
0.0
 20
0.0
 30
0.0
  9
$PUCSORGFRONT
 10
0.0
 20
0.0
 30
0.0
  9
$PUCSORGBACK
 10
0.0
 20
0.0
 30
0.0
  9
$USERI1
 70
     0
  9
$USERI2
 70
     0
  9
$USERI3
 70
     0
  9
$USERI4
 70
     0
  9
$USERI5
 70
     0
  9
$USERR1
 40
0.0
  9
$USERR2
 40
0.0
  9
$USERR3
 40
0.0
  9
$USERR4
 40
0.0
  9
$USERR5
 40
0.0
  9
$WORLDVIEW
 70
     1
  9
$SHADEDGE
 70
     3
  9
$SHADEDIF
 70
    70
  9
$TILEMODE
 70
     1
  9
$MAXACTVP
 70
    64
  9
$PINSBASE
 10
0.0
 20
0.0
 30
0.0
  9
$PLIMCHECK
 70
     0
  9
$PEXTMIN
 10
1.000000000000E+20
 20
1.000000000000E+20
 30
1.000000000000E+20
  9
$PEXTMAX
 10
-1.000000000000E+20
 20
-1.000000000000E+20
 30
-1.000000000000E+20
  9
$PLIMMIN
 10
0.0
 20
0.0
  9
$PLIMMAX
 10
12.0
 20
9.0
  9
$UNITMODE
 70
     0
  9
$VISRETAIN
 70
     1
  9
$PLINEGEN
 70
     0
  9
$PSLTSCALE
 70
     1
  9
$TREEDEPTH
 70
  3020
  9
$CMLSTYLE
  2
Standard
  9
$CMLJUST
 70
     0
  9
$CMLSCALE
 40
1.0
  9
$PROXYGRAPHICS
 70
     1
  9
$MEASUREMENT
 70
     0
  9
$CELWEIGHT
370
    -1
  9
$ENDCAPS
280
     0
  9
$JOINSTYLE
280
     0
  9
$LWDISPLAY
290
     0
  9
$INSUNITS
 70
     0
  9
$HYPERLINKBASE
  1

  9
$STYLESHEET
  1

  9
$XEDIT
290
     1
  9
$CEPSNTYPE
380
     0
  9
$PSTYLEMODE
290
     1
  9
$FINGERPRINTGUID
  2
{E9F617A2-E440-4A6C-BA15-E4666E28655E}
  9
$VERSIONGUID
  2
{FAEB1C32-E019-11D5-929B-00C0DF256EC4}
  9
$EXTNAMES
290
     1
  9
$PSVPSCALE
 40
0.0
  9
$OLESTARTUP
290
     0
  0
ENDSEC
  0
SECTION
  2
CLASSES
  0
CLASS
  1
ACDBDICTIONARYWDFLT
  2
AcDbDictionaryWithDefault
  3
ObjectDBX Classes
 90
        0
280
     0
281
     0
  0
CLASS
  1
SCALE
  2
AcDbScale
  3
ObjectDBX Classes
 90
     1153
280
     0
281
     0
  0
CLASS
  1
DICTIONARYVAR
  2
AcDbDictionaryVar
  3
ObjectDBX Classes
 90
        0
280
     0
281
     0
  0
CLASS
  1
ACDBPLACEHOLDER
  2
AcDbPlaceHolder
  3
ObjectDBX Classes
 90
        0
280
     0
281
     0
  0
CLASS
  1
LAYOUT
  2
AcDbLayout
  3
ObjectDBX Classes
 90
        0
280
     0
281
     0
  0
ENDSEC
  0
SECTION
  2
TABLES
  0
TABLE
  2
VPORT
  5
8
330
0
100
AcDbSymbolTable
 70
     1
  0
VPORT
  5
4D2
330
8
100
AcDbSymbolTableRecord
100
AcDbViewportTableRecord
  2
*Active
 70
     0
 10
0.0
 20
0.0
 11
1.0
 21
1.0
 12
139.9955
 22
78.5
 13
0.0
 23
0.0
 14
0.5
 24
0.5
 15
0.5
 25
0.5
 16
0.0
 26
0.0
 36
1.0
 17
0.0
 27
0.0
 37
0.0
 40
165.125085180433
 41
1.729542302358
 42
50.0
 43
0.0
 44
0.0
 50
0.0
 51
0.0
 71
    16
 72
   100
 73
     1
 74
     3
 75
     0
 76
     0
 77
     0
 78
     0
281
     0
 65
     1
110
0.0
120
0.0
130
0.0
111
1.0
121
0.0
131
0.0
112
0.0
122
1.0
132
0.0
 79
     0
146
0.0
  0
ENDTAB
  0
TABLE
  2
LTYPE
  5
5
330
0
100
AcDbSymbolTable
 70
     1
  0
LTYPE
  5
14
330
5
100
AcDbSymbolTableRecord
100
AcDbLinetypeTableRecord
  2
ByBlock
 70
     0
  3

 72
    65
 73
     0
 40
0.0
  0
LTYPE
  5
15
330
5
100
AcDbSymbolTableRecord
100
AcDbLinetypeTableRecord
  2
ByLayer
 70
     0
  3

 72
    65
 73
     0
 40
0.0
  0
LTYPE
  5
16
330
5
100
AcDbSymbolTableRecord
100
AcDbLinetypeTableRecord
  2
Continuous
 70
     0
  3
Solid line
 72
    65
 73
     0
 40
0.0
  0
ENDTAB
  0
TABLE
  2
LAYER
  5
2
330
0
100
AcDbSymbolTable
 70
     1
  0
LAYER
  5
10
330
2
100
AcDbSymbolTableRecord
100
AcDbLayerTableRecord
  2
0
 70
     0
 62
     7
  6
Continuous
370
    -3
390
F
  0
ENDTAB
  0
TABLE
  2
STYLE
  5
3
330
0
100
AcDbSymbolTable
 70
     1
  0
STYLE
  5
11
330
3
100
AcDbSymbolTableRecord
100
AcDbTextStyleTableRecord
  2
Standard
 70
     0
 40
0.0
 41
1.0
 50
0.0
 71
     0
 42
0.2
  3
txt
  4

  0
ENDTAB
  0
TABLE
  2
VIEW
  5
6
330
0
100
AcDbSymbolTable
 70
     0
  0
ENDTAB
  0
TABLE
  2
UCS
  5
7
330
0
100
AcDbSymbolTable
 70
     0
  0
ENDTAB
  0
TABLE
  2
APPID
  5
9
330
0
100
AcDbSymbolTable
 70
     1
  0
APPID
  5
12
330
9
100
AcDbSymbolTableRecord
100
AcDbRegAppTableRecord
  2
ACAD
 70
     0
  0
ENDTAB
  0
TABLE
  2
DIMSTYLE
  5
A
330
0
100
AcDbSymbolTable
 70
     1
100
AcDbDimStyleTable
  0
DIMSTYLE
105
20
330
A
100
AcDbSymbolTableRecord
100
AcDbDimStyleTableRecord
  2
Standard
 70
     0
340
11
  0
ENDTAB
  0
TABLE
  2
BLOCK_RECORD
  5
1
330
0
100
AcDbSymbolTable
 70
     0
  0
BLOCK_RECORD
  5
1D
330
1
100
AcDbSymbolTableRecord
100
AcDbBlockTableRecord
  2
*Model_Space
340
1E
  0
BLOCK_RECORD
  5
1B
330
1
100
AcDbSymbolTableRecord
100
AcDbBlockTableRecord
  2
*Paper_Space
340
1C
  0
ENDTAB
  0
ENDSEC
  0
SECTION
  2
BLOCKS
  0
BLOCK
  5
4D5
330
1D
100
AcDbEntity
  8
0
100
AcDbBlockBegin
  2
*Model_Space
 70
     0
 10
0.0
 20
0.0
 30
0.0
  3
*Model_Space
  1
*Model_Space
  0
ENDBLK
  5
4D6
330
1D
100
AcDbEntity
  8
0
100
AcDbBlockEnd
  0
BLOCK
  5
4D3
330
1B
100
AcDbEntity
 67
     1
  8
0
100
AcDbBlockBegin
  2
*Paper_Space
 70
     0
 10
0.0
 20
0.0
 30
0.0
  3
*Paper_Space
  1
*Paper_Space
  0
ENDBLK
  5
4D4
330
1B
100
AcDbEntity
 67
     1
  8
0
100
AcDbBlockEnd
  0
ENDSEC
  0
SECTION
  2
ENTITIES
  0
LINE
  5
21
330
1D
100
AcDbEntity
  8
0
100
AcDbLine
 10
8.791
 20
100.8
 30
0.0
 11
10.904
 21
98.8807
 31
0.0
  0
LINE
  5
22
330
1D
100
AcDbEntity
  8
0
100
AcDbLine
 10
10.904
 20
98.8807
 30
0.0
 11
13.19
 21
97.1703
 31
0.0
  0
LINE
  5
23
330
1D
100
AcDbEntity
  8
0
100
AcDbLine
 10
13.19
 20
97.1703
 30
0.0
 11
15.628
 21
95.6848
 31
0.0
  0
LINE
  5
24
330
1D
100
AcDbEntity
  8
0
100
AcDbLine
 10
15.628
 20
95.6848
 30
0.0
 11
18.196
 21
94.4375
 31
0.0
  0
LINE
  5
25
330
1D
100
AcDbEntity
  8
0
100
AcDbLine
 10
29.292
 20
92.0264
 30
0.0
 11
32.1461
 21
92.0947
 31
0.0
  0
LINE
  5
26
330
1D
100
AcDbEntity
  8
0
100
AcDbLine
 10
32.1461
 20
92.0947
 30
0.0
 11
34.9811
 21
92.4346
 31
0.0
  0
LINE
  5
27
330
1D
100
AcDbEntity
  8
0
100
AcDbLine
 10
34.9811
 20
92.4346
 30
0.0
 11
37.7706
 21
93.042
 31
0.0
  0
LINE
  5
28
330
1D
100
AcDbEntity
  8
0
100
AcDbLine
 10
26.444
 20
92.2295
 30
0.0
 11
29.292
 21
92.0264
 31
0.0
  0
LINE
  5
29
330
1D
100
AcDbEntity
  8
0
100
AcDbLine
 10
20.871
 20
93.4408
 30
0.0
 11
23.629
 21
92.7021
 31
0.0
  0
LINE
  5
2A
330
1D
100
AcDbEntity
  8
0
100
AcDbLine
 10
23.629
 20
92.7021
 30
0.0
 11
26.444
 21
92.2295
 31
0.0
  0
LINE
  5
2B
330
1D
100
AcDbEntity
  8
0
100
AcDbLine
 10
43.1142
 20
95.0361
 30
0.0
 11
45.6193
 21
96.4045
 31
0.0
  0
LINE
  5
2C
330
1D
100
AcDbEntity
  8
0
100
AcDbLine
 10
45.6193
 20
96.4045
 30
0.0
 11
47.9834
 21
98.0052
 31
0.0
  0
LINE
  5
2D
330
1D
100
AcDbEntity
  8
0
100
AcDbLine
 10
40.4897
 20
93.9114
 30
0.0
 11
43.1142
 21
95.0361
 31
0.0
  0
LINE
  5
2E
330
1D
100
AcDbEntity
  8
0
100
AcDbLine
 10
18.196
 20
94.4375
 30
0.0
 11
20.871
 21
93.4408
 31
0.0
  0
LINE
  5
2F
330
1D
100
AcDbEntity
  8
0
100
AcDbLine
 10
6.87
 20
102.913
 30
0.0
 11
8.791
 21
100.8
 31
0.0
  0
LINE
  5
30
330
1D
100
AcDbEntity
  8
0
100
AcDbLine
 10
5.159
 20
105.197
 30
0.0
 11
6.87
 21
102.913
 31
0.0
  0
LINE
  5
31
330
1D
100
AcDbEntity
  8
0
100
AcDbLine
 10
11.518
 20
105.362
 30
0.0
 11
11.961
 21
104.799
 31
0.0
  0
LINE
  5
32
330
1D
100
AcDbEntity
  8
0
100
AcDbLine
 10
11.961
 20
104.799
 30
0.0
 11
12.449
 21
104.28
 31
0.0
  0
LINE
  5
33
330
1D
100
AcDbEntity
  8
0
100
AcDbLine
 10
12.449
 20
104.28
 30
0.0
 11
12.982
 21
103.807
 31
0.0
  0
LINE
  5
34
330
1D
100
AcDbEntity
  8
0
100
AcDbLine
 10
19.883
 20
101.418
 30
0.0
 11
21.382
 21
101.288
 31
0.0
  0
LINE
  5
35
330
1D
100
AcDbEntity
  8
0
100
AcDbLine
 10
16.363
 20
102.09
 30
0.0
 11
17.183
 21
101.868
 31
0.0
  0
LINE
  5
36
330
1D
100
AcDbEntity
  8
0
100
AcDbLine
 10
17.183
 20
101.868
 30
0.0
 11
18.044
 21
101.685
 31
0.0
  0
LINE
  5
37
330
1D
100
AcDbEntity
  8
0
100
AcDbLine
 10
18.044
 20
101.685
 30
0.0
 11
18.944
 21
101.537
 31
0.0
  0
LINE
  5
38
330
1D
100
AcDbEntity
  8
0
100
AcDbLine
 10
18.944
 20
101.537
 30
0.0
 11
19.883
 21
101.418
 31
0.0
  0
LINE
  5
39
330
1D
100
AcDbEntity
  8
0
100
AcDbLine
 10
24.081
 20
101.162
 30
0.0
 11
24.277
 21
101.156
 31
0.0
  0
LINE
  5
3A
330
1D
100
AcDbEntity
  8
0
100
AcDbLine
 10
27.082
 20
101.089
 30
0.0
 11
30.0035
 21
101.07
 31
0.0
  0
LINE
  5
3B
330
1D
100
AcDbEntity
  8
0
100
AcDbLine
 10
32.8351
 20
101.095
 30
0.0
 11
35.7213
 21
101.162
 31
0.0
  0
LINE
  5
3C
330
1D
100
AcDbEntity
  8
0
100
AcDbLine
 10
30.0035
 20
101.07
 30
0.0
 11
32.8351
 21
101.095
 31
0.0
  0
LINE
  5
3D
330
1D
100
AcDbEntity
  8
0
100
AcDbLine
 10
35.7213
 20
101.162
 30
0.0
 11
35.9262
 21
101.169
 31
0.0
  0
LINE
  5
3E
330
1D
100
AcDbEntity
  8
0
100
AcDbLine
 10
24.277
 20
101.156
 30
0.0
 11
27.082
 21
101.089
 31
0.0
  0
LINE
  5
3F
330
1D
100
AcDbEntity
  8
0
100
AcDbLine
 10
22.971
 20
101.203
 30
0.0
 11
24.081
 21
101.162
 31
0.0
  0
LINE
  5
40
330
1D
100
AcDbEntity
  8
0
100
AcDbLine
 10
38.5499
 20
101.29
 30
0.0
 11
39.5398
 21
101.367
 31
0.0
  0
LINE
  5
41
330
1D
100
AcDbEntity
  8
0
100
AcDbLine
 10
39.5398
 20
101.367
 30
0.0
 11
40.4917
 21
101.467
 31
0.0
  0
LINE
  5
42
330
1D
100
AcDbEntity
  8
0
100
AcDbLine
 10
41.4054
 20
101.595
 30
0.0
 11
42.2809
 21
101.754
 31
0.0
  0
LINE
  5
43
330
1D
100
AcDbEntity
  8
0
100
AcDbLine
 10
42.2809
 20
101.754
 30
0.0
 11
43.096
 21
101.942
 31
0.0
  0
LINE
  5
44
330
1D
100
AcDbEntity
  8
0
100
AcDbLine
 10
43.8736
 20
102.167
 30
0.0
 11
44.6129
 21
102.432
 31
0.0
  0
LINE
  5
45
330
1D
100
AcDbEntity
  8
0
100
AcDbLine
 10
43.096
 20
101.942
 30
0.0
 11
43.8736
 21
102.167
 31
0.0
  0
LINE
  5
46
330
1D
100
AcDbEntity
  8
0
100
AcDbLine
 10
40.4917
 20
101.467
 30
0.0
 11
41.4054
 21
101.595
 31
0.0
  0
LINE
  5
47
330
1D
100
AcDbEntity
  8
0
100
AcDbLine
 10
37.3024
 20
101.221
 30
0.0
 11
38.5499
 21
101.29
 31
0.0
  0
LINE
  5
48
330
1D
100
AcDbEntity
  8
0
100
AcDbLine
 10
35.9262
 20
101.169
 30
0.0
 11
37.3024
 21
101.221
 31
0.0
  0
LINE
  5
49
330
1D
100
AcDbEntity
  8
0
100
AcDbLine
 10
21.382
 20
101.288
 30
0.0
 11
22.971
 21
101.203
 31
0.0
  0
LINE
  5
4A
330
1D
100
AcDbEntity
  8
0
100
AcDbLine
 10
44.6129
 20
102.432
 30
0.0
 11
45.313
 21
102.738
 31
0.0
  0
LINE
  5
4B
330
1D
100
AcDbEntity
  8
0
100
AcDbLine
 10
13.56
 20
103.38
 30
0.0
 11
14.198
 21
102.989
 31
0.0
  0
LINE
  5
4C
330
1D
100
AcDbEntity
  8
0
100
AcDbLine
 10
45.313
 20
102.738
 30
0.0
 11
45.9623
 21
103.083
 31
0.0
  0
LINE
  5
4D
330
1D
100
AcDbEntity
  8
0
100
AcDbLine
 10
45.9623
 20
103.083
 30
0.0
 11
46.5705
 21
103.472
 31
0.0
  0
LINE
  5
4E
330
1D
100
AcDbEntity
  8
0
100
AcDbLine
 10
14.198
 20
102.989
 30
0.0
 11
14.878
 21
102.645
 31
0.0
  0
LINE
  5
4F
330
1D
100
AcDbEntity
  8
0
100
AcDbLine
 10
14.878
 20
102.645
 30
0.0
 11
15.6
 21
102.346
 31
0.0
  0
LINE
  5
50
330
1D
100
AcDbEntity
  8
0
100
AcDbLine
 10
47.1362
 20
103.906
 30
0.0
 11
47.6579
 21
104.386
 31
0.0
  0
LINE
  5
51
330
1D
100
AcDbEntity
  8
0
100
AcDbLine
 10
47.6579
 20
104.386
 30
0.0
 11
48.1346
 21
104.911
 31
0.0
  0
LINE
  5
52
330
1D
100
AcDbEntity
  8
0
100
AcDbLine
 10
48.5656
 20
105.48
 30
0.0
 11
48.9516
 21
106.091
 31
0.0
  0
LINE
  5
53
330
1D
100
AcDbEntity
  8
0
100
AcDbLine
 10
48.1346
 20
104.911
 30
0.0
 11
48.5656
 21
105.48
 31
0.0
  0
LINE
  5
54
330
1D
100
AcDbEntity
  8
0
100
AcDbLine
 10
46.5705
 20
103.472
 30
0.0
 11
47.1362
 21
103.906
 31
0.0
  0
LINE
  5
55
330
1D
100
AcDbEntity
  8
0
100
AcDbLine
 10
15.6
 20
102.346
 30
0.0
 11
16.363
 21
102.09
 31
0.0
  0
LINE
  5
56
330
1D
100
AcDbEntity
  8
0
100
AcDbLine
 10
12.982
 20
103.807
 30
0.0
 11
13.56
 21
103.38
 31
0.0
  0
LINE
  5
57
330
1D
100
AcDbEntity
  8
0
100
AcDbLine
 10
48.9516
 20
106.091
 30
0.0
 11
49.2932
 21
106.744
 31
0.0
  0
LINE
  5
58
330
1D
100
AcDbEntity
  8
0
100
AcDbLine
 10
10.772
 20
106.616
 30
0.0
 11
11.123
 21
105.968
 31
0.0
  0
LINE
  5
59
330
1D
100
AcDbEntity
  8
0
100
AcDbLine
 10
11.123
 20
105.968
 30
0.0
 11
11.518
 21
105.362
 31
0.0
  0
LINE
  5
5A
330
1D
100
AcDbEntity
  8
0
100
AcDbLine
 10
54.0201
 20
104.044
 30
0.0
 11
55.6197
 21
106.409
 31
0.0
  0
LINE
  5
5B
330
1D
100
AcDbEntity
  8
0
100
AcDbLine
 10
52.2029
 20
101.842
 30
0.0
 11
54.0201
 21
104.044
 31
0.0
  0
LINE
  5
5C
330
1D
100
AcDbEntity
  8
0
100
AcDbLine
 10
10.464
 20
107.303
 30
0.0
 11
10.772
 21
106.616
 31
0.0
  0
LINE
  5
5D
330
1D
100
AcDbEntity
  8
0
100
AcDbLine
 10
49.2932
 20
106.744
 30
0.0
 11
49.5965
 21
107.447
 31
0.0
  0
LINE
  5
5E
330
1D
100
AcDbEntity
  8
0
100
AcDbLine
 10
49.5965
 20
107.447
 30
0.0
 11
49.8579
 21
108.189
 31
0.0
  0
LINE
  5
5F
330
1D
100
AcDbEntity
  8
0
100
AcDbLine
 10
49.8579
 20
108.189
 30
0.0
 11
50.0805
 21
108.97
 31
0.0
  0
LINE
  5
60
330
1D
100
AcDbEntity
  8
0
100
AcDbLine
 10
9.965
 20
108.812
 30
0.0
 11
10.198
 21
108.029
 31
0.0
  0
LINE
  5
61
330
1D
100
AcDbEntity
  8
0
100
AcDbLine
 10
10.198
 20
108.029
 30
0.0
 11
10.464
 21
107.303
 31
0.0
  0
LINE
  5
62
330
1D
100
AcDbEntity
  8
0
100
AcDbLine
 10
3.672
 20
107.635
 30
0.0
 11
5.159
 21
105.197
 31
0.0
  0
LINE
  5
63
330
1D
100
AcDbEntity
  8
0
100
AcDbLine
 10
108.5147
 20
106.731
 30
0.0
 11
110.11
 21
103.807
 31
0.0
  0
LINE
  5
64
330
1D
100
AcDbEntity
  8
0
100
AcDbLine
 10
110.11
 20
103.807
 30
0.0
 11
111.977
 21
101.049
 31
0.0
  0
LINE
  5
65
330
1D
100
AcDbEntity
  8
0
100
AcDbLine
 10
111.977
 20
101.049
 30
0.0
 11
114.097
 21
98.4798
 31
0.0
  0
LINE
  5
66
330
1D
100
AcDbEntity
  8
0
100
AcDbLine
 10
125.5
 20
17.315
 30
0.0
 11
125.864
 21
14.843
 31
0.0
  0
LINE
  5
67
330
1D
100
AcDbEntity
  8
0
100
AcDbLine
 10
125.5
 20
17.315
 30
0.0
 11
125.5
 21
44.3119
 31
0.0
  0
LINE
  5
68
330
1D
100
AcDbEntity
  8
0
100
AcDbLine
 10
125.501
 20
17.021
 30
0.0
 11
125.501
 21
11.107
 31
0.0
  0
LINE
  5
69
330
1D
100
AcDbEntity
  8
0
100
AcDbLine
 10
125.501
 20
17.021
 30
0.0
 11
125.512090653266
 21
17.232889849246
 31
0.0
  0
LINE
  5
6A
330
1D
100
AcDbEntity
  8
0
100
AcDbLine
 10
125.501
 20
11.107
 30
0.0
 11
125.583
 21
10.019
 31
0.0
  0
LINE
  5
6B
330
1D
100
AcDbEntity
  8
0
100
AcDbLine
 10
125.501
 20
11.107
 30
0.0
 11
125.501
 21
17.021
 31
0.0
  0
LINE
  5
6C
330
1D
100
AcDbEntity
  8
0
100
AcDbLine
 10
125.864
 20
14.843
 30
0.0
 11
126.936
 21
12.496
 31
0.0
  0
LINE
  5
6D
330
1D
100
AcDbEntity
  8
0
100
AcDbLine
 10
125.583
 20
10.019
 30
0.0
 11
125.805
 21
8.942
 31
0.0
  0
LINE
  5
6E
330
1D
100
AcDbEntity
  8
0
100
AcDbLine
 10
125.805
 20
8.942
 30
0.0
 11
126.163
 21
7.887
 31
0.0
  0
LINE
  5
6F
330
1D
100
AcDbEntity
  8
0
100
AcDbLine
 10
126.163
 20
7.887
 30
0.0
 11
126.227
 21
7.742
 31
0.0
  0
LINE
  5
70
330
1D
100
AcDbEntity
  8
0
100
AcDbLine
 10
126.227
 20
7.742
 30
0.0
 11
126.717
 21
6.724
 31
0.0
  0
LINE
  5
71
330
1D
100
AcDbEntity
  8
0
100
AcDbLine
 10
126.936
 20
12.496
 30
0.0
 11
128.664
 21
10.389
 31
0.0
  0
LINE
  5
72
330
1D
100
AcDbEntity
  8
0
100
AcDbLine
 10
126.717
 20
6.724
 30
0.0
 11
127.334
 21
5.747
 31
0.0
  0
LINE
  5
73
330
1D
100
AcDbEntity
  8
0
100
AcDbLine
 10
127.334
 20
5.747
 30
0.0
 11
128.073
 21
4.822
 31
0.0
  0
LINE
  5
74
330
1D
100
AcDbEntity
  8
0
100
AcDbLine
 10
128.664
 20
10.389
 30
0.0
 11
130.959
 21
8.631
 31
0.0
  0
LINE
  5
75
330
1D
100
AcDbEntity
  8
0
100
AcDbLine
 10
128.073
 20
4.822
 30
0.0
 11
128.927
 21
3.956
 31
0.0
  0
LINE
  5
76
330
1D
100
AcDbEntity
  8
0
100
AcDbLine
 10
128.927
 20
3.956
 30
0.0
 11
129.888
 21
3.159
 31
0.0
  0
LINE
  5
77
330
1D
100
AcDbEntity
  8
0
100
AcDbLine
 10
129.888
 20
3.159
 30
0.0
 11
130.946
 21
2.438
 31
0.0
  0
LINE
  5
78
330
1D
100
AcDbEntity
  8
0
100
AcDbLine
 10
125.5
 20
44.3119
 30
0.0
 11
125.5
 21
47.6543
 31
0.0
  0
LINE
  5
79
330
1D
100
AcDbEntity
  8
0
100
AcDbLine
 10
125.5
 20
44.3119
 30
0.0
 11
125.5
 21
17.315
 31
0.0
  0
LINE
  5
7A
330
1D
100
AcDbEntity
  8
0
100
AcDbLine
 10
125.5
 20
47.6543
 30
0.0
 11
125.5
 21
44.3119
 31
0.0
  0
LINE
  5
7B
330
1D
100
AcDbEntity
  8
0
100
AcDbLine
 10
125.5
 20
47.6543
 30
0.0
 11
125.5
 21
51.3716
 31
0.0
  0
LINE
  5
7C
330
1D
100
AcDbEntity
  8
0
100
AcDbLine
 10
125.5
 20
51.3716
 30
0.0
 11
125.5
 21
55.4168
 31
0.0
  0
LINE
  5
7D
330
1D
100
AcDbEntity
  8
0
100
AcDbLine
 10
125.5
 20
51.3716
 30
0.0
 11
125.5
 21
47.6543
 31
0.0
  0
LINE
  5
7E
330
1D
100
AcDbEntity
  8
0
100
AcDbLine
 10
125.5
 20
55.4168
 30
0.0
 11
125.5
 21
59.7395
 31
0.0
  0
LINE
  5
7F
330
1D
100
AcDbEntity
  8
0
100
AcDbLine
 10
125.5
 20
55.4168
 30
0.0
 11
125.5
 21
51.3716
 31
0.0
  0
LINE
  5
80
330
1D
100
AcDbEntity
  8
0
100
AcDbLine
 10
125.5
 20
69.0059
 30
0.0
 11
125.5
 21
64.2891
 31
0.0
  0
LINE
  5
81
330
1D
100
AcDbEntity
  8
0
100
AcDbLine
 10
125.5
 20
69.0059
 30
0.0
 11
125.5
 21
73.8362
 31
0.0
  0
LINE
  5
82
330
1D
100
AcDbEntity
  8
0
100
AcDbLine
 10
125.5
 20
64.2891
 30
0.0
 11
125.5
 21
59.7395
 31
0.0
  0
LINE
  5
83
330
1D
100
AcDbEntity
  8
0
100
AcDbLine
 10
125.5
 20
64.2891
 30
0.0
 11
125.5
 21
69.0059
 31
0.0
  0
LINE
  5
84
330
1D
100
AcDbEntity
  8
0
100
AcDbLine
 10
125.5
 20
59.7395
 30
0.0
 11
125.5
 21
64.2891
 31
0.0
  0
LINE
  5
85
330
1D
100
AcDbEntity
  8
0
100
AcDbLine
 10
125.5
 20
59.7395
 30
0.0
 11
125.5
 21
55.4168
 31
0.0
  0
LINE
  5
86
330
1D
100
AcDbEntity
  8
0
100
AcDbLine
 10
125.5
 20
83.5882
 30
0.0
 11
125.5
 21
88.3917
 31
0.0
  0
LINE
  5
87
330
1D
100
AcDbEntity
  8
0
100
AcDbLine
 10
125.5
 20
83.5882
 30
0.0
 11
125.5
 21
78.7154
 31
0.0
  0
LINE
  5
88
330
1D
100
AcDbEntity
  8
0
100
AcDbLine
 10
125.5
 20
88.3917
 30
0.0
 11
125.5
 21
83.5882
 31
0.0
  0
LINE
  5
89
330
1D
100
AcDbEntity
  8
0
100
AcDbLine
 10
125.5
 20
88.3917
 30
0.0
 11
125.5
 21
93.0675
 31
0.0
  0
LINE
  5
8A
330
1D
100
AcDbEntity
  8
0
100
AcDbLine
 10
125.5
 20
78.7154
 30
0.0
 11
125.5
 21
73.8362
 31
0.0
  0
LINE
  5
8B
330
1D
100
AcDbEntity
  8
0
100
AcDbLine
 10
125.5
 20
78.7154
 30
0.0
 11
125.5
 21
83.5882
 31
0.0
  0
LINE
  5
8C
330
1D
100
AcDbEntity
  8
0
100
AcDbLine
 10
125.5
 20
73.8362
 30
0.0
 11
125.5
 21
78.7154
 31
0.0
  0
LINE
  5
8D
330
1D
100
AcDbEntity
  8
0
100
AcDbLine
 10
125.5
 20
73.8362
 30
0.0
 11
125.5
 21
69.0059
 31
0.0
  0
LINE
  5
8E
330
1D
100
AcDbEntity
  8
0
100
AcDbLine
 10
138.717
 20
0.035
 30
0.0
 11
140.132
 21
-0.008
 31
0.0
  0
LINE
  5
90
330
1D
100
AcDbEntity
  8
0
100
AcDbLine
 10
135.937
 20
0.439
 30
0.0
 11
137.314
 21
0.185
 31
0.0
  0
LINE
  5
91
330
1D
100
AcDbEntity
  8
0
100
AcDbLine
 10
137.314
 20
0.185
 30
0.0
 11
138.717
 21
0.035
 31
0.0
  0
LINE
  5
92
330
1D
100
AcDbEntity
  8
0
100
AcDbLine
 10
137.314
 20
0.185
 30
0.0
 11
138.717
 21
0.035
 31
0.0
  0
LINE
  5
95
330
1D
100
AcDbEntity
  8
0
100
AcDbLine
 10
133.313
 20
1.25
 30
0.0
 11
134.599
 21
0.795
 31
0.0
  0
LINE
  5
96
330
1D
100
AcDbEntity
  8
0
100
AcDbLine
 10
134.599
 20
0.795
 30
0.0
 11
135.937
 21
0.439
 31
0.0
  0
LINE
  5
99
330
1D
100
AcDbEntity
  8
0
100
AcDbLine
 10
133.709
 20
7.307
 30
0.0
 11
136.774
 21
6.486
 31
0.0
  0
LINE
  5
9A
330
1D
100
AcDbEntity
  8
0
100
AcDbLine
 10
130.959
 20
8.631
 30
0.0
 11
133.709
 21
7.307
 31
0.0
  0
LINE
  5
9B
330
1D
100
AcDbEntity
  8
0
100
AcDbLine
 10
136.774
 20
6.486
 30
0.0
 11
140.0
 21
6.207
 31
0.0
  0
LINE
  5
9F
330
1D
100
AcDbEntity
  8
0
100
AcDbLine
 10
132.091
 20
1.799
 30
0.0
 11
133.313
 21
1.25
 31
0.0
  0
LINE
  5
A0
330
1D
100
AcDbEntity
  8
0
100
AcDbLine
 10
130.946
 20
2.438
 30
0.0
 11
132.091
 21
1.799
 31
0.0
  0
LINE
  5
CD
330
1D
100
AcDbEntity
  8
0
100
AcDbLine
 10
125.5
 20
93.0675
 30
0.0
 11
125.5
 21
97.5573
 31
0.0
  0
LINE
  5
CE
330
1D
100
AcDbEntity
  8
0
100
AcDbLine
 10
125.5
 20
93.0675
 30
0.0
 11
125.5
 21
88.3917
 31
0.0
  0
LINE
  5
D1
330
1D
100
AcDbEntity
  8
0
100
AcDbLine
 10
121.777
 20
92.1356
 30
0.0
 11
123.79226765674
 21
91.035059851476
 31
0.0
  0
LINE
  5
D2
330
1D
100
AcDbEntity
  8
0
100
AcDbLine
 10
119.019
 20
94.0031
 30
0.0
 11
121.777
 21
92.1356
 31
0.0
  0
LINE
  5
D3
330
1D
100
AcDbEntity
  8
0
100
AcDbLine
 10
125.5
 20
97.5573
 30
0.0
 11
125.5
 21
93.0675
 31
0.0
  0
LINE
  5
D4
330
1D
100
AcDbEntity
  8
0
100
AcDbLine
 10
125.5
 20
97.5573
 30
0.0
 11
125.5
 21
101.806
 31
0.0
  0
LINE
  5
D5
330
1D
100
AcDbEntity
  8
0
100
AcDbLine
 10
125.5
 20
101.806
 30
0.0
 11
125.5
 21
97.5573
 31
0.0
  0
LINE
  5
D6
330
1D
100
AcDbEntity
  8
0
100
AcDbLine
 10
125.5
 20
101.806
 30
0.0
 11
125.5
 21
105.763
 31
0.0
  0
LINE
  5
DB
330
1D
100
AcDbEntity
  8
0
100
AcDbLine
 10
125.5
 20
105.763
 30
0.0
 11
125.5
 21
101.806
 31
0.0
  0
LINE
  5
DC
330
1D
100
AcDbEntity
  8
0
100
AcDbLine
 10
125.5
 20
105.763
 30
0.0
 11
125.5
 21
109.376
 31
0.0
  0
LINE
  5
E0
330
1D
100
AcDbEntity
  8
0
100
AcDbLine
 10
123.788
 20
104.322
 30
0.0
 11
125.5
 21
102.933994669036
 31
0.0
  0
LINE
  5
E1
330
1D
100
AcDbEntity
  8
0
100
AcDbLine
 10
121.773
 20
106.405
 30
0.0
 11
123.788
 21
104.322
 31
0.0
  0
LINE
  5
E2
330
1D
100
AcDbEntity
  8
0
100
AcDbLine
 10
120.024
 20
108.716
 30
0.0
 11
121.773
 21
106.405
 31
0.0
  0
LINE
  5
E3
330
1D
100
AcDbEntity
  8
0
100
AcDbLine
 10
116.452
 20
96.1242
 30
0.0
 11
119.019
 21
94.0031
 31
0.0
  0
LINE
  5
E9
330
1D
100
AcDbEntity
  8
0
100
AcDbLine
 10
124.7
 20
90.5391
 30
0.0
 11
125.5
 21
90.196291378184
 31
0.0
  0
LINE
  5
EA
330
1D
100
AcDbEntity
  8
0
100
AcDbLine
 10
114.097
 20
98.4798
 30
0.0
 11
116.452
 21
96.1242
 31
0.0
  0
LINE
  5
EB
330
1D
100
AcDbEntity
  8
0
100
AcDbLine
 10
50.0805
 20
108.97
 30
0.0
 11
50.2667
 21
109.788
 31
0.0
  0
LINE
  5
EC
330
1D
100
AcDbEntity
  8
0
100
AcDbLine
 10
2.424
 20
110.203
 30
0.0
 11
3.672
 21
107.635
 31
0.0
  0
LINE
  5
ED
330
1D
100
AcDbEntity
  8
0
100
AcDbLine
 10
9.77
 20
109.634
 30
0.0
 11
9.965
 21
108.812
 31
0.0
  0
LINE
  5
EE
330
1D
100
AcDbEntity
  8
0
100
AcDbLine
 10
50.2667
 20
109.788
 30
0.0
 11
50.4234
 21
110.665
 31
0.0
  0
LINE
  5
EF
330
1D
100
AcDbEntity
  8
0
100
AcDbLine
 10
50.4234
 20
110.665
 30
0.0
 11
50.549
 21
111.581
 31
0.0
  0
LINE
  5
F0
330
1D
100
AcDbEntity
  8
0
100
AcDbLine
 10
9.48
 20
111.389
 30
0.0
 11
9.609
 21
110.493
 31
0.0
  0
LINE
  5
F1
330
1D
100
AcDbEntity
  8
0
100
AcDbLine
 10
9.609
 20
110.493
 30
0.0
 11
9.77
 21
109.634
 31
0.0
  0
LINE
  5
F2
330
1D
100
AcDbEntity
  8
0
100
AcDbLine
 10
125.5
 20
109.376
 30
0.0
 11
125.5
 21
105.763
 31
0.0
  0
LINE
  5
F3
330
1D
100
AcDbEntity
  8
0
100
AcDbLine
 10
125.5
 20
109.376
 30
0.0
 11
125.5
 21
112.605
 31
0.0
  0
LINE
  5
F6
330
1D
100
AcDbEntity
  8
0
100
AcDbLine
 10
118.566
 20
111.221
 30
0.0
 11
120.024
 21
108.716
 31
0.0
  0
LINE
  5
F7
330
1D
100
AcDbEntity
  8
0
100
AcDbLine
 10
107.2045
 20
109.793
 30
0.0
 11
108.5147
 21
106.731
 31
0.0
  0
LINE
  5
FA
330
1D
100
AcDbEntity
  8
0
100
AcDbLine
 10
1.427
 20
112.877
 30
0.0
 11
2.424
 21
110.203
 31
0.0
  0
LINE
  5
FB
330
1D
100
AcDbEntity
  8
0
100
AcDbLine
 10
9.278
 20
113.599
 30
0.0
 11
9.364
 21
112.47
 31
0.0
  0
LINE
  5
FC
330
1D
100
AcDbEntity
  8
0
100
AcDbLine
 10
50.549
 20
111.581
 30
0.0
 11
50.6476
 21
112.534
 31
0.0
  0
LINE
  5
FD
330
1D
100
AcDbEntity
  8
0
100
AcDbLine
 10
50.6476
 20
112.534
 30
0.0
 11
50.7234
 21
113.526
 31
0.0
  0
LINE
  5
FE
330
1D
100
AcDbEntity
  8
0
100
AcDbLine
 10
9.364
 20
112.47
 30
0.0
 11
9.48
 21
111.389
 31
0.0
  0
LINE
  5
FF
330
1D
100
AcDbEntity
  8
0
100
AcDbLine
 10
9.166
 20
116.076
 30
0.0
 11
9.278
 21
113.599
 31
0.0
  0
LINE
  5
11F
330
1D
100
AcDbEntity
  8
0
100
AcDbLine
 10
50.7888
 20
114.732
 30
0.0
 11
50.8403
 21
116.084
 31
0.0
  0
LINE
  5
120
330
1D
100
AcDbEntity
  8
0
100
AcDbLine
 10
50.7234
 20
113.526
 30
0.0
 11
50.7888
 21
114.732
 31
0.0
  0
LINE
  5
121
330
1D
100
AcDbEntity
  8
0
100
AcDbLine
 10
9.16
 20
116.281
 30
0.0
 11
9.166
 21
116.076
 31
0.0
  0
LINE
  5
152
330
1D
100
AcDbEntity
  8
0
100
AcDbLine
 10
50.8465
 20
116.279
 30
0.0
 11
50.9127
 21
119.085
 31
0.0
  0
LINE
  5
153
330
1D
100
AcDbEntity
  8
0
100
AcDbLine
 10
50.8403
 20
116.084
 30
0.0
 11
50.8465
 21
116.279
 31
0.0
  0
LINE
  5
154
330
1D
100
AcDbEntity
  8
0
100
AcDbLine
 10
0.687
 20
115.635
 30
0.0
 11
1.427
 21
112.877
 31
0.0
  0
LINE
  5
155
330
1D
100
AcDbEntity
  8
0
100
AcDbLine
 10
9.093
 20
119.167
 30
0.0
 11
9.16
 21
116.281
 31
0.0
  0
LINE
  5
177
330
1D
100
AcDbEntity
  8
0
100
AcDbLine
 10
50.9127
 20
119.085
 30
0.0
 11
50.932
 21
122.006
 31
0.0
  0
LINE
  5
178
330
1D
100
AcDbEntity
  8
0
100
AcDbLine
 10
0.213
 20
118.451
 30
0.0
 11
0.687
 21
115.635
 31
0.0
  0
LINE
  5
179
330
1D
100
AcDbEntity
  8
0
100
AcDbLine
 10
105.404300000005
 20
116.882399999959
 30
0.0
 11
105.4831
 21
116.221
 31
0.0
  0
LINE
  5
193
330
1D
100
AcDbEntity
  8
0
100
AcDbLine
 10
9.068
 20
121.999
 30
0.0
 11
9.093
 21
119.167
 31
0.0
  0
LINE
  5
194
330
1D
100
AcDbEntity
  8
0
100
AcDbLine
 10
9.068
 20
121.999
 30
0.0
 11
9.087
 21
124.92
 31
0.0
  0
LINE
  5
195
330
1D
100
AcDbEntity
  8
0
100
AcDbLine
 10
0.009
 20
121.298
 30
0.0
 11
0.213
 21
118.451
 31
0.0
  0
LINE
  5
196
330
1D
100
AcDbEntity
  8
0
100
AcDbLine
 10
0.009
 20
121.298
 30
0.0
 11
0.076
 21
124.152
 31
0.0
  0
LINE
  5
197
330
1D
100
AcDbEntity
  8
0
100
AcDbLine
 10
105.0883
 20
119.528
 30
0.0
 11
105.4833
 21
116.221
 31
0.0
  0
LINE
  5
198
330
1D
100
AcDbEntity
  8
0
100
AcDbLine
 10
125.5
 20
112.605
 30
0.0
 11
125.5
 21
109.376
 31
0.0
  0
LINE
  5
199
330
1D
100
AcDbEntity
  8
0
100
AcDbLine
 10
125.5
 20
112.605
 30
0.0
 11
125.5
 21
115.406
 31
0.0
  0
LINE
  5
19A
330
1D
100
AcDbEntity
  8
0
100
AcDbLine
 10
125.5
 20
115.406
 30
0.0
 11
125.5
 21
112.605
 31
0.0
  0
LINE
  5
19B
330
1D
100
AcDbEntity
  8
0
100
AcDbLine
 10
125.5
 20
115.406
 30
0.0
 11
125.5
 21
117.747
 31
0.0
  0
LINE
  5
1C7
330
1D
100
AcDbEntity
  8
0
100
AcDbLine
 10
117.421
 20
113.883
 30
0.0
 11
118.566
 21
111.221
 31
0.0
  0
LINE
  5
1C8
330
1D
100
AcDbEntity
  8
0
100
AcDbLine
 10
106.456253201088
 20
112.136532010802
 30
0.0
 11
107.2045
 21
109.793
 31
0.0
  0
LINE
  5
1C9
330
1D
100
AcDbEntity
  8
0
100
AcDbLine
 10
106.456253201088
 20
112.136532010802
 30
0.0
 11
107.2045
 21
109.793
 31
0.0
  0
LINE
  5
1D9
330
1D
100
AcDbEntity
  8
0
100
AcDbLine
 10
125.5
 20
117.747
 30
0.0
 11
125.5
 21
115.406
 31
0.0
  0
LINE
  5
1DA
330
1D
100
AcDbEntity
  8
0
100
AcDbLine
 10
125.5
 20
117.747
 30
0.0
 11
125.5
 21
119.598
 31
0.0
  0
LINE
  5
1DB
330
1D
100
AcDbEntity
  8
0
100
AcDbLine
 10
125.5
 20
119.598
 30
0.0
 11
125.5
 21
120.936
 31
0.0
  0
LINE
  5
1DC
330
1D
100
AcDbEntity
  8
0
100
AcDbLine
 10
125.5
 20
119.598
 30
0.0
 11
125.5
 21
117.747
 31
0.0
  0
LINE
  5
1DD
330
1D
100
AcDbEntity
  8
0
100
AcDbLine
 10
125.5
 20
120.936
 30
0.0
 11
125.5
 21
119.598
 31
0.0
  0
LINE
  5
1DE
330
1D
100
AcDbEntity
  8
0
100
AcDbLine
 10
125.5
 20
120.936
 30
0.0
 11
125.5
 21
121.747
 31
0.0
  0
LINE
  5
1E1
330
1D
100
AcDbEntity
  8
0
100
AcDbLine
 10
125.5
 20
121.747
 30
0.0
 11
125.5
 21
120.936
 31
0.0
  0
LINE
  5
1E2
330
1D
100
AcDbEntity
  8
0
100
AcDbLine
 10
125.5
 20
121.747
 30
0.0
 11
125.5
 21
122.018
 31
0.0
  0
LINE
  5
249
330
1D
100
AcDbEntity
  8
0
100
AcDbLine
 10
116.605
 20
116.664
 30
0.0
 11
117.421
 21
113.883
 31
0.0
  0
LINE
  5
24A
330
1D
100
AcDbEntity
  8
0
100
AcDbLine
 10
116.13
 20
119.523
 30
0.0
 11
116.605
 21
116.664
 31
0.0
  0
LINE
  5
24C
330
1D
100
AcDbEntity
  8
0
100
AcDbLine
 10
125.5
 20
122.018
 30
0.0
 11
125.515336442786
 21
121.882078669154
 31
0.0
  0
LINE
  5
24D
330
1D
100
AcDbEntity
  8
0
100
AcDbLine
 10
125.5
 20
122.018
 30
0.0
 11
125.864
 21
125.245
 31
0.0
  0
LINE
  5
24E
330
1D
100
AcDbEntity
  8
0
100
AcDbLine
 10
125.5
 20
122.018
 30
0.0
 11
125.5
 21
121.747
 31
0.0
  0
LINE
  5
24F
330
1D
100
AcDbEntity
  8
0
100
AcDbLine
 10
116.003
 20
122.418
 30
0.0
 11
116.13
 21
119.523
 31
0.0
  0
LINE
  5
250
330
1D
100
AcDbEntity
  8
0
100
AcDbLine
 10
116.003
 20
122.418
 30
0.0
 11
116.227
 21
125.308
 31
0.0
  0
LINE
  5
251
330
1D
100
AcDbEntity
  8
0
100
AcDbLine
 10
105.4831
 20
116.221
 30
0.0
 11
105.929111225064
 21
114.171112250905
 31
0.0
  0
LINE
  5
252
330
1D
100
AcDbEntity
  8
0
100
AcDbLine
 10
105.4831
 20
116.221
 30
0.0
 11
105.929111225064
 21
114.171112250905
 31
0.0
  0
LINE
  5
253
330
1D
100
AcDbEntity
  8
0
100
AcDbLine
 10
105.404300000005
 20
116.882399999959
 30
0.0
 11
105.4831
 21
116.221
 31
0.0
  0
LINE
  5
288
330
1D
100
AcDbEntity
  8
0
100
AcDbLine
 10
59.7868
 20
125.585
 30
0.0
 11
59.9914
 21
122.738
 31
0.0
  0
LINE
  5
289
330
1D
100
AcDbEntity
  8
0
100
AcDbLine
 10
9.087
 20
124.92
 30
0.0
 11
9.153
 21
127.725
 31
0.0
  0
LINE
  5
28A
330
1D
100
AcDbEntity
  8
0
100
AcDbLine
 10
50.9069
 20
124.837
 30
0.0
 11
50.932
 21
122.006
 31
0.0
  0
LINE
  5
28B
330
1D
100
AcDbEntity
  8
0
100
AcDbLine
 10
0.076
 20
124.152
 30
0.0
 11
0.414
 21
126.987
 31
0.0
  0
LINE
  5
28C
330
1D
100
AcDbEntity
  8
0
100
AcDbLine
 10
0.414
 20
126.987
 30
0.0
 11
1.021
 21
129.777
 31
0.0
  0
LINE
  5
28D
330
1D
100
AcDbEntity
  8
0
100
AcDbLine
 10
1.455499999993
 20
131.136499999976
 30
0.0
 11
1.89
 21
132.497
 31
0.0
  0
LINE
  5
28E
330
1D
100
AcDbEntity
  8
0
100
AcDbLine
 10
1.455499999992
 20
131.136499999976
 30
0.0
 11
1.89
 21
132.497
 31
0.0
  0
LINE
  5
28F
330
1D
100
AcDbEntity
  8
0
100
AcDbLine
 10
9.159
 20
127.921
 30
0.0
 11
9.2
 21
129.031
 31
0.0
  0
LINE
  5
290
330
1D
100
AcDbEntity
  8
0
100
AcDbLine
 10
9.153
 20
127.725
 30
0.0
 11
9.159
 21
127.921
 31
0.0
  0
LINE
  5
291
330
1D
100
AcDbEntity
  8
0
100
AcDbLine
 10
50.84
 20
127.724
 30
0.0
 11
50.9069
 21
124.837
 31
0.0
  0
LINE
  5
292
330
1D
100
AcDbEntity
  8
0
100
AcDbLine
 10
9.286
 20
130.62
 30
0.0
 11
9.416
 21
132.119
 31
0.0
  0
LINE
  5
293
330
1D
100
AcDbEntity
  8
0
100
AcDbLine
 10
9.416
 20
132.119
 30
0.0
 11
9.534
 21
133.058
 31
0.0
  0
LINE
  5
294
330
1D
100
AcDbEntity
  8
0
100
AcDbLine
 10
50.636
 20
131.535
 30
0.0
 11
50.7219
 21
130.405
 31
0.0
  0
LINE
  5
296
330
1D
100
AcDbEntity
  8
0
100
AcDbLine
 10
58.5734
 20
131.159
 30
0.0
 11
59.3133
 21
128.401
 31
0.0
  0
LINE
  5
297
330
1D
100
AcDbEntity
  8
0
100
AcDbLine
 10
50.7219
 20
130.405
 30
0.0
 11
50.8334
 21
127.929
 31
0.0
  0
LINE
  5
298
330
1D
100
AcDbEntity
  8
0
100
AcDbLine
 10
50.8334
 20
127.929
 30
0.0
 11
50.84
 21
127.724
 31
0.0
  0
LINE
  5
299
330
1D
100
AcDbEntity
  8
0
100
AcDbLine
 10
9.2
 20
129.031
 30
0.0
 11
9.286
 21
130.62
 31
0.0
  0
LINE
  5
29A
330
1D
100
AcDbEntity
  8
0
100
AcDbLine
 10
50.5201
 20
132.615
 30
0.0
 11
50.636
 21
131.535
 31
0.0
  0
LINE
  5
29B
330
1D
100
AcDbEntity
  8
0
100
AcDbLine
 10
1.89
 20
132.497
 30
0.0
 11
3.013
 21
135.121
 31
0.0
  0
LINE
  5
2E3
330
1D
100
AcDbEntity
  8
0
100
AcDbLine
 10
59.3133
 20
128.401
 30
0.0
 11
59.7868
 21
125.585
 31
0.0
  0
LINE
  5
2E4
330
1D
100
AcDbEntity
  8
0
100
AcDbLine
 10
105.2487
 20
126.18
 30
0.0
 11
105.8011
 21
129.465
 31
0.0
  0
LINE
  5
2E5
330
1D
100
AcDbEntity
  8
0
100
AcDbLine
 10
116.227
 20
125.308
 30
0.0
 11
116.797
 21
128.149
 31
0.0
  0
LINE
  5
2E6
330
1D
100
AcDbEntity
  8
0
100
AcDbLine
 10
116.797
 20
128.149
 30
0.0
 11
117.704
 21
130.902
 31
0.0
  0
LINE
  5
2E7
330
1D
100
AcDbEntity
  8
0
100
AcDbLine
 10
117.704
 20
130.902
 30
0.0
 11
118.938
 21
133.524
 31
0.0
  0
LINE
  5
2E8
330
1D
100
AcDbEntity
  8
0
100
AcDbLine
 10
105.8011
 20
129.465
 30
0.0
 11
106.6644
 21
132.682
 31
0.0
  0
LINE
  5
2E9
330
1D
100
AcDbEntity
  8
0
100
AcDbLine
 10
9.866
 20
134.819
 30
0.0
 11
10.087
 21
135.639
 31
0.0
  0
LINE
  5
2EA
330
1D
100
AcDbEntity
  8
0
100
AcDbLine
 10
9.683
 20
133.958
 30
0.0
 11
9.866
 21
134.819
 31
0.0
  0
LINE
  5
2EB
330
1D
100
AcDbEntity
  8
0
100
AcDbLine
 10
9.534
 20
133.058
 30
0.0
 11
9.683
 21
133.958
 31
0.0
  0
LINE
  5
2EC
330
1D
100
AcDbEntity
  8
0
100
AcDbLine
 10
57.5757
 20
133.833
 30
0.0
 11
58.5734
 21
131.159
 31
0.0
  0
LINE
  5
2ED
330
1D
100
AcDbEntity
  8
0
100
AcDbLine
 10
50.3905
 20
133.511
 30
0.0
 11
50.5201
 21
132.615
 31
0.0
  0
LINE
  5
2EE
330
1D
100
AcDbEntity
  8
0
100
AcDbLine
 10
50.2299
 20
134.371
 30
0.0
 11
50.3905
 21
133.511
 31
0.0
  0
LINE
  5
2EF
330
1D
100
AcDbEntity
  8
0
100
AcDbLine
 10
4.38
 20
137.627
 30
0.0
 11
5.98
 21
139.992
 31
0.0
  0
LINE
  5
2F0
330
1D
100
AcDbEntity
  8
0
100
AcDbLine
 10
5.98
 20
139.992
 30
0.0
 11
7.797
 21
142.194
 31
0.0
  0
LINE
  5
2F1
330
1D
100
AcDbEntity
  8
0
100
AcDbLine
 10
5.98
 20
139.992
 30
0.0
 11
7.797
 21
142.194
 31
0.0
  0
LINE
  5
2F2
330
1D
100
AcDbEntity
  8
0
100
AcDbLine
 10
10.987
 20
137.805
 30
0.0
 11
11.377
 21
138.442
 31
0.0
  0
LINE
  5
2F3
330
1D
100
AcDbEntity
  8
0
100
AcDbLine
 10
10.643
 20
137.124
 30
0.0
 11
10.987
 21
137.805
 31
0.0
  0
LINE
  5
2F4
330
1D
100
AcDbEntity
  8
0
100
AcDbLine
 10
10.344
 20
136.402
 30
0.0
 11
10.643
 21
137.124
 31
0.0
  0
LINE
  5
2F5
330
1D
100
AcDbEntity
  8
0
100
AcDbLine
 10
49.228
 20
137.389
 30
0.0
 11
49.5357
 21
136.701
 31
0.0
  0
LINE
  5
2F6
330
1D
100
AcDbEntity
  8
0
100
AcDbLine
 10
48.8771
 20
138.036
 30
0.0
 11
49.228
 21
137.389
 31
0.0
  0
LINE
  5
2F7
330
1D
100
AcDbEntity
  8
0
100
AcDbLine
 10
11.805
 20
139.02
 30
0.0
 11
12.278
 21
139.553
 31
0.0
  0
LINE
  5
2F8
330
1D
100
AcDbEntity
  8
0
100
AcDbLine
 10
48.4812
 20
138.642
 30
0.0
 11
48.8771
 21
138.036
 31
0.0
  0
LINE
  5
2F9
330
1D
100
AcDbEntity
  8
0
100
AcDbLine
 10
56.3279
 20
136.401
 30
0.0
 11
57.5757
 21
133.833
 31
0.0
  0
LINE
  5
2FA
330
1D
100
AcDbEntity
  8
0
100
AcDbLine
 10
54.8408
 20
138.838
 30
0.0
 11
56.3279
 21
136.401
 31
0.0
  0
LINE
  5
2FB
330
1D
100
AcDbEntity
  8
0
100
AcDbLine
 10
49.802
 20
135.976
 30
0.0
 11
50.0347
 21
135.192
 31
0.0
  0
LINE
  5
2FC
330
1D
100
AcDbEntity
  8
0
100
AcDbLine
 10
50.0347
 20
135.192
 30
0.0
 11
50.2299
 21
134.371
 31
0.0
  0
LINE
  5
2FD
330
1D
100
AcDbEntity
  8
0
100
AcDbLine
 10
49.5357
 20
136.701
 30
0.0
 11
49.802
 21
135.976
 31
0.0
  0
LINE
  5
2FE
330
1D
100
AcDbEntity
  8
0
100
AcDbLine
 10
12.278
 20
139.553
 30
0.0
 11
12.797
 21
140.041
 31
0.0
  0
LINE
  5
2FF
330
1D
100
AcDbEntity
  8
0
100
AcDbLine
 10
47.551
 20
139.724
 30
0.0
 11
48.039
 21
139.205
 31
0.0
  0
LINE
  5
300
330
1D
100
AcDbEntity
  8
0
100
AcDbLine
 10
48.039
 20
139.205
 30
0.0
 11
48.4812
 21
138.642
 31
0.0
  0
LINE
  5
301
330
1D
100
AcDbEntity
  8
0
100
AcDbLine
 10
11.377
 20
138.442
 30
0.0
 11
11.805
 21
139.02
 31
0.0
  0
LINE
  5
302
330
1D
100
AcDbEntity
  8
0
100
AcDbLine
 10
14.613
 20
141.23
 30
0.0
 11
15.301
 21
141.538
 31
0.0
  0
LINE
  5
303
330
1D
100
AcDbEntity
  8
0
100
AcDbLine
 10
13.966
 20
140.879
 30
0.0
 11
14.613
 21
141.23
 31
0.0
  0
LINE
  5
304
330
1D
100
AcDbEntity
  8
0
100
AcDbLine
 10
13.36
 20
140.484
 30
0.0
 11
13.966
 21
140.879
 31
0.0
  0
LINE
  5
305
330
1D
100
AcDbEntity
  8
0
100
AcDbLine
 10
47.0174
 20
140.197
 30
0.0
 11
47.551
 21
139.724
 31
0.0
  0
LINE
  5
306
330
1D
100
AcDbEntity
  8
0
100
AcDbLine
 10
53.1298
 20
141.123
 30
0.0
 11
54.8408
 21
138.838
 31
0.0
  0
LINE
  5
307
330
1D
100
AcDbEntity
  8
0
100
AcDbLine
 10
45.8023
 20
141.015
 30
0.0
 11
46.4395
 21
140.624
 31
0.0
  0
LINE
  5
308
330
1D
100
AcDbEntity
  8
0
100
AcDbLine
 10
45.1218
 20
141.359
 30
0.0
 11
45.8023
 21
141.015
 31
0.0
  0
LINE
  5
309
330
1D
100
AcDbEntity
  8
0
100
AcDbLine
 10
46.4395
 20
140.624
 30
0.0
 11
47.0174
 21
140.197
 31
0.0
  0
LINE
  5
30A
330
1D
100
AcDbEntity
  8
0
100
AcDbLine
 10
15.301
 20
141.538
 30
0.0
 11
16.027
 21
141.804
 31
0.0
  0
LINE
  5
30B
330
1D
100
AcDbEntity
  8
0
100
AcDbLine
 10
12.797
 20
140.041
 30
0.0
 11
13.36
 21
140.484
 31
0.0
  0
LINE
  5
30C
330
1D
100
AcDbEntity
  8
0
100
AcDbLine
 10
10.087
 20
135.639
 30
0.0
 11
10.344
 21
136.402
 31
0.0
  0
LINE
  5
30D
330
1D
100
AcDbEntity
  8
0
100
AcDbLine
 10
3.013
 20
135.121
 30
0.0
 11
4.38
 21
137.627
 31
0.0
  0
LINE
  5
30E
330
1D
100
AcDbEntity
  8
0
100
AcDbLine
 10
109.2842
 20
138.798
 30
0.0
 11
111.019
 21
141.642
 31
0.0
  0
LINE
  5
30F
330
1D
100
AcDbEntity
  8
0
100
AcDbLine
 10
107.8284
 20
135.802
 30
0.0
 11
109.2842
 21
138.798
 31
0.0
  0
LINE
  5
310
330
1D
100
AcDbEntity
  8
0
100
AcDbLine
 10
16.027
 20
141.804
 30
0.0
 11
16.81
 21
142.037
 31
0.0
  0
LINE
  5
311
330
1D
100
AcDbEntity
  8
0
100
AcDbLine
 10
12.017
 20
146.031
 30
0.0
 11
14.381
 21
147.631
 31
0.0
  0
LINE
  5
312
330
1D
100
AcDbEntity
  8
0
100
AcDbLine
 10
16.886
 20
149.0
 30
0.0
 11
19.51
 21
150.125
 31
0.0
  0
LINE
  5
313
330
1D
100
AcDbEntity
  8
0
100
AcDbLine
 10
14.381
 20
147.631
 30
0.0
 11
16.886
 21
149.0
 31
0.0
  0
LINE
  5
314
330
1D
100
AcDbEntity
  8
0
100
AcDbLine
 10
12.017
 20
146.031
 30
0.0
 11
14.381
 21
147.631
 31
0.0
  0
LINE
  5
315
330
1D
100
AcDbEntity
  8
0
100
AcDbLine
 10
9.816
 20
144.213
 30
0.0
 11
12.017
 21
146.031
 31
0.0
  0
LINE
  5
316
330
1D
100
AcDbEntity
  8
0
100
AcDbLine
 10
7.797
 20
142.194
 30
0.0
 11
9.816
 21
144.213
 31
0.0
  0
LINE
  5
317
330
1D
100
AcDbEntity
  8
0
100
AcDbLine
 10
16.81
 20
142.037
 30
0.0
 11
17.631
 21
142.232
 31
0.0
  0
LINE
  5
318
330
1D
100
AcDbEntity
  8
0
100
AcDbLine
 10
44.3996
 20
141.658
 30
0.0
 11
45.1218
 21
141.359
 31
0.0
  0
LINE
  5
319
330
1D
100
AcDbEntity
  8
0
100
AcDbLine
 10
20.467
 20
142.638
 30
0.0
 11
21.597
 21
142.724
 31
0.0
  0
LINE
  5
31A
330
1D
100
AcDbEntity
  8
0
100
AcDbLine
 10
19.387
 20
142.522
 30
0.0
 11
20.467
 21
142.638
 31
0.0
  0
LINE
  5
31B
330
1D
100
AcDbEntity
  8
0
100
AcDbLine
 10
18.491
 20
142.393
 30
0.0
 11
19.387
 21
142.522
 31
0.0
  0
LINE
  5
31C
330
1D
100
AcDbEntity
  8
0
100
AcDbLine
 10
21.597
 20
142.724
 30
0.0
 11
24.074
 21
142.836
 31
0.0
  0
LINE
  5
31D
330
1D
100
AcDbEntity
  8
0
100
AcDbLine
 10
24.278
 20
142.842
 30
0.0
 11
27.165
 21
142.909
 31
0.0
  0
LINE
  5
31E
330
1D
100
AcDbEntity
  8
0
100
AcDbLine
 10
27.165
 20
142.909
 30
0.0
 11
29.996
 21
142.934
 31
0.0
  0
LINE
  5
31F
330
1D
100
AcDbEntity
  8
0
100
AcDbLine
 10
24.074
 20
142.836
 30
0.0
 11
24.278
 21
142.842
 31
0.0
  0
LINE
  5
320
330
1D
100
AcDbEntity
  8
0
100
AcDbLine
 10
35.9185
 20
142.843
 30
0.0
 11
37.0284
 21
142.802
 31
0.0
  0
LINE
  5
321
330
1D
100
AcDbEntity
  8
0
100
AcDbLine
 10
35.7225
 20
142.849
 30
0.0
 11
35.9185
 21
142.843
 31
0.0
  0
LINE
  5
322
330
1D
100
AcDbEntity
  8
0
100
AcDbLine
 10
19.51
 20
150.125
 30
0.0
 11
22.229
 21
150.994
 31
0.0
  0
LINE
  5
323
330
1D
100
AcDbEntity
  8
0
100
AcDbLine
 10
27.854
 20
151.941
 30
0.0
 11
30.7079
 21
152.01
 31
0.0
  0
LINE
  5
324
330
1D
100
AcDbEntity
  8
0
100
AcDbLine
 10
25.019
 20
151.601
 30
0.0
 11
27.854
 21
151.941
 31
0.0
  0
LINE
  5
325
330
1D
100
AcDbEntity
  8
0
100
AcDbLine
 10
22.229
 20
150.994
 30
0.0
 11
25.019
 21
151.601
 31
0.0
  0
LINE
  5
326
330
1D
100
AcDbEntity
  8
0
100
AcDbLine
 10
36.3712
 20
151.334
 30
0.0
 11
39.1289
 21
150.595
 31
0.0
  0
LINE
  5
327
330
1D
100
AcDbEntity
  8
0
100
AcDbLine
 10
33.5559
 20
151.806
 30
0.0
 11
36.3712
 21
151.334
 31
0.0
  0
LINE
  5
328
330
1D
100
AcDbEntity
  8
0
100
AcDbLine
 10
30.708
 20
152.01
 30
0.0
 11
33.5559
 21
151.806
 31
0.0
  0
LINE
  5
329
330
1D
100
AcDbEntity
  8
0
100
AcDbLine
 10
29.996
 20
142.934
 30
0.0
 11
32.9175
 21
142.915
 31
0.0
  0
LINE
  5
32A
330
1D
100
AcDbEntity
  8
0
100
AcDbLine
 10
32.9175
 20
142.915
 30
0.0
 11
35.7225
 21
142.849
 31
0.0
  0
LINE
  5
32B
330
1D
100
AcDbEntity
  8
0
100
AcDbLine
 10
42.8167
 20
142.136
 30
0.0
 11
43.637
 21
141.915
 31
0.0
  0
LINE
  5
32C
330
1D
100
AcDbEntity
  8
0
100
AcDbLine
 10
41.956
 20
142.319
 30
0.0
 11
42.8167
 21
142.136
 31
0.0
  0
LINE
  5
32D
330
1D
100
AcDbEntity
  8
0
100
AcDbLine
 10
41.0561
 20
142.468
 30
0.0
 11
41.956
 21
142.319
 31
0.0
  0
LINE
  5
32E
330
1D
100
AcDbEntity
  8
0
100
AcDbLine
 10
38.6176
 20
142.716
 30
0.0
 11
40.1167
 21
142.586
 31
0.0
  0
LINE
  5
32F
330
1D
100
AcDbEntity
  8
0
100
AcDbLine
 10
39.1289
 20
150.595
 30
0.0
 11
41.8041
 21
149.599
 31
0.0
  0
LINE
  5
330
330
1D
100
AcDbEntity
  8
0
100
AcDbLine
 10
51.2091
 20
143.236
 30
0.0
 11
53.1298
 21
141.123
 31
0.0
  0
LINE
  5
331
330
1D
100
AcDbEntity
  8
0
100
AcDbLine
 10
49.095900000001
 20
145.154999999999
 30
0.0
 11
51.2093
 21
143.236
 31
0.0
  0
LINE
  5
332
330
1D
100
AcDbEntity
  8
0
100
AcDbLine
 10
51.2093
 20
143.236
 30
0.0
 11
51.977380000012
 21
142.390799999987
 31
0.0
  0
LINE
  5
333
330
1D
100
AcDbEntity
  8
0
100
AcDbLine
 10
51.2093
 20
143.236
 30
0.0
 11
51.977380000012
 21
142.390799999987
 31
0.0
  0
LINE
  5
334
330
1D
100
AcDbEntity
  8
0
100
AcDbLine
 10
49.0959
 20
145.155
 30
0.0
 11
51.2093
 21
143.236
 31
0.0
  0
LINE
  5
335
330
1D
100
AcDbEntity
  8
0
100
AcDbLine
 10
46.8104
 20
146.866
 30
0.0
 11
49.0959
 21
145.155
 31
0.0
  0
LINE
  5
336
330
1D
100
AcDbEntity
  8
0
100
AcDbLine
 10
44.3721
 20
148.351
 30
0.0
 11
46.8104
 21
146.866
 31
0.0
  0
LINE
  5
337
330
1D
100
AcDbEntity
  8
0
100
AcDbLine
 10
44.163093570253
 20
148.452483925666
 30
0.0
 11
44.3721
 21
148.351
 31
0.0
  0
LINE
  5
338
330
1D
100
AcDbEntity
  8
0
100
AcDbLine
 10
41.8041
 20
149.599
 30
0.0
 11
44.3719
 21
148.351
 31
0.0
  0
LINE
  5
339
330
1D
100
AcDbEntity
  8
0
100
AcDbLine
 10
44.163093570253
 20
148.452483925666
 30
0.0
 11
44.3721
 21
148.351
 31
0.0
  0
LINE
  5
33A
330
1D
100
AcDbEntity
  8
0
100
AcDbLine
 10
40.1167
 20
142.586
 30
0.0
 11
41.0561
 21
142.468
 31
0.0
  0
LINE
  5
33B
330
1D
100
AcDbEntity
  8
0
100
AcDbLine
 10
37.0284
 20
142.802
 30
0.0
 11
38.6176
 21
142.716
 31
0.0
  0
LINE
  5
33C
330
1D
100
AcDbEntity
  8
0
100
AcDbLine
 10
43.637
 20
141.915
 30
0.0
 11
44.3996
 21
141.658
 31
0.0
  0
LINE
  5
33D
330
1D
100
AcDbEntity
  8
0
100
AcDbLine
 10
17.631
 20
142.232
 30
0.0
 11
18.491
 21
142.393
 31
0.0
  0
LINE
  5
33E
330
1D
100
AcDbEntity
  8
0
100
AcDbLine
 10
111.019
 20
141.642
 30
0.0
 11
113.015
 21
144.307
 31
0.0
  0
LINE
  5
33F
330
1D
100
AcDbEntity
  8
0
100
AcDbLine
 10
118.938
 20
133.524
 30
0.0
 11
120.479
 21
135.98
 31
0.0
  0
LINE
  5
340
330
1D
100
AcDbEntity
  8
0
100
AcDbLine
 10
120.479
 20
135.98
 30
0.0
 11
122.304
 21
138.231
 31
0.0
  0
LINE
  5
341
330
1D
100
AcDbEntity
  8
0
100
AcDbLine
 10
115.256
 20
146.772
 30
0.0
 11
117.721
 21
149.011
 31
0.0
  0
LINE
  5
342
330
1D
100
AcDbEntity
  8
0
100
AcDbLine
 10
120.388
 20
151.007
 30
0.0
 11
123.232
 21
152.74
 31
0.0
  0
LINE
  5
343
330
1D
100
AcDbEntity
  8
0
100
AcDbLine
 10
120.388
 20
151.007
 30
0.0
 11
123.232
 21
152.74
 31
0.0
  0
LINE
  5
344
330
1D
100
AcDbEntity
  8
0
100
AcDbLine
 10
117.721
 20
149.011
 30
0.0
 11
120.388
 21
151.007
 31
0.0
  0
LINE
  5
345
330
1D
100
AcDbEntity
  8
0
100
AcDbLine
 10
113.015
 20
144.307
 30
0.0
 11
115.256
 21
146.772
 31
0.0
  0
LINE
  5
346
330
1D
100
AcDbEntity
  8
0
100
AcDbLine
 10
106.6644
 20
132.682
 30
0.0
 11
107.8284
 21
135.802
 31
0.0
  0
LINE
  5
347
330
1D
100
AcDbEntity
  8
0
100
AcDbLine
 10
125.864
 20
125.245
 30
0.0
 11
126.936
 21
128.309
 31
0.0
  0
LINE
  5
34C
330
1D
100
AcDbEntity
  8
0
100
AcDbLine
 10
126.936
 20
128.309
 30
0.0
 11
128.664
 21
131.059
 31
0.0
  0
LINE
  5
34D
330
1D
100
AcDbEntity
  8
0
100
AcDbLine
 10
128.664
 20
131.059
 30
0.0
 11
130.959
 21
133.355
 31
0.0
  0
LINE
  5
351
330
1D
100
AcDbEntity
  8
0
100
AcDbLine
 10
130.959
 20
133.355
 30
0.0
 11
133.708999999941
 21
135.081999999963
 31
0.0
  0
LINE
  5
352
330
1D
100
AcDbEntity
  8
0
100
AcDbLine
 10
130.959
 20
133.355
 30
0.0
 11
133.708999999941
 21
135.081999999963
 31
0.0
  0
LINE
  5
356
330
1D
100
AcDbEntity
  8
0
100
AcDbLine
 10
136.774
 20
136.154
 30
0.0
 11
140.0
 21
136.518
 31
0.0
  0
LINE
  5
357
330
1D
100
AcDbEntity
  8
0
100
AcDbLine
 10
133.709
 20
135.082
 30
0.0
 11
136.774
 21
136.154
 31
0.0
  0
LINE
  5
3DC
330
1D
100
AcDbEntity
  8
0
100
AcDbLine
 10
122.304
 20
138.231
 30
0.0
 11
124.387
 21
140.246
 31
0.0
  0
LINE
  5
3DE
330
1D
100
AcDbEntity
  8
0
100
AcDbLine
 10
126.698
 20
141.995
 30
0.0
 11
129.203
 21
143.452
 31
0.0
  0
LINE
  5
3DF
330
1D
100
AcDbEntity
  8
0
100
AcDbLine
 10
124.387
 20
140.246
 30
0.0
 11
126.698
 21
141.995
 31
0.0
  0
LINE
  5
3E2
330
1D
100
AcDbEntity
  8
0
100
AcDbLine
 10
131.865
 20
144.597
 30
0.0
 11
134.646
 21
145.413
 31
0.0
  0
LINE
  5
3E3
330
1D
100
AcDbEntity
  8
0
100
AcDbLine
 10
129.203
 20
143.452
 30
0.0
 11
131.865
 21
144.597
 31
0.0
  0
LINE
  5
3E8
330
1D
100
AcDbEntity
  8
0
100
AcDbLine
 10
137.064
 20
145.838
 30
0.0
 11
137.344
 21
145.87
 31
0.0
  0
LINE
  5
3E9
330
1D
100
AcDbEntity
  8
0
100
AcDbLine
 10
137.505
 20
145.889
 30
0.0
 11
137.827
 21
145.919
 31
0.0
  0
LINE
  5
3F4
330
1D
100
AcDbEntity
  8
0
100
AcDbLine
 10
137.919
 20
145.928
 30
0.0
 11
138.20131638418
 21
145.948802259887
 31
0.0
  0
LINE
  5
3F5
330
1D
100
AcDbEntity
  8
0
100
AcDbLine
 10
138.455
 20
145.969
 30
0.0
 11
139.195
 21
146.004
 31
0.0
  0
LINE
  5
3F7
330
1D
100
AcDbEntity
  8
0
100
AcDbLine
 10
139.195
 20
146.004
 30
0.0
 11
140.0
 21
146.018
 31
0.0
  0
LINE
  5
400
330
1D
100
AcDbEntity
  8
0
100
AcDbLine
 10
140.0
 20
146.018
 30
0.0
 11
140.4
 21
146.015
 31
0.0
  0
LINE
  5
403
330
1D
100
AcDbEntity
  8
0
100
AcDbLine
 10
137.344
 20
145.87
 30
0.0
 11
137.505
 21
145.889
 31
0.0
  0
LINE
  5
404
330
1D
100
AcDbEntity
  8
0
100
AcDbLine
 10
123.232
 20
152.74
 30
0.0
 11
126.229
 21
154.195
 31
0.0
  0
LINE
  5
405
330
1D
100
AcDbEntity
  8
0
100
AcDbLine
 10
126.229
 20
154.195
 30
0.0
 11
129.35
 21
155.358
 31
0.0
  0
LINE
  5
40B
330
1D
100
AcDbEntity
  8
0
100
AcDbLine
 10
135.851
 20
156.771
 30
0.0
 11
139.174
 21
157.008
 31
0.0
  0
LINE
  5
40C
330
1D
100
AcDbEntity
  8
0
100
AcDbLine
 10
132.567
 20
156.22
 30
0.0
 11
135.851
 21
156.771
 31
0.0
  0
LINE
  5
40D
330
1D
100
AcDbEntity
  8
0
100
AcDbLine
 10
129.35
 20
155.358
 30
0.0
 11
132.567
 21
156.22
 31
0.0
  0
LINE
  5
418
330
1D
100
AcDbEntity
  8
0
100
AcDbLine
 10
105.0101
 20
122.858
 30
0.0
 11
105.2487
 21
126.18
 31
0.0
  0
LINE
  5
419
330
1D
100
AcDbEntity
  8
0
100
AcDbLine
 10
105.0101
 20
122.858
 30
0.0
 11
105.0883
 21
119.528
 31
0.0
  0
LINE
  5
4F9
330
1D
100
AcDbEntity
  8
0
100
AcDbLine
 10
134.646
 20
145.413
 30
0.0
 11
137.064
 21
145.838
 31
0.0
  0
LINE
  5
4FA
330
1D
100
AcDbEntity
  8
0
100
AcDbLine
 10
138.20131638418
 20
145.948802259887
 30
0.0
 11
138.455
 21
145.969
 31
0.0
  0
LINE
  5
4FB
330
1D
100
AcDbEntity
  8
0
100
AcDbLine
 10
137.827
 20
145.919
 30
0.0
 11
137.919
 21
145.928
 31
0.0
  0
LINE
  5
4FC
330
1D
100
AcDbEntity
  8
0
100
AcDbLine
 10
106.456253201088
 20
112.136532010802
 30
0.0
 11
105.929111225064
 21
114.171112250905
 31
0.0
  0
LINE
  5
4FD
330
1D
100
AcDbEntity
  8
0
100
AcDbLine
 10
124.7
 20
90.5391
 30
0.0
 11
123.79226765674
 21
91.035059851476
 31
0.0
  0
LINE
  5
4FE
330
1D
100
AcDbEntity
  8
0
100
AcDbLine
 10
59.9914
 20
122.738
 30
0.0
 11
59.658023358485
 21
118.271699065599
 31
0.0
  0
LINE
  5
4FF
330
1D
100
AcDbEntity
  8
0
100
AcDbLine
 10
59.658023358485
 20
118.271699065599
 30
0.0
 11
59.144048494624
 21
115.018
 31
0.0
  0
LINE
  5
500
330
1D
100
AcDbEntity
  8
0
100
AcDbLine
 10
59.144048494624
 20
115.018
 30
0.0
 11
57.580691071301
 21
110.448619931419
 31
0.0
  0
LINE
  5
501
330
1D
100
AcDbEntity
  8
0
100
AcDbLine
 10
57.580691071301
 20
110.448619931419
 30
0.0
 11
55.6197
 21
106.409
 31
0.0
  0
LINE
  5
502
330
1D
100
AcDbEntity
  8
0
100
AcDbLine
 10
52.2029
 20
101.842
 30
0.0
 11
49.906050120014
 21
99.521089745879
 31
0.0
  0
LINE
  5
503
330
1D
100
AcDbEntity
  8
0
100
AcDbLine
 10
49.906050120014
 20
99.521089745879
 30
0.0
 11
47.9834
 21
98.0052
 31
0.0
  0
LINE
  5
504
330
1D
100
AcDbEntity
  8
0
100
AcDbLine
 10
40.4897
 20
93.9114
 30
0.0
 11
37.7706
 21
93.042
 31
0.0
  0
LINE
  5
505
330
1D
100
AcDbEntity
  8
0
100
AcDbLine
 10
1.021
 20
129.777
 30
0.0
 11
1.455499999993
 21
131.136499999976
 31
0.0
  0
LINE
  5
506
330
1D
100
AcDbEntity
  8
0
100
AcDbLine
 10
141.283
 20
0.035
 30
0.0
 11
139.868
 21
-0.008
 31
0.0
  0
LINE
  5
507
330
1D
100
AcDbEntity
  8
0
100
AcDbLine
 10
143.226
 20
6.486
 30
0.0
 11
140.0
 21
6.207
 31
0.0
  0
LINE
  5
508
330
1D
100
AcDbEntity
  8
0
100
AcDbLine
 10
143.226
 20
136.154
 30
0.0
 11
140.0
 21
136.518
 31
0.0
  0
LINE
  5
509
330
1D
100
AcDbEntity
  8
0
100
AcDbLine
 10
140.805
 20
146.004
 30
0.0
 11
140.0
 21
146.018
 31
0.0
  0
LINE
  5
50A
330
1D
100
AcDbEntity
  8
0
100
AcDbLine
 10
140.0
 20
146.018
 30
0.0
 11
139.6
 21
146.015
 31
0.0
  0
LINE
  5
50B
330
1D
100
AcDbEntity
  8
0
100
AcDbLine
 10
275.62
 20
137.627
 30
0.0
 11
274.02
 21
139.992
 31
0.0
  0
LINE
  5
50C
330
1D
100
AcDbEntity
  8
0
100
AcDbLine
 10
267.722
 20
139.553
 30
0.0
 11
267.203
 21
140.041
 31
0.0
  0
LINE
  5
50D
330
1D
100
AcDbEntity
  8
0
100
AcDbLine
 10
232.9826
 20
140.197
 30
0.0
 11
232.449
 21
139.724
 31
0.0
  0
LINE
  5
50E
330
1D
100
AcDbEntity
  8
0
100
AcDbLine
 10
226.8702
 20
141.123
 30
0.0
 11
225.1592
 21
138.838
 31
0.0
  0
LINE
  5
50F
330
1D
100
AcDbEntity
  8
0
100
AcDbLine
 10
170.7158
 20
138.798
 30
0.0
 11
168.981
 21
141.642
 31
0.0
  0
LINE
  5
510
330
1D
100
AcDbEntity
  8
0
100
AcDbLine
 10
157.696
 20
138.231
 30
0.0
 11
155.613
 21
140.246
 31
0.0
  0
LINE
  5
515
330
1D
100
AcDbEntity
  8
0
100
AcDbLine
 10
245.0189
 20
92.4346
 30
0.0
 11
242.2294
 21
93.042
 31
0.0
  0
LINE
  5
516
330
1D
100
AcDbEntity
  8
0
100
AcDbLine
 10
247.1649
 20
101.095
 30
0.0
 11
244.2787
 21
101.162
 31
0.0
  0
LINE
  5
517
330
1D
100
AcDbEntity
  8
0
100
AcDbLine
 10
274.841
 20
105.197
 30
0.0
 11
273.13
 21
102.913
 31
0.0
  0
LINE
  5
518
330
1D
100
AcDbEntity
  8
0
100
AcDbLine
 10
268.482
 20
105.362
 30
0.0
 11
268.039
 21
104.799
 31
0.0
  0
LINE
  5
519
330
1D
100
AcDbEntity
  8
0
100
AcDbLine
 10
264.372
 20
95.6848
 30
0.0
 11
261.804
 21
94.4375
 31
0.0
  0
LINE
  5
51A
330
1D
100
AcDbEntity
  8
0
100
AcDbLine
 10
262.817
 20
101.868
 30
0.0
 11
261.956
 21
101.685
 31
0.0
  0
LINE
  5
51B
330
1D
100
AcDbEntity
  8
0
100
AcDbLine
 10
271.209
 20
100.8
 30
0.0
 11
269.096
 21
98.8807
 31
0.0
  0
LINE
  5
51C
330
1D
100
AcDbEntity
  8
0
100
AcDbLine
 10
269.096
 20
98.8807
 30
0.0
 11
266.81
 21
97.1703
 31
0.0
  0
LINE
  5
51D
330
1D
100
AcDbEntity
  8
0
100
AcDbLine
 10
266.81
 20
97.1703
 30
0.0
 11
264.372
 21
95.6848
 31
0.0
  0
LINE
  5
51E
330
1D
100
AcDbEntity
  8
0
100
AcDbLine
 10
273.13
 20
102.913
 30
0.0
 11
271.209
 21
100.8
 31
0.0
  0
LINE
  5
51F
330
1D
100
AcDbEntity
  8
0
100
AcDbLine
 10
268.039
 20
104.799
 30
0.0
 11
267.551
 21
104.28
 31
0.0
  0
LINE
  5
520
330
1D
100
AcDbEntity
  8
0
100
AcDbLine
 10
267.551
 20
104.28
 30
0.0
 11
267.018
 21
103.807
 31
0.0
  0
LINE
  5
521
330
1D
100
AcDbEntity
  8
0
100
AcDbLine
 10
263.637
 20
102.09
 30
0.0
 11
262.817
 21
101.868
 31
0.0
  0
LINE
  5
522
330
1D
100
AcDbEntity
  8
0
100
AcDbLine
 10
266.44
 20
103.38
 30
0.0
 11
265.802
 21
102.989
 31
0.0
  0
LINE
  5
523
330
1D
100
AcDbEntity
  8
0
100
AcDbLine
 10
265.802
 20
102.989
 30
0.0
 11
265.122
 21
102.645
 31
0.0
  0
LINE
  5
524
330
1D
100
AcDbEntity
  8
0
100
AcDbLine
 10
265.122
 20
102.645
 30
0.0
 11
264.4
 21
102.346
 31
0.0
  0
LINE
  5
525
330
1D
100
AcDbEntity
  8
0
100
AcDbLine
 10
264.4
 20
102.346
 30
0.0
 11
263.637
 21
102.09
 31
0.0
  0
LINE
  5
526
330
1D
100
AcDbEntity
  8
0
100
AcDbLine
 10
267.018
 20
103.807
 30
0.0
 11
266.44
 21
103.38
 31
0.0
  0
LINE
  5
527
330
1D
100
AcDbEntity
  8
0
100
AcDbLine
 10
250.708
 20
92.0264
 30
0.0
 11
247.8539
 21
92.0947
 31
0.0
  0
LINE
  5
528
330
1D
100
AcDbEntity
  8
0
100
AcDbLine
 10
247.8539
 20
92.0947
 30
0.0
 11
245.0189
 21
92.4346
 31
0.0
  0
LINE
  5
529
330
1D
100
AcDbEntity
  8
0
100
AcDbLine
 10
253.556
 20
92.2295
 30
0.0
 11
250.708
 21
92.0264
 31
0.0
  0
LINE
  5
52A
330
1D
100
AcDbEntity
  8
0
100
AcDbLine
 10
259.129
 20
93.4408
 30
0.0
 11
256.371
 21
92.7021
 31
0.0
  0
LINE
  5
52B
330
1D
100
AcDbEntity
  8
0
100
AcDbLine
 10
256.371
 20
92.7021
 30
0.0
 11
253.556
 21
92.2295
 31
0.0
  0
LINE
  5
52C
330
1D
100
AcDbEntity
  8
0
100
AcDbLine
 10
261.804
 20
94.4375
 30
0.0
 11
259.129
 21
93.4408
 31
0.0
  0
LINE
  5
52D
330
1D
100
AcDbEntity
  8
0
100
AcDbLine
 10
260.117
 20
101.418
 30
0.0
 11
258.618
 21
101.288
 31
0.0
  0
LINE
  5
52E
330
1D
100
AcDbEntity
  8
0
100
AcDbLine
 10
261.956
 20
101.685
 30
0.0
 11
261.056
 21
101.537
 31
0.0
  0
LINE
  5
52F
330
1D
100
AcDbEntity
  8
0
100
AcDbLine
 10
261.056
 20
101.537
 30
0.0
 11
260.117
 21
101.418
 31
0.0
  0
LINE
  5
530
330
1D
100
AcDbEntity
  8
0
100
AcDbLine
 10
255.919
 20
101.162
 30
0.0
 11
255.723
 21
101.156
 31
0.0
  0
LINE
  5
531
330
1D
100
AcDbEntity
  8
0
100
AcDbLine
 10
252.918
 20
101.089
 30
0.0
 11
249.9965
 21
101.07
 31
0.0
  0
LINE
  5
532
330
1D
100
AcDbEntity
  8
0
100
AcDbLine
 10
249.9965
 20
101.07
 30
0.0
 11
247.1649
 21
101.095
 31
0.0
  0
LINE
  5
533
330
1D
100
AcDbEntity
  8
0
100
AcDbLine
 10
255.723
 20
101.156
 30
0.0
 11
252.918
 21
101.089
 31
0.0
  0
LINE
  5
534
330
1D
100
AcDbEntity
  8
0
100
AcDbLine
 10
257.029
 20
101.203
 30
0.0
 11
255.919
 21
101.162
 31
0.0
  0
LINE
  5
535
330
1D
100
AcDbEntity
  8
0
100
AcDbLine
 10
258.618
 20
101.288
 30
0.0
 11
257.029
 21
101.203
 31
0.0
  0
LINE
  5
536
330
1D
100
AcDbEntity
  8
0
100
AcDbLine
 10
270.932
 20
121.999
 30
0.0
 11
270.913
 21
124.92
 31
0.0
  0
LINE
  5
537
330
1D
100
AcDbEntity
  8
0
100
AcDbLine
 10
279.991
 20
121.298
 30
0.0
 11
279.924
 21
124.152
 31
0.0
  0
LINE
  5
538
330
1D
100
AcDbEntity
  8
0
100
AcDbLine
 10
269.228
 20
106.616
 30
0.0
 11
268.877
 21
105.968
 31
0.0
  0
LINE
  5
539
330
1D
100
AcDbEntity
  8
0
100
AcDbLine
 10
268.877
 20
105.968
 30
0.0
 11
268.482
 21
105.362
 31
0.0
  0
LINE
  5
53A
330
1D
100
AcDbEntity
  8
0
100
AcDbLine
 10
269.536
 20
107.303
 30
0.0
 11
269.228
 21
106.616
 31
0.0
  0
LINE
  5
53B
330
1D
100
AcDbEntity
  8
0
100
AcDbLine
 10
270.035
 20
108.812
 30
0.0
 11
269.802
 21
108.029
 31
0.0
  0
LINE
  5
53C
330
1D
100
AcDbEntity
  8
0
100
AcDbLine
 10
269.802
 20
108.029
 30
0.0
 11
269.536
 21
107.303
 31
0.0
  0
LINE
  5
53D
330
1D
100
AcDbEntity
  8
0
100
AcDbLine
 10
276.328
 20
107.635
 30
0.0
 11
274.841
 21
105.197
 31
0.0
  0
LINE
  5
53E
330
1D
100
AcDbEntity
  8
0
100
AcDbLine
 10
277.576
 20
110.203
 30
0.0
 11
276.328
 21
107.635
 31
0.0
  0
LINE
  5
53F
330
1D
100
AcDbEntity
  8
0
100
AcDbLine
 10
270.23
 20
109.634
 30
0.0
 11
270.035
 21
108.812
 31
0.0
  0
LINE
  5
540
330
1D
100
AcDbEntity
  8
0
100
AcDbLine
 10
270.52
 20
111.389
 30
0.0
 11
270.391
 21
110.493
 31
0.0
  0
LINE
  5
541
330
1D
100
AcDbEntity
  8
0
100
AcDbLine
 10
270.391
 20
110.493
 30
0.0
 11
270.23
 21
109.634
 31
0.0
  0
LINE
  5
542
330
1D
100
AcDbEntity
  8
0
100
AcDbLine
 10
278.573
 20
112.877
 30
0.0
 11
277.576
 21
110.203
 31
0.0
  0
LINE
  5
543
330
1D
100
AcDbEntity
  8
0
100
AcDbLine
 10
270.722
 20
113.599
 30
0.0
 11
270.636
 21
112.47
 31
0.0
  0
LINE
  5
544
330
1D
100
AcDbEntity
  8
0
100
AcDbLine
 10
270.636
 20
112.47
 30
0.0
 11
270.52
 21
111.389
 31
0.0
  0
LINE
  5
545
330
1D
100
AcDbEntity
  8
0
100
AcDbLine
 10
270.834
 20
116.076
 30
0.0
 11
270.722
 21
113.599
 31
0.0
  0
LINE
  5
546
330
1D
100
AcDbEntity
  8
0
100
AcDbLine
 10
270.84
 20
116.281
 30
0.0
 11
270.834
 21
116.076
 31
0.0
  0
LINE
  5
547
330
1D
100
AcDbEntity
  8
0
100
AcDbLine
 10
279.313
 20
115.635
 30
0.0
 11
278.573
 21
112.877
 31
0.0
  0
LINE
  5
548
330
1D
100
AcDbEntity
  8
0
100
AcDbLine
 10
270.907
 20
119.167
 30
0.0
 11
270.84
 21
116.281
 31
0.0
  0
LINE
  5
549
330
1D
100
AcDbEntity
  8
0
100
AcDbLine
 10
279.787
 20
118.451
 30
0.0
 11
279.313
 21
115.635
 31
0.0
  0
LINE
  5
54A
330
1D
100
AcDbEntity
  8
0
100
AcDbLine
 10
270.932
 20
121.999
 30
0.0
 11
270.907
 21
119.167
 31
0.0
  0
LINE
  5
54B
330
1D
100
AcDbEntity
  8
0
100
AcDbLine
 10
279.991
 20
121.298
 30
0.0
 11
279.787
 21
118.451
 31
0.0
  0
LINE
  5
54C
330
1D
100
AcDbEntity
  8
0
100
AcDbLine
 10
279.924
 20
124.152
 30
0.0
 11
279.586
 21
126.987
 31
0.0
  0
LINE
  5
54D
330
1D
100
AcDbEntity
  8
0
100
AcDbLine
 10
279.586
 20
126.987
 30
0.0
 11
278.979
 21
129.777
 31
0.0
  0
LINE
  5
54E
330
1D
100
AcDbEntity
  8
0
100
AcDbLine
 10
278.544500000007
 20
131.136499999976
 30
0.0
 11
278.11
 21
132.497
 31
0.0
  0
LINE
  5
54F
330
1D
100
AcDbEntity
  8
0
100
AcDbLine
 10
278.544500000008
 20
131.136499999976
 30
0.0
 11
278.11
 21
132.497
 31
0.0
  0
LINE
  5
550
330
1D
100
AcDbEntity
  8
0
100
AcDbLine
 10
278.11
 20
132.497
 30
0.0
 11
276.987
 21
135.121
 31
0.0
  0
LINE
  5
551
330
1D
100
AcDbEntity
  8
0
100
AcDbLine
 10
276.987
 20
135.121
 30
0.0
 11
275.62
 21
137.627
 31
0.0
  0
LINE
  5
552
330
1D
100
AcDbEntity
  8
0
100
AcDbLine
 10
278.979
 20
129.777
 30
0.0
 11
278.544500000007
 21
131.136499999976
 31
0.0
  0
LINE
  5
553
330
1D
100
AcDbEntity
  8
0
100
AcDbLine
 10
270.913
 20
124.92
 30
0.0
 11
270.847
 21
127.725
 31
0.0
  0
LINE
  5
554
330
1D
100
AcDbEntity
  8
0
100
AcDbLine
 10
270.841
 20
127.921
 30
0.0
 11
270.8
 21
129.031
 31
0.0
  0
LINE
  5
555
330
1D
100
AcDbEntity
  8
0
100
AcDbLine
 10
270.847
 20
127.725
 30
0.0
 11
270.841
 21
127.921
 31
0.0
  0
LINE
  5
556
330
1D
100
AcDbEntity
  8
0
100
AcDbLine
 10
270.714
 20
130.62
 30
0.0
 11
270.584
 21
132.119
 31
0.0
  0
LINE
  5
557
330
1D
100
AcDbEntity
  8
0
100
AcDbLine
 10
270.584
 20
132.119
 30
0.0
 11
270.466
 21
133.058
 31
0.0
  0
LINE
  5
558
330
1D
100
AcDbEntity
  8
0
100
AcDbLine
 10
270.8
 20
129.031
 30
0.0
 11
270.714
 21
130.62
 31
0.0
  0
LINE
  5
559
330
1D
100
AcDbEntity
  8
0
100
AcDbLine
 10
270.134
 20
134.819
 30
0.0
 11
269.913
 21
135.639
 31
0.0
  0
LINE
  5
55A
330
1D
100
AcDbEntity
  8
0
100
AcDbLine
 10
270.317
 20
133.958
 30
0.0
 11
270.134
 21
134.819
 31
0.0
  0
LINE
  5
55B
330
1D
100
AcDbEntity
  8
0
100
AcDbLine
 10
270.466
 20
133.058
 30
0.0
 11
270.317
 21
133.958
 31
0.0
  0
LINE
  5
55C
330
1D
100
AcDbEntity
  8
0
100
AcDbLine
 10
269.013
 20
137.805
 30
0.0
 11
268.623
 21
138.442
 31
0.0
  0
LINE
  5
55D
330
1D
100
AcDbEntity
  8
0
100
AcDbLine
 10
269.357
 20
137.124
 30
0.0
 11
269.013
 21
137.805
 31
0.0
  0
LINE
  5
55E
330
1D
100
AcDbEntity
  8
0
100
AcDbLine
 10
269.656
 20
136.402
 30
0.0
 11
269.357
 21
137.124
 31
0.0
  0
LINE
  5
55F
330
1D
100
AcDbEntity
  8
0
100
AcDbLine
 10
268.195
 20
139.02
 30
0.0
 11
267.722
 21
139.553
 31
0.0
  0
LINE
  5
560
330
1D
100
AcDbEntity
  8
0
100
AcDbLine
 10
268.623
 20
138.442
 30
0.0
 11
268.195
 21
139.02
 31
0.0
  0
LINE
  5
561
330
1D
100
AcDbEntity
  8
0
100
AcDbLine
 10
269.913
 20
135.639
 30
0.0
 11
269.656
 21
136.402
 31
0.0
  0
LINE
  5
562
330
1D
100
AcDbEntity
  8
0
100
AcDbLine
 10
231.8654
 20
104.911
 30
0.0
 11
231.4344
 21
105.48
 31
0.0
  0
LINE
  5
563
330
1D
100
AcDbEntity
  8
0
100
AcDbLine
 10
225.9799
 20
104.044
 30
0.0
 11
224.3803
 21
106.409
 31
0.0
  0
LINE
  5
564
330
1D
100
AcDbEntity
  8
0
100
AcDbLine
 10
227.7971
 20
101.842
 30
0.0
 11
225.9799
 21
104.044
 31
0.0
  0
LINE
  5
565
330
1D
100
AcDbEntity
  8
0
100
AcDbLine
 10
236.8858
 20
95.0361
 30
0.0
 11
234.3807
 21
96.4045
 31
0.0
  0
LINE
  5
566
330
1D
100
AcDbEntity
  8
0
100
AcDbLine
 10
236.904
 20
101.942
 30
0.0
 11
236.1264
 21
102.167
 31
0.0
  0
LINE
  5
567
330
1D
100
AcDbEntity
  8
0
100
AcDbLine
 10
239.5103
 20
93.9114
 30
0.0
 11
236.8858
 21
95.0361
 31
0.0
  0
LINE
  5
568
330
1D
100
AcDbEntity
  8
0
100
AcDbLine
 10
244.2787
 20
101.162
 30
0.0
 11
244.0738
 21
101.169
 31
0.0
  0
LINE
  5
569
330
1D
100
AcDbEntity
  8
0
100
AcDbLine
 10
241.4501
 20
101.29
 30
0.0
 11
240.4602
 21
101.367
 31
0.0
  0
LINE
  5
56A
330
1D
100
AcDbEntity
  8
0
100
AcDbLine
 10
240.4602
 20
101.367
 30
0.0
 11
239.5083
 21
101.467
 31
0.0
  0
LINE
  5
56B
330
1D
100
AcDbEntity
  8
0
100
AcDbLine
 10
238.5946
 20
101.595
 30
0.0
 11
237.7191
 21
101.754
 31
0.0
  0
LINE
  5
56C
330
1D
100
AcDbEntity
  8
0
100
AcDbLine
 10
237.7191
 20
101.754
 30
0.0
 11
236.904
 21
101.942
 31
0.0
  0
LINE
  5
56D
330
1D
100
AcDbEntity
  8
0
100
AcDbLine
 10
239.5083
 20
101.467
 30
0.0
 11
238.5946
 21
101.595
 31
0.0
  0
LINE
  5
56E
330
1D
100
AcDbEntity
  8
0
100
AcDbLine
 10
242.6976
 20
101.221
 30
0.0
 11
241.4501
 21
101.29
 31
0.0
  0
LINE
  5
56F
330
1D
100
AcDbEntity
  8
0
100
AcDbLine
 10
244.0738
 20
101.169
 30
0.0
 11
242.6976
 21
101.221
 31
0.0
  0
LINE
  5
570
330
1D
100
AcDbEntity
  8
0
100
AcDbLine
 10
239.5103
 20
93.9114
 30
0.0
 11
242.2294
 21
93.042
 31
0.0
  0
LINE
  5
571
330
1D
100
AcDbEntity
  8
0
100
AcDbLine
 10
234.3807
 20
96.4045
 30
0.0
 11
232.0166
 21
98.0052
 31
0.0
  0
LINE
  5
572
330
1D
100
AcDbEntity
  8
0
100
AcDbLine
 10
236.1264
 20
102.167
 30
0.0
 11
235.3871
 21
102.432
 31
0.0
  0
LINE
  5
573
330
1D
100
AcDbEntity
  8
0
100
AcDbLine
 10
235.3871
 20
102.432
 30
0.0
 11
234.687
 21
102.738
 31
0.0
  0
LINE
  5
574
330
1D
100
AcDbEntity
  8
0
100
AcDbLine
 10
234.687
 20
102.738
 30
0.0
 11
234.0377
 21
103.083
 31
0.0
  0
LINE
  5
575
330
1D
100
AcDbEntity
  8
0
100
AcDbLine
 10
234.0377
 20
103.083
 30
0.0
 11
233.4295
 21
103.472
 31
0.0
  0
LINE
  5
576
330
1D
100
AcDbEntity
  8
0
100
AcDbLine
 10
232.8638
 20
103.906
 30
0.0
 11
232.3421
 21
104.386
 31
0.0
  0
LINE
  5
577
330
1D
100
AcDbEntity
  8
0
100
AcDbLine
 10
232.3421
 20
104.386
 30
0.0
 11
231.8654
 21
104.911
 31
0.0
  0
LINE
  5
578
330
1D
100
AcDbEntity
  8
0
100
AcDbLine
 10
233.4295
 20
103.472
 30
0.0
 11
232.8638
 21
103.906
 31
0.0
  0
LINE
  5
579
330
1D
100
AcDbEntity
  8
0
100
AcDbLine
 10
227.7971
 20
101.842
 30
0.0
 11
230.093949879986
 21
99.521089745879
 31
0.0
  0
LINE
  5
57A
330
1D
100
AcDbEntity
  8
0
100
AcDbLine
 10
230.093949879986
 20
99.521089745879
 30
0.0
 11
232.0166
 21
98.0052
 31
0.0
  0
LINE
  5
57B
330
1D
100
AcDbEntity
  8
0
100
AcDbLine
 10
229.0931
 20
124.837
 30
0.0
 11
229.068
 21
122.006
 31
0.0
  0
LINE
  5
57C
330
1D
100
AcDbEntity
  8
0
100
AcDbLine
 10
231.4344
 20
105.48
 30
0.0
 11
231.0484
 21
106.091
 31
0.0
  0
LINE
  5
57D
330
1D
100
AcDbEntity
  8
0
100
AcDbLine
 10
231.0484
 20
106.091
 30
0.0
 11
230.7068
 21
106.744
 31
0.0
  0
LINE
  5
57E
330
1D
100
AcDbEntity
  8
0
100
AcDbLine
 10
230.7068
 20
106.744
 30
0.0
 11
230.4035
 21
107.447
 31
0.0
  0
LINE
  5
57F
330
1D
100
AcDbEntity
  8
0
100
AcDbLine
 10
230.4035
 20
107.447
 30
0.0
 11
230.1421
 21
108.189
 31
0.0
  0
LINE
  5
580
330
1D
100
AcDbEntity
  8
0
100
AcDbLine
 10
230.1421
 20
108.189
 30
0.0
 11
229.9195
 21
108.97
 31
0.0
  0
LINE
  5
581
330
1D
100
AcDbEntity
  8
0
100
AcDbLine
 10
229.9195
 20
108.97
 30
0.0
 11
229.7333
 21
109.788
 31
0.0
  0
LINE
  5
582
330
1D
100
AcDbEntity
  8
0
100
AcDbLine
 10
229.7333
 20
109.788
 30
0.0
 11
229.5766
 21
110.665
 31
0.0
  0
LINE
  5
583
330
1D
100
AcDbEntity
  8
0
100
AcDbLine
 10
229.5766
 20
110.665
 30
0.0
 11
229.451
 21
111.581
 31
0.0
  0
LINE
  5
584
330
1D
100
AcDbEntity
  8
0
100
AcDbLine
 10
229.451
 20
111.581
 30
0.0
 11
229.3524
 21
112.534
 31
0.0
  0
LINE
  5
585
330
1D
100
AcDbEntity
  8
0
100
AcDbLine
 10
229.3524
 20
112.534
 30
0.0
 11
229.2766
 21
113.526
 31
0.0
  0
LINE
  5
586
330
1D
100
AcDbEntity
  8
0
100
AcDbLine
 10
229.2112
 20
114.732
 30
0.0
 11
229.1597
 21
116.084
 31
0.0
  0
LINE
  5
587
330
1D
100
AcDbEntity
  8
0
100
AcDbLine
 10
229.2766
 20
113.526
 30
0.0
 11
229.2112
 21
114.732
 31
0.0
  0
LINE
  5
588
330
1D
100
AcDbEntity
  8
0
100
AcDbLine
 10
229.1535
 20
116.279
 30
0.0
 11
229.0873
 21
119.085
 31
0.0
  0
LINE
  5
589
330
1D
100
AcDbEntity
  8
0
100
AcDbLine
 10
229.1597
 20
116.084
 30
0.0
 11
229.1535
 21
116.279
 31
0.0
  0
LINE
  5
58A
330
1D
100
AcDbEntity
  8
0
100
AcDbLine
 10
229.0873
 20
119.085
 30
0.0
 11
229.068
 21
122.006
 31
0.0
  0
LINE
  5
58B
330
1D
100
AcDbEntity
  8
0
100
AcDbLine
 10
229.16
 20
127.724
 30
0.0
 11
229.0931
 21
124.837
 31
0.0
  0
LINE
  5
58C
330
1D
100
AcDbEntity
  8
0
100
AcDbLine
 10
229.364
 20
131.535
 30
0.0
 11
229.2781
 21
130.405
 31
0.0
  0
LINE
  5
58D
330
1D
100
AcDbEntity
  8
0
100
AcDbLine
 10
229.2781
 20
130.405
 30
0.0
 11
229.1666
 21
127.929
 31
0.0
  0
LINE
  5
58E
330
1D
100
AcDbEntity
  8
0
100
AcDbLine
 10
229.1666
 20
127.929
 30
0.0
 11
229.16
 21
127.724
 31
0.0
  0
LINE
  5
58F
330
1D
100
AcDbEntity
  8
0
100
AcDbLine
 10
229.4799
 20
132.615
 30
0.0
 11
229.364
 21
131.535
 31
0.0
  0
LINE
  5
590
330
1D
100
AcDbEntity
  8
0
100
AcDbLine
 10
229.6095
 20
133.511
 30
0.0
 11
229.4799
 21
132.615
 31
0.0
  0
LINE
  5
591
330
1D
100
AcDbEntity
  8
0
100
AcDbLine
 10
229.7701
 20
134.371
 30
0.0
 11
229.6095
 21
133.511
 31
0.0
  0
LINE
  5
592
330
1D
100
AcDbEntity
  8
0
100
AcDbLine
 10
230.772
 20
137.389
 30
0.0
 11
230.4643
 21
136.701
 31
0.0
  0
LINE
  5
593
330
1D
100
AcDbEntity
  8
0
100
AcDbLine
 10
231.1229
 20
138.036
 30
0.0
 11
230.772
 21
137.389
 31
0.0
  0
LINE
  5
594
330
1D
100
AcDbEntity
  8
0
100
AcDbLine
 10
231.5188
 20
138.642
 30
0.0
 11
231.1229
 21
138.036
 31
0.0
  0
LINE
  5
595
330
1D
100
AcDbEntity
  8
0
100
AcDbLine
 10
230.198
 20
135.976
 30
0.0
 11
229.9653
 21
135.192
 31
0.0
  0
LINE
  5
596
330
1D
100
AcDbEntity
  8
0
100
AcDbLine
 10
229.9653
 20
135.192
 30
0.0
 11
229.7701
 21
134.371
 31
0.0
  0
LINE
  5
597
330
1D
100
AcDbEntity
  8
0
100
AcDbLine
 10
230.4643
 20
136.701
 30
0.0
 11
230.198
 21
135.976
 31
0.0
  0
LINE
  5
598
330
1D
100
AcDbEntity
  8
0
100
AcDbLine
 10
232.449
 20
139.724
 30
0.0
 11
231.961
 21
139.205
 31
0.0
  0
LINE
  5
599
330
1D
100
AcDbEntity
  8
0
100
AcDbLine
 10
231.961
 20
139.205
 30
0.0
 11
231.5188
 21
138.642
 31
0.0
  0
LINE
  5
59F
330
1D
100
AcDbEntity
  8
0
100
AcDbLine
 10
220.0086
 20
122.738
 30
0.0
 11
220.341976641515
 21
118.271699065599
 31
0.0
  0
LINE
  5
5A4
330
1D
100
AcDbEntity
  8
0
100
AcDbLine
 10
220.855951505376
 20
115.018
 30
0.0
 11
222.419308928699
 21
110.448619931419
 31
0.0
  0
LINE
  5
5A5
330
1D
100
AcDbEntity
  8
0
100
AcDbLine
 10
222.419308928699
 20
110.448619931419
 30
0.0
 11
224.3803
 21
106.409
 31
0.0
  0
LINE
  5
5A8
330
1D
100
AcDbEntity
  8
0
100
AcDbLine
 10
220.341976641515
 20
118.271699065599
 30
0.0
 11
220.855951505376
 21
115.018
 31
0.0
  0
LINE
  5
5C4
330
1D
100
AcDbEntity
  8
0
100
AcDbLine
 10
222.4243
 20
133.833
 30
0.0
 11
221.4266
 21
131.159
 31
0.0
  0
LINE
  5
5C8
330
1D
100
AcDbEntity
  8
0
100
AcDbLine
 10
220.2132
 20
125.585
 30
0.0
 11
220.0086
 21
122.738
 31
0.0
  0
LINE
  5
5CA
330
1D
100
AcDbEntity
  8
0
100
AcDbLine
 10
221.4266
 20
131.159
 30
0.0
 11
220.6867
 21
128.401
 31
0.0
  0
LINE
  5
5D5
330
1D
100
AcDbEntity
  8
0
100
AcDbLine
 10
220.6867
 20
128.401
 30
0.0
 11
220.2132
 21
125.585
 31
0.0
  0
LINE
  5
5D6
330
1D
100
AcDbEntity
  8
0
100
AcDbLine
 10
223.6721
 20
136.401
 30
0.0
 11
222.4243
 21
133.833
 31
0.0
  0
LINE
  5
5D7
330
1D
100
AcDbEntity
  8
0
100
AcDbLine
 10
225.1592
 20
138.838
 30
0.0
 11
223.6721
 21
136.401
 31
0.0
  0
LINE
  5
5E0
330
1D
100
AcDbEntity
  8
0
100
AcDbLine
 10
154.5
 20
69.0059
 30
0.0
 11
154.5
 21
73.8362
 31
0.0
  0
LINE
  5
5E1
330
1D
100
AcDbEntity
  8
0
100
AcDbLine
 10
154.5
 20
73.8362
 30
0.0
 11
154.5
 21
69.0059
 31
0.0
  0
LINE
  5
5E2
330
1D
100
AcDbEntity
  8
0
100
AcDbLine
 10
154.5
 20
17.315
 30
0.0
 11
154.5
 21
44.3119
 31
0.0
  0
LINE
  5
5E3
330
1D
100
AcDbEntity
  8
0
100
AcDbLine
 10
154.5
 20
44.3119
 30
0.0
 11
154.5
 21
17.315
 31
0.0
  0
LINE
  5
5E4
330
1D
100
AcDbEntity
  8
0
100
AcDbLine
 10
149.041
 20
8.631
 30
0.0
 11
146.291
 21
7.307
 31
0.0
  0
LINE
  5
5E5
330
1D
100
AcDbEntity
  8
0
100
AcDbLine
 10
149.054
 20
2.438
 30
0.0
 11
147.909
 21
1.799
 31
0.0
  0
LINE
  5
5E6
330
1D
100
AcDbEntity
  8
0
100
AcDbLine
 10
154.5
 20
17.315
 30
0.0
 11
154.136
 21
14.843
 31
0.0
  0
LINE
  5
5E7
330
1D
100
AcDbEntity
  8
0
100
AcDbLine
 10
154.499
 20
17.021
 30
0.0
 11
154.499
 21
11.107
 31
0.0
  0
LINE
  5
5E8
330
1D
100
AcDbEntity
  8
0
100
AcDbLine
 10
154.499
 20
17.021
 30
0.0
 11
154.487909346734
 21
17.232889849246
 31
0.0
  0
LINE
  5
5E9
330
1D
100
AcDbEntity
  8
0
100
AcDbLine
 10
154.499
 20
11.107
 30
0.0
 11
154.417
 21
10.019
 31
0.0
  0
LINE
  5
5EA
330
1D
100
AcDbEntity
  8
0
100
AcDbLine
 10
154.499
 20
11.107
 30
0.0
 11
154.499
 21
17.021
 31
0.0
  0
LINE
  5
5EB
330
1D
100
AcDbEntity
  8
0
100
AcDbLine
 10
154.136
 20
14.843
 30
0.0
 11
153.064
 21
12.496
 31
0.0
  0
LINE
  5
5EC
330
1D
100
AcDbEntity
  8
0
100
AcDbLine
 10
154.417
 20
10.019
 30
0.0
 11
154.195
 21
8.942
 31
0.0
  0
LINE
  5
5ED
330
1D
100
AcDbEntity
  8
0
100
AcDbLine
 10
154.195
 20
8.942
 30
0.0
 11
153.837
 21
7.887
 31
0.0
  0
LINE
  5
5EE
330
1D
100
AcDbEntity
  8
0
100
AcDbLine
 10
153.837
 20
7.887
 30
0.0
 11
153.773
 21
7.742
 31
0.0
  0
LINE
  5
5EF
330
1D
100
AcDbEntity
  8
0
100
AcDbLine
 10
153.773
 20
7.742
 30
0.0
 11
153.283
 21
6.724
 31
0.0
  0
LINE
  5
5F0
330
1D
100
AcDbEntity
  8
0
100
AcDbLine
 10
153.064
 20
12.496
 30
0.0
 11
151.336
 21
10.389
 31
0.0
  0
LINE
  5
5F1
330
1D
100
AcDbEntity
  8
0
100
AcDbLine
 10
153.283
 20
6.724
 30
0.0
 11
152.666
 21
5.747
 31
0.0
  0
LINE
  5
5F2
330
1D
100
AcDbEntity
  8
0
100
AcDbLine
 10
152.666
 20
5.747
 30
0.0
 11
151.927
 21
4.822
 31
0.0
  0
LINE
  5
5F3
330
1D
100
AcDbEntity
  8
0
100
AcDbLine
 10
151.336
 20
10.389
 30
0.0
 11
149.041
 21
8.631
 31
0.0
  0
LINE
  5
5F4
330
1D
100
AcDbEntity
  8
0
100
AcDbLine
 10
151.927
 20
4.822
 30
0.0
 11
151.073
 21
3.956
 31
0.0
  0
LINE
  5
5F5
330
1D
100
AcDbEntity
  8
0
100
AcDbLine
 10
151.073
 20
3.956
 30
0.0
 11
150.112
 21
3.159
 31
0.0
  0
LINE
  5
5F6
330
1D
100
AcDbEntity
  8
0
100
AcDbLine
 10
150.112
 20
3.159
 30
0.0
 11
149.054
 21
2.438
 31
0.0
  0
LINE
  5
5F7
330
1D
100
AcDbEntity
  8
0
100
AcDbLine
 10
144.063
 20
0.439
 30
0.0
 11
142.686
 21
0.185
 31
0.0
  0
LINE
  5
5F8
330
1D
100
AcDbEntity
  8
0
100
AcDbLine
 10
142.686
 20
0.185
 30
0.0
 11
141.283
 21
0.035
 31
0.0
  0
LINE
  5
5F9
330
1D
100
AcDbEntity
  8
0
100
AcDbLine
 10
142.686
 20
0.185
 30
0.0
 11
141.283
 21
0.035
 31
0.0
  0
LINE
  5
5FA
330
1D
100
AcDbEntity
  8
0
100
AcDbLine
 10
146.687
 20
1.25
 30
0.0
 11
145.401
 21
0.795
 31
0.0
  0
LINE
  5
5FB
330
1D
100
AcDbEntity
  8
0
100
AcDbLine
 10
145.401
 20
0.795
 30
0.0
 11
144.063
 21
0.439
 31
0.0
  0
LINE
  5
5FC
330
1D
100
AcDbEntity
  8
0
100
AcDbLine
 10
146.291
 20
7.307
 30
0.0
 11
143.226
 21
6.486
 31
0.0
  0
LINE
  5
5FD
330
1D
100
AcDbEntity
  8
0
100
AcDbLine
 10
147.909
 20
1.799
 30
0.0
 11
146.687
 21
1.25
 31
0.0
  0
LINE
  5
5FE
330
1D
100
AcDbEntity
  8
0
100
AcDbLine
 10
154.5
 20
44.3119
 30
0.0
 11
154.5
 21
47.6543
 31
0.0
  0
LINE
  5
5FF
330
1D
100
AcDbEntity
  8
0
100
AcDbLine
 10
154.5
 20
47.6543
 30
0.0
 11
154.5
 21
44.3119
 31
0.0
  0
LINE
  5
600
330
1D
100
AcDbEntity
  8
0
100
AcDbLine
 10
154.5
 20
47.6543
 30
0.0
 11
154.5
 21
51.3716
 31
0.0
  0
LINE
  5
601
330
1D
100
AcDbEntity
  8
0
100
AcDbLine
 10
154.5
 20
51.3716
 30
0.0
 11
154.5
 21
55.4168
 31
0.0
  0
LINE
  5
602
330
1D
100
AcDbEntity
  8
0
100
AcDbLine
 10
154.5
 20
51.3716
 30
0.0
 11
154.5
 21
47.6543
 31
0.0
  0
LINE
  5
603
330
1D
100
AcDbEntity
  8
0
100
AcDbLine
 10
154.5
 20
55.4168
 30
0.0
 11
154.5
 21
59.7395
 31
0.0
  0
LINE
  5
604
330
1D
100
AcDbEntity
  8
0
100
AcDbLine
 10
154.5
 20
55.4168
 30
0.0
 11
154.5
 21
51.3716
 31
0.0
  0
LINE
  5
605
330
1D
100
AcDbEntity
  8
0
100
AcDbLine
 10
154.5
 20
69.0059
 30
0.0
 11
154.5
 21
64.2891
 31
0.0
  0
LINE
  5
606
330
1D
100
AcDbEntity
  8
0
100
AcDbLine
 10
154.5
 20
64.2891
 30
0.0
 11
154.5
 21
59.7395
 31
0.0
  0
LINE
  5
607
330
1D
100
AcDbEntity
  8
0
100
AcDbLine
 10
154.5
 20
64.2891
 30
0.0
 11
154.5
 21
69.0059
 31
0.0
  0
LINE
  5
608
330
1D
100
AcDbEntity
  8
0
100
AcDbLine
 10
154.5
 20
59.7395
 30
0.0
 11
154.5
 21
64.2891
 31
0.0
  0
LINE
  5
609
330
1D
100
AcDbEntity
  8
0
100
AcDbLine
 10
154.5
 20
59.7395
 30
0.0
 11
154.5
 21
55.4168
 31
0.0
  0
LINE
  5
691
330
1D
100
AcDbEntity
  8
0
100
AcDbLine
 10
171.4853
 20
106.731
 30
0.0
 11
169.89
 21
103.807
 31
0.0
  0
LINE
  5
692
330
1D
100
AcDbEntity
  8
0
100
AcDbLine
 10
154.5
 20
101.806
 30
0.0
 11
154.5
 21
105.763
 31
0.0
  0
LINE
  5
693
330
1D
100
AcDbEntity
  8
0
100
AcDbLine
 10
154.5
 20
105.763
 30
0.0
 11
154.5
 21
101.806
 31
0.0
  0
LINE
  5
694
330
1D
100
AcDbEntity
  8
0
100
AcDbLine
 10
158.227
 20
106.405
 30
0.0
 11
156.212
 21
104.322
 31
0.0
  0
LINE
  5
695
330
1D
100
AcDbEntity
  8
0
100
AcDbLine
 10
158.223
 20
92.1356
 30
0.0
 11
156.20773234326
 21
91.035059851476
 31
0.0
  0
LINE
  5
696
330
1D
100
AcDbEntity
  8
0
100
AcDbLine
 10
169.89
 20
103.807
 30
0.0
 11
168.023
 21
101.049
 31
0.0
  0
LINE
  5
697
330
1D
100
AcDbEntity
  8
0
100
AcDbLine
 10
168.023
 20
101.049
 30
0.0
 11
165.903
 21
98.4798
 31
0.0
  0
LINE
  5
698
330
1D
100
AcDbEntity
  8
0
100
AcDbLine
 10
160.981
 20
94.0031
 30
0.0
 11
158.223
 21
92.1356
 31
0.0
  0
LINE
  5
699
330
1D
100
AcDbEntity
  8
0
100
AcDbLine
 10
163.548
 20
96.1242
 30
0.0
 11
160.981
 21
94.0031
 31
0.0
  0
LINE
  5
69A
330
1D
100
AcDbEntity
  8
0
100
AcDbLine
 10
165.903
 20
98.4798
 30
0.0
 11
163.548
 21
96.1242
 31
0.0
  0
LINE
  5
69B
330
1D
100
AcDbEntity
  8
0
100
AcDbLine
 10
154.5
 20
83.5882
 30
0.0
 11
154.5
 21
88.3917
 31
0.0
  0
LINE
  5
69C
330
1D
100
AcDbEntity
  8
0
100
AcDbLine
 10
154.5
 20
83.5882
 30
0.0
 11
154.5
 21
78.7154
 31
0.0
  0
LINE
  5
69D
330
1D
100
AcDbEntity
  8
0
100
AcDbLine
 10
154.5
 20
88.3917
 30
0.0
 11
154.5
 21
83.5882
 31
0.0
  0
LINE
  5
69E
330
1D
100
AcDbEntity
  8
0
100
AcDbLine
 10
154.5
 20
88.3917
 30
0.0
 11
154.5
 21
93.0675
 31
0.0
  0
LINE
  5
69F
330
1D
100
AcDbEntity
  8
0
100
AcDbLine
 10
154.5
 20
78.7154
 30
0.0
 11
154.5
 21
73.8362
 31
0.0
  0
LINE
  5
6A0
330
1D
100
AcDbEntity
  8
0
100
AcDbLine
 10
154.5
 20
78.7154
 30
0.0
 11
154.5
 21
83.5882
 31
0.0
  0
LINE
  5
6A1
330
1D
100
AcDbEntity
  8
0
100
AcDbLine
 10
154.5
 20
73.8362
 30
0.0
 11
154.5
 21
78.7154
 31
0.0
  0
LINE
  5
6A2
330
1D
100
AcDbEntity
  8
0
100
AcDbLine
 10
154.5
 20
93.0675
 30
0.0
 11
154.5
 21
97.5573
 31
0.0
  0
LINE
  5
6A3
330
1D
100
AcDbEntity
  8
0
100
AcDbLine
 10
154.5
 20
93.0675
 30
0.0
 11
154.5
 21
88.3917
 31
0.0
  0
LINE
  5
6A4
330
1D
100
AcDbEntity
  8
0
100
AcDbLine
 10
154.5
 20
97.5573
 30
0.0
 11
154.5
 21
93.0675
 31
0.0
  0
LINE
  5
6A5
330
1D
100
AcDbEntity
  8
0
100
AcDbLine
 10
154.5
 20
97.5573
 30
0.0
 11
154.5
 21
101.806
 31
0.0
  0
LINE
  5
6A6
330
1D
100
AcDbEntity
  8
0
100
AcDbLine
 10
154.5
 20
101.806
 30
0.0
 11
154.5
 21
97.5573
 31
0.0
  0
LINE
  5
6A7
330
1D
100
AcDbEntity
  8
0
100
AcDbLine
 10
156.212
 20
104.322
 30
0.0
 11
154.5
 21
102.933994669036
 31
0.0
  0
LINE
  5
6A8
330
1D
100
AcDbEntity
  8
0
100
AcDbLine
 10
155.3
 20
90.5391
 30
0.0
 11
154.5
 21
90.196291378184
 31
0.0
  0
LINE
  5
6A9
330
1D
100
AcDbEntity
  8
0
100
AcDbLine
 10
155.3
 20
90.5391
 30
0.0
 11
156.20773234326
 21
91.035059851476
 31
0.0
  0
LINE
  5
6AA
330
1D
100
AcDbEntity
  8
0
100
AcDbLine
 10
163.997
 20
122.418
 30
0.0
 11
163.773
 21
125.308
 31
0.0
  0
LINE
  5
6AB
330
1D
100
AcDbEntity
  8
0
100
AcDbLine
 10
174.9899
 20
122.858
 30
0.0
 11
174.9117
 21
119.528
 31
0.0
  0
LINE
  5
6AC
330
1D
100
AcDbEntity
  8
0
100
AcDbLine
 10
159.976
 20
108.716
 30
0.0
 11
158.227
 21
106.405
 31
0.0
  0
LINE
  5
6AD
330
1D
100
AcDbEntity
  8
0
100
AcDbLine
 10
161.434
 20
111.221
 30
0.0
 11
159.976
 21
108.716
 31
0.0
  0
LINE
  5
6AE
330
1D
100
AcDbEntity
  8
0
100
AcDbLine
 10
172.7955
 20
109.793
 30
0.0
 11
171.4853
 21
106.731
 31
0.0
  0
LINE
  5
6AF
330
1D
100
AcDbEntity
  8
0
100
AcDbLine
 10
174.595699999995
 20
116.882399999959
 30
0.0
 11
174.5169
 21
116.221
 31
0.0
  0
LINE
  5
6B0
330
1D
100
AcDbEntity
  8
0
100
AcDbLine
 10
174.9117
 20
119.528
 30
0.0
 11
174.5167
 21
116.221
 31
0.0
  0
LINE
  5
6B1
330
1D
100
AcDbEntity
  8
0
100
AcDbLine
 10
162.579
 20
113.883
 30
0.0
 11
161.434
 21
111.221
 31
0.0
  0
LINE
  5
6B2
330
1D
100
AcDbEntity
  8
0
100
AcDbLine
 10
173.543746798912
 20
112.136532010802
 30
0.0
 11
172.7955
 21
109.793
 31
0.0
  0
LINE
  5
6B3
330
1D
100
AcDbEntity
  8
0
100
AcDbLine
 10
173.543746798912
 20
112.136532010802
 30
0.0
 11
172.7955
 21
109.793
 31
0.0
  0
LINE
  5
6B4
330
1D
100
AcDbEntity
  8
0
100
AcDbLine
 10
163.395
 20
116.664
 30
0.0
 11
162.579
 21
113.883
 31
0.0
  0
LINE
  5
6B5
330
1D
100
AcDbEntity
  8
0
100
AcDbLine
 10
163.87
 20
119.523
 30
0.0
 11
163.395
 21
116.664
 31
0.0
  0
LINE
  5
6B6
330
1D
100
AcDbEntity
  8
0
100
AcDbLine
 10
163.997
 20
122.418
 30
0.0
 11
163.87
 21
119.523
 31
0.0
  0
LINE
  5
6B7
330
1D
100
AcDbEntity
  8
0
100
AcDbLine
 10
174.5169
 20
116.221
 30
0.0
 11
174.070888774936
 21
114.171112250905
 31
0.0
  0
LINE
  5
6B8
330
1D
100
AcDbEntity
  8
0
100
AcDbLine
 10
174.5169
 20
116.221
 30
0.0
 11
174.070888774936
 21
114.171112250905
 31
0.0
  0
LINE
  5
6B9
330
1D
100
AcDbEntity
  8
0
100
AcDbLine
 10
174.595699999995
 20
116.882399999959
 30
0.0
 11
174.5169
 21
116.221
 31
0.0
  0
LINE
  5
6BA
330
1D
100
AcDbEntity
  8
0
100
AcDbLine
 10
173.543746798912
 20
112.136532010802
 30
0.0
 11
174.070888774936
 21
114.171112250905
 31
0.0
  0
LINE
  5
6BB
330
1D
100
AcDbEntity
  8
0
100
AcDbLine
 10
174.7513
 20
126.18
 30
0.0
 11
174.1989
 21
129.465
 31
0.0
  0
LINE
  5
6BC
330
1D
100
AcDbEntity
  8
0
100
AcDbLine
 10
163.773
 20
125.308
 30
0.0
 11
163.203
 21
128.149
 31
0.0
  0
LINE
  5
6BD
330
1D
100
AcDbEntity
  8
0
100
AcDbLine
 10
163.203
 20
128.149
 30
0.0
 11
162.296
 21
130.902
 31
0.0
  0
LINE
  5
6BE
330
1D
100
AcDbEntity
  8
0
100
AcDbLine
 10
162.296
 20
130.902
 30
0.0
 11
161.062
 21
133.524
 31
0.0
  0
LINE
  5
6BF
330
1D
100
AcDbEntity
  8
0
100
AcDbLine
 10
174.1989
 20
129.465
 30
0.0
 11
173.3356
 21
132.682
 31
0.0
  0
LINE
  5
6C0
330
1D
100
AcDbEntity
  8
0
100
AcDbLine
 10
172.1716
 20
135.802
 30
0.0
 11
170.7158
 21
138.798
 31
0.0
  0
LINE
  5
6C1
330
1D
100
AcDbEntity
  8
0
100
AcDbLine
 10
161.062
 20
133.524
 30
0.0
 11
159.521
 21
135.98
 31
0.0
  0
LINE
  5
6C2
330
1D
100
AcDbEntity
  8
0
100
AcDbLine
 10
159.521
 20
135.98
 30
0.0
 11
157.696
 21
138.231
 31
0.0
  0
LINE
  5
6C3
330
1D
100
AcDbEntity
  8
0
100
AcDbLine
 10
173.3356
 20
132.682
 30
0.0
 11
172.1716
 21
135.802
 31
0.0
  0
LINE
  5
6C4
330
1D
100
AcDbEntity
  8
0
100
AcDbLine
 10
174.9899
 20
122.858
 30
0.0
 11
174.7513
 21
126.18
 31
0.0
  0
LINE
  5
6C5
330
1D
100
AcDbEntity
  8
0
100
AcDbLine
 10
154.5
 20
122.018
 30
0.0
 11
154.136
 21
125.245
 31
0.0
  0
LINE
  5
6C6
330
1D
100
AcDbEntity
  8
0
100
AcDbLine
 10
154.5
 20
105.763
 30
0.0
 11
154.5
 21
109.376
 31
0.0
  0
LINE
  5
6C7
330
1D
100
AcDbEntity
  8
0
100
AcDbLine
 10
154.5
 20
109.376
 30
0.0
 11
154.5
 21
105.763
 31
0.0
  0
LINE
  5
6C8
330
1D
100
AcDbEntity
  8
0
100
AcDbLine
 10
154.5
 20
109.376
 30
0.0
 11
154.5
 21
112.605
 31
0.0
  0
LINE
  5
6C9
330
1D
100
AcDbEntity
  8
0
100
AcDbLine
 10
154.5
 20
112.605
 30
0.0
 11
154.5
 21
109.376
 31
0.0
  0
LINE
  5
6CA
330
1D
100
AcDbEntity
  8
0
100
AcDbLine
 10
154.5
 20
112.605
 30
0.0
 11
154.5
 21
115.406
 31
0.0
  0
LINE
  5
6CB
330
1D
100
AcDbEntity
  8
0
100
AcDbLine
 10
154.5
 20
115.406
 30
0.0
 11
154.5
 21
112.605
 31
0.0
  0
LINE
  5
6CC
330
1D
100
AcDbEntity
  8
0
100
AcDbLine
 10
154.5
 20
115.406
 30
0.0
 11
154.5
 21
117.747
 31
0.0
  0
LINE
  5
6CD
330
1D
100
AcDbEntity
  8
0
100
AcDbLine
 10
154.5
 20
117.747
 30
0.0
 11
154.5
 21
115.406
 31
0.0
  0
LINE
  5
6CE
330
1D
100
AcDbEntity
  8
0
100
AcDbLine
 10
154.5
 20
117.747
 30
0.0
 11
154.5
 21
119.598
 31
0.0
  0
LINE
  5
6CF
330
1D
100
AcDbEntity
  8
0
100
AcDbLine
 10
154.5
 20
119.598
 30
0.0
 11
154.5
 21
120.936
 31
0.0
  0
LINE
  5
6D0
330
1D
100
AcDbEntity
  8
0
100
AcDbLine
 10
154.5
 20
119.598
 30
0.0
 11
154.5
 21
117.747
 31
0.0
  0
LINE
  5
6D1
330
1D
100
AcDbEntity
  8
0
100
AcDbLine
 10
154.5
 20
120.936
 30
0.0
 11
154.5
 21
119.598
 31
0.0
  0
LINE
  5
6D2
330
1D
100
AcDbEntity
  8
0
100
AcDbLine
 10
154.5
 20
120.936
 30
0.0
 11
154.5
 21
121.747
 31
0.0
  0
LINE
  5
6D3
330
1D
100
AcDbEntity
  8
0
100
AcDbLine
 10
154.5
 20
121.747
 30
0.0
 11
154.5
 21
120.936
 31
0.0
  0
LINE
  5
6D4
330
1D
100
AcDbEntity
  8
0
100
AcDbLine
 10
154.5
 20
121.747
 30
0.0
 11
154.5
 21
122.018
 31
0.0
  0
LINE
  5
6D5
330
1D
100
AcDbEntity
  8
0
100
AcDbLine
 10
154.5
 20
122.018
 30
0.0
 11
154.484663557214
 21
121.882078669154
 31
0.0
  0
LINE
  5
6D6
330
1D
100
AcDbEntity
  8
0
100
AcDbLine
 10
154.5
 20
122.018
 30
0.0
 11
154.5
 21
121.747
 31
0.0
  0
LINE
  5
6D7
330
1D
100
AcDbEntity
  8
0
100
AcDbLine
 10
154.136
 20
125.245
 30
0.0
 11
153.064
 21
128.309
 31
0.0
  0
LINE
  5
6D8
330
1D
100
AcDbEntity
  8
0
100
AcDbLine
 10
153.064
 20
128.309
 30
0.0
 11
151.336
 21
131.059
 31
0.0
  0
LINE
  5
6D9
330
1D
100
AcDbEntity
  8
0
100
AcDbLine
 10
151.336
 20
131.059
 30
0.0
 11
149.041
 21
133.355
 31
0.0
  0
LINE
  5
6DA
330
1D
100
AcDbEntity
  8
0
100
AcDbLine
 10
149.041
 20
133.355
 30
0.0
 11
146.291000000059
 21
135.081999999963
 31
0.0
  0
LINE
  5
6DB
330
1D
100
AcDbEntity
  8
0
100
AcDbLine
 10
149.041
 20
133.355
 30
0.0
 11
146.291000000059
 21
135.081999999963
 31
0.0
  0
LINE
  5
6DC
330
1D
100
AcDbEntity
  8
0
100
AcDbLine
 10
146.291
 20
135.082
 30
0.0
 11
143.226
 21
136.154
 31
0.0
  0
LINE
  5
6DD
330
1D
100
AcDbEntity
  8
0
100
AcDbLine
 10
246.4441
 20
151.806
 30
0.0
 11
243.6288
 21
151.334
 31
0.0
  0
LINE
  5
6DE
330
1D
100
AcDbEntity
  8
0
100
AcDbLine
 10
247.0825
 20
142.915
 30
0.0
 11
244.2775
 21
142.849
 31
0.0
  0
LINE
  5
6DF
330
1D
100
AcDbEntity
  8
0
100
AcDbLine
 10
263.114
 20
149.0
 30
0.0
 11
260.49
 21
150.125
 31
0.0
  0
LINE
  5
6E0
330
1D
100
AcDbEntity
  8
0
100
AcDbLine
 10
263.19
 20
142.037
 30
0.0
 11
262.369
 21
142.232
 31
0.0
  0
LINE
  5
6E1
330
1D
100
AcDbEntity
  8
0
100
AcDbLine
 10
274.02
 20
139.992
 30
0.0
 11
272.203
 21
142.194
 31
0.0
  0
LINE
  5
6E2
330
1D
100
AcDbEntity
  8
0
100
AcDbLine
 10
274.02
 20
139.992
 30
0.0
 11
272.203
 21
142.194
 31
0.0
  0
LINE
  5
6E3
330
1D
100
AcDbEntity
  8
0
100
AcDbLine
 10
265.387
 20
141.23
 30
0.0
 11
264.699
 21
141.538
 31
0.0
  0
LINE
  5
6E4
330
1D
100
AcDbEntity
  8
0
100
AcDbLine
 10
266.034
 20
140.879
 30
0.0
 11
265.387
 21
141.23
 31
0.0
  0
LINE
  5
6E5
330
1D
100
AcDbEntity
  8
0
100
AcDbLine
 10
266.64
 20
140.484
 30
0.0
 11
266.034
 21
140.879
 31
0.0
  0
LINE
  5
6E6
330
1D
100
AcDbEntity
  8
0
100
AcDbLine
 10
264.699
 20
141.538
 30
0.0
 11
263.973
 21
141.804
 31
0.0
  0
LINE
  5
6E7
330
1D
100
AcDbEntity
  8
0
100
AcDbLine
 10
267.203
 20
140.041
 30
0.0
 11
266.64
 21
140.484
 31
0.0
  0
LINE
  5
6E8
330
1D
100
AcDbEntity
  8
0
100
AcDbLine
 10
263.973
 20
141.804
 30
0.0
 11
263.19
 21
142.037
 31
0.0
  0
LINE
  5
6E9
330
1D
100
AcDbEntity
  8
0
100
AcDbLine
 10
267.983
 20
146.031
 30
0.0
 11
265.619
 21
147.631
 31
0.0
  0
LINE
  5
6EA
330
1D
100
AcDbEntity
  8
0
100
AcDbLine
 10
265.619
 20
147.631
 30
0.0
 11
263.114
 21
149.0
 31
0.0
  0
LINE
  5
6EB
330
1D
100
AcDbEntity
  8
0
100
AcDbLine
 10
267.983
 20
146.031
 30
0.0
 11
265.619
 21
147.631
 31
0.0
  0
LINE
  5
6EC
330
1D
100
AcDbEntity
  8
0
100
AcDbLine
 10
270.184
 20
144.213
 30
0.0
 11
267.983
 21
146.031
 31
0.0
  0
LINE
  5
6ED
330
1D
100
AcDbEntity
  8
0
100
AcDbLine
 10
272.203
 20
142.194
 30
0.0
 11
270.184
 21
144.213
 31
0.0
  0
LINE
  5
6EE
330
1D
100
AcDbEntity
  8
0
100
AcDbLine
 10
259.533
 20
142.638
 30
0.0
 11
258.403
 21
142.724
 31
0.0
  0
LINE
  5
6EF
330
1D
100
AcDbEntity
  8
0
100
AcDbLine
 10
260.613
 20
142.522
 30
0.0
 11
259.533
 21
142.638
 31
0.0
  0
LINE
  5
6F0
330
1D
100
AcDbEntity
  8
0
100
AcDbLine
 10
261.509
 20
142.393
 30
0.0
 11
260.613
 21
142.522
 31
0.0
  0
LINE
  5
6F1
330
1D
100
AcDbEntity
  8
0
100
AcDbLine
 10
258.403
 20
142.724
 30
0.0
 11
255.926
 21
142.836
 31
0.0
  0
LINE
  5
6F2
330
1D
100
AcDbEntity
  8
0
100
AcDbLine
 10
255.722
 20
142.842
 30
0.0
 11
252.835
 21
142.909
 31
0.0
  0
LINE
  5
6F3
330
1D
100
AcDbEntity
  8
0
100
AcDbLine
 10
252.835
 20
142.909
 30
0.0
 11
250.004
 21
142.934
 31
0.0
  0
LINE
  5
6F4
330
1D
100
AcDbEntity
  8
0
100
AcDbLine
 10
255.926
 20
142.836
 30
0.0
 11
255.722
 21
142.842
 31
0.0
  0
LINE
  5
6F5
330
1D
100
AcDbEntity
  8
0
100
AcDbLine
 10
260.49
 20
150.125
 30
0.0
 11
257.771
 21
150.994
 31
0.0
  0
LINE
  5
6F6
330
1D
100
AcDbEntity
  8
0
100
AcDbLine
 10
252.146
 20
151.941
 30
0.0
 11
249.2921
 21
152.01
 31
0.0
  0
LINE
  5
6F7
330
1D
100
AcDbEntity
  8
0
100
AcDbLine
 10
254.981
 20
151.601
 30
0.0
 11
252.146
 21
151.941
 31
0.0
  0
LINE
  5
6F8
330
1D
100
AcDbEntity
  8
0
100
AcDbLine
 10
257.771
 20
150.994
 30
0.0
 11
254.981
 21
151.601
 31
0.0
  0
LINE
  5
6F9
330
1D
100
AcDbEntity
  8
0
100
AcDbLine
 10
249.292
 20
152.01
 30
0.0
 11
246.4441
 21
151.806
 31
0.0
  0
LINE
  5
6FA
330
1D
100
AcDbEntity
  8
0
100
AcDbLine
 10
250.004
 20
142.934
 30
0.0
 11
247.0825
 21
142.915
 31
0.0
  0
LINE
  5
6FB
330
1D
100
AcDbEntity
  8
0
100
AcDbLine
 10
262.369
 20
142.232
 30
0.0
 11
261.509
 21
142.393
 31
0.0
  0
LINE
  5
6FC
330
1D
100
AcDbEntity
  8
0
100
AcDbLine
 10
228.7909
 20
143.236
 30
0.0
 11
226.8702
 21
141.123
 31
0.0
  0
LINE
  5
6FD
330
1D
100
AcDbEntity
  8
0
100
AcDbLine
 10
238.1959
 20
149.599
 30
0.0
 11
235.6281
 21
148.351
 31
0.0
  0
LINE
  5
6FE
330
1D
100
AcDbEntity
  8
0
100
AcDbLine
 10
236.363
 20
141.915
 30
0.0
 11
235.6004
 21
141.658
 31
0.0
  0
LINE
  5
6FF
330
1D
100
AcDbEntity
  8
0
100
AcDbLine
 10
244.0815
 20
142.843
 30
0.0
 11
242.9716
 21
142.802
 31
0.0
  0
LINE
  5
700
330
1D
100
AcDbEntity
  8
0
100
AcDbLine
 10
244.2775
 20
142.849
 30
0.0
 11
244.0815
 21
142.843
 31
0.0
  0
LINE
  5
701
330
1D
100
AcDbEntity
  8
0
100
AcDbLine
 10
243.6288
 20
151.334
 30
0.0
 11
240.8711
 21
150.595
 31
0.0
  0
LINE
  5
702
330
1D
100
AcDbEntity
  8
0
100
AcDbLine
 10
237.1833
 20
142.136
 30
0.0
 11
236.363
 21
141.915
 31
0.0
  0
LINE
  5
703
330
1D
100
AcDbEntity
  8
0
100
AcDbLine
 10
238.044
 20
142.319
 30
0.0
 11
237.1833
 21
142.136
 31
0.0
  0
LINE
  5
704
330
1D
100
AcDbEntity
  8
0
100
AcDbLine
 10
238.9439
 20
142.468
 30
0.0
 11
238.044
 21
142.319
 31
0.0
  0
LINE
  5
705
330
1D
100
AcDbEntity
  8
0
100
AcDbLine
 10
241.3824
 20
142.716
 30
0.0
 11
239.8833
 21
142.586
 31
0.0
  0
LINE
  5
706
330
1D
100
AcDbEntity
  8
0
100
AcDbLine
 10
240.8711
 20
150.595
 30
0.0
 11
238.1959
 21
149.599
 31
0.0
  0
LINE
  5
707
330
1D
100
AcDbEntity
  8
0
100
AcDbLine
 10
239.8833
 20
142.586
 30
0.0
 11
238.9439
 21
142.468
 31
0.0
  0
LINE
  5
708
330
1D
100
AcDbEntity
  8
0
100
AcDbLine
 10
242.9716
 20
142.802
 30
0.0
 11
241.3824
 21
142.716
 31
0.0
  0
LINE
  5
709
330
1D
100
AcDbEntity
  8
0
100
AcDbLine
 10
234.1977
 20
141.015
 30
0.0
 11
233.5605
 21
140.624
 31
0.0
  0
LINE
  5
70A
330
1D
100
AcDbEntity
  8
0
100
AcDbLine
 10
234.8782
 20
141.359
 30
0.0
 11
234.1977
 21
141.015
 31
0.0
  0
LINE
  5
70B
330
1D
100
AcDbEntity
  8
0
100
AcDbLine
 10
233.5605
 20
140.624
 30
0.0
 11
232.9826
 21
140.197
 31
0.0
  0
LINE
  5
70C
330
1D
100
AcDbEntity
  8
0
100
AcDbLine
 10
235.6004
 20
141.658
 30
0.0
 11
234.8782
 21
141.359
 31
0.0
  0
LINE
  5
70D
330
1D
100
AcDbEntity
  8
0
100
AcDbLine
 10
230.904099999998
 20
145.154999999999
 30
0.0
 11
228.7907
 21
143.236
 31
0.0
  0
LINE
  5
70E
330
1D
100
AcDbEntity
  8
0
100
AcDbLine
 10
228.7907
 20
143.236
 30
0.0
 11
228.022619999988
 21
142.390799999987
 31
0.0
  0
LINE
  5
70F
330
1D
100
AcDbEntity
  8
0
100
AcDbLine
 10
228.7907
 20
143.236
 30
0.0
 11
228.022619999988
 21
142.390799999987
 31
0.0
  0
LINE
  5
710
330
1D
100
AcDbEntity
  8
0
100
AcDbLine
 10
230.9041
 20
145.155
 30
0.0
 11
228.7907
 21
143.236
 31
0.0
  0
LINE
  5
711
330
1D
100
AcDbEntity
  8
0
100
AcDbLine
 10
233.1896
 20
146.866
 30
0.0
 11
230.9041
 21
145.155
 31
0.0
  0
LINE
  5
712
330
1D
100
AcDbEntity
  8
0
100
AcDbLine
 10
235.6279
 20
148.351
 30
0.0
 11
233.1896
 21
146.866
 31
0.0
  0
LINE
  5
713
330
1D
100
AcDbEntity
  8
0
100
AcDbLine
 10
235.836906429747
 20
148.452483925666
 30
0.0
 11
235.6279
 21
148.351
 31
0.0
  0
LINE
  5
714
330
1D
100
AcDbEntity
  8
0
100
AcDbLine
 10
235.836906429747
 20
148.452483925666
 30
0.0
 11
235.6279
 21
148.351
 31
0.0
  0
LINE
  5
715
330
1D
100
AcDbEntity
  8
0
100
AcDbLine
 10
159.612
 20
151.007
 30
0.0
 11
156.768
 21
152.74
 31
0.0
  0
LINE
  5
716
330
1D
100
AcDbEntity
  8
0
100
AcDbLine
 10
159.612
 20
151.007
 30
0.0
 11
156.768
 21
152.74
 31
0.0
  0
LINE
  5
717
330
1D
100
AcDbEntity
  8
0
100
AcDbLine
 10
168.981
 20
141.642
 30
0.0
 11
166.985
 21
144.307
 31
0.0
  0
LINE
  5
718
330
1D
100
AcDbEntity
  8
0
100
AcDbLine
 10
164.744
 20
146.772
 30
0.0
 11
162.279
 21
149.011
 31
0.0
  0
LINE
  5
719
330
1D
100
AcDbEntity
  8
0
100
AcDbLine
 10
162.279
 20
149.011
 30
0.0
 11
159.612
 21
151.007
 31
0.0
  0
LINE
  5
71A
330
1D
100
AcDbEntity
  8
0
100
AcDbLine
 10
166.985
 20
144.307
 30
0.0
 11
164.744
 21
146.772
 31
0.0
  0
LINE
  5
71B
330
1D
100
AcDbEntity
  8
0
100
AcDbLine
 10
150.797
 20
143.452
 30
0.0
 11
148.135
 21
144.597
 31
0.0
  0
LINE
  5
71C
330
1D
100
AcDbEntity
  8
0
100
AcDbLine
 10
150.65
 20
155.358
 30
0.0
 11
147.433
 21
156.22
 31
0.0
  0
LINE
  5
71D
330
1D
100
AcDbEntity
  8
0
100
AcDbLine
 10
153.302
 20
141.995
 30
0.0
 11
150.797
 21
143.452
 31
0.0
  0
LINE
  5
71E
330
1D
100
AcDbEntity
  8
0
100
AcDbLine
 10
155.613
 20
140.246
 30
0.0
 11
153.302
 21
141.995
 31
0.0
  0
LINE
  5
71F
330
1D
100
AcDbEntity
  8
0
100
AcDbLine
 10
156.768
 20
152.74
 30
0.0
 11
153.771
 21
154.195
 31
0.0
  0
LINE
  5
720
330
1D
100
AcDbEntity
  8
0
100
AcDbLine
 10
153.771
 20
154.195
 30
0.0
 11
150.65
 21
155.358
 31
0.0
  0
LINE
  5
721
330
1D
100
AcDbEntity
  8
0
100
AcDbLine
 10
148.135
 20
144.597
 30
0.0
 11
145.354
 21
145.413
 31
0.0
  0
LINE
  5
722
330
1D
100
AcDbEntity
  8
0
100
AcDbLine
 10
142.936
 20
145.838
 30
0.0
 11
142.656
 21
145.87
 31
0.0
  0
LINE
  5
723
330
1D
100
AcDbEntity
  8
0
100
AcDbLine
 10
142.495
 20
145.889
 30
0.0
 11
142.173
 21
145.919
 31
0.0
  0
LINE
  5
724
330
1D
100
AcDbEntity
  8
0
100
AcDbLine
 10
142.081
 20
145.928
 30
0.0
 11
141.79868361582
 21
145.948802259887
 31
0.0
  0
LINE
  5
725
330
1D
100
AcDbEntity
  8
0
100
AcDbLine
 10
141.545
 20
145.969
 30
0.0
 11
140.805
 21
146.004
 31
0.0
  0
LINE
  5
726
330
1D
100
AcDbEntity
  8
0
100
AcDbLine
 10
142.656
 20
145.87
 30
0.0
 11
142.495
 21
145.889
 31
0.0
  0
LINE
  5
727
330
1D
100
AcDbEntity
  8
0
100
AcDbLine
 10
144.149
 20
156.771
 30
0.0
 11
140.826
 21
157.008
 31
0.0
  0
LINE
  5
728
330
1D
100
AcDbEntity
  8
0
100
AcDbLine
 10
147.433
 20
156.22
 30
0.0
 11
144.149
 21
156.771
 31
0.0
  0
LINE
  5
729
330
1D
100
AcDbEntity
  8
0
100
AcDbLine
 10
145.354
 20
145.413
 30
0.0
 11
142.936
 21
145.838
 31
0.0
  0
LINE
  5
72A
330
1D
100
AcDbEntity
  8
0
100
AcDbLine
 10
141.79868361582
 20
145.948802259887
 30
0.0
 11
141.545
 21
145.969
 31
0.0
  0
LINE
  5
72B
330
1D
100
AcDbEntity
  8
0
100
AcDbLine
 10
142.173
 20
145.919
 30
0.0
 11
142.081
 21
145.928
 31
0.0
  0
ENDSEC
  0
SECTION
  2
OBJECTS
  0
DICTIONARY
  5
C
330
0
100
AcDbDictionary
281
     1
  3
ACAD_GROUP
350
D
  3
ACAD_LAYOUT
350
1A
  3
ACAD_MLEADERSTYLE
350
72E
  3
ACAD_MLINESTYLE
350
17
  3
ACAD_PLOTSETTINGS
350
19
  3
ACAD_PLOTSTYLENAME
350
E
  3
ACAD_SCALELIST
350
4D7
  3
AcDbVariableDictionary
350
72C
  3
DWGPROPS
350
733
  0
DICTIONARY
  5
D
102
{ACAD_REACTORS
330
C
102
}
330
C
100
AcDbDictionary
281
     1
  0
DICTIONARY
  5
1A
102
{ACAD_REACTORS
330
C
102
}
330
C
100
AcDbDictionary
281
     1
  3
Layout1
350
1C
  3
Model
350
1E
  0
DICTIONARY
  5
72E
102
{ACAD_REACTORS
330
C
102
}
330
C
100
AcDbDictionary
281
     1
  0
DICTIONARY
  5
17
102
{ACAD_REACTORS
330
C
102
}
330
C
100
AcDbDictionary
281
     1
  3
Standard
350
18
  0
DICTIONARY
  5
19
102
{ACAD_REACTORS
330
C
102
}
330
C
100
AcDbDictionary
281
     1
  0
ACDBDICTIONARYWDFLT
  5
E
102
{ACAD_REACTORS
330
C
102
}
330
C
100
AcDbDictionary
281
     1
  3
Normal
350
F
100
AcDbDictionaryWithDefault
340
F
  0
DICTIONARY
  5
4D7
102
{ACAD_REACTORS
330
C
102
}
330
C
100
AcDbDictionary
281
     1
  3
A0
350
4D8
  3
A1
350
4D9
  3
A2
350
4DA
  3
A3
350
4DB
  3
A4
350
4DC
  3
A5
350
4DD
  3
A6
350
4DE
  3
A7
350
4DF
  3
A8
350
4E0
  3
A9
350
4E1
  3
B0
350
4E2
  3
B1
350
4E3
  3
B2
350
4E4
  3
B3
350
4E5
  3
B4
350
4E6
  3
B5
350
4E7
  3
B6
350
4E8
  3
B7
350
4E9
  3
B8
350
4EA
  3
B9
350
4EB
  3
C0
350
4EC
  3
C1
350
4ED
  3
C2
350
4EE
  3
C3
350
4EF
  3
C4
350
4F0
  3
C5
350
4F1
  3
C6
350
4F2
  3
C7
350
4F3
  3
C8
350
4F4
  3
C9
350
4F5
  3
D0
350
4F6
  3
D1
350
4F7
  3
D2
350
4F8
  0
DICTIONARY
  5
72C
102
{ACAD_REACTORS
330
C
102
}
330
C
100
AcDbDictionary
281
     1
  3
CANNOSCALE
350
72F
  0
XRECORD
  5
733
102
{ACAD_REACTORS
330
C
102
}
330
C
100
AcDbXrecord
280
     1
  1
DWGPROPS COOKIE
  2

  3

  4

  6

  7

  8
MARTIN
  9

300
=
301
=
302
=
303
=
304
=
305
=
306
=
307
=
308
=
309
=
 40
0.0
 41
2456646.5295864
 42
2456646.550546146
  1

 90
        0
  0
LAYOUT
  5
1C
102
{ACAD_REACTORS
330
1A
102
}
330
1A
100
AcDbPlotSettings
  1

  2
none_device
  4

  6

 40
0.0
 41
0.0
 42
0.0
 43
0.0
 44
0.0
 45
0.0
 46
0.0
 47
0.0
 48
0.0
 49
0.0
140
0.0
141
0.0
142
1.0
143
1.0
 70
   688
 72
     0
 73
     0
 74
     5
  7

 75
    16
147
1.0
148
0.0
149
0.0
100
AcDbLayout
  1
Layout1
 70
     1
 71
     1
 10
0.0
 20
0.0
 11
12.0
 21
9.0
 12
0.0
 22
0.0
 32
0.0
 14
1.000000000000E+20
 24
1.000000000000E+20
 34
1.000000000000E+20
 15
-1.000000000000E+20
 25
-1.000000000000E+20
 35
-1.000000000000E+20
146
0.0
 13
0.0
 23
0.0
 33
0.0
 16
1.0
 26
0.0
 36
0.0
 17
0.0
 27
1.0
 37
0.0
 76
     0
330
1B
  0
LAYOUT
  5
1E
102
{ACAD_REACTORS
330
1A
102
}
330
1A
100
AcDbPlotSettings
  1

  2
none_device
  4

  6

 40
0.0
 41
0.0
 42
0.0
 43
0.0
 44
0.0
 45
0.0
 46
0.0
 47
0.0
 48
0.0
 49
0.0
140
0.0
141
0.0
142
1.0
143
1.0
 70
  1712
 72
     0
 73
     0
 74
     0
  7

 75
     0
147
1.0
148
0.0
149
0.0
100
AcDbLayout
  1
Model
 70
     1
 71
     0
 10
0.0
 20
0.0
 11
12.0
 21
9.0
 12
0.0
 22
0.0
 32
0.0
 14
0.009
 24
-0.008
 34
0.0
 15
279.991
 25
157.008
 35
0.0
146
0.0
 13
0.0
 23
0.0
 33
0.0
 16
1.0
 26
0.0
 36
0.0
 17
0.0
 27
1.0
 37
0.0
 76
     0
330
1D
331
4D2
  0
MLINESTYLE
  5
18
102
{ACAD_REACTORS
330
17
102
}
330
17
100
AcDbMlineStyle
  2
Standard
 70
     0
  3

 62
   256
 51
90.0
 52
90.0
 71
     2
 49
0.5
 62
   256
  6
BYLAYER
 49
-0.5
 62
   256
  6
BYLAYER
  0
ACDBPLACEHOLDER
  5
F
102
{ACAD_REACTORS
330
E
102
}
330
E
  0
SCALE
  5
4D8
102
{ACAD_REACTORS
330
4D7
102
}
330
4D7
100
AcDbScale
 70
     0
300
1:1
140
1.0
141
1.0
290
     1
  0
SCALE
  5
4D9
102
{ACAD_REACTORS
330
4D7
102
}
330
4D7
100
AcDbScale
 70
     0
300
1:2
140
1.0
141
2.0
290
     0
  0
SCALE
  5
4DA
102
{ACAD_REACTORS
330
4D7
102
}
330
4D7
100
AcDbScale
 70
     0
300
1:4
140
1.0
141
4.0
290
     0
  0
SCALE
  5
4DB
102
{ACAD_REACTORS
330
4D7
102
}
330
4D7
100
AcDbScale
 70
     0
300
1:5
140
1.0
141
5.0
290
     0
  0
SCALE
  5
4DC
102
{ACAD_REACTORS
330
4D7
102
}
330
4D7
100
AcDbScale
 70
     0
300
1:8
140
1.0
141
8.0
290
     0
  0
SCALE
  5
4DD
102
{ACAD_REACTORS
330
4D7
102
}
330
4D7
100
AcDbScale
 70
     0
300
1:10
140
1.0
141
10.0
290
     0
  0
SCALE
  5
4DE
102
{ACAD_REACTORS
330
4D7
102
}
330
4D7
100
AcDbScale
 70
     0
300
1:16
140
1.0
141
16.0
290
     0
  0
SCALE
  5
4DF
102
{ACAD_REACTORS
330
4D7
102
}
330
4D7
100
AcDbScale
 70
     0
300
1:20
140
1.0
141
20.0
290
     0
  0
SCALE
  5
4E0
102
{ACAD_REACTORS
330
4D7
102
}
330
4D7
100
AcDbScale
 70
     0
300
1:30
140
1.0
141
30.0
290
     0
  0
SCALE
  5
4E1
102
{ACAD_REACTORS
330
4D7
102
}
330
4D7
100
AcDbScale
 70
     0
300
1:40
140
1.0
141
40.0
290
     0
  0
SCALE
  5
4E2
102
{ACAD_REACTORS
330
4D7
102
}
330
4D7
100
AcDbScale
 70
     0
300
1:50
140
1.0
141
50.0
290
     0
  0
SCALE
  5
4E3
102
{ACAD_REACTORS
330
4D7
102
}
330
4D7
100
AcDbScale
 70
     0
300
1:100
140
1.0
141
100.0
290
     0
  0
SCALE
  5
4E4
102
{ACAD_REACTORS
330
4D7
102
}
330
4D7
100
AcDbScale
 70
     0
300
2:1
140
2.0
141
1.0
290
     0
  0
SCALE
  5
4E5
102
{ACAD_REACTORS
330
4D7
102
}
330
4D7
100
AcDbScale
 70
     0
300
4:1
140
4.0
141
1.0
290
     0
  0
SCALE
  5
4E6
102
{ACAD_REACTORS
330
4D7
102
}
330
4D7
100
AcDbScale
 70
     0
300
8:1
140
8.0
141
1.0
290
     0
  0
SCALE
  5
4E7
102
{ACAD_REACTORS
330
4D7
102
}
330
4D7
100
AcDbScale
 70
     0
300
10:1
140
10.0
141
1.0
290
     0
  0
SCALE
  5
4E8
102
{ACAD_REACTORS
330
4D7
102
}
330
4D7
100
AcDbScale
 70
     0
300
100:1
140
100.0
141
1.0
290
     0
  0
SCALE
  5
4E9
102
{ACAD_REACTORS
330
4D7
102
}
330
4D7
100
AcDbScale
 70
     0
300
1/128" = 1'-0"
140
0.0078125
141
12.0
290
     0
  0
SCALE
  5
4EA
102
{ACAD_REACTORS
330
4D7
102
}
330
4D7
100
AcDbScale
 70
     0
300
1/64" = 1'-0"
140
0.015625
141
12.0
290
     0
  0
SCALE
  5
4EB
102
{ACAD_REACTORS
330
4D7
102
}
330
4D7
100
AcDbScale
 70
     0
300
1/32" = 1'-0"
140
0.03125
141
12.0
290
     0
  0
SCALE
  5
4EC
102
{ACAD_REACTORS
330
4D7
102
}
330
4D7
100
AcDbScale
 70
     0
300
1/16" = 1'-0"
140
0.0625
141
12.0
290
     0
  0
SCALE
  5
4ED
102
{ACAD_REACTORS
330
4D7
102
}
330
4D7
100
AcDbScale
 70
     0
300
3/32" = 1'-0"
140
0.09375
141
12.0
290
     0
  0
SCALE
  5
4EE
102
{ACAD_REACTORS
330
4D7
102
}
330
4D7
100
AcDbScale
 70
     0
300
1/8" = 1'-0"
140
0.125
141
12.0
290
     0
  0
SCALE
  5
4EF
102
{ACAD_REACTORS
330
4D7
102
}
330
4D7
100
AcDbScale
 70
     0
300
3/16" = 1'-0"
140
0.1875
141
12.0
290
     0
  0
SCALE
  5
4F0
102
{ACAD_REACTORS
330
4D7
102
}
330
4D7
100
AcDbScale
 70
     0
300
1/4" = 1'-0"
140
0.25
141
12.0
290
     0
  0
SCALE
  5
4F1
102
{ACAD_REACTORS
330
4D7
102
}
330
4D7
100
AcDbScale
 70
     0
300
3/8" = 1'-0"
140
0.375
141
12.0
290
     0
  0
SCALE
  5
4F2
102
{ACAD_REACTORS
330
4D7
102
}
330
4D7
100
AcDbScale
 70
     0
300
1/2" = 1'-0"
140
0.5
141
12.0
290
     0
  0
SCALE
  5
4F3
102
{ACAD_REACTORS
330
4D7
102
}
330
4D7
100
AcDbScale
 70
     0
300
3/4" = 1'-0"
140
0.75
141
12.0
290
     0
  0
SCALE
  5
4F4
102
{ACAD_REACTORS
330
4D7
102
}
330
4D7
100
AcDbScale
 70
     0
300
1" = 1'-0"
140
1.0
141
12.0
290
     0
  0
SCALE
  5
4F5
102
{ACAD_REACTORS
330
4D7
102
}
330
4D7
100
AcDbScale
 70
     0
300
1-1/2" = 1'-0"
140
1.5
141
12.0
290
     0
  0
SCALE
  5
4F6
102
{ACAD_REACTORS
330
4D7
102
}
330
4D7
100
AcDbScale
 70
     0
300
3" = 1'-0"
140
3.0
141
12.0
290
     0
  0
SCALE
  5
4F7
102
{ACAD_REACTORS
330
4D7
102
}
330
4D7
100
AcDbScale
 70
     0
300
6" = 1'-0"
140
6.0
141
12.0
290
     0
  0
SCALE
  5
4F8
102
{ACAD_REACTORS
330
4D7
102
}
330
4D7
100
AcDbScale
 70
     0
300
1'-0" = 1'-0"
140
12.0
141
12.0
290
     0
  0
DICTIONARYVAR
  5
72F
102
{ACAD_REACTORS
330
72C
102
}
330
72C
100
DictionaryVariables
280
     0
  1
1:1
  0
ENDSEC
  0
SECTION
  2
THUMBNAILIMAGE
 90
    16364
310
28000000B40000005500000001000800000000000000000000000000000000000000000000000000FFFFFF000000FF0000FFFF0000FF0000FFFF0000FF000000FF00FF000000000080808000C0C0C0000000FF007F7FFF000000A5005252A50000007F003F3F7F0000004C0026264C000000260013132600003FFF007F9FFF
310
000029A5005267A500001F7F003F4F7F0000134C00262F4C000009260013172600007FFF007FBFFF000052A500527CA500003F7F003F5F7F0000264C0026394C0000132600131C260000BFFF007FDFFF00007CA5005291A500005F7F003F6F7F0000394C0026424C00001C26001321260000FFFF007FFFFF0000A5A50052A5
310
A500007F7F003F7F7F00004C4C00264C4C00002626001326260000FFBF007FFFDF0000A57C0052A59100007F5F003F7F6F00004C3900264C420000261C001326210000FF7F007FFFBF0000A5520052A57C00007F3F003F7F5F00004C2600264C39000026130013261C0000FF3F007FFF9F0000A5290052A56700007F1F003F
310
7F4F00004C1300264C2F00002609001326170000FF00007FFF7F0000A5000052A55200007F00003F7F3F00004C0000264C260000260000132613003FFF00009FFF7F0029A5000067A552001F7F00004F7F3F00134C00002F4C260009260000172613007FFF0000BFFF7F0052A500007CA552003F7F00005F7F3F00264C0000
310
394C2600132600001C261300BFFF0000DFFF7F007CA5000091A552005F7F00006F7F3F00394C0000424C26001C26000021261300FFFF0000FFFF7F00A5A50000A5A552007F7F00007F7F3F004C4C00004C4C26002626000026261300FFBF0000FFDF7F00A57C0000A59152007F5F00007F6F3F004C3900004C422600261C00
310
0026211300FF7F0000FFBF7F00A5520000A57C52007F3F00007F5F3F004C2600004C39260026130000261C1300FF3F0000FF9F7F00A5290000A56752007F1F00007F4F3F004C1300004C2F26002609000026171300FF000000FF7F7F00A5000000A55252007F0000007F3F3F004C0000004C2626002600000026131300FF00
310
3F00FF7F9F00A5002900A55267007F001F007F3F4F004C0013004C262F002600090026131700FF007F00FF7FBF00A5005200A5527C007F003F007F3F5F004C0026004C2639002600130026131C00FF00BF00FF7FDF00A5007C00A55291007F005F007F3F6F004C0039004C26420026001C0026132100FF00FF00FF7FFF00A5
310
00A500A552A5007F007F007F3F7F004C004C004C264C002600260026132600BF00FF00DF7FFF007C00A5009152A5005F007F006F3F7F0039004C0042264C001C002600211326007F00FF00BF7FFF005200A5007C52A5003F007F005F3F7F0026004C0039264C00130026001C1326003F00FF009F7FFF002900A5006752A500
310
1F007F004F3F7F0013004C002F264C000900260017132600000000002D2D2D005B5B5B0089898900B7B7B700B3B3B30000000000000000000000000000000000000000000000000000000000000000000000000000000000000000000000000000000000000000000000000000000000000000000000000000000000000000
310
00000000000000000000000000000000000000000000000000000000000000000000000000000000000000000000000000000000000000000000000000000000000000000000000000000000000000000000000000000000000000000000000000000000000000000000000000000000000000000000000000000000000000
310
00000000000000000000000000000000000000000000000000000000000000000000000000000000000000000000000000000000000000000000000000000707000707000000000000000000000000000000000000000000000000000000000000000000000000000000000000000000000000000000000000000000000000
310
00000000000000000000000000000000000000000000000000000000000000000000000000000000000000000000000000000000000000000000000000000000000000000000000000000000000000000000000000000000000000000000000000000000000000000000000000000000070707000000000007070700000000
310
00000000000000000000000000000000000000000000000000000000000000000000000000000000000000000000000000000000000000000000000000000000000000000000000000000000000000000000000000000000000000000000000000000000000000000000000000000000000000000000000000000000000000
310
00000000000000000000000000000000000000000000000000000000000000000000000000070700000000000000000007070000000000000000000000000000000000000000000000000000000000000000000000000000000000000000000000000000000000000000000000000000000000000000000000000000000000
310
00000000000000000000000000000000000000000000000000000000000000000000000000000000000000000000000000000000000000000000000000000000000000000000000000000000000000000000000000000000000707000000070700070700000007070000000000000000000000000000000000000000000000
310
00000000000000000000000000000000000000000000000000000000000000000000000000000000000000000000000000000000000000000000000000000000000000000000000000000000000000000000000000000000000000000000000000000000000000000000000000000000000000000000000000000000000000
310
00000000000000000000000000000007000000070000000000070000000700000000000000000000000000000000000000000000000000000000000000000000000000000000000000000000000000000000000000000000000000000000000000000000000000000000000000000000000000000000000000000000000000
310
00000000000000000000000000000000000000000000000000000000000000000000000000000000000000000000000000000000000000000000000000000000000000000707070700000000000000070707070000000000000000000000000000000000000000000000000000000000000000000000000000000000000000
310
00000000000000000000000000000000000000000000000000000000000000000000000000000000000000000000000000000000000000000000000000000000000000000000000000000000000000000000000000000000000000000000000000000000000000000000000000000000000000000000000000070000000000
310
00000000000000070700000000000000000000000000000000000000000000000000000000000000000000000000000000000000000000000000000000000000000000000000000000000000000000000000000000000000000000000000000000000000000000000000000000000000000000000000000000000000000000
310
00000000000000000000000000000000000000000000000000000000000000000000000000000000000000000000000700000000000000000000000000070000000000000000000000000000000000000000000000000000000000000000000000000000000000000000000000000000000000000000000000000000000000
310
00000000000000000000000000000000000000000000000000000000000000000000000000000000000000000000000000000000000000000000000000000000000000000000000000000000000000000000000000000000000000000000000000000000070000000000000000000000000007000000000000000000000000
310
00000000000000000000000000000000000000000000000000000000000000000000000000000000000000000000000000000000000000000000000000000000000000000000000000000000000000000000000000000000000000000000000000000000000000000000000000000000000000000000000000000000000000
310
00000000000000000000000000000000000000000000000000000700000000000000000000000000070000000000000000000000000000000000000000000000000000000000000000000000000000000000000000000000000000000000000000000000000000000000000000000000000000000000000000000000000000
310
00000000000000000000000000000000000000000000000000000000000000000000000000000000000000000000000000000000000000000000000000000000000000000000000000000000000000070000000000000000000000000007000000000000000000000000000000000000000000000000000000000000000000
310
00000000000000000000000000000000000000000000000000000000000000000000000000000000000000000000000000000000000000000000000000000000000000000000000000000000000000000000000000000000000000000000000000000000000000000000000000000000000000000000000000000000000000
310
00000000000700000000000000000000000000070000000000000000000000000000000000000000000000000000000000000000000000000000000000000000000000000000000000000000000000000000000000000000000000000000000000000000000000000000000000000000000000000000000000000000000000
310
00000000000000000000000000000000000000000000000000000000000000000000000000000000000000000000000000000000000000000000070000000000000000000000000007000000000000000000000000000000000000000000000000000000000000000000000000000000000000000000000000000000000000
310
00000000000000000000000000000000000000000000000000000000000000000000000000000000000000000000000000000000000000000000000000000000000000000000000000000000000000000000000000000000000000000000000000000000000000000000000000000007000000000000000000000000000700
310
00000000000000000000000000000000000000000000000000000000000000000000000000000000000000000000000000000000000000000000000000000000000000000000000000000000000000000000000000000000000000000000000000000000000000000000000000000000000000000000000000000000000000
310
00000000000000000000000000000000000000000000000000000000000000000000000000070000000000000000000000000007000000000000000000000000000000000000000000000000000000000000000000000000000000000000000000000000000000000000000000000000000000000000000000000000000000
310
00000000000000000000000000000000000000000000000000000000000000000000000000000000000000000000000000000000000000000000000000000000000000000000000000000000000000000000000000000000000007000000000000000000000000000700000000000000000000000000000000000000000000
310
00000000000000000000000000000000000000000000000000000000000000000000000000000000000000000000000000000000000000000000000000000000000000000000000000000000000000000000000000000000000000000000000000000000000000000000000000000000000000000000000000000000000000
310
00000000000000000000000000000000070000000000000000000000000007000000000000000000000000000000000000000000000000000000000000000000000000000000000000000000000000000000000000000000000000000000000000000000000000000000000000000000000000000000000000000000000000
310
00000000000000000000000000000000000000000000000000000000000000000000000000000000000000000000000000000000000000000000000000000000000000000007000000000000000000000000000700000000000000000000000000000000000000000000000000000000000000000000000000000000000000
310
00000000000000000000000000000000000000000000000000000000000000000000000000000000000000000000000000000000000000000000000000000000000000000000000000000000000000000000000000000000000000000000000000000000000000000000000000000000000000000000000000000700000000
310
00000000000000000007000000000000000000000000000000000000000000000000000000000000000000000000000000000000000000000000000000000000000000000000000000000000000000000000000000000000000000000000000000000000000000000000000000000000000000000000000000000000000000
310
00000000000000000000000000000000000000000000000000000000000000000000000000000000000000000000000007000000000000000000000000000700000000000000000000000000000000000000000000000000000000000000000000000000000000000000000000000000000000000000000000000000000000
310
00000000000000000000000000000000000000000000000000000000000000000000000000000000000000000000000000000000000000000000000000000000000000000000000000000000000000000000000000000000000000000000000000000000000700000000000000000000000000070000000000000000000000
310
00000000000000000000000000000000000000000000000000000000000000000000000000000000000000000000000000000000000000000000000000000000000000000000000000000000000000000000000000000000000000000000000000000000000000000000000000000000000000000000000000000000000000
310
00000000000000000000000000000000000000000000000000000007000000000000000000000000000700000000000000000000000000000000000000000000000000000000000000000000000000000000000000000000000000000000000000000000000000000000000000000000000000000000000000000000000000
310
00000000000000000000000000000000000000000000000000000000000000000000000000000000000000000000000000000000000000000000000000000000000000000000000000000000000000000700000000000000000000000000070000000000000000000000000000000000000000000000000000000000000000
310
00000000000000000000000000000000000000000000000000000000000000000000000000000000000000000000000000000000000000000000000000000000000000000000000000000000000000000000000000000000000000000000000000000000000000000000000000000000000000000000000000000000000000
310
00000000000007000000000000000000000000000700000000000000000000000000000000000000000000000000000000000000000000000000000000000000000000000000000000000000000000000000000000000000000000000000000000000000000000000000000000000000000000000000000000000000000000
310
00000000000000000000000000000000000000000000000000000000000000000000000000000000000000000000000000000000000000000000000700000000000000000000000000070000000000000000000000000000000000000000000000000000000000000000000000000000000000000000000000000000000000
310
00000000000000000000000000000000000000000000000000000000000000000000000000000000000000000000000000000000000000000000000000000000000000000000000000000000000000000000000000000000000000000000000000000000000000000000000000000000070000000000000000000000000007
310
00000000000000000000000000000000000000000000000000000000000000000000000000000000000000000000000000000000000000000000000000000000000000000000000000000000000000000000000000000000000000000000000000000000000000000000000000000000000000000000000000000000000000
310
00000000000000000000000000000000000000000000000000000000000000000000000000000700000000000000000000000000070000000000000000000000000000000000000000000000000000000000000000000000000000000000000000000000000000000000000000000000000000000000000000000000000000
310
00000000000000000000000000000000000000000000000000000000000000000000000000000000000000000000000000000000000000000000000000000000000000000000000000000000000000000000000000000000000000070000000000000000000000000007000000000000000000000000000000000000000000
310
00000000000000000000000000000000000000000000000000000000000000000000000000000000000000000000000000000000000000000000000000000000000000000000000000000000000000000000000000000000000000000000000000000000000000000000000000000000000000000000000000000000000000
310
00000000000000000000000000000000000700000000000000000000000000070000000000000000000000000000000000000000000000000000000000000000000000000000000000000000000000000000000000000000000000000000000000000000000000000000000000000000000000000000000000000000000000
310
00000000000000000000000000000000000000000000000000000000000000000000000000000000000000000000000000000000000000000000000000000000000000000000070000000000000000000000000007000000000000000000000000000000000000000000000000000000000000000000000000000000000000
310
00000000000000000000000000000000000000000000000000000000000000000000000000000000000000000000000000000000000000000000000000000000000000000000000000000000000000000000000000000000000000000000000000000000000000000000000000000000000000000000000000000007000000
310
00000000000000000000070000000000000000000000000000000000000000000000000000000000000000000000000000000000000000000000000000000000000000000000000000000000000000000000000000000000000000000000000000000000000000000000000000000000000000000000000000000000000000
310
00000000000000000000000000000000000000000000000000000000000000000000000000000000000000000000000000070000000000000000000000000007000000000000000000000000000000000000000000000000000000000000000000000000000000000000000000000000000000000000000000000000000000
310
00000000000000000000000000000000000000000000000000000000000000000000000000000000000000000000000000000000000000000000000000000000000000000000000000000000000000000000000000000000000000000000000000000000000007000000000000000000000000000700000000000000000000
310
00000000000000000000000000000000000000000000000000000000000000000000000000000000000000000000000000000000000000000000000000000000000000000000000000000000000000000000000000000000000000000000000000000000000000000000000000000000000000000000000000000000000000
310
00000000000000000000000000000000000000000000000000000000070000000000000000000000000007000000000000000000000000000000000000000000000000000000000000000000000000000000000000000000000000000000000000000000000000000000000000000000000000000000000000000000000000
310
00000000000000000000000000000000000000000000000000000000000000000000000000000000000000000000000000000000000000000000000000000000000000000000000000000000000000000007000000000000000000000000000700000000000000000000000000000000000000000000000000000000000000
310
00000000000000000000000000000000000000000000000000000000000000000000000000000000000000000000000000000000000000000000000000000000000000000000000000000000000000000000000000000000000000000000000000000000000000000000000000000000000000000000000000000000000000
310
00000000000000070000000000000000000000000007000000000000000000000000000000000000000000000000000000000000000000000000000000000000000000000000000000000000000000000000000000000000000000000000000000000000000000000000000000000000000000000000000000000000000000
310
00000000000000000000000000000000000000000000000000000000000000000000000000000000000000000000000000000000000000000000000007000000000000000000000000000700000000000000000000000000000000000000000000000000000000000000000000000000000000000000000000000000000000
310
00000000000000000000000000000000000000000000000000000000000000000000000000000000000000000000000000000000000000000000000000000000000000000000000000000000000000000000000000000000000000000000000000000000000000000000000000000000000700000000000000000000000000
310
07000000000000000000000000000000000000000000000000000000000000000000000000000000000000000000000000000000000000000000000000000000000000000000000000000000000000000000000000000000000000000000000000000000000000000000000000000000000000000000000000000000000000
310
00000000000000000000000000000000000000000000000000000000000000000000000000000007000000000000000000000000000700000000000000000000000000000000000000000000000000000000000000000000000000000000000000000000000000000000000000000000000000000000000000000000000000
310
00000000000000000000000000000000000000000000000000000000000000000000000000000000000000000000000000000000000000000000000000000000000000000000000000000000000000000000000000000000000000000700000000000000000000000000070000000000000000000000000000000000000000
310
00000000000000000000000000000000000000000000000000000000000000000000000000000000000000000000000000000000000000000000000000000000000000000000000000000000000000000000000000000000000000000000000000000000000000000000000000000000000000000000000000000000000000
310
00000000000000000000000000000000000007000000000000000000000000000700000000000000000000000000000000000000000000000000000000000000000000000000000000000000000000000000000000000000000000000000000000000000000000000000000000000000000000000000000000000000000000
310
00000000000000000000000000000000000000000000000000000000000000000000000000000000000000000000000000000000000000000000000000000000000000000000000700000000000000000000000000070000000000000000000000000000000000000000000000000000000000000000000000000000000000
310
00000000000000000000000000000000000000000000000000000000000000000000000000000000000000000000000000000000000000000000000000000000000000000000000000000000000000000000000000000000000000000000000000000000000000000000000000000000000000000000000000000000070000
310
00000000000000000000000700000000000000000000000000000000000000000000000000000000000000000000000000000000000000000000000000000000000000000000000000000000000000000000000000000000000000000000000000000000000000000000000000000000000000000000000000000000000000
310
00000000000000000000000000000000000000000000000000000000000000000000000000000000000000000000000000000700000000000000000000000000070000000000000000000000000000000000000000000000000000000000000000000000000000000000000000000000000000000000000000000000000000
310
00000000000000000000000000000000000000000000000000000000000000000000000000000000000000000000000000000000000000000000000000000000000000000000000000000000000000000000000000000000000000000000000000000000000000070000000000000000000000000007000000000000000000
310
00000000000000000000000000000000000000000000000000000000000000000000000000000000000000000000000000000000000000000000000000000000000000000000000000000000000000000000000000000000000000000000000000000000000000000000000000000000000000000000000000000000000000
310
00000000000000000000000000000000000000000000000000000000000700000000000000000000000000070000000000000000000000000000000000000000000000000000000000000000000000000000000000000000000000000000000000000000000000000000000000000000000000000000000000000000000000
310
00000000000000000000000000000000000000000000000000000000000000000000000000000000000000000000000000000000000000000000000000000000000000000000000000000000000000000000070000000000000000000000000007000000000000000000000000000000000000000000000000000000000000
310
00000000000000000000000000000000000000000000000000000000000000000000000000000000000000000000000000000000000000000000000000000000000000000000000000000000000000000000000000070700000000000000000000000000000000000000000000000000000000000000000000000000000000
310
00000000000000070700000000000000000000000000070700000000000000000000000000000000000000000000000000000000000000000000000000000000000000000000000707000000000000000000000000000000000000000000000000000000000000000000000000000000000000000000000000000000000000
310
00000000000000070707070000070700070700000000000000000000000000000000000000000000000000000000000000000000000000000007070700070000000000000000000000000007000707070000000000000000000000000000000000000000000000000000000000000000000000000000000707000707000007
310
07070700000000000000000000000000000000000000000000000000000000000000000000000000000000000000000000000000000000000007070700000000000000000000000700000000000000000000000000000000000000000000000000000000000000000000000000070000000007000000000000000000000000
310
00070000000700000000000000000000000000000000000000000000000000000000000000000000000000000700000000000000000000000707070000000000000000000000000000000000000000000000000000000000000000000000000000000000000000000000000000070000000000000000000000000000000700
310
00000000000000000000000000000000000000000000000000000000000000000000000700000000070000000000000000000000000007000000000700000000000000000000000000000000000000000000000000000000000000000000000007000000000000000000000000000000070000000000000000000000000000
310
00000000000000000000000000000000000000000000000000000000000000000000070000000000000000000000000000000000070007000000000000000000000000000000000000000000000000000000000000000007000000000007000000000000000000000000000700000000000700000000000000000000000000
310
00000000000000000000000000000000000000070007000000000000000000000000000000000007000000000000000000000000000000000000000000000000000000000000000000000000000000000000000000070700000007070707070707070707070707070000000700000000000000000000000000000000000000
310
00000000000000000000000007000000000000070000000000000000000000000007000000000000070000000000000000000000000000000000000000000000000000000000000700000000070707070707070707070707070700000007070000000000000000000000000000000000000000000000000000000000000000
310
00000000000000000000070000000707070000000000000000000000000707070000070000000000000000000000000000000000000000000000000000000000070000000000000007000000000000000000000000000700000000000007000000000000000000000000000000000000000000000000000000000000070000
310
07070700000000000000000000000007070700000007000000000000000000000000000000000000000000000000000000000000000000000000000000000007000007070000000000000000000000000000000007070000070000000000000000000000000000000000000000000000000000000007000000000000070700
310
00000000000000000000000007070000000000000700000000000000000000000000000000000000000000000000000000070000070700000000000000000000000000000000070700000700000000000000000000000000000000000000000000000000000000000000000000000000000000070000070700000000000000
310
00000000000000000000000700000000000000000000000000000000000000000000000000000000000007000000000000070007000000000000000000000000000700070000000000000700000000000000000000000000000000000000000000000000000000000007000000000000000000000000000000000000070700
310
00070000000000000000000000000000000000000000000000000000000000000000000000000000070000000700000000000000000000000000000000000000000700000700000000000000000000000000000000000000000000000000070000000000000700000700000000000000000000000000070000070000000000
310
07000000000000000000000000000000000000000000000000000700000007000000000000000000000000000000000000000007000007000000000000000000000000000000000000000000000000000000000000000000000000000007000000070000000000000000000000000000000000000000070000000700000000
310
00000000000000000000000000000000000000000700000000000700000007000000000000000000000000000700000007000000000007000000000000000000000000000000000000000000000000070000000700000000000000000000000000000000000000000700000007000000000000000000000000000000000000
310
00000000000000000000000000000000000000070000000700000000000000000000000000000000000000000700000007000000000000000000000000000000000000000000000000070000000007000000000700000000000000000000000000070000000700000000000700000000000000000000000000000000000000
310
00000000000700000007000000000000000000000000000000000000000007000000070000000000000000000000000000000000000000000000000000000000000000000000000700000000070000000000000000000000000000000000000000070000000707070707070700000000000000000000000000000707070000
310
00000000070000000007000000000000000000000000000700000000070000000000000707070000000000000000000000000000070707070707070000000700000000000000000000000000000000000000000700000007000000000000000000000000000000000000000000000000000000000000000000000000070000
310
00000700000000000000000000000000000000000000000700000007070000000007070707070707070707070707070707000007000000000007000000000700000000000000000000000000070000000007000000000007000007070707070707070707070707070707000000000700000000070000000000000000000000
310
00000000000000000007000000000700000000000000000000000000000000000000000000000000000000000000000000000700000000070000000000000000000000000000000000000000070000000007070707070700000000000000000000000000000707070700000000000700000000070000000000000000000000
310
00000700000000070000000000070707070000000000000000000000000000070707070707000000000700000000000000000000000000000000000000000700000000070000000000000000000000000000000000000000000000000000000000000000000000070000000007000000000000000000000000000000000000
310
00000700000000070000000007000000000000000000000000000007000007000000000007000000000700000000000000000000000000070000000007000000000007000007000000000000000000000000000007000000000700000000070000000000000000000000000000000000000000070000000007000000000000
310
00000000000000000000000000000000000000000000000000000000000700000000070000000000000000000000000000000000000000000000000007000000000700000000000000000000000000000700000700000000000700000000070000000000000000000000000007000000000700000000000700000700000000
310
00000000000000000000070000000007000000000000000000000000000000000000000000000000000700000000070000000000000000000000000000000000000000000000000000000000000000000000070000000007000000000000000000000000000000000000000007000000000707000000070000000000000000
310
00000000000007000007000000000007000000000700000000000000000000000000070000000007000000000007000007000000000000000000000000000007000000070700000000070000000000000000000000000000000000000000070000000007000000000000000000000000000000000000000000000000000000
310
00000000000000000700000000070000000000000000000000000000000000000000070000000007070707070707070707070707070707070707070707070700000000000700000000070000000000000000000000000007000000000700000000000707070707070707070707070707070707070707070707070000000007
310
00000000000000000000000000000000000000000700000000070000000000000000000000000000000000000000000000000000000000000000000000070000000007000000000000000000000000000000000000000007000000070707000000070000000000000000000000000000070000070000000000070000000007
310
00000000000000000000000000070000000007000000000007000007000000000000000000000000000007000000070707000000070000000000000000000000000000000000000000070000000007000000000000000000000000000000000000000000000000000000000000000000000007000000000700000000000000
310
00000000000000000000000000070000000707070707070700000000000000000000000000000707070700000000000007000000070000000000000000000000000700000000070000000000000707070700000000000000000000000000000707070707070700000007000000000000000000000000000000000000000007
310
00000000070000000000000000000000000000000000000000000000000000000000000000000000000700000007000000000000000000000000000000000000000007000000070000000000000000000000000000000000000000000000000700000000000700000000070000000000000000000000070000000007000000
310
00000700000000000000000000000000000000000000000000000007000000070000000000000000000000000000000000000000070000000700000000000000000000000000000000000000000000000000000000000000000000000000070000000700000000000000000000000000000000000000000700000007000000
310
00000000000000000000000000000000000000000007000000000007000000000007000000000000000000070000000000070000000000070000000000000000000000000000000000000000000000000700000007000000000000000000000000000000000000000007000000070000000000000000000000000000000000
310
00000000000000000000000000000000000000000700000007000000000000000000000000000000000000000707000007000000000000000000000000000000000000000000000000000700000000000007000000000007070707000707070700000000000700000000000007000000000000000000000000000000000000
310
00000000000000070000070700000000000000000000000000000000000000070000000700000000000000000000000000000000000000000000000000000000000000000000000000000700000707000000000000000000000000000000000000070000070000000000000000000000000000000000000000000000000000
310
07000000000000000700000000000000000000000000000000000700000000000007000000000000000000000000000000000000000000000000000007000000070000000000000000000000000000000000000707000007000000000000000000000000000000000000000000000000000000000000000000000000000000
310
00070000070700000000000000000000000000000000070700000700000000000000000000000000000000000000000000000000000007000000000000000700000000000000000000000000000007000000000000000700000000000000000000000000000000000000000000000000000007000007070000000000000000
310
00000000000000000707000007000000000000000000000000000000000000000000000000000000000000000000000000000000000000070000070707070000000000000000000007070707000007000000000000000000000000000000000000000000000000000000000007000000000000000700000000000000000000
310
00000007000000000000000700000000000000000000000000000000000000000000000000000000000700000707070700000000000000000000070707070000070000000000000000000000000000000000000000000000000000000000000000000000000000000000000000070000000007070707070707070707070000
310
00000007000000000000000000000000000000000000000000000000000000000000000700000000000000070000000000000000000000070000000000000007000000000000000000000000000000000000000000000000000000000000000700000000000707070707070707070707000000000700000000000000000000
310
00000000000000000000000000000000000000000000000000000000000000000000000007000000000000000000000000000000000000070000000000000000000000000000000000000000000000000000000000000000070000000000000000070707070707070707070700000000000000070000000000000000000000
310
00000000000000000000000000000000000000000000070000000000000000000000000000000000000700000000000000000000000000000000000000000000000000000000000000000000000000000000000000000000000007000000000000000000000000000000070700000000000000000000000000000000000000
310
00000000000000000000000000000007000000000000000000000000000000000000000000000000000700000000000000000000000000000000000000000000000000000000000000000000070700000000000000000000000000000007000000000000000000000000000000000000000000000000000000000000000000
310
00000000000000000000000000000000000707070000000000000000000007070700000000000000000000000000000000000000000000000000000000000000000000000007070000000000000000000000000000000000000000000707000000000000000000000000000000000000000000000000000000000000000000
310
00000007070700000000000000000000070707000000000000000000000000000000000000000000000000000000000000000000000000000000000000000000000000000000000000070707070707070707070000000000000000000000000000000000000000000000000000000000000000000000000000000000070000
310
00000000000000000000000000000000000700000000000000000000000000000000000000000000000000000000000000000000000000000000000707070707070707070700000000000000000000000000000000000000000000000000000000000000000000000000000000000000000000000000000000000000000000
310
00000000000000000000000000000000000000000000000000000000000000000000000000000000000000000000000000000007070700000000000000000000000000070707000000000000000000000000000000000000000000000000000000000000000000000000000000000000000000000000000000000000000000
310
00000000000000000000000000000000000000000000000000000000000000000000000000000000000000000000000000000000000000000000000000000000000000000000000000000000000000000000000000000000000000000000000000000000000000000000000707000000000000000000070700000000000000
310
00000000000000000000000000000000000000000000000000000000000000000000000000000000000000000000000000000000000000000000000000000000000000000000000000000000000000000000000000000000000000000000000000000000000000000000000000000000000000000000000000000000000000
310
00000000000000000000000000000000000000000000000000000000000000000000000707070700070707070000000000000000000000000000000000000000000000000000000000000000000000000000000000000000000000000000000000000000000000000000000000000000000000000000000000000000000000
310
00000000000000000000000000000000000000000000000000000000000000000000000000000000000000000000000000000000000000000000000000000000000000000000000000000000000000000000000000000000000000000000000000000000000000000000000000000000000000000000000000000000000000
310
00000000000000000000000000000000000000000000000000000000000000000000000000000000000000000000000000000000000000000000000000000000000000000000000000000000000000000000000000000000000000000000000000000000000000000000000000000000000000000000000000000000000000
310
000000000000000000000000000000000000000000000000000000000000000000000000000000000000000000000000000000000000000000000000000000000000000000000000000000000000000000000000000000000000000000000000000000000000000000000000
  0
ENDSEC
  0
EOF
