  0
SECTION
  2
HEADER
  9
$ACADVER
  1
AC1015
  9
$ACADMAINTVER
 70
     6
  9
$DWGCODEPAGE
  3
ANSI_1252
  9
$INSBASE
 10
0.0
 20
0.0
 30
0.0
  9
$EXTMIN
 10
-0.0104
 20
0.1938895
 30
0.0
  9
$EXTMAX
 10
240.038359193576
 20
276.575079285119
 30
0.0
  9
$LIMMIN
 10
0.0
 20
0.0
  9
$LIMMAX
 10
12.0
 20
9.0
  9
$ORTHOMODE
 70
     0
  9
$REGENMODE
 70
     1
  9
$FILLMODE
 70
     1
  9
$QTEXTMODE
 70
     0
  9
$MIRRTEXT
 70
     1
  9
$LTSCALE
 40
1.0
  9
$ATTMODE
 70
     1
  9
$TEXTSIZE
 40
0.2
  9
$TRACEWID
 40
0.05
  9
$TEXTSTYLE
  7
Standard
  9
$CLAYER
  8
0
  9
$CELTYPE
  6
ByBlock
  9
$CECOLOR
 62
   256
  9
$CELTSCALE
 40
1.0
  9
$DISPSILH
 70
     0
  9
$DIMSCALE
 40
1.0
  9
$DIMASZ
 40
0.18
  9
$DIMEXO
 40
0.0625
  9
$DIMDLI
 40
0.38
  9
$DIMRND
 40
0.0
  9
$DIMDLE
 40
0.0
  9
$DIMEXE
 40
0.18
  9
$DIMTP
 40
0.0
  9
$DIMTM
 40
0.0
  9
$DIMTXT
 40
0.18
  9
$DIMCEN
 40
0.09
  9
$DIMTSZ
 40
0.0
  9
$DIMTOL
 70
     0
  9
$DIMLIM
 70
     0
  9
$DIMTIH
 70
     1
  9
$DIMTOH
 70
     1
  9
$DIMSE1
 70
     0
  9
$DIMSE2
 70
     0
  9
$DIMTAD
 70
     0
  9
$DIMZIN
 70
     0
  9
$DIMBLK
  1

  9
$DIMASO
 70
     1
  9
$DIMSHO
 70
     1
  9
$DIMPOST
  1

  9
$DIMAPOST
  1

  9
$DIMALT
 70
     0
  9
$DIMALTD
 70
     2
  9
$DIMALTF
 40
25.4
  9
$DIMLFAC
 40
1.0
  9
$DIMTOFL
 70
     0
  9
$DIMTVP
 40
0.0
  9
$DIMTIX
 70
     0
  9
$DIMSOXD
 70
     0
  9
$DIMSAH
 70
     0
  9
$DIMBLK1
  1

  9
$DIMBLK2
  1

  9
$DIMSTYLE
  2
Standard
  9
$DIMCLRD
 70
     0
  9
$DIMCLRE
 70
     0
  9
$DIMCLRT
 70
     0
  9
$DIMTFAC
 40
1.0
  9
$DIMGAP
 40
0.09
  9
$DIMJUST
 70
     0
  9
$DIMSD1
 70
     0
  9
$DIMSD2
 70
     0
  9
$DIMTOLJ
 70
     1
  9
$DIMTZIN
 70
     0
  9
$DIMALTZ
 70
     0
  9
$DIMALTTZ
 70
     0
  9
$DIMUPT
 70
     0
  9
$DIMDEC
 70
     4
  9
$DIMTDEC
 70
     4
  9
$DIMALTU
 70
     2
  9
$DIMALTTD
 70
     2
  9
$DIMTXSTY
  7
Standard
  9
$DIMAUNIT
 70
     0
  9
$DIMADEC
 70
     0
  9
$DIMALTRND
 40
0.0
  9
$DIMAZIN
 70
     0
  9
$DIMDSEP
 70
    46
  9
$DIMATFIT
 70
     3
  9
$DIMFRAC
 70
     0
  9
$DIMLDRBLK
  1

  9
$DIMLUNIT
 70
     2
  9
$DIMLWD
 70
    -2
  9
$DIMLWE
 70
    -2
  9
$DIMTMOVE
 70
     2
  9
$LUNITS
 70
     2
  9
$LUPREC
 70
     4
  9
$SKETCHINC
 40
0.1
  9
$FILLETRAD
 40
0.5
  9
$AUNITS
 70
     0
  9
$AUPREC
 70
     0
  9
$MENU
  1
.
  9
$ELEVATION
 40
0.0
  9
$PELEVATION
 40
0.0
  9
$THICKNESS
 40
0.0
  9
$LIMCHECK
 70
     0
  9
$CHAMFERA
 40
0.5
  9
$CHAMFERB
 40
0.5
  9
$CHAMFERC
 40
1.0
  9
$CHAMFERD
 40
0.0
  9
$SKPOLY
 70
     0
  9
$TDCREATE
 40
2456646.438726852
  9
$TDUCREATE
 40
2456646.397060185
  9
$TDUPDATE
 40
2456646.440905671
  9
$TDUUPDATE
 40
2456646.399239005
  9
$TDINDWG
 40
0.0021786574
  9
$TDUSRTIMER
 40
0.0021786574
  9
$USRTIMER
 70
     1
  9
$ANGBASE
 50
0.0
  9
$ANGDIR
 70
     0
  9
$PDMODE
 70
     0
  9
$PDSIZE
 40
0.0
  9
$PLINEWID
 40
0.0
  9
$SPLFRAME
 70
     0
  9
$SPLINETYPE
 70
     6
  9
$SPLINESEGS
 70
     8
  9
$HANDSEED
  5
D87
  9
$SURFTAB1
 70
     6
  9
$SURFTAB2
 70
     6
  9
$SURFTYPE
 70
     6
  9
$SURFU
 70
     6
  9
$SURFV
 70
     6
  9
$UCSBASE
  2

  9
$UCSNAME
  2

  9
$UCSORG
 10
0.0
 20
0.0
 30
0.0
  9
$UCSXDIR
 10
1.0
 20
0.0
 30
0.0
  9
$UCSYDIR
 10
0.0
 20
1.0
 30
0.0
  9
$UCSORTHOREF
  2

  9
$UCSORTHOVIEW
 70
     0
  9
$UCSORGTOP
 10
0.0
 20
0.0
 30
0.0
  9
$UCSORGBOTTOM
 10
0.0
 20
0.0
 30
0.0
  9
$UCSORGLEFT
 10
0.0
 20
0.0
 30
0.0
  9
$UCSORGRIGHT
 10
0.0
 20
0.0
 30
0.0
  9
$UCSORGFRONT
 10
0.0
 20
0.0
 30
0.0
  9
$UCSORGBACK
 10
0.0
 20
0.0
 30
0.0
  9
$PUCSBASE
  2

  9
$PUCSNAME
  2

  9
$PUCSORG
 10
0.0
 20
0.0
 30
0.0
  9
$PUCSXDIR
 10
1.0
 20
0.0
 30
0.0
  9
$PUCSYDIR
 10
0.0
 20
1.0
 30
0.0
  9
$PUCSORTHOREF
  2

  9
$PUCSORTHOVIEW
 70
     0
  9
$PUCSORGTOP
 10
0.0
 20
0.0
 30
0.0
  9
$PUCSORGBOTTOM
 10
0.0
 20
0.0
 30
0.0
  9
$PUCSORGLEFT
 10
0.0
 20
0.0
 30
0.0
  9
$PUCSORGRIGHT
 10
0.0
 20
0.0
 30
0.0
  9
$PUCSORGFRONT
 10
0.0
 20
0.0
 30
0.0
  9
$PUCSORGBACK
 10
0.0
 20
0.0
 30
0.0
  9
$USERI1
 70
     0
  9
$USERI2
 70
     0
  9
$USERI3
 70
     0
  9
$USERI4
 70
     0
  9
$USERI5
 70
     0
  9
$USERR1
 40
0.0
  9
$USERR2
 40
0.0
  9
$USERR3
 40
0.0
  9
$USERR4
 40
0.0
  9
$USERR5
 40
0.0
  9
$WORLDVIEW
 70
     1
  9
$SHADEDGE
 70
     3
  9
$SHADEDIF
 70
    70
  9
$TILEMODE
 70
     1
  9
$MAXACTVP
 70
    64
  9
$PINSBASE
 10
0.0
 20
0.0
 30
0.0
  9
$PLIMCHECK
 70
     0
  9
$PEXTMIN
 10
1.000000000000E+20
 20
1.000000000000E+20
 30
1.000000000000E+20
  9
$PEXTMAX
 10
-1.000000000000E+20
 20
-1.000000000000E+20
 30
-1.000000000000E+20
  9
$PLIMMIN
 10
0.0
 20
0.0
  9
$PLIMMAX
 10
12.0
 20
9.0
  9
$UNITMODE
 70
     0
  9
$VISRETAIN
 70
     1
  9
$PLINEGEN
 70
     0
  9
$PSLTSCALE
 70
     1
  9
$TREEDEPTH
 70
  3020
  9
$CMLSTYLE
  2
Standard
  9
$CMLJUST
 70
     0
  9
$CMLSCALE
 40
1.0
  9
$PROXYGRAPHICS
 70
     1
  9
$MEASUREMENT
 70
     0
  9
$CELWEIGHT
370
    -1
  9
$ENDCAPS
280
     0
  9
$JOINSTYLE
280
     0
  9
$LWDISPLAY
290
     0
  9
$INSUNITS
 70
     0
  9
$HYPERLINKBASE
  1

  9
$STYLESHEET
  1

  9
$XEDIT
290
     1
  9
$CEPSNTYPE
380
     0
  9
$PSTYLEMODE
290
     1
  9
$FINGERPRINTGUID
  2
{251416A5-D6DC-4CD5-AA3C-21DF95B73B18}
  9
$VERSIONGUID
  2
{FAEB1C32-E019-11D5-929B-00C0DF256EC4}
  9
$EXTNAMES
290
     1
  9
$PSVPSCALE
 40
0.0
  9
$OLESTARTUP
290
     0
  0
ENDSEC
  0
SECTION
  2
CLASSES
  0
CLASS
  1
ACDBDICTIONARYWDFLT
  2
AcDbDictionaryWithDefault
  3
ObjectDBX Classes
 90
        0
280
     0
281
     0
  0
CLASS
  1
SCALE
  2
AcDbScale
  3
ObjectDBX Classes
 90
     1153
280
     0
281
     0
  0
CLASS
  1
DICTIONARYVAR
  2
AcDbDictionaryVar
  3
ObjectDBX Classes
 90
        0
280
     0
281
     0
  0
CLASS
  1
ACDBPLACEHOLDER
  2
AcDbPlaceHolder
  3
ObjectDBX Classes
 90
        0
280
     0
281
     0
  0
CLASS
  1
LAYOUT
  2
AcDbLayout
  3
ObjectDBX Classes
 90
        0
280
     0
281
     0
  0
ENDSEC
  0
SECTION
  2
TABLES
  0
TABLE
  2
VPORT
  5
8
330
0
100
AcDbSymbolTable
 70
     1
  0
VPORT
  5
4B2
330
8
100
AcDbSymbolTableRecord
100
AcDbViewportTableRecord
  2
*Active
 70
     0
 10
0.0
 20
0.0
 11
1.0
 21
1.0
 12
120.013979596788
 22
138.28753964256
 13
0.0
 23
0.0
 14
0.5
 24
0.5
 15
0.5
 25
0.5
 16
0.0
 26
0.0
 36
1.0
 17
0.0
 27
0.0
 37
0.0
 40
282.106580870822
 41
1.319001386963
 42
50.0
 43
0.0
 44
0.0
 50
0.0
 51
0.0
 71
    16
 72
   100
 73
     1
 74
     3
 75
     0
 76
     0
 77
     0
 78
     0
281
     0
 65
     1
110
0.0
120
0.0
130
0.0
111
1.0
121
0.0
131
0.0
112
0.0
122
1.0
132
0.0
 79
     0
146
0.0
  0
ENDTAB
  0
TABLE
  2
LTYPE
  5
5
330
0
100
AcDbSymbolTable
 70
     1
  0
LTYPE
  5
14
330
5
100
AcDbSymbolTableRecord
100
AcDbLinetypeTableRecord
  2
ByBlock
 70
     0
  3

 72
    65
 73
     0
 40
0.0
  0
LTYPE
  5
15
330
5
100
AcDbSymbolTableRecord
100
AcDbLinetypeTableRecord
  2
ByLayer
 70
     0
  3

 72
    65
 73
     0
 40
0.0
  0
LTYPE
  5
16
330
5
100
AcDbSymbolTableRecord
100
AcDbLinetypeTableRecord
  2
Continuous
 70
     0
  3
Solid line
 72
    65
 73
     0
 40
0.0
  0
ENDTAB
  0
TABLE
  2
LAYER
  5
2
330
0
100
AcDbSymbolTable
 70
     1
  0
LAYER
  5
10
330
2
100
AcDbSymbolTableRecord
100
AcDbLayerTableRecord
  2
0
 70
     0
 62
     7
  6
Continuous
370
    -3
390
F
  0
ENDTAB
  0
TABLE
  2
STYLE
  5
3
330
0
100
AcDbSymbolTable
 70
     1
  0
STYLE
  5
11
330
3
100
AcDbSymbolTableRecord
100
AcDbTextStyleTableRecord
  2
Standard
 70
     0
 40
0.0
 41
1.0
 50
0.0
 71
     0
 42
0.2
  3
txt
  4

  0
ENDTAB
  0
TABLE
  2
VIEW
  5
6
330
0
100
AcDbSymbolTable
 70
     0
  0
ENDTAB
  0
TABLE
  2
UCS
  5
7
330
0
100
AcDbSymbolTable
 70
     0
  0
ENDTAB
  0
TABLE
  2
APPID
  5
9
330
0
100
AcDbSymbolTable
 70
     1
  0
APPID
  5
12
330
9
100
AcDbSymbolTableRecord
100
AcDbRegAppTableRecord
  2
ACAD
 70
     0
  0
ENDTAB
  0
TABLE
  2
DIMSTYLE
  5
A
330
0
100
AcDbSymbolTable
 70
     1
100
AcDbDimStyleTable
  0
DIMSTYLE
105
20
330
A
100
AcDbSymbolTableRecord
100
AcDbDimStyleTableRecord
  2
Standard
 70
     0
340
11
  0
ENDTAB
  0
TABLE
  2
BLOCK_RECORD
  5
1
330
0
100
AcDbSymbolTable
 70
     2
  0
BLOCK_RECORD
  5
1D
330
1
100
AcDbSymbolTableRecord
100
AcDbBlockTableRecord
  2
*Model_Space
340
1E
  0
BLOCK_RECORD
  5
1B
330
1
100
AcDbSymbolTableRecord
100
AcDbBlockTableRecord
  2
*Paper_Space
340
1C
  0
ENDTAB
  0
ENDSEC
  0
SECTION
  2
BLOCKS
  0
BLOCK
  5
4B5
330
1D
100
AcDbEntity
  8
0
100
AcDbBlockBegin
  2
*Model_Space
 70
     0
 10
0.0
 20
0.0
 30
0.0
  3
*Model_Space
  1
*Model_Space
  0
ENDBLK
  5
4B6
330
1D
100
AcDbEntity
  8
0
100
AcDbBlockEnd
  0
BLOCK
  5
4B3
330
1B
100
AcDbEntity
 67
     1
  8
0
100
AcDbBlockBegin
  2
*Paper_Space
 70
     0
 10
0.0
 20
0.0
 30
0.0
  3
*Paper_Space
  1
*Paper_Space
  0
ENDBLK
  5
4B4
330
1B
100
AcDbEntity
 67
     1
  8
0
100
AcDbBlockEnd
  0
ENDSEC
  0
SECTION
  2
ENTITIES
  0
LINE
  5
21
330
1D
100
AcDbEntity
  8
0
100
AcDbLine
 10
0.4465
 20
0.1941105
 30
0.0
 11
1.0206
 21
0.1941105
 31
0.0
  0
LINE
  5
22
330
1D
100
AcDbEntity
  8
0
100
AcDbLine
 10
-0.0104
 20
0.1941105
 30
0.0
 11
0.0729
 21
0.1941105
 31
0.0
  0
LINE
  5
23
330
1D
100
AcDbEntity
  8
0
100
AcDbLine
 10
0.0729
 20
0.1941105
 30
0.0
 11
0.4465
 21
0.1941105
 31
0.0
  0
LINE
  5
24
330
1D
100
AcDbEntity
  8
0
100
AcDbLine
 10
0.0729
 20
0.1941105
 30
0.0
 11
0.4465
 21
0.1941105
 31
0.0
  0
LINE
  5
25
330
1D
100
AcDbEntity
  8
0
100
AcDbLine
 10
-0.0104
 20
0.1941105
 30
0.0
 11
0.0729
 21
0.1941105
 31
0.0
  0
LINE
  5
26
330
1D
100
AcDbEntity
  8
0
100
AcDbLine
 10
0.4465
 20
0.1941105
 30
0.0
 11
1.0206
 21
0.1941105
 31
0.0
  0
LINE
  5
27
330
1D
100
AcDbEntity
  8
0
100
AcDbLine
 10
1.5566
 20
0.1941105
 30
0.0
 11
2.2071
 21
0.1941105
 31
0.0
  0
LINE
  5
28
330
1D
100
AcDbEntity
  8
0
100
AcDbLine
 10
1.0206
 20
0.1941105
 30
0.0
 11
1.5566
 21
0.1941105
 31
0.0
  0
LINE
  5
29
330
1D
100
AcDbEntity
  8
0
100
AcDbLine
 10
0.2329
 20
0.1941105
 30
0.0
 11
0.5755
 21
0.1941105
 31
0.0
  0
LINE
  5
2B
330
1D
100
AcDbEntity
  8
0
100
AcDbLine
 10
1.1302
 20
0.1941105
 30
0.0
 11
1.614
 21
0.1941105
 31
0.0
  0
LINE
  5
31
330
1D
100
AcDbEntity
  8
0
100
AcDbLine
 10
0.5755
 20
0.1941105
 30
0.0
 11
1.1302
 21
0.1941105
 31
0.0
  0
LINE
  5
35
330
1D
100
AcDbEntity
  8
0
100
AcDbLine
 10
1.614
 20
0.1941105
 30
0.0
 11
2.7837
 21
0.1941105
 31
0.0
  0
LINE
  5
36
330
1D
100
AcDbEntity
  8
0
100
AcDbLine
 10
0.0217
 20
0.1941105
 30
0.0
 11
0.2329
 21
0.1941105
 31
0.0
  0
LINE
  5
41
330
1D
100
AcDbEntity
  8
0
100
AcDbLine
 10
2.2071
 20
0.1941105
 30
0.0
 11
3.0134
 21
0.1941105
 31
0.0
  0
LINE
  5
4D
330
1D
100
AcDbEntity
  8
0
100
AcDbLine
 10
2.7837
 20
0.1941105
 30
0.0
 11
3.5823
 21
0.1941105
 31
0.0
  0
LINE
  5
4E
330
1D
100
AcDbEntity
  8
0
100
AcDbLine
 10
8.1523
 20
0.1941105
 30
0.0
 11
10.0194
 21
0.1941105
 31
0.0
  0
LINE
  5
4F
330
1D
100
AcDbEntity
  8
0
100
AcDbLine
 10
12.7795
 20
0.1938905
 30
0.0
 11
14.9797
 21
0.1938905
 31
0.0
  0
LINE
  5
50
330
1D
100
AcDbEntity
  8
0
100
AcDbLine
 10
10.0194
 20
0.1941105
 30
0.0
 11
12.7795
 21
0.1938905
 31
0.0
  0
LINE
  5
51
330
1D
100
AcDbEntity
  8
0
100
AcDbLine
 10
3.9795
 20
0.1941105
 30
0.0
 11
5.022
 21
0.1941105
 31
0.0
  0
LINE
  5
52
330
1D
100
AcDbEntity
  8
0
100
AcDbLine
 10
5.022
 20
0.1941105
 30
0.0
 11
6.3373
 21
0.1941105
 31
0.0
  0
LINE
  5
53
330
1D
100
AcDbEntity
  8
0
100
AcDbLine
 10
3.5823
 20
0.1941105
 30
0.0
 11
4.5048
 21
0.1941105
 31
0.0
  0
LINE
  5
54
330
1D
100
AcDbEntity
  8
0
100
AcDbLine
 10
4.5048
 20
0.1941105
 30
0.0
 11
5.8132
 21
0.1941105
 31
0.0
  0
LINE
  5
55
330
1D
100
AcDbEntity
  8
0
100
AcDbLine
 10
7.3102
 20
0.1941105
 30
0.0
 11
9.2678
 21
0.1941105
 31
0.0
  0
LINE
  5
56
330
1D
100
AcDbEntity
  8
0
100
AcDbLine
 10
5.8132
 20
0.1941105
 30
0.0
 11
7.3102
 21
0.1941105
 31
0.0
  0
LINE
  5
57
330
1D
100
AcDbEntity
  8
0
100
AcDbLine
 10
6.3373
 20
0.1941105
 30
0.0
 11
8.1523
 21
0.1941105
 31
0.0
  0
LINE
  5
58
330
1D
100
AcDbEntity
  8
0
100
AcDbLine
 10
3.0134
 20
0.1941105
 30
0.0
 11
3.9795
 21
0.1941105
 31
0.0
  0
LINE
  5
5B
330
1D
100
AcDbEntity
  8
0
100
AcDbLine
 10
11.4492
 20
0.1941105
 30
0.0
 11
13.8258
 21
0.1941105
 31
0.0
  0
LINE
  5
87
330
1D
100
AcDbEntity
  8
0
100
AcDbLine
 10
9.2678
 20
0.1941105
 30
0.0
 11
11.4492
 21
0.1941105
 31
0.0
  0
LINE
  5
B4
330
1D
100
AcDbEntity
  8
0
100
AcDbLine
 10
14.9797
 20
0.1938905
 30
0.0
 11
17.1957
 21
0.1938905
 31
0.0
  0
LINE
  5
D3
330
1D
100
AcDbEntity
  8
0
100
AcDbLine
 10
13.8258
 20
0.1941105
 30
0.0
 11
15.4981
 21
0.1941105
 31
0.0
  0
LINE
  5
E1
330
1D
100
AcDbEntity
  8
0
100
AcDbLine
 10
15.4981
 20
0.1941105
 30
0.0
 11
17.2287
 21
0.1941105
 31
0.0
  0
LINE
  5
100
330
1D
100
AcDbEntity
  8
0
100
AcDbLine
 10
17.2287
 20
0.1941105
 30
0.0
 11
19.0055
 21
0.1941105
 31
0.0
  0
LINE
  5
101
330
1D
100
AcDbEntity
  8
0
100
AcDbLine
 10
17.1957
 20
0.1938905
 30
0.0
 11
19.4028
 21
0.1938905
 31
0.0
  0
LINE
  5
108
330
1D
100
AcDbEntity
  8
0
100
AcDbLine
 10
19.0055
 20
0.1941105
 30
0.0
 11
20.8153
 21
0.1941105
 31
0.0
  0
LINE
  5
10B
330
1D
100
AcDbEntity
  8
0
100
AcDbLine
 10
21.604
 20
0.1939595
 30
0.0
 11
24.0197
 21
0.1938895
 31
0.0
  0
LINE
  5
10C
330
1D
100
AcDbEntity
  8
0
100
AcDbLine
 10
22.2125
 20
0.1941105
 30
0.0
 11
24.0194
 21
0.1941105
 31
0.0
  0
LINE
  5
10D
330
1D
100
AcDbEntity
  8
0
100
AcDbLine
 10
19.4028
 20
0.1938905
 30
0.0
 11
21.604
 21
0.1939595
 31
0.0
  0
LINE
  5
10E
330
1D
100
AcDbEntity
  8
0
100
AcDbLine
 10
24.0197
 20
0.1938895
 30
0.0
 11
26.1234
 21
0.1938895
 31
0.0
  0
LINE
  5
10F
330
1D
100
AcDbEntity
  8
0
100
AcDbLine
 10
26.1234
 20
0.1938895
 30
0.0
 11
29.6184
 21
0.1938895
 31
0.0
  0
LINE
  5
110
330
1D
100
AcDbEntity
  8
0
100
AcDbLine
 10
25.9881
 20
0.1941105
 30
0.0
 11
27.5
 21
0.1941105
 31
0.0
  0
LINE
  5
111
330
1D
100
AcDbEntity
  8
0
100
AcDbLine
 10
27.5
 20
0.1941105
 30
0.0
 11
28.9974
 21
0.1941105
 31
0.0
  0
LINE
  5
112
330
1D
100
AcDbEntity
  8
0
100
AcDbLine
 10
24.0194
 20
0.1941105
 30
0.0
 11
25.9881
 21
0.1941105
 31
0.0
  0
LINE
  5
174
330
1D
100
AcDbEntity
  8
0
100
AcDbLine
 10
20.8153
 20
0.1941105
 30
0.0
 11
22.2125
 21
0.1941105
 31
0.0
  0
LINE
  5
175
330
1D
100
AcDbEntity
  8
0
100
AcDbLine
 10
29.6184
 20
0.1938895
 30
0.0
 11
33.1364
 21
0.1939245
 31
0.0
  0
LINE
  5
176
330
1D
100
AcDbEntity
  8
0
100
AcDbLine
 10
30.4719
 20
0.1941105
 30
0.0
 11
31.9164
 21
0.1941105
 31
0.0
  0
LINE
  5
19E
330
1D
100
AcDbEntity
  8
0
100
AcDbLine
 10
28.9974
 20
0.1941105
 30
0.0
 11
30.4719
 21
0.1941105
 31
0.0
  0
LINE
  5
1AD
330
1D
100
AcDbEntity
  8
0
100
AcDbLine
 10
33.1364
 20
0.1939245
 30
0.0
 11
35.5995
 21
0.1938895
 31
0.0
  0
LINE
  5
1AE
330
1D
100
AcDbEntity
  8
0
100
AcDbLine
 10
38.0196
 20
0.1938895
 30
0.0
 11
40.0283
 21
0.1941085
 31
0.0
  0
LINE
  5
1AF
330
1D
100
AcDbEntity
  8
0
100
AcDbLine
 10
35.5995
 20
0.1938895
 30
0.0
 11
38.0196
 21
0.1938895
 31
0.0
  0
LINE
  5
1B0
330
1D
100
AcDbEntity
  8
0
100
AcDbLine
 10
33.7083
 20
0.1941105
 30
0.0
 11
35.4246
 21
0.1941105
 31
0.0
  0
LINE
  5
1D7
330
1D
100
AcDbEntity
  8
0
100
AcDbLine
 10
31.9164
 20
0.1941105
 30
0.0
 11
33.7083
 21
0.1941105
 31
0.0
  0
LINE
  5
1F2
330
1D
100
AcDbEntity
  8
0
100
AcDbLine
 10
35.4246
 20
0.1941105
 30
0.0
 11
37.6042
 21
0.1941105
 31
0.0
  0
LINE
  5
1FB
330
1D
100
AcDbEntity
  8
0
100
AcDbLine
 10
37.6042
 20
0.1941105
 30
0.0
 11
39.593
 21
0.1941105
 31
0.0
  0
LINE
  5
1FC
330
1D
100
AcDbEntity
  8
0
100
AcDbLine
 10
40.0283
 20
0.1941085
 30
0.0
 11
41.5679
 21
0.1941105
 31
0.0
  0
LINE
  5
1FD
330
1D
100
AcDbEntity
  8
0
100
AcDbLine
 10
41.5679
 20
0.1941105
 30
0.0
 11
42.6406
 21
0.1941085
 31
0.0
  0
LINE
  5
1FE
330
1D
100
AcDbEntity
  8
0
100
AcDbLine
 10
42.6406
 20
0.1941085
 30
0.0
 11
43.6697
 21
0.1941085
 31
0.0
  0
LINE
  5
1FF
330
1D
100
AcDbEntity
  8
0
100
AcDbLine
 10
42.354
 20
0.1941105
 30
0.0
 11
43.7035
 21
0.1941105
 31
0.0
  0
LINE
  5
200
330
1D
100
AcDbEntity
  8
0
100
AcDbLine
 10
39.593
 20
0.1941105
 30
0.0
 11
41.3713
 21
0.1941105
 31
0.0
  0
LINE
  5
203
330
1D
100
AcDbEntity
  8
0
100
AcDbLine
 10
41.3713
 20
0.1941105
 30
0.0
 11
42.354
 21
0.1941105
 31
0.0
  0
LINE
  5
204
330
1D
100
AcDbEntity
  8
0
100
AcDbLine
 10
43.7035
 20
0.1941105
 30
0.0
 11
44.8428
 21
0.1941105
 31
0.0
  0
LINE
  5
205
330
1D
100
AcDbEntity
  8
0
100
AcDbLine
 10
43.6697
 20
0.1941085
 30
0.0
 11
44.6366
 21
0.1941105
 31
0.0
  0
LINE
  5
20C
330
1D
100
AcDbEntity
  8
0
100
AcDbLine
 10
44.6366
 20
0.1941105
 30
0.0
 11
45.5153
 21
0.1941085
 31
0.0
  0
LINE
  5
216
330
1D
100
AcDbEntity
  8
0
100
AcDbLine
 10
44.8428
 20
0.1941105
 30
0.0
 11
45.9146
 21
0.1941105
 31
0.0
  0
LINE
  5
21F
330
1D
100
AcDbEntity
  8
0
100
AcDbLine
 10
45.5153
 20
0.1941085
 30
0.0
 11
46.39
 21
0.1941105
 31
0.0
  0
LINE
  5
221
330
1D
100
AcDbEntity
  8
0
100
AcDbLine
 10
45.9146
 20
0.1941105
 30
0.0
 11
46.726
 21
0.1941105
 31
0.0
  0
LINE
  5
236
330
1D
100
AcDbEntity
  8
0
100
AcDbLine
 10
47.7534
 20
0.1941085
 30
0.0
 11
48.0399
 21
0.1941105
 31
0.0
  0
LINE
  5
237
330
1D
100
AcDbEntity
  8
0
100
AcDbLine
 10
47.0793
 20
0.1941085
 30
0.0
 11
47.4735
 21
0.1941105
 31
0.0
  0
LINE
  5
238
330
1D
100
AcDbEntity
  8
0
100
AcDbLine
 10
47.4735
 20
0.1941105
 30
0.0
 11
47.7534
 21
0.1941085
 31
0.0
  0
LINE
  5
239
330
1D
100
AcDbEntity
  8
0
100
AcDbLine
 10
46.39
 20
0.1941105
 30
0.0
 11
47.0793
 21
0.1941085
 31
0.0
  0
LINE
  5
23A
330
1D
100
AcDbEntity
  8
0
100
AcDbLine
 10
47.8257
 20
0.1941105
 30
0.0
 11
48.0355
 21
0.1941105
 31
0.0
  0
LINE
  5
2D2
330
1D
100
AcDbEntity
  8
0
100
AcDbLine
 10
47.2553
 20
0.1941105
 30
0.0
 11
47.6239
 21
0.1941105
 31
0.0
  0
LINE
  5
2D3
330
1D
100
AcDbEntity
  8
0
100
AcDbLine
 10
46.726
 20
0.1941105
 30
0.0
 11
47.2553
 21
0.1941105
 31
0.0
  0
LINE
  5
2D4
330
1D
100
AcDbEntity
  8
0
100
AcDbLine
 10
47.6239
 20
0.1941105
 30
0.0
 11
47.8257
 21
0.1941105
 31
0.0
  0
LINE
  5
738
330
1D
100
AcDbEntity
  8
0
100
AcDbLine
 10
-0.0104
 20
0.1941105
 30
0.0
 11
0.0729
 21
0.1941105
 31
0.0
  0
LINE
  5
739
330
1D
100
AcDbEntity
  8
0
100
AcDbLine
 10
0.0729
 20
0.1941105
 30
0.0
 11
0.4465
 21
0.1941105
 31
0.0
  0
LINE
  5
73A
330
1D
100
AcDbEntity
  8
0
100
AcDbLine
 10
0.0729
 20
0.1941105
 30
0.0
 11
0.4465
 21
0.1941105
 31
0.0
  0
LINE
  5
73B
330
1D
100
AcDbEntity
  8
0
100
AcDbLine
 10
0.0217
 20
0.1941105
 30
0.0
 11
0.2329
 21
0.1941105
 31
0.0
  0
LINE
  5
73C
330
1D
100
AcDbEntity
  8
0
100
AcDbLine
 10
-0.0104
 20
0.1941105
 30
0.0
 11
0.0729
 21
0.1941105
 31
0.0
  0
LINE
  5
73D
330
1D
100
AcDbEntity
  8
0
100
AcDbLine
 10
0.4465
 20
0.1941105
 30
0.0
 11
1.0208
 21
0.1941105
 31
0.0
  0
LINE
  5
73E
330
1D
100
AcDbEntity
  8
0
100
AcDbLine
 10
1.5566
 20
0.1941105
 30
0.0
 11
2.2074
 21
0.1941105
 31
0.0
  0
LINE
  5
73F
330
1D
100
AcDbEntity
  8
0
100
AcDbLine
 10
1.0208
 20
0.1941105
 30
0.0
 11
1.5566
 21
0.1941105
 31
0.0
  0
LINE
  5
740
330
1D
100
AcDbEntity
  8
0
100
AcDbLine
 10
0.2329
 20
0.1941105
 30
0.0
 11
0.5755
 21
0.1941105
 31
0.0
  0
LINE
  5
741
330
1D
100
AcDbEntity
  8
0
100
AcDbLine
 10
1.1302
 20
0.1941105
 30
0.0
 11
1.6143
 21
0.1941105
 31
0.0
  0
LINE
  5
742
330
1D
100
AcDbEntity
  8
0
100
AcDbLine
 10
0.5755
 20
0.1941105
 30
0.0
 11
1.1302
 21
0.1941105
 31
0.0
  0
LINE
  5
743
330
1D
100
AcDbEntity
  8
0
100
AcDbLine
 10
1.6143
 20
0.1941105
 30
0.0
 11
2.7837
 21
0.1941105
 31
0.0
  0
LINE
  5
744
330
1D
100
AcDbEntity
  8
0
100
AcDbLine
 10
0.0217
 20
0.1941105
 30
0.0
 11
0.2329
 21
0.1941105
 31
0.0
  0
LINE
  5
745
330
1D
100
AcDbEntity
  8
0
100
AcDbLine
 10
3.0134
 20
0.1941105
 30
0.0
 11
3.9794
 21
0.1941105
 31
0.0
  0
LINE
  5
746
330
1D
100
AcDbEntity
  8
0
100
AcDbLine
 10
2.7837
 20
0.1941105
 30
0.0
 11
3.5819
 21
0.1941105
 31
0.0
  0
LINE
  5
747
330
1D
100
AcDbEntity
  8
0
100
AcDbLine
 10
3.5819
 20
0.1941105
 30
0.0
 11
4.5048
 21
0.1941105
 31
0.0
  0
LINE
  5
748
330
1D
100
AcDbEntity
  8
0
100
AcDbLine
 10
2.2074
 20
0.1941105
 30
0.0
 11
3.0134
 21
0.1941105
 31
0.0
  0
LINE
  5
749
330
1D
100
AcDbEntity
  8
0
100
AcDbLine
 10
3.9794
 20
0.1941105
 30
0.0
 11
5.0218
 21
0.1941105
 31
0.0
  0
LINE
  5
74A
330
1D
100
AcDbEntity
  8
0
100
AcDbLine
 10
5.0218
 20
0.1941105
 30
0.0
 11
6.3374
 21
0.1941105
 31
0.0
  0
LINE
  5
74B
330
1D
100
AcDbEntity
  8
0
100
AcDbLine
 10
4.5048
 20
0.1941105
 30
0.0
 11
5.8128
 21
0.1941105
 31
0.0
  0
LINE
  5
74C
330
1D
100
AcDbEntity
  8
0
100
AcDbLine
 10
5.8128
 20
0.1941105
 30
0.0
 11
7.3102
 21
0.1941105
 31
0.0
  0
LINE
  5
74D
330
1D
100
AcDbEntity
  8
0
100
AcDbLine
 10
8.1526
 20
0.1941105
 30
0.0
 11
10.0191
 21
0.1941105
 31
0.0
  0
LINE
  5
74E
330
1D
100
AcDbEntity
  8
0
100
AcDbLine
 10
10.0191
 20
0.1941105
 30
0.0
 11
12.7795
 21
0.1938905
 31
0.0
  0
LINE
  5
74F
330
1D
100
AcDbEntity
  8
0
100
AcDbLine
 10
12.7795
 20
0.1938905
 30
0.0
 11
14.9794
 21
0.1939235
 31
0.0
  0
LINE
  5
750
330
1D
100
AcDbEntity
  8
0
100
AcDbLine
 10
7.3102
 20
0.1941105
 30
0.0
 11
9.2682
 21
0.1941105
 31
0.0
  0
LINE
  5
751
330
1D
100
AcDbEntity
  8
0
100
AcDbLine
 10
6.3374
 20
0.1941105
 30
0.0
 11
8.1526
 21
0.1941105
 31
0.0
  0
LINE
  5
752
330
1D
100
AcDbEntity
  8
0
100
AcDbLine
 10
11.4492
 20
0.1941105
 30
0.0
 11
13.8258
 21
0.1941105
 31
0.0
  0
LINE
  5
753
330
1D
100
AcDbEntity
  8
0
100
AcDbLine
 10
9.2682
 20
0.1941105
 30
0.0
 11
11.4492
 21
0.1941105
 31
0.0
  0
LINE
  5
754
330
1D
100
AcDbEntity
  8
0
100
AcDbLine
 10
13.8258
 20
0.1941105
 30
0.0
 11
15.4981
 21
0.1941105
 31
0.0
  0
LINE
  5
755
330
1D
100
AcDbEntity
  8
0
100
AcDbLine
 10
14.9794
 20
0.1939235
 30
0.0
 11
17.1953
 21
0.1938905
 31
0.0
  0
LINE
  5
756
330
1D
100
AcDbEntity
  8
0
100
AcDbLine
 10
15.4981
 20
0.1941105
 30
0.0
 11
17.2287
 21
0.1941105
 31
0.0
  0
LINE
  5
757
330
1D
100
AcDbEntity
  8
0
100
AcDbLine
 10
17.1953
 20
0.1938905
 30
0.0
 11
19.4028
 21
0.1938905
 31
0.0
  0
LINE
  5
758
330
1D
100
AcDbEntity
  8
0
100
AcDbLine
 10
19.0055
 20
0.1941105
 30
0.0
 11
20.8153
 21
0.1941105
 31
0.0
  0
LINE
  5
759
330
1D
100
AcDbEntity
  8
0
100
AcDbLine
 10
17.2287
 20
0.1941105
 30
0.0
 11
19.0055
 21
0.1941105
 31
0.0
  0
LINE
  5
75A
330
1D
100
AcDbEntity
  8
0
100
AcDbLine
 10
24.0197
 20
0.1938895
 30
0.0
 11
26.1238
 21
0.1939735
 31
0.0
  0
LINE
  5
75B
330
1D
100
AcDbEntity
  8
0
100
AcDbLine
 10
21.6037
 20
0.1938905
 30
0.0
 11
24.0197
 21
0.1938895
 31
0.0
  0
LINE
  5
75C
330
1D
100
AcDbEntity
  8
0
100
AcDbLine
 10
22.2129
 20
0.1941105
 30
0.0
 11
24.0194
 21
0.1941105
 31
0.0
  0
LINE
  5
75D
330
1D
100
AcDbEntity
  8
0
100
AcDbLine
 10
20.8153
 20
0.1941105
 30
0.0
 11
22.2129
 21
0.1941105
 31
0.0
  0
LINE
  5
75E
330
1D
100
AcDbEntity
  8
0
100
AcDbLine
 10
25.9881
 20
0.1941105
 30
0.0
 11
27.5
 21
0.1941105
 31
0.0
  0
LINE
  5
75F
330
1D
100
AcDbEntity
  8
0
100
AcDbLine
 10
27.5
 20
0.1941105
 30
0.0
 11
28.9974
 21
0.1941105
 31
0.0
  0
LINE
  5
760
330
1D
100
AcDbEntity
  8
0
100
AcDbLine
 10
26.1238
 20
0.1939735
 30
0.0
 11
29.6327
 21
0.1938895
 31
0.0
  0
LINE
  5
761
330
1D
100
AcDbEntity
  8
0
100
AcDbLine
 10
19.4028
 20
0.1938905
 30
0.0
 11
21.6037
 21
0.1938905
 31
0.0
  0
LINE
  5
762
330
1D
100
AcDbEntity
  8
0
100
AcDbLine
 10
24.0194
 20
0.1941105
 30
0.0
 11
25.9881
 21
0.1941105
 31
0.0
  0
LINE
  5
763
330
1D
100
AcDbEntity
  8
0
100
AcDbLine
 10
29.6327
 20
0.1938895
 30
0.0
 11
33.165
 21
0.1939255
 31
0.0
  0
LINE
  5
764
330
1D
100
AcDbEntity
  8
0
100
AcDbLine
 10
30.4719
 20
0.1941105
 30
0.0
 11
31.9164
 21
0.1941105
 31
0.0
  0
LINE
  5
765
330
1D
100
AcDbEntity
  8
0
100
AcDbLine
 10
28.9974
 20
0.1941105
 30
0.0
 11
30.4719
 21
0.1941105
 31
0.0
  0
LINE
  5
766
330
1D
100
AcDbEntity
  8
0
100
AcDbLine
 10
33.165
 20
0.1939255
 30
0.0
 11
35.6139
 21
0.1939985
 31
0.0
  0
LINE
  5
767
330
1D
100
AcDbEntity
  8
0
100
AcDbLine
 10
33.7083
 20
0.1941105
 30
0.0
 11
35.425
 21
0.1941105
 31
0.0
  0
LINE
  5
768
330
1D
100
AcDbEntity
  8
0
100
AcDbLine
 10
31.9164
 20
0.1941105
 30
0.0
 11
33.7083
 21
0.1941105
 31
0.0
  0
LINE
  5
769
330
1D
100
AcDbEntity
  8
0
100
AcDbLine
 10
35.425
 20
0.1941105
 30
0.0
 11
37.6042
 21
0.1941105
 31
0.0
  0
LINE
  5
76A
330
1D
100
AcDbEntity
  8
0
100
AcDbLine
 10
35.6139
 20
0.1939985
 30
0.0
 11
38.0196
 21
0.1938895
 31
0.0
  0
LINE
  5
76B
330
1D
100
AcDbEntity
  8
0
100
AcDbLine
 10
38.0196
 20
0.1938895
 30
0.0
 11
40.028
 21
0.1941105
 31
0.0
  0
LINE
  5
76C
330
1D
100
AcDbEntity
  8
0
100
AcDbLine
 10
40.028
 20
0.1941105
 30
0.0
 11
41.5679
 21
0.1941105
 31
0.0
  0
LINE
  5
76D
330
1D
100
AcDbEntity
  8
0
100
AcDbLine
 10
41.5679
 20
0.1941105
 30
0.0
 11
42.6406
 21
0.1941085
 31
0.0
  0
LINE
  5
76E
330
1D
100
AcDbEntity
  8
0
100
AcDbLine
 10
42.6406
 20
0.1941085
 30
0.0
 11
43.6697
 21
0.1941085
 31
0.0
  0
LINE
  5
76F
330
1D
100
AcDbEntity
  8
0
100
AcDbLine
 10
42.354
 20
0.1941105
 30
0.0
 11
43.7035
 21
0.1941105
 31
0.0
  0
LINE
  5
770
330
1D
100
AcDbEntity
  8
0
100
AcDbLine
 10
39.593
 20
0.1941105
 30
0.0
 11
41.3713
 21
0.1941105
 31
0.0
  0
LINE
  5
771
330
1D
100
AcDbEntity
  8
0
100
AcDbLine
 10
37.6042
 20
0.1941105
 30
0.0
 11
39.593
 21
0.1941105
 31
0.0
  0
LINE
  5
772
330
1D
100
AcDbEntity
  8
0
100
AcDbLine
 10
41.3713
 20
0.1941105
 30
0.0
 11
42.354
 21
0.1941105
 31
0.0
  0
LINE
  5
773
330
1D
100
AcDbEntity
  8
0
100
AcDbLine
 10
43.7035
 20
0.1941105
 30
0.0
 11
44.8428
 21
0.1941105
 31
0.0
  0
LINE
  5
774
330
1D
100
AcDbEntity
  8
0
100
AcDbLine
 10
43.6697
 20
0.1941085
 30
0.0
 11
44.6364
 21
0.1941085
 31
0.0
  0
LINE
  5
775
330
1D
100
AcDbEntity
  8
0
100
AcDbLine
 10
44.6364
 20
0.1941085
 30
0.0
 11
45.5155
 21
0.1941105
 31
0.0
  0
LINE
  5
776
330
1D
100
AcDbEntity
  8
0
100
AcDbLine
 10
44.8428
 20
0.1941105
 30
0.0
 11
45.9146
 21
0.1941105
 31
0.0
  0
LINE
  5
777
330
1D
100
AcDbEntity
  8
0
100
AcDbLine
 10
45.5155
 20
0.1941105
 30
0.0
 11
46.39
 21
0.1941085
 31
0.0
  0
LINE
  5
778
330
1D
100
AcDbEntity
  8
0
100
AcDbLine
 10
45.9146
 20
0.1941105
 30
0.0
 11
46.726
 21
0.1941105
 31
0.0
  0
LINE
  5
779
330
1D
100
AcDbEntity
  8
0
100
AcDbLine
 10
47.4735
 20
0.1941085
 30
0.0
 11
47.7534
 21
0.1941085
 31
0.0
  0
LINE
  5
77A
330
1D
100
AcDbEntity
  8
0
100
AcDbLine
 10
47.7534
 20
0.1941085
 30
0.0
 11
48.0399
 21
0.1941105
 31
0.0
  0
LINE
  5
77B
330
1D
100
AcDbEntity
  8
0
100
AcDbLine
 10
47.0796
 20
0.1941105
 30
0.0
 11
47.4735
 21
0.1941085
 31
0.0
  0
LINE
  5
77C
330
1D
100
AcDbEntity
  8
0
100
AcDbLine
 10
46.39
 20
0.1941085
 30
0.0
 11
47.0796
 21
0.1941105
 31
0.0
  0
LINE
  5
77D
330
1D
100
AcDbEntity
  8
0
100
AcDbLine
 10
47.8257
 20
0.1941105
 30
0.0
 11
48.0355
 21
0.1941105
 31
0.0
  0
LINE
  5
77E
330
1D
100
AcDbEntity
  8
0
100
AcDbLine
 10
47.2556
 20
0.1941105
 30
0.0
 11
47.6243
 21
0.1941105
 31
0.0
  0
LINE
  5
77F
330
1D
100
AcDbEntity
  8
0
100
AcDbLine
 10
46.726
 20
0.1941105
 30
0.0
 11
47.2556
 21
0.1941105
 31
0.0
  0
LINE
  5
780
330
1D
100
AcDbEntity
  8
0
100
AcDbLine
 10
47.6243
 20
0.1941105
 30
0.0
 11
47.8257
 21
0.1941105
 31
0.0
  0
LINE
  5
781
330
1D
100
AcDbEntity
  8
0
100
AcDbLine
 10
0.0217
 20
0.1941105
 30
0.0
 11
1.4144
 21
78.593963022141
 31
0.0
  0
LINE
  5
782
330
1D
100
AcDbEntity
  8
0
100
AcDbLine
 10
0.0217
 20
0.1941105
 30
0.0
 11
1.4144
 21
78.593963022141
 31
0.0
  0
LINE
  5
783
330
1D
100
AcDbEntity
  8
0
100
AcDbLine
 10
10.2864
 20
88.000963022141
 30
0.0
 11
11.2364
 21
87.171963022141
 31
0.0
  0
LINE
  5
784
330
1D
100
AcDbEntity
  8
0
100
AcDbLine
 10
1.4144
 20
78.593963022141
 30
0.0
 11
1.4904
 21
90.544963022141
 31
0.0
  0
LINE
  5
785
330
1D
100
AcDbEntity
  8
0
100
AcDbLine
 10
12.5484
 20
86.190963022141
 30
0.0
 11
13.9634
 21
85.300963022141
 31
0.0
  0
LINE
  5
786
330
1D
100
AcDbEntity
  8
0
100
AcDbLine
 10
12.4145
 20
87.896663022141
 30
0.0
 11
12.7081
 21
87.229663022141
 31
0.0
  0
LINE
  5
787
330
1D
100
AcDbEntity
  8
0
100
AcDbLine
 10
9.9724
 20
88.308963022141
 30
0.0
 11
10.2864
 21
88.000963022141
 31
0.0
  0
LINE
  5
788
330
1D
100
AcDbEntity
  8
0
100
AcDbLine
 10
9.4024
 20
88.884963022141
 30
0.0
 11
9.9724
 21
88.308963022141
 31
0.0
  0
LINE
  5
789
330
1D
100
AcDbEntity
  8
0
100
AcDbLine
 10
12.1723
 20
88.737663022141
 30
0.0
 11
12.361
 21
88.052663022141
 31
0.0
  0
LINE
  5
78A
330
1D
100
AcDbEntity
  8
0
100
AcDbLine
 10
12.361
 20
88.052663022141
 30
0.0
 11
12.4145
 21
87.896663022141
 31
0.0
  0
LINE
  5
78B
330
1D
100
AcDbEntity
  8
0
100
AcDbLine
 10
13.602
 20
85.960663022141
 30
0.0
 11
14.1942
 21
85.371663022141
 31
0.0
  0
LINE
  5
78C
330
1D
100
AcDbEntity
  8
0
100
AcDbLine
 10
13.1056
 20
86.581663022141
 30
0.0
 11
13.602
 21
85.960663022141
 31
0.0
  0
LINE
  5
78D
330
1D
100
AcDbEntity
  8
0
100
AcDbLine
 10
12.7081
 20
87.229663022141
 30
0.0
 11
13.1056
 21
86.581663022141
 31
0.0
  0
LINE
  5
78E
330
1D
100
AcDbEntity
  8
0
100
AcDbLine
 10
12.0906
 20
89.430663022141
 30
0.0
 11
12.1723
 21
88.737663022141
 31
0.0
  0
LINE
  5
78F
330
1D
100
AcDbEntity
  8
0
100
AcDbLine
 10
12.0906
 20
89.430663022141
 30
0.0
 11
12.0906
 21
94.288663022141
 31
0.0
  0
LINE
  5
790
330
1D
100
AcDbEntity
  8
0
100
AcDbLine
 10
13.8704
 20
88.922663022141
 30
0.0
 11
13.9824
 21
88.294663022141
 31
0.0
  0
LINE
  5
791
330
1D
100
AcDbEntity
  8
0
100
AcDbLine
 10
13.925508280255
 20
88.613663022141
 30
0.0
 11
15.3424
 21
88.613663022141
 31
0.0
  0
LINE
  5
792
330
1D
100
AcDbEntity
  8
0
100
AcDbLine
 10
13.937450159919
 20
88.546703196882
 30
0.0
 11
14.1004
 21
87.961663022141
 31
0.0
  0
LINE
  5
793
330
1D
100
AcDbEntity
  8
0
100
AcDbLine
 10
13.8664
 20
89.277663022141
 30
0.0
 11
13.8704
 21
89.635663022141
 31
0.0
  0
LINE
  5
794
330
1D
100
AcDbEntity
  8
0
100
AcDbLine
 10
13.8664
 20
89.277663022141
 30
0.0
 11
13.8704
 21
88.922663022141
 31
0.0
  0
LINE
  5
795
330
1D
100
AcDbEntity
  8
0
100
AcDbLine
 10
8.6974
 20
89.674963022141
 30
0.0
 11
9.4024
 21
88.884963022141
 31
0.0
  0
LINE
  5
796
330
1D
100
AcDbEntity
  8
0
100
AcDbLine
 10
12.0054
 20
90.055963022141
 30
0.0
 11
12.0906
 21
89.893515022141
 31
0.0
  0
LINE
  5
797
330
1D
100
AcDbEntity
  8
0
100
AcDbLine
 10
8.2924
 20
90.150963022141
 30
0.0
 11
8.6974
 21
89.674963022141
 31
0.0
  0
LINE
  5
798
330
1D
100
AcDbEntity
  8
0
100
AcDbLine
 10
12.0906
 20
89.773663022141
 30
0.0
 11
12.0974
 21
89.601663022141
 31
0.0
  0
LINE
  5
799
330
1D
100
AcDbEntity
  8
0
100
AcDbLine
 10
12.0906
 20
89.773663022141
 30
0.0
 11
12.0906
 21
94.499207232667
 31
0.0
  0
LINE
  5
79A
330
1D
100
AcDbEntity
  8
0
100
AcDbLine
 10
13.8704
 20
89.635663022141
 30
0.0
 11
13.9824
 21
90.261663022141
 31
0.0
  0
LINE
  5
79B
330
1D
100
AcDbEntity
  8
0
100
AcDbLine
 10
14.034392146707
 20
85.263713471199
 30
0.0
 11
14.861337338466
 21
84.829815660302
 31
0.0
  0
LINE
  5
79C
330
1D
100
AcDbEntity
  8
0
100
AcDbLine
 10
14.034392146707
 20
85.263713471199
 30
0.0
 11
14.861337338466
 21
84.829815660302
 31
0.0
  0
LINE
  5
79D
330
1D
100
AcDbEntity
  8
0
100
AcDbLine
 10
14.1942
 20
85.371663022141
 30
0.0
 11
14.8763
 21
84.817663022141
 31
0.0
  0
LINE
  5
79E
330
1D
100
AcDbEntity
  8
0
100
AcDbLine
 10
14.1973
 20
87.677663022141
 30
0.0
 11
14.5151
 21
87.078663022141
 31
0.0
  0
LINE
  5
79F
330
1D
100
AcDbEntity
  8
0
100
AcDbLine
 10
13.9824
 20
88.294663022141
 30
0.0
 11
14.1973
 21
87.677663022141
 31
0.0
  0
LINE
  5
7A0
330
1D
100
AcDbEntity
  8
0
100
AcDbLine
 10
14.1004
 20
87.961663022141
 30
0.0
 11
14.393
 21
87.323663022141
 31
0.0
  0
LINE
  5
7A1
330
1D
100
AcDbEntity
  8
0
100
AcDbLine
 10
14.8763
 20
84.817663022141
 30
0.0
 11
15.6411
 21
84.305663022141
 31
0.0
  0
LINE
  5
7A2
330
1D
100
AcDbEntity
  8
0
100
AcDbLine
 10
14.9298
 20
86.499663022141
 30
0.0
 11
15.4393
 21
85.951663022141
 31
0.0
  0
LINE
  5
7A3
330
1D
100
AcDbEntity
  8
0
100
AcDbLine
 10
15.3051
 20
86.124663022141
 30
0.0
 11
15.9125
 21
85.576663022141
 31
0.0
  0
LINE
  5
7A4
330
1D
100
AcDbEntity
  8
0
100
AcDbLine
 10
14.5151
 20
87.078663022141
 30
0.0
 11
14.9298
 21
86.499663022141
 31
0.0
  0
LINE
  5
7A5
330
1D
100
AcDbEntity
  8
0
100
AcDbLine
 10
14.7966
 20
86.709663022141
 30
0.0
 11
15.3051
 21
86.124663022141
 31
0.0
  0
LINE
  5
7A6
330
1D
100
AcDbEntity
  8
0
100
AcDbLine
 10
14.393
 20
87.323663022141
 30
0.0
 11
14.7966
 21
86.709663022141
 31
0.0
  0
LINE
  5
7A7
330
1D
100
AcDbEntity
  8
0
100
AcDbLine
 10
15.3424
 20
88.613663022141
 30
0.0
 11
15.3424
 21
90.023663022141
 31
0.0
  0
LINE
  5
7A8
330
1D
100
AcDbEntity
  8
0
100
AcDbLine
 10
15.3424
 20
88.613663022141
 30
0.0
 11
15.5109
 21
88.063663022141
 31
0.0
  0
LINE
  5
7A9
330
1D
100
AcDbEntity
  8
0
100
AcDbLine
 10
13.939818530351
 20
90.023663022141
 30
0.0
 11
15.3424
 21
90.023663022141
 31
0.0
  0
LINE
  5
7AA
330
1D
100
AcDbEntity
  8
0
100
AcDbLine
 10
1.4904
 20
90.544963022141
 30
0.0
 11
1.5534
 21
102.541963022141
 31
0.0
  0
LINE
  5
7AB
330
1D
100
AcDbEntity
  8
0
100
AcDbLine
 10
11.6954
 20
90.941963022141
 30
0.0
 11
12.0054
 21
90.055963022141
 31
0.0
  0
LINE
  5
7AC
330
1D
100
AcDbEntity
  8
0
100
AcDbLine
 10
13.9824
 20
90.261663022141
 30
0.0
 11
14.1973
 21
90.877663022141
 31
0.0
  0
LINE
  5
7AD
330
1D
100
AcDbEntity
  8
0
100
AcDbLine
 10
14.1973
 20
90.877663022141
 30
0.0
 11
14.5151
 21
91.479663022141
 31
0.0
  0
LINE
  5
7AE
330
1D
100
AcDbEntity
  8
0
100
AcDbLine
 10
11.5234
 20
92.062963022141
 30
0.0
 11
11.6074
 21
93.180963022141
 31
0.0
  0
LINE
  5
7AF
330
1D
100
AcDbEntity
  8
0
100
AcDbLine
 10
11.5234
 20
92.062963022141
 30
0.0
 11
11.6954
 21
90.941963022141
 31
0.0
  0
LINE
  5
7B0
330
1D
100
AcDbEntity
  8
0
100
AcDbLine
 10
11.9784
 20
94.314963022141
 30
0.0
 11
12.6434
 21
95.406963022141
 31
0.0
  0
LINE
  5
7B1
330
1D
100
AcDbEntity
  8
0
100
AcDbLine
 10
11.6074
 20
93.180963022141
 30
0.0
 11
11.9784
 21
94.314963022141
 31
0.0
  0
LINE
  5
7B2
330
1D
100
AcDbEntity
  8
0
100
AcDbLine
 10
6.4664
 20
92.632963022141
 30
0.0
 11
6.9684
 21
91.913963022141
 31
0.0
  0
LINE
  5
7B3
330
1D
100
AcDbEntity
  8
0
100
AcDbLine
 10
12.0906
 20
94.288663022141
 30
0.0
 11
12.0906
 21
89.430663022141
 31
0.0
  0
LINE
  5
7B4
330
1D
100
AcDbEntity
  8
0
100
AcDbLine
 10
1.6774
 20
118.165963022141
 30
0.0
 11
1.7564
 21
118.420963022141
 31
0.0
  0
LINE
  5
7B5
330
1D
100
AcDbEntity
  8
0
100
AcDbLine
 10
1.6364
 20
117.622963022141
 30
0.0
 11
1.6774
 21
118.165963022141
 31
0.0
  0
LINE
  5
7B6
330
1D
100
AcDbEntity
  8
0
100
AcDbLine
 10
1.5534
 20
102.541963022141
 30
0.0
 11
1.6364
 21
117.622963022141
 31
0.0
  0
LINE
  5
7B7
330
1D
100
AcDbEntity
  8
0
100
AcDbLine
 10
1.6985
 20
125.369963022141
 30
0.0
 11
1.7755
 21
138.829963022141
 31
0.0
  0
LINE
  5
7B8
330
1D
100
AcDbEntity
  8
0
100
AcDbLine
 10
1.6985
 20
125.369963022141
 30
0.0
 11
1.7141
 21
124.173963022141
 31
0.0
  0
LINE
  5
7B9
330
1D
100
AcDbEntity
  8
0
100
AcDbLine
 10
1.6878
 20
155.422963022141
 30
0.0
 11
1.6966
 21
155.687963022141
 31
0.0
  0
LINE
  5
7BA
330
1D
100
AcDbEntity
  8
0
100
AcDbLine
 10
1.6878
 20
155.422963022141
 30
0.0
 11
1.7797
 21
151.353963022141
 31
0.0
  0
LINE
  5
7BB
330
1D
100
AcDbEntity
  8
0
100
AcDbLine
 10
1.7141
 20
124.173963022141
 30
0.0
 11
1.7931
 21
122.531963022141
 31
0.0
  0
LINE
  5
7BC
330
1D
100
AcDbEntity
  8
0
100
AcDbLine
 10
1.7984
 20
118.549963022141
 30
0.0
 11
2.0124
 21
118.869963022141
 31
0.0
  0
LINE
  5
7BD
330
1D
100
AcDbEntity
  8
0
100
AcDbLine
 10
1.7564
 20
118.420963022141
 30
0.0
 11
1.7984
 21
118.549963022141
 31
0.0
  0
LINE
  5
7BE
330
1D
100
AcDbEntity
  8
0
100
AcDbLine
 10
1.7931
 20
122.531963022141
 30
0.0
 11
1.8581
 21
121.743963022141
 31
0.0
  0
LINE
  5
7BF
330
1D
100
AcDbEntity
  8
0
100
AcDbLine
 10
2.1834
 20
119.062963022141
 30
0.0
 11
2.4984
 21
119.273963022141
 31
0.0
  0
LINE
  5
7C0
330
1D
100
AcDbEntity
  8
0
100
AcDbLine
 10
2.0124
 20
118.869963022141
 30
0.0
 11
2.1834
 21
119.062963022141
 31
0.0
  0
LINE
  5
7C1
330
1D
100
AcDbEntity
  8
0
100
AcDbLine
 10
2.4984
 20
119.273963022141
 30
0.0
 11
2.8444
 21
119.460963022141
 31
0.0
  0
LINE
  5
7C2
330
1D
100
AcDbEntity
  8
0
100
AcDbLine
 10
2.3447
 20
120.014963022141
 30
0.0
 11
2.7611
 21
119.607963022141
 31
0.0
  0
LINE
  5
7C3
330
1D
100
AcDbEntity
  8
0
100
AcDbLine
 10
2.0113
 20
120.562963022141
 30
0.0
 11
2.0484
 21
120.373963022141
 31
0.0
  0
LINE
  5
7C4
330
1D
100
AcDbEntity
  8
0
100
AcDbLine
 10
2.0484
 20
120.373963022141
 30
0.0
 11
2.1626
 21
120.194963022141
 31
0.0
  0
LINE
  5
7C5
330
1D
100
AcDbEntity
  8
0
100
AcDbLine
 10
2.1626
 20
120.194963022141
 30
0.0
 11
2.3447
 21
120.014963022141
 31
0.0
  0
LINE
  5
7C6
330
1D
100
AcDbEntity
  8
0
100
AcDbLine
 10
1.8581
 20
121.743963022141
 30
0.0
 11
2.0113
 21
120.562963022141
 31
0.0
  0
LINE
  5
7C7
330
1D
100
AcDbEntity
  8
0
100
AcDbLine
 10
1.7797
 20
151.353963022141
 30
0.0
 11
1.790637852983
 21
140.658826888309
 31
0.0
  0
LINE
  5
7C8
330
1D
100
AcDbEntity
  8
0
100
AcDbLine
 10
1.7524
 20
156.066963022141
 30
0.0
 11
1.909
 21
156.913963022141
 31
0.0
  0
LINE
  5
7C9
330
1D
100
AcDbEntity
  8
0
100
AcDbLine
 10
1.818550311891
 20
156.396606589913
 30
0.0
 11
1.909
 21
156.913963022141
 31
0.0
  0
LINE
  5
7CA
330
1D
100
AcDbEntity
  8
0
100
AcDbLine
 10
1.7476
 20
156.039963022141
 30
0.0
 11
1.909
 21
156.913963022141
 31
0.0
  0
LINE
  5
7CB
330
1D
100
AcDbEntity
  8
0
100
AcDbLine
 10
2.1661
 20
157.738963022141
 30
0.0
 11
2.6409
 21
159.354963022141
 31
0.0
  0
LINE
  5
7CC
330
1D
100
AcDbEntity
  8
0
100
AcDbLine
 10
1.909
 20
156.913963022141
 30
0.0
 11
2.1661
 21
157.738963022141
 31
0.0
  0
LINE
  5
7CD
330
1D
100
AcDbEntity
  8
0
100
AcDbLine
 10
3.4764
 20
117.883963022141
 30
0.0
 11
3.6524
 21
118.289963022141
 31
0.0
  0
LINE
  5
7CE
330
1D
100
AcDbEntity
  8
0
100
AcDbLine
 10
3.4764
 20
117.883963022141
 30
0.0
 11
3.5994
 21
117.671963022141
 31
0.0
  0
LINE
  5
7CF
330
1D
100
AcDbEntity
  8
0
100
AcDbLine
 10
3.5994
 20
117.671963022141
 30
0.0
 11
3.8724
 21
117.473963022141
 31
0.0
  0
LINE
  5
7D0
330
1D
100
AcDbEntity
  8
0
100
AcDbLine
 10
5.8034
 20
116.925963022141
 30
0.0
 11
6.9954
 21
116.756963022141
 31
0.0
  0
LINE
  5
7D1
330
1D
100
AcDbEntity
  8
0
100
AcDbLine
 10
4.8324
 20
117.127963022141
 30
0.0
 11
5.8034
 21
116.925963022141
 31
0.0
  0
LINE
  5
7D2
330
1D
100
AcDbEntity
  8
0
100
AcDbLine
 10
3.8724
 20
117.473963022141
 30
0.0
 11
4.8324
 21
117.127963022141
 31
0.0
  0
LINE
  5
7D3
330
1D
100
AcDbEntity
  8
0
100
AcDbLine
 10
3.670584171917
 20
117.62033494141
 30
0.0
 11
3.7091
 21
118.488163022141
 31
0.0
  0
LINE
  5
7D4
330
1D
100
AcDbEntity
  8
0
100
AcDbLine
 10
3.6524
 20
118.289963022141
 30
0.0
 11
3.701605599198
 21
118.319301237582
 31
0.0
  0
LINE
  5
7D5
330
1D
100
AcDbEntity
  8
0
100
AcDbLine
 10
3.6524
 20
118.289963022141
 30
0.0
 11
3.701605599198
 21
118.319301237582
 31
0.0
  0
LINE
  5
7D6
330
1D
100
AcDbEntity
  8
0
100
AcDbLine
 10
3.7091
 20
118.488163022141
 30
0.0
 11
3.785354338728
 21
119.05565515922
 31
0.0
  0
LINE
  5
7D7
330
1D
100
AcDbEntity
  8
0
100
AcDbLine
 10
2.8444
 20
119.460963022141
 30
0.0
 11
2.948475803165
 21
119.494555806133
 31
0.0
  0
LINE
  5
7D8
330
1D
100
AcDbEntity
  8
0
100
AcDbLine
 10
2.7611
 20
119.607963022141
 30
0.0
 11
3.4253
 21
119.205963022141
 31
0.0
  0
LINE
  5
7D9
330
1D
100
AcDbEntity
  8
0
100
AcDbLine
 10
3.4253
 20
119.205963022141
 30
0.0
 11
4.1722
 21
118.894163022141
 31
0.0
  0
LINE
  5
7DA
330
1D
100
AcDbEntity
  8
0
100
AcDbLine
 10
4.1722
 20
118.894163022141
 30
0.0
 11
5.1414
 21
118.594263022141
 31
0.0
  0
LINE
  5
7DB
330
1D
100
AcDbEntity
  8
0
100
AcDbLine
 10
5.1414
 20
118.594263022141
 30
0.0
 11
6.3483
 21
118.311163022141
 31
0.0
  0
LINE
  5
7DC
330
1D
100
AcDbEntity
  8
0
100
AcDbLine
 10
6.3483
 20
118.311163022141
 30
0.0
 11
6.5562
 21
118.263663022141
 31
0.0
  0
LINE
  5
7DD
330
1D
100
AcDbEntity
  8
0
100
AcDbLine
 10
6.5562
 20
118.263663022141
 30
0.0
 11
7.9978
 21
118.003963022141
 31
0.0
  0
LINE
  5
7DE
330
1D
100
AcDbEntity
  8
0
100
AcDbLine
 10
2.6409
 20
159.354963022141
 30
0.0
 11
2.8911
 21
160.342963022141
 31
0.0
  0
LINE
  5
7DF
330
1D
100
AcDbEntity
  8
0
100
AcDbLine
 10
3.9905
 20
163.287963022141
 30
0.0
 11
4.1718
 21
163.583963022141
 31
0.0
  0
LINE
  5
7E0
330
1D
100
AcDbEntity
  8
0
100
AcDbLine
 10
4.1718
 20
163.583963022141
 30
0.0
 11
4.3288
 21
163.767963022141
 31
0.0
  0
LINE
  5
7E1
330
1D
100
AcDbEntity
  8
0
100
AcDbLine
 10
3.8838
 20
163.079963022141
 30
0.0
 11
3.9905
 21
163.287963022141
 31
0.0
  0
LINE
  5
7E2
330
1D
100
AcDbEntity
  8
0
100
AcDbLine
 10
4.3288
 20
163.767963022141
 30
0.0
 11
4.4794
 21
163.916963022141
 31
0.0
  0
LINE
  5
7E3
330
1D
100
AcDbEntity
  8
0
100
AcDbLine
 10
4.682
 20
164.054963022141
 30
0.0
 11
5.0226
 21
164.271963022141
 31
0.0
  0
LINE
  5
7E4
330
1D
100
AcDbEntity
  8
0
100
AcDbLine
 10
4.4794
 20
163.916963022141
 30
0.0
 11
4.682
 21
164.054963022141
 31
0.0
  0
LINE
  5
7E5
330
1D
100
AcDbEntity
  8
0
100
AcDbLine
 10
3.4863
 20
162.164963022141
 30
0.0
 11
3.8838
 21
163.079963022141
 31
0.0
  0
LINE
  5
7E6
330
1D
100
AcDbEntity
  8
0
100
AcDbLine
 10
5.8636
 20
164.564963022141
 30
0.0
 11
5.9603
 21
164.601963022141
 31
0.0
  0
LINE
  5
7E7
330
1D
100
AcDbEntity
  8
0
100
AcDbLine
 10
5.5339
 20
164.472963022141
 30
0.0
 11
5.8636
 21
164.564963022141
 31
0.0
  0
LINE
  5
7E8
330
1D
100
AcDbEntity
  8
0
100
AcDbLine
 10
5.0226
 20
164.271963022141
 30
0.0
 11
5.5339
 21
164.472963022141
 31
0.0
  0
LINE
  5
7E9
330
1D
100
AcDbEntity
  8
0
100
AcDbLine
 10
3.149
 20
161.186963022141
 30
0.0
 11
3.4863
 21
162.164963022141
 31
0.0
  0
LINE
  5
7EA
330
1D
100
AcDbEntity
  8
0
100
AcDbLine
 10
2.8911
 20
160.342963022141
 30
0.0
 11
3.149
 21
161.186963022141
 31
0.0
  0
LINE
  5
7EB
330
1D
100
AcDbEntity
  8
0
100
AcDbLine
 10
1.7027
 20
155.733963022141
 30
0.0
 11
1.7476
 21
156.039963022141
 31
0.0
  0
LINE
  5
7EC
330
1D
100
AcDbEntity
  8
0
100
AcDbLine
 10
5.9603
 20
164.601963022141
 30
0.0
 11
6.5598
 21
164.738963022141
 31
0.0
  0
LINE
  5
7ED
330
1D
100
AcDbEntity
  8
0
100
AcDbLine
 10
6.9954
 20
116.756963022141
 30
0.0
 11
8.6924
 21
116.592963022141
 31
0.0
  0
LINE
  5
7EE
330
1D
100
AcDbEntity
  8
0
100
AcDbLine
 10
7.9978
 20
118.003963022141
 30
0.0
 11
9.6643
 21
117.771763022141
 31
0.0
  0
LINE
  5
7EF
330
1D
100
AcDbEntity
  8
0
100
AcDbLine
 10
6.5598
 20
164.738963022141
 30
0.0
 11
7.3087
 21
164.859963022141
 31
0.0
  0
LINE
  5
7F0
330
1D
100
AcDbEntity
  8
0
100
AcDbLine
 10
7.3087
 20
164.859963022141
 30
0.0
 11
8.2442
 21
164.966963022141
 31
0.0
  0
LINE
  5
7F1
330
1D
100
AcDbEntity
  8
0
100
AcDbLine
 10
8.6924
 20
116.592963022141
 30
0.0
 11
10.6714
 21
116.465963022141
 31
0.0
  0
LINE
  5
7F2
330
1D
100
AcDbEntity
  8
0
100
AcDbLine
 10
9.6643
 20
117.771763022141
 30
0.0
 11
11.5295
 21
117.570963022141
 31
0.0
  0
LINE
  5
7F3
330
1D
100
AcDbEntity
  8
0
100
AcDbLine
 10
8.2442
 20
164.966963022141
 30
0.0
 11
9.2345
 21
165.046963022141
 31
0.0
  0
LINE
  5
7F4
330
1D
100
AcDbEntity
  8
0
100
AcDbLine
 10
12.9234
 20
116.369963022141
 30
0.0
 11
15.5124
 21
116.298963022141
 31
0.0
  0
LINE
  5
7F5
330
1D
100
AcDbEntity
  8
0
100
AcDbLine
 10
12.6434
 20
95.406963022141
 30
0.0
 11
13.5854
 21
96.424963022141
 31
0.0
  0
LINE
  5
7F6
330
1D
100
AcDbEntity
  8
0
100
AcDbLine
 10
10.6714
 20
116.465963022141
 30
0.0
 11
12.9234
 21
116.369963022141
 31
0.0
  0
LINE
  5
7F7
330
1D
100
AcDbEntity
  8
0
100
AcDbLine
 10
13.5854
 20
96.424963022141
 30
0.0
 11
14.7924
 21
97.359963022141
 31
0.0
  0
LINE
  5
7F8
330
1D
100
AcDbEntity
  8
0
100
AcDbLine
 10
13.2789
 20
117.424163022141
 30
0.0
 11
15.1271
 21
117.303163022141
 31
0.0
  0
LINE
  5
7F9
330
1D
100
AcDbEntity
  8
0
100
AcDbLine
 10
11.5295
 20
117.570963022141
 30
0.0
 11
13.2789
 21
117.424163022141
 31
0.0
  0
LINE
  5
7FA
330
1D
100
AcDbEntity
  8
0
100
AcDbLine
 10
10.267349768777
 20
165.106452617516
 30
0.0
 11
10.9186
 21
165.143963022141
 31
0.0
  0
LINE
  5
7FB
330
1D
100
AcDbEntity
  8
0
100
AcDbLine
 10
10.9186
 20
165.143963022141
 30
0.0
 11
12.01
 21
165.203963022141
 31
0.0
  0
LINE
  5
7FC
330
1D
100
AcDbEntity
  8
0
100
AcDbLine
 10
10.267349768777
 20
165.106452617516
 30
0.0
 11
10.9186
 21
165.143963022141
 31
0.0
  0
LINE
  5
7FD
330
1D
100
AcDbEntity
  8
0
100
AcDbLine
 10
13.1974
 20
165.252963022141
 30
0.0
 11
14.3573
 21
165.306963022141
 31
0.0
  0
LINE
  5
7FE
330
1D
100
AcDbEntity
  8
0
100
AcDbLine
 10
12.01
 20
165.203963022141
 30
0.0
 11
13.1974
 21
165.252963022141
 31
0.0
  0
LINE
  5
7FF
330
1D
100
AcDbEntity
  8
0
100
AcDbLine
 10
14.7924
 20
97.359963022141
 30
0.0
 11
16.1944
 21
98.160963022141
 31
0.0
  0
LINE
  5
800
330
1D
100
AcDbEntity
  8
0
100
AcDbLine
 10
14.3573
 20
165.306963022141
 30
0.0
 11
15.4425
 21
165.347963022141
 31
0.0
  0
LINE
  5
801
330
1D
100
AcDbEntity
  8
0
100
AcDbLine
 10
12.0906
 20
94.499207232667
 30
0.0
 11
12.0906
 21
89.773663022141
 31
0.0
  0
LINE
  5
802
330
1D
100
AcDbEntity
  8
0
100
AcDbLine
 10
14.9298
 20
92.056663022141
 30
0.0
 11
15.4393
 21
92.604663022141
 31
0.0
  0
LINE
  5
803
330
1D
100
AcDbEntity
  8
0
100
AcDbLine
 10
14.5151
 20
91.479663022141
 30
0.0
 11
14.9298
 21
92.056663022141
 31
0.0
  0
LINE
  5
804
330
1D
100
AcDbEntity
  8
0
100
AcDbLine
 10
15.1271
 20
117.303163022141
 30
0.0
 11
17.0517
 21
117.208063022141
 31
0.0
  0
LINE
  5
805
330
1D
100
AcDbEntity
  8
0
100
AcDbLine
 10
13.977569336114
 20
90.234663061494
 30
0.0
 11
13.995740152641
 21
90.299901896162
 31
0.0
  0
LINE
  5
806
330
1D
100
AcDbEntity
  8
0
100
AcDbLine
 10
15.4393
 20
85.951663022141
 30
0.0
 11
16.0386
 21
85.436663022141
 31
0.0
  0
LINE
  5
807
330
1D
100
AcDbEntity
  8
0
100
AcDbLine
 10
15.6411
 20
84.305663022141
 30
0.0
 11
16.4825
 21
83.840663022141
 31
0.0
  0
LINE
  5
808
330
1D
100
AcDbEntity
  8
0
100
AcDbLine
 10
15.9125
 20
85.576663022141
 30
0.0
 11
16.6127
 21
85.069663022141
 31
0.0
  0
LINE
  5
809
330
1D
100
AcDbEntity
  8
0
100
AcDbLine
 10
15.7722
 20
87.527663022141
 30
0.0
 11
16.1243
 21
87.010663022141
 31
0.0
  0
LINE
  5
80A
330
1D
100
AcDbEntity
  8
0
100
AcDbLine
 10
15.5109
 20
88.063663022141
 30
0.0
 11
15.7722
 21
87.527663022141
 31
0.0
  0
LINE
  5
80B
330
1D
100
AcDbEntity
  8
0
100
AcDbLine
 10
15.48954848241
 20
90.503969641285
 30
0.0
 11
15.6229
 21
90.156663022141
 31
0.0
  0
LINE
  5
80C
330
1D
100
AcDbEntity
  8
0
100
AcDbLine
 10
15.6229
 20
90.156663022141
 30
0.0
 11
15.9549
 21
89.589663022141
 31
0.0
  0
LINE
  5
80D
330
1D
100
AcDbEntity
  8
0
100
AcDbLine
 10
21.5827
 20
82.313663022141
 30
0.0
 11
22.6905
 21
82.199663022141
 31
0.0
  0
LINE
  5
80E
330
1D
100
AcDbEntity
  8
0
100
AcDbLine
 10
20.4971
 20
82.489663022141
 30
0.0
 11
21.5827
 21
82.313663022141
 31
0.0
  0
LINE
  5
80F
330
1D
100
AcDbEntity
  8
0
100
AcDbLine
 10
19.4448
 20
82.728663022141
 30
0.0
 11
20.4971
 21
82.489663022141
 31
0.0
  0
LINE
  5
810
330
1D
100
AcDbEntity
  8
0
100
AcDbLine
 10
18.4348
 20
83.027663022141
 30
0.0
 11
19.4448
 21
82.728663022141
 31
0.0
  0
LINE
  5
811
330
1D
100
AcDbEntity
  8
0
100
AcDbLine
 10
21.0944
 20
83.328663022141
 30
0.0
 11
22.0993
 21
83.174663022141
 31
0.0
  0
LINE
  5
812
330
1D
100
AcDbEntity
  8
0
100
AcDbLine
 10
22.0993
 20
83.174663022141
 30
0.0
 11
23.1264
 21
83.083663022141
 31
0.0
  0
LINE
  5
813
330
1D
100
AcDbEntity
  8
0
100
AcDbLine
 10
17.4753
 20
83.382663022141
 30
0.0
 11
18.4348
 21
83.027663022141
 31
0.0
  0
LINE
  5
814
330
1D
100
AcDbEntity
  8
0
100
AcDbLine
 10
16.5763
 20
83.791663022141
 30
0.0
 11
17.4753
 21
83.382663022141
 31
0.0
  0
LINE
  5
815
330
1D
100
AcDbEntity
  8
0
100
AcDbLine
 10
16.4825
 20
83.840663022141
 30
0.0
 11
16.5763
 21
83.791663022141
 31
0.0
  0
LINE
  5
816
330
1D
100
AcDbEntity
  8
0
100
AcDbLine
 10
20.1187
 20
83.543663022141
 30
0.0
 11
21.0944
 21
83.328663022141
 31
0.0
  0
LINE
  5
817
330
1D
100
AcDbEntity
  8
0
100
AcDbLine
 10
19.1845
 20
83.817663022141
 30
0.0
 11
20.1187
 21
83.543663022141
 31
0.0
  0
LINE
  5
818
330
1D
100
AcDbEntity
  8
0
100
AcDbLine
 10
18.3006
 20
84.146663022141
 30
0.0
 11
19.1845
 21
83.817663022141
 31
0.0
  0
LINE
  5
819
330
1D
100
AcDbEntity
  8
0
100
AcDbLine
 10
19.1845
 20
83.858663022141
 30
0.0
 11
20.1349
 21
83.580663022141
 31
0.0
  0
LINE
  5
81A
330
1D
100
AcDbEntity
  8
0
100
AcDbLine
 10
20.1349
 20
83.580663022141
 30
0.0
 11
21.1267
 21
83.362663022141
 31
0.0
  0
LINE
  5
81B
330
1D
100
AcDbEntity
  8
0
100
AcDbLine
 10
21.1267
 20
83.362663022141
 30
0.0
 11
22.1497
 21
83.209663022141
 31
0.0
  0
LINE
  5
81C
330
1D
100
AcDbEntity
  8
0
100
AcDbLine
 10
22.6905
 20
82.199663022141
 30
0.0
 11
23.8105
 21
82.150663022141
 31
0.0
  0
LINE
  5
81D
330
1D
100
AcDbEntity
  8
0
100
AcDbLine
 10
22.1497
 20
83.209663022141
 30
0.0
 11
23.195
 21
83.120663022141
 31
0.0
  0
LINE
  5
81E
330
1D
100
AcDbEntity
  8
0
100
AcDbLine
 10
17.4753
 20
84.529663022141
 30
0.0
 11
18.3006
 21
84.146663022141
 31
0.0
  0
LINE
  5
81F
330
1D
100
AcDbEntity
  8
0
100
AcDbLine
 10
17.3976
 20
84.610663022141
 30
0.0
 11
18.2583
 21
84.205663022141
 31
0.0
  0
LINE
  5
820
330
1D
100
AcDbEntity
  8
0
100
AcDbLine
 10
18.2583
 20
84.205663022141
 30
0.0
 11
19.1845
 21
83.858663022141
 31
0.0
  0
LINE
  5
821
330
1D
100
AcDbEntity
  8
0
100
AcDbLine
 10
16.7186
 20
84.960663022141
 30
0.0
 11
17.4753
 21
84.529663022141
 31
0.0
  0
LINE
  5
822
330
1D
100
AcDbEntity
  8
0
100
AcDbLine
 10
16.6127
 20
85.069663022141
 30
0.0
 11
17.3976
 21
84.610663022141
 31
0.0
  0
LINE
  5
823
330
1D
100
AcDbEntity
  8
0
100
AcDbLine
 10
16.0386
 20
85.436663022141
 30
0.0
 11
16.7186
 21
84.960663022141
 31
0.0
  0
LINE
  5
824
330
1D
100
AcDbEntity
  8
0
100
AcDbLine
 10
17.0849
 20
86.057663022141
 30
0.0
 11
17.6811
 21
85.631663022141
 31
0.0
  0
LINE
  5
825
330
1D
100
AcDbEntity
  8
0
100
AcDbLine
 10
17.6811
 20
85.631663022141
 30
0.0
 11
18.3481
 21
85.245663022141
 31
0.0
  0
LINE
  5
826
330
1D
100
AcDbEntity
  8
0
100
AcDbLine
 10
18.3481
 20
85.245663022141
 30
0.0
 11
19.0775
 21
84.904663022141
 31
0.0
  0
LINE
  5
827
330
1D
100
AcDbEntity
  8
0
100
AcDbLine
 10
19.0775
 20
84.904663022141
 30
0.0
 11
19.8615
 21
84.610663022141
 31
0.0
  0
LINE
  5
828
330
1D
100
AcDbEntity
  8
0
100
AcDbLine
 10
19.8615
 20
84.610663022141
 30
0.0
 11
20.7705
 21
84.348663022141
 31
0.0
  0
LINE
  5
829
330
1D
100
AcDbEntity
  8
0
100
AcDbLine
 10
20.7705
 20
84.348663022141
 30
0.0
 11
21.723
 21
84.151663022141
 31
0.0
  0
LINE
  5
82A
330
1D
100
AcDbEntity
  8
0
100
AcDbLine
 10
21.723
 20
84.151663022141
 30
0.0
 11
22.7067
 21
84.021663022141
 31
0.0
  0
LINE
  5
82B
330
1D
100
AcDbEntity
  8
0
100
AcDbLine
 10
23.1264
 20
83.083663022141
 30
0.0
 11
24.0906
 21
83.057663022141
 31
0.0
  0
LINE
  5
82C
330
1D
100
AcDbEntity
  8
0
100
AcDbLine
 10
23.195
 20
83.120663022141
 30
0.0
 11
24.0906
 21
83.100663022141
 31
0.0
  0
LINE
  5
82D
330
1D
100
AcDbEntity
  8
0
100
AcDbLine
 10
22.7067
 20
84.021663022141
 30
0.0
 11
23.7076
 21
83.959663022141
 31
0.0
  0
LINE
  5
82E
330
1D
100
AcDbEntity
  8
0
100
AcDbLine
 10
16.5643
 20
86.518663022141
 30
0.0
 11
17.0849
 21
86.057663022141
 31
0.0
  0
LINE
  5
82F
330
1D
100
AcDbEntity
  8
0
100
AcDbLine
 10
19.021
 20
87.275663022141
 30
0.0
 11
19.8615
 21
86.958663022141
 31
0.0
  0
LINE
  5
830
330
1D
100
AcDbEntity
  8
0
100
AcDbLine
 10
19.8615
 20
86.958663022141
 30
0.0
 11
20.7554
 21
86.700663022141
 31
0.0
  0
LINE
  5
831
330
1D
100
AcDbEntity
  8
0
100
AcDbLine
 10
16.1243
 20
87.010663022141
 30
0.0
 11
16.5643
 21
86.518663022141
 31
0.0
  0
LINE
  5
832
330
1D
100
AcDbEntity
  8
0
100
AcDbLine
 10
20.7554
 20
86.700663022141
 30
0.0
 11
21.6917
 21
86.504663022141
 31
0.0
  0
LINE
  5
833
330
1D
100
AcDbEntity
  8
0
100
AcDbLine
 10
21.6917
 20
86.504663022141
 30
0.0
 11
22.6583
 21
86.373663022141
 31
0.0
  0
LINE
  5
834
330
1D
100
AcDbEntity
  8
0
100
AcDbLine
 10
22.6583
 20
86.373663022141
 30
0.0
 11
23.642
 21
86.308663022141
 31
0.0
  0
LINE
  5
835
330
1D
100
AcDbEntity
  8
0
100
AcDbLine
 10
23.8105
 20
82.150663022141
 30
0.0
 11
24.0906
 21
82.154663022141
 31
0.0
  0
LINE
  5
836
330
1D
100
AcDbEntity
  8
0
100
AcDbLine
 10
23.7076
 20
83.959663022141
 30
0.0
 11
24.0906
 21
83.962663022141
 31
0.0
  0
LINE
  5
837
330
1D
100
AcDbEntity
  8
0
100
AcDbLine
 10
23.642
 20
86.308663022141
 30
0.0
 11
24.0906
 21
86.310663022141
 31
0.0
  0
LINE
  5
838
330
1D
100
AcDbEntity
  8
0
100
AcDbLine
 10
16.3887
 20
89.049663022141
 30
0.0
 11
16.9194
 21
88.541663022141
 31
0.0
  0
LINE
  5
839
330
1D
100
AcDbEntity
  8
0
100
AcDbLine
 10
16.9194
 20
88.541663022141
 30
0.0
 11
17.5399
 21
88.072663022141
 31
0.0
  0
LINE
  5
83A
330
1D
100
AcDbEntity
  8
0
100
AcDbLine
 10
17.5399
 20
88.072663022141
 30
0.0
 11
18.2431
 21
87.649663022141
 31
0.0
  0
LINE
  5
83B
330
1D
100
AcDbEntity
  8
0
100
AcDbLine
 10
18.2431
 20
87.649663022141
 30
0.0
 11
19.021
 21
87.275663022141
 31
0.0
  0
LINE
  5
83C
330
1D
100
AcDbEntity
  8
0
100
AcDbLine
 10
15.9549
 20
89.589663022141
 30
0.0
 11
16.3887
 21
89.049663022141
 31
0.0
  0
LINE
  5
83D
330
1D
100
AcDbEntity
  8
0
100
AcDbLine
 10
15.5124
 20
116.298963022141
 30
0.0
 11
18.3704
 21
116.249963022141
 31
0.0
  0
LINE
  5
83E
330
1D
100
AcDbEntity
  8
0
100
AcDbLine
 10
15.4425
 20
165.347963022141
 30
0.0
 11
17.7887
 21
165.411963022141
 31
0.0
  0
LINE
  5
83F
330
1D
100
AcDbEntity
  8
0
100
AcDbLine
 10
15.4393
 20
92.604663022141
 30
0.0
 11
16.0386
 21
93.120663022141
 31
0.0
  0
LINE
  5
840
330
1D
100
AcDbEntity
  8
0
100
AcDbLine
 10
16.1944
 20
98.160963022141
 30
0.0
 11
18.0264
 21
98.904963022141
 31
0.0
  0
LINE
  5
841
330
1D
100
AcDbEntity
  8
0
100
AcDbLine
 10
16.0386
 20
93.120663022141
 30
0.0
 11
16.7186
 21
93.595663022141
 31
0.0
  0
LINE
  5
842
330
1D
100
AcDbEntity
  8
0
100
AcDbLine
 10
17.0849
 20
92.579663022141
 30
0.0
 11
17.6811
 21
93.006663022141
 31
0.0
  0
LINE
  5
843
330
1D
100
AcDbEntity
  8
0
100
AcDbLine
 10
17.6811
 20
93.006663022141
 30
0.0
 11
18.3481
 21
93.391663022141
 31
0.0
  0
LINE
  5
844
330
1D
100
AcDbEntity
  8
0
100
AcDbLine
 10
16.7186
 20
93.595663022141
 30
0.0
 11
17.4753
 21
94.026663022141
 31
0.0
  0
LINE
  5
845
330
1D
100
AcDbEntity
  8
0
100
AcDbLine
 10
17.4753
 20
94.026663022141
 30
0.0
 11
18.3006
 21
94.408663022141
 31
0.0
  0
LINE
  5
846
330
1D
100
AcDbEntity
  8
0
100
AcDbLine
 10
18.3481
 20
93.391663022141
 30
0.0
 11
19.0775
 21
93.733663022141
 31
0.0
  0
LINE
  5
847
330
1D
100
AcDbEntity
  8
0
100
AcDbLine
 10
19.0775
 20
93.733663022141
 30
0.0
 11
19.8615
 21
94.026663022141
 31
0.0
  0
LINE
  5
848
330
1D
100
AcDbEntity
  8
0
100
AcDbLine
 10
18.3006
 20
94.408663022141
 30
0.0
 11
19.1845
 21
94.739663022141
 31
0.0
  0
LINE
  5
849
330
1D
100
AcDbEntity
  8
0
100
AcDbLine
 10
19.8615
 20
94.026663022141
 30
0.0
 11
20.7705
 21
94.289663022141
 31
0.0
  0
LINE
  5
84A
330
1D
100
AcDbEntity
  8
0
100
AcDbLine
 10
20.7705
 20
94.289663022141
 30
0.0
 11
21.723
 21
94.486663022141
 31
0.0
  0
LINE
  5
84B
330
1D
100
AcDbEntity
  8
0
100
AcDbLine
 10
21.723
 20
94.486663022141
 30
0.0
 11
22.7067
 21
94.616663022141
 31
0.0
  0
LINE
  5
84C
330
1D
100
AcDbEntity
  8
0
100
AcDbLine
 10
22.7067
 20
94.616663022141
 30
0.0
 11
23.7076
 21
94.678663022141
 31
0.0
  0
LINE
  5
84D
330
1D
100
AcDbEntity
  8
0
100
AcDbLine
 10
18.0264
 20
98.904963022141
 30
0.0
 11
19.8034
 21
99.388963022141
 31
0.0
  0
LINE
  5
84E
330
1D
100
AcDbEntity
  8
0
100
AcDbLine
 10
18.3704
 20
116.249963022141
 30
0.0
 11
21.1294
 21
116.223963022141
 31
0.0
  0
LINE
  5
84F
330
1D
100
AcDbEntity
  8
0
100
AcDbLine
 10
17.0517
 20
117.208063022141
 30
0.0
 11
19.1732
 21
117.134063022141
 31
0.0
  0
LINE
  5
850
330
1D
100
AcDbEntity
  8
0
100
AcDbLine
 10
19.1732
 20
117.134063022141
 30
0.0
 11
21.3352
 21
117.088163022141
 31
0.0
  0
LINE
  5
851
330
1D
100
AcDbEntity
  8
0
100
AcDbLine
 10
17.7887
 20
165.411963022141
 30
0.0
 11
20.8972
 21
165.462963022141
 31
0.0
  0
LINE
  5
852
330
1D
100
AcDbEntity
  8
0
100
AcDbLine
 10
20.1187
 20
95.012663022141
 30
0.0
 11
21.0944
 21
95.227663022141
 31
0.0
  0
LINE
  5
853
330
1D
100
AcDbEntity
  8
0
100
AcDbLine
 10
21.0944
 20
95.227663022141
 30
0.0
 11
22.0993
 21
95.382663022141
 31
0.0
  0
LINE
  5
854
330
1D
100
AcDbEntity
  8
0
100
AcDbLine
 10
22.0993
 20
95.382663022141
 30
0.0
 11
23.1264
 21
95.473663022141
 31
0.0
  0
LINE
  5
855
330
1D
100
AcDbEntity
  8
0
100
AcDbLine
 10
21.1294
 20
116.223963022141
 30
0.0
 11
24.0184
 21
116.214963022141
 31
0.0
  0
LINE
  5
856
330
1D
100
AcDbEntity
  8
0
100
AcDbLine
 10
19.8034
 20
99.388963022141
 30
0.0
 11
21.6854
 21
99.699963022141
 31
0.0
  0
LINE
  5
857
330
1D
100
AcDbEntity
  8
0
100
AcDbLine
 10
21.3196
 20
126.338963022141
 30
0.0
 11
21.3324
 21
126.659963022141
 31
0.0
  0
LINE
  5
858
330
1D
100
AcDbEntity
  8
0
100
AcDbLine
 10
21.3196
 20
126.338963022141
 30
0.0
 11
21.3398
 21
126.018963022141
 31
0.0
  0
LINE
  5
859
330
1D
100
AcDbEntity
  8
0
100
AcDbLine
 10
21.3324
 20
126.659963022141
 30
0.0
 11
21.3781
 21
126.976963022141
 31
0.0
  0
LINE
  5
85A
330
1D
100
AcDbEntity
  8
0
100
AcDbLine
 10
21.3398
 20
126.018963022141
 30
0.0
 11
21.393
 21
125.702963022141
 31
0.0
  0
LINE
  5
85B
330
1D
100
AcDbEntity
  8
0
100
AcDbLine
 10
21.3781
 20
126.976963022141
 30
0.0
 11
21.4565
 21
127.288963022141
 31
0.0
  0
LINE
  5
85C
330
1D
100
AcDbEntity
  8
0
100
AcDbLine
 10
21.3352
 20
117.088163022141
 30
0.0
 11
24.0194
 21
117.068563022141
 31
0.0
  0
LINE
  5
85D
330
1D
100
AcDbEntity
  8
0
100
AcDbLine
 10
20.8972
 20
165.462963022141
 30
0.0
 11
21.6428
 21
165.474963022141
 31
0.0
  0
LINE
  5
85E
330
1D
100
AcDbEntity
  8
0
100
AcDbLine
 10
21.6854
 20
99.699963022141
 30
0.0
 11
24.0194
 21
99.832963022141
 31
0.0
  0
LINE
  5
85F
330
1D
100
AcDbEntity
  8
0
100
AcDbLine
 10
21.4565
 20
127.288963022141
 30
0.0
 11
21.5479
 21
127.543963022141
 31
0.0
  0
LINE
  5
860
330
1D
100
AcDbEntity
  8
0
100
AcDbLine
 10
21.5479
 20
127.543963022141
 30
0.0
 11
21.6622
 21
127.790963022141
 31
0.0
  0
LINE
  5
861
330
1D
100
AcDbEntity
  8
0
100
AcDbLine
 10
21.6428
 20
165.474963022141
 30
0.0
 11
24.0194
 21
165.494963022141
 31
0.0
  0
LINE
  5
862
330
1D
100
AcDbEntity
  8
0
100
AcDbLine
 10
21.4784
 20
125.382963022141
 30
0.0
 11
21.5639
 21
125.149963022141
 31
0.0
  0
LINE
  5
863
330
1D
100
AcDbEntity
  8
0
100
AcDbLine
 10
21.5639
 20
125.149963022141
 30
0.0
 11
21.6686
 21
124.923963022141
 31
0.0
  0
LINE
  5
864
330
1D
100
AcDbEntity
  8
0
100
AcDbLine
 10
21.6686
 20
124.923963022141
 30
0.0
 11
21.792
 21
124.707963022141
 31
0.0
  0
LINE
  5
865
330
1D
100
AcDbEntity
  8
0
100
AcDbLine
 10
21.792
 20
124.707963022141
 30
0.0
 11
21.9339
 21
124.501963022141
 31
0.0
  0
LINE
  5
866
330
1D
100
AcDbEntity
  8
0
100
AcDbLine
 10
21.9339
 20
124.501963022141
 30
0.0
 11
22.0872
 21
124.315963022141
 31
0.0
  0
LINE
  5
867
330
1D
100
AcDbEntity
  8
0
100
AcDbLine
 10
22.0872
 20
124.315963022141
 30
0.0
 11
22.232023183324
 21
124.167712071164
 31
0.0
  0
LINE
  5
868
330
1D
100
AcDbEntity
  8
0
100
AcDbLine
 10
22.667
 20
123.825963022141
 30
0.0
 11
22.9022
 21
123.692963022141
 31
0.0
  0
LINE
  5
869
330
1D
100
AcDbEntity
  8
0
100
AcDbLine
 10
22.9022
 20
123.692963022141
 30
0.0
 11
23.151
 21
123.583963022141
 31
0.0
  0
LINE
  5
86A
330
1D
100
AcDbEntity
  8
0
100
AcDbLine
 10
23.151
 20
123.583963022141
 30
0.0
 11
23.4107
 21
123.502963022141
 31
0.0
  0
LINE
  5
86B
330
1D
100
AcDbEntity
  8
0
100
AcDbLine
 10
23.4107
 20
123.502963022141
 30
0.0
 11
23.6782
 21
123.450963022141
 31
0.0
  0
LINE
  5
86C
330
1D
100
AcDbEntity
  8
0
100
AcDbLine
 10
23.6782
 20
123.450963022141
 30
0.0
 11
23.9058
 21
123.428963022141
 31
0.0
  0
LINE
  5
86D
330
1D
100
AcDbEntity
  8
0
100
AcDbLine
 10
23.9058
 20
123.428963022141
 30
0.0
 11
24.1345
 21
123.429963022141
 31
0.0
  0
LINE
  5
86E
330
1D
100
AcDbEntity
  8
0
100
AcDbLine
 10
21.957
 20
128.248963022141
 30
0.0
 11
22.1241
 21
128.442963022141
 31
0.0
  0
LINE
  5
86F
330
1D
100
AcDbEntity
  8
0
100
AcDbLine
 10
22.1241
 20
128.442963022141
 30
0.0
 11
22.3086
 21
128.620963022141
 31
0.0
  0
LINE
  5
870
330
1D
100
AcDbEntity
  8
0
100
AcDbLine
 10
22.3086
 20
128.620963022141
 30
0.0
 11
22.5094
 21
128.780963022141
 31
0.0
  0
LINE
  5
871
330
1D
100
AcDbEntity
  8
0
100
AcDbLine
 10
22.7249
 20
128.921963022141
 30
0.0
 11
22.963
 21
129.045963022141
 31
0.0
  0
LINE
  5
872
330
1D
100
AcDbEntity
  8
0
100
AcDbLine
 10
22.963
 20
129.045963022141
 30
0.0
 11
23.213
 21
129.144963022141
 31
0.0
  0
LINE
  5
873
330
1D
100
AcDbEntity
  8
0
100
AcDbLine
 10
23.213
 20
129.144963022141
 30
0.0
 11
23.4724
 21
129.217963022141
 31
0.0
  0
LINE
  5
874
330
1D
100
AcDbEntity
  8
0
100
AcDbLine
 10
23.4724
 20
129.217963022141
 30
0.0
 11
23.7382
 21
129.261963022141
 31
0.0
  0
LINE
  5
875
330
1D
100
AcDbEntity
  8
0
100
AcDbLine
 10
23.7382
 20
129.261963022141
 30
0.0
 11
23.9704
 21
129.276963022141
 31
0.0
  0
LINE
  5
876
330
1D
100
AcDbEntity
  8
0
100
AcDbLine
 10
22.5094
 20
128.780963022141
 30
0.0
 11
22.7249
 21
128.921963022141
 31
0.0
  0
LINE
  5
877
330
1D
100
AcDbEntity
  8
0
100
AcDbLine
 10
21.7987
 20
128.025963022141
 30
0.0
 11
21.957
 21
128.248963022141
 31
0.0
  0
LINE
  5
878
330
1D
100
AcDbEntity
  8
0
100
AcDbLine
 10
21.6622
 20
127.790963022141
 30
0.0
 11
21.7987
 21
128.025963022141
 31
0.0
  0
LINE
  5
879
330
1D
100
AcDbEntity
  8
0
100
AcDbLine
 10
21.393
 20
125.702963022141
 30
0.0
 11
21.4784
 21
125.382963022141
 31
0.0
  0
LINE
  5
87A
330
1D
100
AcDbEntity
  8
0
100
AcDbLine
 10
21.393
 20
125.702963022141
 30
0.0
 11
21.440036831174
 21
125.533016429321
 31
0.0
  0
LINE
  5
87B
330
1D
100
AcDbEntity
  8
0
100
AcDbLine
 10
23.1264
 20
95.473663022141
 30
0.0
 11
24.0906
 21
95.498663022141
 31
0.0
  0
LINE
  5
87C
330
1D
100
AcDbEntity
  8
0
100
AcDbLine
 10
19.1845
 20
94.739663022141
 30
0.0
 11
20.1187
 21
95.012663022141
 31
0.0
  0
LINE
  5
87D
330
1D
100
AcDbEntity
  8
0
100
AcDbLine
 10
23.7076
 20
94.678663022141
 30
0.0
 11
24.0906
 21
94.674663022141
 31
0.0
  0
LINE
  5
87E
330
1D
100
AcDbEntity
  8
0
100
AcDbLine
 10
16.5643
 20
92.118663022141
 30
0.0
 11
17.0849
 21
92.579663022141
 31
0.0
  0
LINE
  5
87F
330
1D
100
AcDbEntity
  8
0
100
AcDbLine
 10
16.1243
 20
91.627663022141
 30
0.0
 11
16.5643
 21
92.118663022141
 31
0.0
  0
LINE
  5
880
330
1D
100
AcDbEntity
  8
0
100
AcDbLine
 10
15.7722
 20
91.110663022141
 30
0.0
 11
16.1243
 21
91.627663022141
 31
0.0
  0
LINE
  5
881
330
1D
100
AcDbEntity
  8
0
100
AcDbLine
 10
15.5109
 20
90.573663022141
 30
0.0
 11
15.7722
 21
91.110663022141
 31
0.0
  0
LINE
  5
882
330
1D
100
AcDbEntity
  8
0
100
AcDbLine
 10
15.3424
 20
90.023663022141
 30
0.0
 11
15.5109
 21
90.573663022141
 31
0.0
  0
LINE
  5
883
330
1D
100
AcDbEntity
  8
0
100
AcDbLine
 10
15.3424
 20
90.023663022141
 30
0.0
 11
15.3424
 21
88.613663022141
 31
0.0
  0
LINE
  5
884
330
1D
100
AcDbEntity
  8
0
100
AcDbLine
 10
12.5484
 20
86.190963022141
 30
0.0
 11
11.2364
 21
87.171963022141
 31
0.0
  0
LINE
  5
885
330
1D
100
AcDbEntity
  8
0
100
AcDbLine
 10
8.2924
 20
90.150963022141
 30
0.0
 11
6.9684
 21
91.913963022141
 31
0.0
  0
LINE
  5
886
330
1D
100
AcDbEntity
  8
0
100
AcDbLine
 10
6.4664
 20
92.632963022141
 30
0.0
 11
4.583395925794
 21
96.074215216195
 31
0.0
  0
LINE
  5
887
330
1D
100
AcDbEntity
  8
0
100
AcDbLine
 10
4.583395925794
 20
96.074215216195
 30
0.0
 11
2.725480410512
 21
100.808903142237
 31
0.0
  0
LINE
  5
888
330
1D
100
AcDbEntity
  8
0
100
AcDbLine
 10
22.667
 20
123.825963022141
 30
0.0
 11
22.232023183324
 21
124.167712071164
 31
0.0
  0
LINE
  5
889
330
1D
100
AcDbEntity
  8
0
100
AcDbLine
 10
1.7755
 20
138.829963022141
 30
0.0
 11
1.790637852983
 21
140.658826888309
 31
0.0
  0
LINE
  5
88A
330
1D
100
AcDbEntity
  8
0
100
AcDbLine
 10
9.2345
 20
165.046963022141
 30
0.0
 11
10.267349768777
 21
165.106452617516
 31
0.0
  0
LINE
  5
88B
330
1D
100
AcDbEntity
  8
0
100
AcDbLine
 10
46.6244
 20
78.593963022141
 30
0.0
 11
46.5484
 21
90.544963022141
 31
0.0
  0
LINE
  5
88C
330
1D
100
AcDbEntity
  8
0
100
AcDbLine
 10
38.6364
 20
88.884963022141
 30
0.0
 11
38.0664
 21
88.308963022141
 31
0.0
  0
LINE
  5
88D
330
1D
100
AcDbEntity
  8
0
100
AcDbLine
 10
35.8665
 20
88.737663022141
 30
0.0
 11
35.6778
 21
88.052663022141
 31
0.0
  0
LINE
  5
88E
330
1D
100
AcDbEntity
  8
0
100
AcDbLine
 10
34.1684
 20
88.922663022141
 30
0.0
 11
34.0564
 21
88.294663022141
 31
0.0
  0
LINE
  5
88F
330
1D
100
AcDbEntity
  8
0
100
AcDbLine
 10
34.101349840081
 20
88.546703196882
 30
0.0
 11
33.9384
 21
87.961663022141
 31
0.0
  0
LINE
  5
890
330
1D
100
AcDbEntity
  8
0
100
AcDbLine
 10
32.6964
 20
88.613663022141
 30
0.0
 11
32.5279
 21
88.063663022141
 31
0.0
  0
LINE
  5
891
330
1D
100
AcDbEntity
  8
0
100
AcDbLine
 10
31.1194
 20
88.541663022141
 30
0.0
 11
30.4989
 21
88.072663022141
 31
0.0
  0
LINE
  5
892
330
1D
100
AcDbEntity
  8
0
100
AcDbLine
 10
48.0399
 20
0.1941105
 30
0.0
 11
46.6244
 21
78.593963022141
 31
0.0
  0
LINE
  5
893
330
1D
100
AcDbEntity
  8
0
100
AcDbLine
 10
48.0399
 20
0.1941105
 30
0.0
 11
46.6244
 21
78.593963022141
 31
0.0
  0
LINE
  5
894
330
1D
100
AcDbEntity
  8
0
100
AcDbLine
 10
30.5635
 20
83.382663022141
 30
0.0
 11
29.604
 21
83.027663022141
 31
0.0
  0
LINE
  5
895
330
1D
100
AcDbEntity
  8
0
100
AcDbLine
 10
29.7382
 20
84.146663022141
 30
0.0
 11
28.8543
 21
83.817663022141
 31
0.0
  0
LINE
  5
896
330
1D
100
AcDbEntity
  8
0
100
AcDbLine
 10
29.7805
 20
84.205663022141
 30
0.0
 11
28.8543
 21
83.858663022141
 31
0.0
  0
LINE
  5
897
330
1D
100
AcDbEntity
  8
0
100
AcDbLine
 10
29.6907
 20
85.245663022141
 30
0.0
 11
28.9613
 21
84.904663022141
 31
0.0
  0
LINE
  5
898
330
1D
100
AcDbEntity
  8
0
100
AcDbLine
 10
29.7957
 20
87.649663022141
 30
0.0
 11
29.0178
 21
87.275663022141
 31
0.0
  0
LINE
  5
899
330
1D
100
AcDbEntity
  8
0
100
AcDbLine
 10
34.4368
 20
85.960663022141
 30
0.0
 11
33.8446
 21
85.371663022141
 31
0.0
  0
LINE
  5
89A
330
1D
100
AcDbEntity
  8
0
100
AcDbLine
 10
34.004407853293
 20
85.263713471199
 30
0.0
 11
33.177462661534
 21
84.829815660302
 31
0.0
  0
LINE
  5
89B
330
1D
100
AcDbEntity
  8
0
100
AcDbLine
 10
34.004407853293
 20
85.263713471199
 30
0.0
 11
33.177462661534
 21
84.829815660302
 31
0.0
  0
LINE
  5
89C
330
1D
100
AcDbEntity
  8
0
100
AcDbLine
 10
34.0564
 20
88.294663022141
 30
0.0
 11
33.8415
 21
87.677663022141
 31
0.0
  0
LINE
  5
89D
330
1D
100
AcDbEntity
  8
0
100
AcDbLine
 10
37.7524
 20
88.000963022141
 30
0.0
 11
36.8024
 21
87.171963022141
 31
0.0
  0
LINE
  5
89E
330
1D
100
AcDbEntity
  8
0
100
AcDbLine
 10
35.4904
 20
86.190963022141
 30
0.0
 11
34.0754
 21
85.300963022141
 31
0.0
  0
LINE
  5
89F
330
1D
100
AcDbEntity
  8
0
100
AcDbLine
 10
35.6243
 20
87.896663022141
 30
0.0
 11
35.3307
 21
87.229663022141
 31
0.0
  0
LINE
  5
8A0
330
1D
100
AcDbEntity
  8
0
100
AcDbLine
 10
38.0664
 20
88.308963022141
 30
0.0
 11
37.7524
 21
88.000963022141
 31
0.0
  0
LINE
  5
8A1
330
1D
100
AcDbEntity
  8
0
100
AcDbLine
 10
35.6778
 20
88.052663022141
 30
0.0
 11
35.6243
 21
87.896663022141
 31
0.0
  0
LINE
  5
8A2
330
1D
100
AcDbEntity
  8
0
100
AcDbLine
 10
34.9332
 20
86.581663022141
 30
0.0
 11
34.4368
 21
85.960663022141
 31
0.0
  0
LINE
  5
8A3
330
1D
100
AcDbEntity
  8
0
100
AcDbLine
 10
35.3307
 20
87.229663022141
 30
0.0
 11
34.9332
 21
86.581663022141
 31
0.0
  0
LINE
  5
8A4
330
1D
100
AcDbEntity
  8
0
100
AcDbLine
 10
35.4904
 20
86.190963022141
 30
0.0
 11
36.8024
 21
87.171963022141
 31
0.0
  0
LINE
  5
8A5
330
1D
100
AcDbEntity
  8
0
100
AcDbLine
 10
32.3977
 20
84.305663022141
 30
0.0
 11
31.5563
 21
83.840663022141
 31
0.0
  0
LINE
  5
8A6
330
1D
100
AcDbEntity
  8
0
100
AcDbLine
 10
31.4625
 20
83.791663022141
 30
0.0
 11
30.5635
 21
83.382663022141
 31
0.0
  0
LINE
  5
8A7
330
1D
100
AcDbEntity
  8
0
100
AcDbLine
 10
31.5563
 20
83.840663022141
 30
0.0
 11
31.4625
 21
83.791663022141
 31
0.0
  0
LINE
  5
8A8
330
1D
100
AcDbEntity
  8
0
100
AcDbLine
 10
32.1263
 20
85.576663022141
 30
0.0
 11
31.4261
 21
85.069663022141
 31
0.0
  0
LINE
  5
8A9
330
1D
100
AcDbEntity
  8
0
100
AcDbLine
 10
32.0002
 20
85.436663022141
 30
0.0
 11
31.3202
 21
84.960663022141
 31
0.0
  0
LINE
  5
8AA
330
1D
100
AcDbEntity
  8
0
100
AcDbLine
 10
31.9145
 20
87.010663022141
 30
0.0
 11
31.4745
 21
86.518663022141
 31
0.0
  0
LINE
  5
8AB
330
1D
100
AcDbEntity
  8
0
100
AcDbLine
 10
33.8446
 20
85.371663022141
 30
0.0
 11
33.1625
 21
84.817663022141
 31
0.0
  0
LINE
  5
8AC
330
1D
100
AcDbEntity
  8
0
100
AcDbLine
 10
33.8415
 20
87.677663022141
 30
0.0
 11
33.5237
 21
87.078663022141
 31
0.0
  0
LINE
  5
8AD
330
1D
100
AcDbEntity
  8
0
100
AcDbLine
 10
33.9384
 20
87.961663022141
 30
0.0
 11
33.6458
 21
87.323663022141
 31
0.0
  0
LINE
  5
8AE
330
1D
100
AcDbEntity
  8
0
100
AcDbLine
 10
33.1625
 20
84.817663022141
 30
0.0
 11
32.3977
 21
84.305663022141
 31
0.0
  0
LINE
  5
8AF
330
1D
100
AcDbEntity
  8
0
100
AcDbLine
 10
33.109
 20
86.499663022141
 30
0.0
 11
32.5995
 21
85.951663022141
 31
0.0
  0
LINE
  5
8B0
330
1D
100
AcDbEntity
  8
0
100
AcDbLine
 10
32.7337
 20
86.124663022141
 30
0.0
 11
32.1263
 21
85.576663022141
 31
0.0
  0
LINE
  5
8B1
330
1D
100
AcDbEntity
  8
0
100
AcDbLine
 10
33.5237
 20
87.078663022141
 30
0.0
 11
33.109
 21
86.499663022141
 31
0.0
  0
LINE
  5
8B2
330
1D
100
AcDbEntity
  8
0
100
AcDbLine
 10
33.2422
 20
86.709663022141
 30
0.0
 11
32.7337
 21
86.124663022141
 31
0.0
  0
LINE
  5
8B3
330
1D
100
AcDbEntity
  8
0
100
AcDbLine
 10
33.6458
 20
87.323663022141
 30
0.0
 11
33.2422
 21
86.709663022141
 31
0.0
  0
LINE
  5
8B4
330
1D
100
AcDbEntity
  8
0
100
AcDbLine
 10
32.5995
 20
85.951663022141
 30
0.0
 11
32.0002
 21
85.436663022141
 31
0.0
  0
LINE
  5
8B5
330
1D
100
AcDbEntity
  8
0
100
AcDbLine
 10
32.2666
 20
87.527663022141
 30
0.0
 11
31.9145
 21
87.010663022141
 31
0.0
  0
LINE
  5
8B6
330
1D
100
AcDbEntity
  8
0
100
AcDbLine
 10
32.5279
 20
88.063663022141
 30
0.0
 11
32.2666
 21
87.527663022141
 31
0.0
  0
LINE
  5
8B7
330
1D
100
AcDbEntity
  8
0
100
AcDbLine
 10
30.5635
 20
84.529663022141
 30
0.0
 11
29.7382
 21
84.146663022141
 31
0.0
  0
LINE
  5
8B8
330
1D
100
AcDbEntity
  8
0
100
AcDbLine
 10
30.6412
 20
84.610663022141
 30
0.0
 11
29.7805
 21
84.205663022141
 31
0.0
  0
LINE
  5
8B9
330
1D
100
AcDbEntity
  8
0
100
AcDbLine
 10
31.3202
 20
84.960663022141
 30
0.0
 11
30.5635
 21
84.529663022141
 31
0.0
  0
LINE
  5
8BA
330
1D
100
AcDbEntity
  8
0
100
AcDbLine
 10
31.4261
 20
85.069663022141
 30
0.0
 11
30.6412
 21
84.610663022141
 31
0.0
  0
LINE
  5
8BB
330
1D
100
AcDbEntity
  8
0
100
AcDbLine
 10
30.9539
 20
86.057663022141
 30
0.0
 11
30.3577
 21
85.631663022141
 31
0.0
  0
LINE
  5
8BC
330
1D
100
AcDbEntity
  8
0
100
AcDbLine
 10
30.3577
 20
85.631663022141
 30
0.0
 11
29.6907
 21
85.245663022141
 31
0.0
  0
LINE
  5
8BD
330
1D
100
AcDbEntity
  8
0
100
AcDbLine
 10
31.4745
 20
86.518663022141
 30
0.0
 11
30.9539
 21
86.057663022141
 31
0.0
  0
LINE
  5
8BE
330
1D
100
AcDbEntity
  8
0
100
AcDbLine
 10
30.4989
 20
88.072663022141
 30
0.0
 11
29.7957
 21
87.649663022141
 31
0.0
  0
LINE
  5
8BF
330
1D
100
AcDbEntity
  8
0
100
AcDbLine
 10
26.4561
 20
82.313663022141
 30
0.0
 11
25.3483
 21
82.199663022141
 31
0.0
  0
LINE
  5
8C0
330
1D
100
AcDbEntity
  8
0
100
AcDbLine
 10
25.9395
 20
83.174663022141
 30
0.0
 11
24.9124
 21
83.083663022141
 31
0.0
  0
LINE
  5
8C1
330
1D
100
AcDbEntity
  8
0
100
AcDbLine
 10
25.8891
 20
83.209663022141
 30
0.0
 11
24.8438
 21
83.120663022141
 31
0.0
  0
LINE
  5
8C2
330
1D
100
AcDbEntity
  8
0
100
AcDbLine
 10
26.3158
 20
84.151663022141
 30
0.0
 11
25.3321
 21
84.021663022141
 31
0.0
  0
LINE
  5
8C3
330
1D
100
AcDbEntity
  8
0
100
AcDbLine
 10
25.3805
 20
86.373663022141
 30
0.0
 11
24.3968
 21
86.308663022141
 31
0.0
  0
LINE
  5
8C4
330
1D
100
AcDbEntity
  8
0
100
AcDbLine
 10
27.5417
 20
82.489663022141
 30
0.0
 11
26.4561
 21
82.313663022141
 31
0.0
  0
LINE
  5
8C5
330
1D
100
AcDbEntity
  8
0
100
AcDbLine
 10
28.594
 20
82.728663022141
 30
0.0
 11
27.5417
 21
82.489663022141
 31
0.0
  0
LINE
  5
8C6
330
1D
100
AcDbEntity
  8
0
100
AcDbLine
 10
29.604
 20
83.027663022141
 30
0.0
 11
28.594
 21
82.728663022141
 31
0.0
  0
LINE
  5
8C7
330
1D
100
AcDbEntity
  8
0
100
AcDbLine
 10
26.9444
 20
83.328663022141
 30
0.0
 11
25.9395
 21
83.174663022141
 31
0.0
  0
LINE
  5
8C8
330
1D
100
AcDbEntity
  8
0
100
AcDbLine
 10
27.9201
 20
83.543663022141
 30
0.0
 11
26.9444
 21
83.328663022141
 31
0.0
  0
LINE
  5
8C9
330
1D
100
AcDbEntity
  8
0
100
AcDbLine
 10
28.8543
 20
83.817663022141
 30
0.0
 11
27.9201
 21
83.543663022141
 31
0.0
  0
LINE
  5
8CA
330
1D
100
AcDbEntity
  8
0
100
AcDbLine
 10
28.8543
 20
83.858663022141
 30
0.0
 11
27.9039
 21
83.580663022141
 31
0.0
  0
LINE
  5
8CB
330
1D
100
AcDbEntity
  8
0
100
AcDbLine
 10
27.9039
 20
83.580663022141
 30
0.0
 11
26.9121
 21
83.362663022141
 31
0.0
  0
LINE
  5
8CC
330
1D
100
AcDbEntity
  8
0
100
AcDbLine
 10
26.9121
 20
83.362663022141
 30
0.0
 11
25.8891
 21
83.209663022141
 31
0.0
  0
LINE
  5
8CD
330
1D
100
AcDbEntity
  8
0
100
AcDbLine
 10
28.9613
 20
84.904663022141
 30
0.0
 11
28.1773
 21
84.610663022141
 31
0.0
  0
LINE
  5
8CE
330
1D
100
AcDbEntity
  8
0
100
AcDbLine
 10
28.1773
 20
84.610663022141
 30
0.0
 11
27.2683
 21
84.348663022141
 31
0.0
  0
LINE
  5
8CF
330
1D
100
AcDbEntity
  8
0
100
AcDbLine
 10
27.2683
 20
84.348663022141
 30
0.0
 11
26.3158
 21
84.151663022141
 31
0.0
  0
LINE
  5
8D0
330
1D
100
AcDbEntity
  8
0
100
AcDbLine
 10
29.0178
 20
87.275663022141
 30
0.0
 11
28.1773
 21
86.958663022141
 31
0.0
  0
LINE
  5
8D1
330
1D
100
AcDbEntity
  8
0
100
AcDbLine
 10
28.1773
 20
86.958663022141
 30
0.0
 11
27.2834
 21
86.700663022141
 31
0.0
  0
LINE
  5
8D2
330
1D
100
AcDbEntity
  8
0
100
AcDbLine
 10
27.2834
 20
86.700663022141
 30
0.0
 11
26.3471
 21
86.504663022141
 31
0.0
  0
LINE
  5
8D3
330
1D
100
AcDbEntity
  8
0
100
AcDbLine
 10
26.3471
 20
86.504663022141
 30
0.0
 11
25.3805
 21
86.373663022141
 31
0.0
  0
LINE
  5
8D4
330
1D
100
AcDbEntity
  8
0
100
AcDbLine
 10
25.3321
 20
84.021663022141
 30
0.0
 11
24.3312
 21
83.959663022141
 31
0.0
  0
LINE
  5
8D5
330
1D
100
AcDbEntity
  8
0
100
AcDbLine
 10
25.3483
 20
82.199663022141
 30
0.0
 11
24.2283
 21
82.150663022141
 31
0.0
  0
LINE
  5
8D6
330
1D
100
AcDbEntity
  8
0
100
AcDbLine
 10
24.9124
 20
83.083663022141
 30
0.0
 11
23.9482
 21
83.057663022141
 31
0.0
  0
LINE
  5
8D7
330
1D
100
AcDbEntity
  8
0
100
AcDbLine
 10
24.8438
 20
83.120663022141
 30
0.0
 11
23.9482
 21
83.100663022141
 31
0.0
  0
LINE
  5
8D8
330
1D
100
AcDbEntity
  8
0
100
AcDbLine
 10
24.2283
 20
82.150663022141
 30
0.0
 11
23.9482
 21
82.154663022141
 31
0.0
  0
LINE
  5
8D9
330
1D
100
AcDbEntity
  8
0
100
AcDbLine
 10
24.3312
 20
83.959663022141
 30
0.0
 11
23.9482
 21
83.962663022141
 31
0.0
  0
LINE
  5
8DA
330
1D
100
AcDbEntity
  8
0
100
AcDbLine
 10
24.3968
 20
86.308663022141
 30
0.0
 11
23.9482
 21
86.310663022141
 31
0.0
  0
LINE
  5
8DB
330
1D
100
AcDbEntity
  8
0
100
AcDbLine
 10
46.3247
 20
124.173963022141
 30
0.0
 11
46.2457
 21
122.531963022141
 31
0.0
  0
LINE
  5
8DC
330
1D
100
AcDbEntity
  8
0
100
AcDbLine
 10
32.5264
 20
116.298963022141
 30
0.0
 11
29.6684
 21
116.249963022141
 31
0.0
  0
LINE
  5
8DD
330
1D
100
AcDbEntity
  8
0
100
AcDbLine
 10
29.6907
 20
93.391663022141
 30
0.0
 11
28.9613
 21
93.733663022141
 31
0.0
  0
LINE
  5
8DE
330
1D
100
AcDbEntity
  8
0
100
AcDbLine
 10
29.7382
 20
94.408663022141
 30
0.0
 11
28.8543
 21
94.739663022141
 31
0.0
  0
LINE
  5
8DF
330
1D
100
AcDbEntity
  8
0
100
AcDbLine
 10
30.0124
 20
98.904963022141
 30
0.0
 11
28.2354
 21
99.388963022141
 31
0.0
  0
LINE
  5
8E0
330
1D
100
AcDbEntity
  8
0
100
AcDbLine
 10
30.9871
 20
117.208063022141
 30
0.0
 11
28.8656
 21
117.134063022141
 31
0.0
  0
LINE
  5
8E1
330
1D
100
AcDbEntity
  8
0
100
AcDbLine
 10
46.4854
 20
102.541963022141
 30
0.0
 11
46.4024
 21
117.622963022141
 31
0.0
  0
LINE
  5
8E2
330
1D
100
AcDbEntity
  8
0
100
AcDbLine
 10
39.3414
 20
89.674963022141
 30
0.0
 11
38.6364
 21
88.884963022141
 31
0.0
  0
LINE
  5
8E3
330
1D
100
AcDbEntity
  8
0
100
AcDbLine
 10
39.7464
 20
90.150963022141
 30
0.0
 11
39.3414
 21
89.674963022141
 31
0.0
  0
LINE
  5
8E4
330
1D
100
AcDbEntity
  8
0
100
AcDbLine
 10
46.5484
 20
90.544963022141
 30
0.0
 11
46.4854
 21
102.541963022141
 31
0.0
  0
LINE
  5
8E5
330
1D
100
AcDbEntity
  8
0
100
AcDbLine
 10
41.5724
 20
92.632963022141
 30
0.0
 11
41.0704
 21
91.913963022141
 31
0.0
  0
LINE
  5
8E6
330
1D
100
AcDbEntity
  8
0
100
AcDbLine
 10
39.7464
 20
90.150963022141
 30
0.0
 11
41.0704
 21
91.913963022141
 31
0.0
  0
LINE
  5
8E7
330
1D
100
AcDbEntity
  8
0
100
AcDbLine
 10
41.5724
 20
92.632963022141
 30
0.0
 11
43.455404074206
 21
96.074215216195
 31
0.0
  0
LINE
  5
8E8
330
1D
100
AcDbEntity
  8
0
100
AcDbLine
 10
43.455404074206
 20
96.074215216195
 30
0.0
 11
45.313319589488
 21
100.808903142237
 31
0.0
  0
LINE
  5
8E9
330
1D
100
AcDbEntity
  8
0
100
AcDbLine
 10
34.4534
 20
96.424963022141
 30
0.0
 11
33.2464
 21
97.359963022141
 31
0.0
  0
LINE
  5
8EA
330
1D
100
AcDbEntity
  8
0
100
AcDbLine
 10
34.113291719745
 20
88.613663022141
 30
0.0
 11
32.6964
 21
88.613663022141
 31
0.0
  0
LINE
  5
8EB
330
1D
100
AcDbEntity
  8
0
100
AcDbLine
 10
34.098981469649
 20
90.023663022141
 30
0.0
 11
32.6964
 21
90.023663022141
 31
0.0
  0
LINE
  5
8EC
330
1D
100
AcDbEntity
  8
0
100
AcDbLine
 10
34.0564
 20
90.261663022141
 30
0.0
 11
33.8415
 21
90.877663022141
 31
0.0
  0
LINE
  5
8ED
330
1D
100
AcDbEntity
  8
0
100
AcDbLine
 10
35.9482
 20
89.430663022141
 30
0.0
 11
35.9482
 21
94.288663022141
 31
0.0
  0
LINE
  5
8EE
330
1D
100
AcDbEntity
  8
0
100
AcDbLine
 10
35.9482
 20
89.773663022141
 30
0.0
 11
35.9482
 21
94.499207232667
 31
0.0
  0
LINE
  5
8EF
330
1D
100
AcDbEntity
  8
0
100
AcDbLine
 10
36.5154
 20
92.062963022141
 30
0.0
 11
36.4314
 21
93.180963022141
 31
0.0
  0
LINE
  5
8F0
330
1D
100
AcDbEntity
  8
0
100
AcDbLine
 10
35.9482
 20
94.288663022141
 30
0.0
 11
35.9482
 21
89.430663022141
 31
0.0
  0
LINE
  5
8F1
330
1D
100
AcDbEntity
  8
0
100
AcDbLine
 10
35.9482
 20
94.499207232667
 30
0.0
 11
35.9482
 21
89.773663022141
 31
0.0
  0
LINE
  5
8F2
330
1D
100
AcDbEntity
  8
0
100
AcDbLine
 10
35.9482
 20
89.430663022141
 30
0.0
 11
35.8665
 21
88.737663022141
 31
0.0
  0
LINE
  5
8F3
330
1D
100
AcDbEntity
  8
0
100
AcDbLine
 10
34.1724
 20
89.277663022141
 30
0.0
 11
34.1684
 21
89.635663022141
 31
0.0
  0
LINE
  5
8F4
330
1D
100
AcDbEntity
  8
0
100
AcDbLine
 10
34.1724
 20
89.277663022141
 30
0.0
 11
34.1684
 21
88.922663022141
 31
0.0
  0
LINE
  5
8F5
330
1D
100
AcDbEntity
  8
0
100
AcDbLine
 10
36.0334
 20
90.055963022141
 30
0.0
 11
35.9482
 21
89.893515022141
 31
0.0
  0
LINE
  5
8F6
330
1D
100
AcDbEntity
  8
0
100
AcDbLine
 10
35.9482
 20
89.773663022141
 30
0.0
 11
35.9414
 21
89.601663022141
 31
0.0
  0
LINE
  5
8F7
330
1D
100
AcDbEntity
  8
0
100
AcDbLine
 10
34.1684
 20
89.635663022141
 30
0.0
 11
34.0564
 21
90.261663022141
 31
0.0
  0
LINE
  5
8F8
330
1D
100
AcDbEntity
  8
0
100
AcDbLine
 10
36.3434
 20
90.941963022141
 30
0.0
 11
36.0334
 21
90.055963022141
 31
0.0
  0
LINE
  5
8F9
330
1D
100
AcDbEntity
  8
0
100
AcDbLine
 10
36.5154
 20
92.062963022141
 30
0.0
 11
36.3434
 21
90.941963022141
 31
0.0
  0
LINE
  5
8FA
330
1D
100
AcDbEntity
  8
0
100
AcDbLine
 10
34.061230663886
 20
90.234663061494
 30
0.0
 11
34.043059847359
 21
90.299901896162
 31
0.0
  0
LINE
  5
8FB
330
1D
100
AcDbEntity
  8
0
100
AcDbLine
 10
36.0604
 20
94.314963022141
 30
0.0
 11
35.3954
 21
95.406963022141
 31
0.0
  0
LINE
  5
8FC
330
1D
100
AcDbEntity
  8
0
100
AcDbLine
 10
36.4314
 20
93.180963022141
 30
0.0
 11
36.0604
 21
94.314963022141
 31
0.0
  0
LINE
  5
8FD
330
1D
100
AcDbEntity
  8
0
100
AcDbLine
 10
35.3954
 20
95.406963022141
 30
0.0
 11
34.4534
 21
96.424963022141
 31
0.0
  0
LINE
  5
8FE
330
1D
100
AcDbEntity
  8
0
100
AcDbLine
 10
32.6964
 20
88.613663022141
 30
0.0
 11
32.6964
 21
90.023663022141
 31
0.0
  0
LINE
  5
8FF
330
1D
100
AcDbEntity
  8
0
100
AcDbLine
 10
33.8415
 20
90.877663022141
 30
0.0
 11
33.5237
 21
91.479663022141
 31
0.0
  0
LINE
  5
900
330
1D
100
AcDbEntity
  8
0
100
AcDbLine
 10
33.109
 20
92.056663022141
 30
0.0
 11
32.5995
 21
92.604663022141
 31
0.0
  0
LINE
  5
901
330
1D
100
AcDbEntity
  8
0
100
AcDbLine
 10
33.5237
 20
91.479663022141
 30
0.0
 11
33.109
 21
92.056663022141
 31
0.0
  0
LINE
  5
902
330
1D
100
AcDbEntity
  8
0
100
AcDbLine
 10
32.549251517589
 20
90.503969641285
 30
0.0
 11
32.4159
 21
90.156663022141
 31
0.0
  0
LINE
  5
903
330
1D
100
AcDbEntity
  8
0
100
AcDbLine
 10
32.4159
 20
90.156663022141
 30
0.0
 11
32.0839
 21
89.589663022141
 31
0.0
  0
LINE
  5
904
330
1D
100
AcDbEntity
  8
0
100
AcDbLine
 10
31.6501
 20
89.049663022141
 30
0.0
 11
31.1194
 21
88.541663022141
 31
0.0
  0
LINE
  5
905
330
1D
100
AcDbEntity
  8
0
100
AcDbLine
 10
32.0839
 20
89.589663022141
 30
0.0
 11
31.6501
 21
89.049663022141
 31
0.0
  0
LINE
  5
906
330
1D
100
AcDbEntity
  8
0
100
AcDbLine
 10
32.5995
 20
92.604663022141
 30
0.0
 11
32.0002
 21
93.120663022141
 31
0.0
  0
LINE
  5
907
330
1D
100
AcDbEntity
  8
0
100
AcDbLine
 10
32.0002
 20
93.120663022141
 30
0.0
 11
31.3202
 21
93.595663022141
 31
0.0
  0
LINE
  5
908
330
1D
100
AcDbEntity
  8
0
100
AcDbLine
 10
30.9539
 20
92.579663022141
 30
0.0
 11
30.3577
 21
93.006663022141
 31
0.0
  0
LINE
  5
909
330
1D
100
AcDbEntity
  8
0
100
AcDbLine
 10
30.3577
 20
93.006663022141
 30
0.0
 11
29.6907
 21
93.391663022141
 31
0.0
  0
LINE
  5
90A
330
1D
100
AcDbEntity
  8
0
100
AcDbLine
 10
31.3202
 20
93.595663022141
 30
0.0
 11
30.5635
 21
94.026663022141
 31
0.0
  0
LINE
  5
90B
330
1D
100
AcDbEntity
  8
0
100
AcDbLine
 10
30.5635
 20
94.026663022141
 30
0.0
 11
29.7382
 21
94.408663022141
 31
0.0
  0
LINE
  5
90C
330
1D
100
AcDbEntity
  8
0
100
AcDbLine
 10
31.4745
 20
92.118663022141
 30
0.0
 11
30.9539
 21
92.579663022141
 31
0.0
  0
LINE
  5
90D
330
1D
100
AcDbEntity
  8
0
100
AcDbLine
 10
31.9145
 20
91.627663022141
 30
0.0
 11
31.4745
 21
92.118663022141
 31
0.0
  0
LINE
  5
90E
330
1D
100
AcDbEntity
  8
0
100
AcDbLine
 10
32.2666
 20
91.110663022141
 30
0.0
 11
31.9145
 21
91.627663022141
 31
0.0
  0
LINE
  5
90F
330
1D
100
AcDbEntity
  8
0
100
AcDbLine
 10
32.5279
 20
90.573663022141
 30
0.0
 11
32.2666
 21
91.110663022141
 31
0.0
  0
LINE
  5
910
330
1D
100
AcDbEntity
  8
0
100
AcDbLine
 10
32.6964
 20
90.023663022141
 30
0.0
 11
32.5279
 21
90.573663022141
 31
0.0
  0
LINE
  5
911
330
1D
100
AcDbEntity
  8
0
100
AcDbLine
 10
32.6964
 20
90.023663022141
 30
0.0
 11
32.6964
 21
88.613663022141
 31
0.0
  0
LINE
  5
912
330
1D
100
AcDbEntity
  8
0
100
AcDbLine
 10
33.2464
 20
97.359963022141
 30
0.0
 11
31.8444
 21
98.160963022141
 31
0.0
  0
LINE
  5
913
330
1D
100
AcDbEntity
  8
0
100
AcDbLine
 10
31.8444
 20
98.160963022141
 30
0.0
 11
30.0124
 21
98.904963022141
 31
0.0
  0
LINE
  5
914
330
1D
100
AcDbEntity
  8
0
100
AcDbLine
 10
39.3464
 20
116.592963022141
 30
0.0
 11
37.3674
 21
116.465963022141
 31
0.0
  0
LINE
  5
915
330
1D
100
AcDbEntity
  8
0
100
AcDbLine
 10
38.3745
 20
117.771763022141
 30
0.0
 11
36.5093
 21
117.570963022141
 31
0.0
  0
LINE
  5
916
330
1D
100
AcDbEntity
  8
0
100
AcDbLine
 10
43.2064
 20
117.127963022141
 30
0.0
 11
42.2354
 21
116.925963022141
 31
0.0
  0
LINE
  5
917
330
1D
100
AcDbEntity
  8
0
100
AcDbLine
 10
42.8974
 20
118.594263022141
 30
0.0
 11
41.6905
 21
118.311163022141
 31
0.0
  0
LINE
  5
918
330
1D
100
AcDbEntity
  8
0
100
AcDbLine
 10
46.2404
 20
118.549963022141
 30
0.0
 11
46.0264
 21
118.869963022141
 31
0.0
  0
LINE
  5
919
330
1D
100
AcDbEntity
  8
0
100
AcDbLine
 10
44.3297
 20
118.488163022141
 30
0.0
 11
44.253445661272
 21
119.05565515922
 31
0.0
  0
LINE
  5
91A
330
1D
100
AcDbEntity
  8
0
100
AcDbLine
 10
46.3614
 20
118.165963022141
 30
0.0
 11
46.2824
 21
118.420963022141
 31
0.0
  0
LINE
  5
91B
330
1D
100
AcDbEntity
  8
0
100
AcDbLine
 10
46.4024
 20
117.622963022141
 30
0.0
 11
46.3614
 21
118.165963022141
 31
0.0
  0
LINE
  5
91C
330
1D
100
AcDbEntity
  8
0
100
AcDbLine
 10
46.2824
 20
118.420963022141
 30
0.0
 11
46.2404
 21
118.549963022141
 31
0.0
  0
LINE
  5
91D
330
1D
100
AcDbEntity
  8
0
100
AcDbLine
 10
44.5624
 20
117.883963022141
 30
0.0
 11
44.3864
 21
118.289963022141
 31
0.0
  0
LINE
  5
91E
330
1D
100
AcDbEntity
  8
0
100
AcDbLine
 10
44.5624
 20
117.883963022141
 30
0.0
 11
44.4394
 21
117.671963022141
 31
0.0
  0
LINE
  5
91F
330
1D
100
AcDbEntity
  8
0
100
AcDbLine
 10
44.4394
 20
117.671963022141
 30
0.0
 11
44.1664
 21
117.473963022141
 31
0.0
  0
LINE
  5
920
330
1D
100
AcDbEntity
  8
0
100
AcDbLine
 10
44.1664
 20
117.473963022141
 30
0.0
 11
43.2064
 21
117.127963022141
 31
0.0
  0
LINE
  5
921
330
1D
100
AcDbEntity
  8
0
100
AcDbLine
 10
44.368215828083
 20
117.62033494141
 30
0.0
 11
44.3297
 21
118.488163022141
 31
0.0
  0
LINE
  5
922
330
1D
100
AcDbEntity
  8
0
100
AcDbLine
 10
44.3864
 20
118.289963022141
 30
0.0
 11
44.337194400802
 21
118.319301237582
 31
0.0
  0
LINE
  5
923
330
1D
100
AcDbEntity
  8
0
100
AcDbLine
 10
44.3864
 20
118.289963022141
 30
0.0
 11
44.337194400802
 21
118.319301237582
 31
0.0
  0
LINE
  5
924
330
1D
100
AcDbEntity
  8
0
100
AcDbLine
 10
46.2457
 20
122.531963022141
 30
0.0
 11
46.1807
 21
121.743963022141
 31
0.0
  0
LINE
  5
925
330
1D
100
AcDbEntity
  8
0
100
AcDbLine
 10
45.8554
 20
119.062963022141
 30
0.0
 11
45.5404
 21
119.273963022141
 31
0.0
  0
LINE
  5
926
330
1D
100
AcDbEntity
  8
0
100
AcDbLine
 10
46.0264
 20
118.869963022141
 30
0.0
 11
45.8554
 21
119.062963022141
 31
0.0
  0
LINE
  5
927
330
1D
100
AcDbEntity
  8
0
100
AcDbLine
 10
45.5404
 20
119.273963022141
 30
0.0
 11
45.1944
 21
119.460963022141
 31
0.0
  0
LINE
  5
928
330
1D
100
AcDbEntity
  8
0
100
AcDbLine
 10
45.6941
 20
120.014963022141
 30
0.0
 11
45.2777
 21
119.607963022141
 31
0.0
  0
LINE
  5
929
330
1D
100
AcDbEntity
  8
0
100
AcDbLine
 10
46.0275
 20
120.562963022141
 30
0.0
 11
45.9904
 21
120.373963022141
 31
0.0
  0
LINE
  5
92A
330
1D
100
AcDbEntity
  8
0
100
AcDbLine
 10
45.9904
 20
120.373963022141
 30
0.0
 11
45.8762
 21
120.194963022141
 31
0.0
  0
LINE
  5
92B
330
1D
100
AcDbEntity
  8
0
100
AcDbLine
 10
45.8762
 20
120.194963022141
 30
0.0
 11
45.6941
 21
120.014963022141
 31
0.0
  0
LINE
  5
92C
330
1D
100
AcDbEntity
  8
0
100
AcDbLine
 10
46.1807
 20
121.743963022141
 30
0.0
 11
46.0275
 21
120.562963022141
 31
0.0
  0
LINE
  5
92D
330
1D
100
AcDbEntity
  8
0
100
AcDbLine
 10
45.1944
 20
119.460963022141
 30
0.0
 11
45.090324196835
 21
119.494555806133
 31
0.0
  0
LINE
  5
92E
330
1D
100
AcDbEntity
  8
0
100
AcDbLine
 10
45.2777
 20
119.607963022141
 30
0.0
 11
44.6135
 21
119.205963022141
 31
0.0
  0
LINE
  5
92F
330
1D
100
AcDbEntity
  8
0
100
AcDbLine
 10
44.6135
 20
119.205963022141
 30
0.0
 11
43.8666
 21
118.894163022141
 31
0.0
  0
LINE
  5
930
330
1D
100
AcDbEntity
  8
0
100
AcDbLine
 10
43.8666
 20
118.894163022141
 30
0.0
 11
42.8974
 21
118.594263022141
 31
0.0
  0
LINE
  5
931
330
1D
100
AcDbEntity
  8
0
100
AcDbLine
 10
42.2354
 20
116.925963022141
 30
0.0
 11
41.0434
 21
116.756963022141
 31
0.0
  0
LINE
  5
932
330
1D
100
AcDbEntity
  8
0
100
AcDbLine
 10
41.6905
 20
118.311163022141
 30
0.0
 11
41.4826
 21
118.263663022141
 31
0.0
  0
LINE
  5
933
330
1D
100
AcDbEntity
  8
0
100
AcDbLine
 10
41.4826
 20
118.263663022141
 30
0.0
 11
40.041
 21
118.003963022141
 31
0.0
  0
LINE
  5
934
330
1D
100
AcDbEntity
  8
0
100
AcDbLine
 10
41.0434
 20
116.756963022141
 30
0.0
 11
39.3464
 21
116.592963022141
 31
0.0
  0
LINE
  5
935
330
1D
100
AcDbEntity
  8
0
100
AcDbLine
 10
40.041
 20
118.003963022141
 30
0.0
 11
38.3745
 21
117.771763022141
 31
0.0
  0
LINE
  5
936
330
1D
100
AcDbEntity
  8
0
100
AcDbLine
 10
35.1154
 20
116.369963022141
 30
0.0
 11
32.5264
 21
116.298963022141
 31
0.0
  0
LINE
  5
937
330
1D
100
AcDbEntity
  8
0
100
AcDbLine
 10
37.3674
 20
116.465963022141
 30
0.0
 11
35.1154
 21
116.369963022141
 31
0.0
  0
LINE
  5
938
330
1D
100
AcDbEntity
  8
0
100
AcDbLine
 10
34.7599
 20
117.424163022141
 30
0.0
 11
32.9117
 21
117.303163022141
 31
0.0
  0
LINE
  5
939
330
1D
100
AcDbEntity
  8
0
100
AcDbLine
 10
36.5093
 20
117.570963022141
 30
0.0
 11
34.7599
 21
117.424163022141
 31
0.0
  0
LINE
  5
93A
330
1D
100
AcDbEntity
  8
0
100
AcDbLine
 10
32.9117
 20
117.303163022141
 30
0.0
 11
30.9871
 21
117.208063022141
 31
0.0
  0
LINE
  5
93B
330
1D
100
AcDbEntity
  8
0
100
AcDbLine
 10
26.3158
 20
94.486663022141
 30
0.0
 11
25.3321
 21
94.616663022141
 31
0.0
  0
LINE
  5
93C
330
1D
100
AcDbEntity
  8
0
100
AcDbLine
 10
25.9395
 20
95.382663022141
 30
0.0
 11
24.9124
 21
95.473663022141
 31
0.0
  0
LINE
  5
93D
330
1D
100
AcDbEntity
  8
0
100
AcDbLine
 10
28.9613
 20
93.733663022141
 30
0.0
 11
28.1773
 21
94.026663022141
 31
0.0
  0
LINE
  5
93E
330
1D
100
AcDbEntity
  8
0
100
AcDbLine
 10
28.1773
 20
94.026663022141
 30
0.0
 11
27.2683
 21
94.289663022141
 31
0.0
  0
LINE
  5
93F
330
1D
100
AcDbEntity
  8
0
100
AcDbLine
 10
27.2683
 20
94.289663022141
 30
0.0
 11
26.3158
 21
94.486663022141
 31
0.0
  0
LINE
  5
940
330
1D
100
AcDbEntity
  8
0
100
AcDbLine
 10
27.9201
 20
95.012663022141
 30
0.0
 11
26.9444
 21
95.227663022141
 31
0.0
  0
LINE
  5
941
330
1D
100
AcDbEntity
  8
0
100
AcDbLine
 10
26.9444
 20
95.227663022141
 30
0.0
 11
25.9395
 21
95.382663022141
 31
0.0
  0
LINE
  5
942
330
1D
100
AcDbEntity
  8
0
100
AcDbLine
 10
28.8543
 20
94.739663022141
 30
0.0
 11
27.9201
 21
95.012663022141
 31
0.0
  0
LINE
  5
943
330
1D
100
AcDbEntity
  8
0
100
AcDbLine
 10
25.3321
 20
94.616663022141
 30
0.0
 11
24.3312
 21
94.678663022141
 31
0.0
  0
LINE
  5
944
330
1D
100
AcDbEntity
  8
0
100
AcDbLine
 10
24.9124
 20
95.473663022141
 30
0.0
 11
23.9482
 21
95.498663022141
 31
0.0
  0
LINE
  5
945
330
1D
100
AcDbEntity
  8
0
100
AcDbLine
 10
24.3312
 20
94.678663022141
 30
0.0
 11
23.9482
 21
94.674663022141
 31
0.0
  0
LINE
  5
946
330
1D
100
AcDbEntity
  8
0
100
AcDbLine
 10
28.2354
 20
99.388963022141
 30
0.0
 11
26.3534
 21
99.699963022141
 31
0.0
  0
LINE
  5
947
330
1D
100
AcDbEntity
  8
0
100
AcDbLine
 10
26.3534
 20
99.699963022141
 30
0.0
 11
24.0194
 21
99.832963022141
 31
0.0
  0
LINE
  5
948
330
1D
100
AcDbEntity
  8
0
100
AcDbLine
 10
29.6684
 20
116.249963022141
 30
0.0
 11
26.9094
 21
116.223963022141
 31
0.0
  0
LINE
  5
949
330
1D
100
AcDbEntity
  8
0
100
AcDbLine
 10
28.8656
 20
117.134063022141
 30
0.0
 11
26.7036
 21
117.088163022141
 31
0.0
  0
LINE
  5
94A
330
1D
100
AcDbEntity
  8
0
100
AcDbLine
 10
26.9094
 20
116.223963022141
 30
0.0
 11
24.0204
 21
116.214963022141
 31
0.0
  0
LINE
  5
94B
330
1D
100
AcDbEntity
  8
0
100
AcDbLine
 10
26.7036
 20
117.088163022141
 30
0.0
 11
24.0194
 21
117.068563022141
 31
0.0
  0
LINE
  5
94C
330
1D
100
AcDbEntity
  8
0
100
AcDbLine
 10
30.2501
 20
165.411963022141
 30
0.0
 11
27.1416
 21
165.462963022141
 31
0.0
  0
LINE
  5
94D
330
1D
100
AcDbEntity
  8
0
100
AcDbLine
 10
46.2633
 20
138.829963022141
 30
0.0
 11
46.248162147017
 21
140.658826888309
 31
0.0
  0
LINE
  5
94E
330
1D
100
AcDbEntity
  8
0
100
AcDbLine
 10
46.3403
 20
125.369963022141
 30
0.0
 11
46.2633
 21
138.829963022141
 31
0.0
  0
LINE
  5
94F
330
1D
100
AcDbEntity
  8
0
100
AcDbLine
 10
46.3403
 20
125.369963022141
 30
0.0
 11
46.3247
 21
124.173963022141
 31
0.0
  0
LINE
  5
950
330
1D
100
AcDbEntity
  8
0
100
AcDbLine
 10
38.8043
 20
165.046963022141
 30
0.0
 11
37.771450231223
 21
165.106452617516
 31
0.0
  0
LINE
  5
951
330
1D
100
AcDbEntity
  8
0
100
AcDbLine
 10
46.2864
 20
156.066963022141
 30
0.0
 11
46.1298
 21
156.913963022141
 31
0.0
  0
LINE
  5
952
330
1D
100
AcDbEntity
  8
0
100
AcDbLine
 10
46.220249688109
 20
156.396606589913
 30
0.0
 11
46.1298
 21
156.913963022141
 31
0.0
  0
LINE
  5
953
330
1D
100
AcDbEntity
  8
0
100
AcDbLine
 10
46.2912
 20
156.039963022141
 30
0.0
 11
46.1298
 21
156.913963022141
 31
0.0
  0
LINE
  5
954
330
1D
100
AcDbEntity
  8
0
100
AcDbLine
 10
46.351
 20
155.422963022141
 30
0.0
 11
46.3422
 21
155.687963022141
 31
0.0
  0
LINE
  5
955
330
1D
100
AcDbEntity
  8
0
100
AcDbLine
 10
46.351
 20
155.422963022141
 30
0.0
 11
46.2591
 21
151.353963022141
 31
0.0
  0
LINE
  5
956
330
1D
100
AcDbEntity
  8
0
100
AcDbLine
 10
46.2591
 20
151.353963022141
 30
0.0
 11
46.248162147017
 21
140.658826888309
 31
0.0
  0
LINE
  5
957
330
1D
100
AcDbEntity
  8
0
100
AcDbLine
 10
46.3361
 20
155.733963022141
 30
0.0
 11
46.2912
 21
156.039963022141
 31
0.0
  0
LINE
  5
958
330
1D
100
AcDbEntity
  8
0
100
AcDbLine
 10
45.8727
 20
157.738963022141
 30
0.0
 11
45.3979
 21
159.354963022141
 31
0.0
  0
LINE
  5
959
330
1D
100
AcDbEntity
  8
0
100
AcDbLine
 10
46.1298
 20
156.913963022141
 30
0.0
 11
45.8727
 21
157.738963022141
 31
0.0
  0
LINE
  5
95A
330
1D
100
AcDbEntity
  8
0
100
AcDbLine
 10
45.3979
 20
159.354963022141
 30
0.0
 11
45.1477
 21
160.342963022141
 31
0.0
  0
LINE
  5
95B
330
1D
100
AcDbEntity
  8
0
100
AcDbLine
 10
44.0483
 20
163.287963022141
 30
0.0
 11
43.867
 21
163.583963022141
 31
0.0
  0
LINE
  5
95C
330
1D
100
AcDbEntity
  8
0
100
AcDbLine
 10
43.867
 20
163.583963022141
 30
0.0
 11
43.71
 21
163.767963022141
 31
0.0
  0
LINE
  5
95D
330
1D
100
AcDbEntity
  8
0
100
AcDbLine
 10
44.155
 20
163.079963022141
 30
0.0
 11
44.0483
 21
163.287963022141
 31
0.0
  0
LINE
  5
95E
330
1D
100
AcDbEntity
  8
0
100
AcDbLine
 10
43.71
 20
163.767963022141
 30
0.0
 11
43.5594
 21
163.916963022141
 31
0.0
  0
LINE
  5
95F
330
1D
100
AcDbEntity
  8
0
100
AcDbLine
 10
43.3568
 20
164.054963022141
 30
0.0
 11
43.0162
 21
164.271963022141
 31
0.0
  0
LINE
  5
960
330
1D
100
AcDbEntity
  8
0
100
AcDbLine
 10
43.5594
 20
163.916963022141
 30
0.0
 11
43.3568
 21
164.054963022141
 31
0.0
  0
LINE
  5
961
330
1D
100
AcDbEntity
  8
0
100
AcDbLine
 10
44.5525
 20
162.164963022141
 30
0.0
 11
44.155
 21
163.079963022141
 31
0.0
  0
LINE
  5
962
330
1D
100
AcDbEntity
  8
0
100
AcDbLine
 10
42.1752
 20
164.564963022141
 30
0.0
 11
42.0785
 21
164.601963022141
 31
0.0
  0
LINE
  5
963
330
1D
100
AcDbEntity
  8
0
100
AcDbLine
 10
42.5049
 20
164.472963022141
 30
0.0
 11
42.1752
 21
164.564963022141
 31
0.0
  0
LINE
  5
964
330
1D
100
AcDbEntity
  8
0
100
AcDbLine
 10
43.0162
 20
164.271963022141
 30
0.0
 11
42.5049
 21
164.472963022141
 31
0.0
  0
LINE
  5
965
330
1D
100
AcDbEntity
  8
0
100
AcDbLine
 10
44.8898
 20
161.186963022141
 30
0.0
 11
44.5525
 21
162.164963022141
 31
0.0
  0
LINE
  5
966
330
1D
100
AcDbEntity
  8
0
100
AcDbLine
 10
45.1477
 20
160.342963022141
 30
0.0
 11
44.8898
 21
161.186963022141
 31
0.0
  0
LINE
  5
967
330
1D
100
AcDbEntity
  8
0
100
AcDbLine
 10
42.0785
 20
164.601963022141
 30
0.0
 11
41.479
 21
164.738963022141
 31
0.0
  0
LINE
  5
968
330
1D
100
AcDbEntity
  8
0
100
AcDbLine
 10
41.479
 20
164.738963022141
 30
0.0
 11
40.7301
 21
164.859963022141
 31
0.0
  0
LINE
  5
969
330
1D
100
AcDbEntity
  8
0
100
AcDbLine
 10
40.7301
 20
164.859963022141
 30
0.0
 11
39.7946
 21
164.966963022141
 31
0.0
  0
LINE
  5
96A
330
1D
100
AcDbEntity
  8
0
100
AcDbLine
 10
39.7946
 20
164.966963022141
 30
0.0
 11
38.8043
 21
165.046963022141
 31
0.0
  0
LINE
  5
96B
330
1D
100
AcDbEntity
  8
0
100
AcDbLine
 10
37.771450231223
 20
165.106452617516
 30
0.0
 11
37.1202
 21
165.143963022141
 31
0.0
  0
LINE
  5
96C
330
1D
100
AcDbEntity
  8
0
100
AcDbLine
 10
37.1202
 20
165.143963022141
 30
0.0
 11
36.0288
 21
165.203963022141
 31
0.0
  0
LINE
  5
96D
330
1D
100
AcDbEntity
  8
0
100
AcDbLine
 10
37.771450231223
 20
165.106452617516
 30
0.0
 11
37.1202
 21
165.143963022141
 31
0.0
  0
LINE
  5
96E
330
1D
100
AcDbEntity
  8
0
100
AcDbLine
 10
34.8414
 20
165.252963022141
 30
0.0
 11
33.6815
 21
165.306963022141
 31
0.0
  0
LINE
  5
96F
330
1D
100
AcDbEntity
  8
0
100
AcDbLine
 10
36.0288
 20
165.203963022141
 30
0.0
 11
34.8414
 21
165.252963022141
 31
0.0
  0
LINE
  5
970
330
1D
100
AcDbEntity
  8
0
100
AcDbLine
 10
33.6815
 20
165.306963022141
 30
0.0
 11
32.5963
 21
165.347963022141
 31
0.0
  0
LINE
  5
971
330
1D
100
AcDbEntity
  8
0
100
AcDbLine
 10
32.5963
 20
165.347963022141
 30
0.0
 11
30.2501
 21
165.411963022141
 31
0.0
  0
LINE
  5
972
330
1D
100
AcDbEntity
  8
0
100
AcDbLine
 10
25.3718
 20
123.825963022141
 30
0.0
 11
25.1366
 21
123.692963022141
 31
0.0
  0
LINE
  5
973
330
1D
100
AcDbEntity
  8
0
100
AcDbLine
 10
25.5294
 20
128.780963022141
 30
0.0
 11
25.3139
 21
128.921963022141
 31
0.0
  0
LINE
  5
974
330
1D
100
AcDbEntity
  8
0
100
AcDbLine
 10
26.6607
 20
126.976963022141
 30
0.0
 11
26.5823
 21
127.288963022141
 31
0.0
  0
LINE
  5
975
330
1D
100
AcDbEntity
  8
0
100
AcDbLine
 10
26.7192
 20
126.338963022141
 30
0.0
 11
26.7064
 21
126.659963022141
 31
0.0
  0
LINE
  5
976
330
1D
100
AcDbEntity
  8
0
100
AcDbLine
 10
26.7192
 20
126.338963022141
 30
0.0
 11
26.699
 21
126.018963022141
 31
0.0
  0
LINE
  5
977
330
1D
100
AcDbEntity
  8
0
100
AcDbLine
 10
26.7064
 20
126.659963022141
 30
0.0
 11
26.6607
 21
126.976963022141
 31
0.0
  0
LINE
  5
978
330
1D
100
AcDbEntity
  8
0
100
AcDbLine
 10
26.699
 20
126.018963022141
 30
0.0
 11
26.6458
 21
125.702963022141
 31
0.0
  0
LINE
  5
979
330
1D
100
AcDbEntity
  8
0
100
AcDbLine
 10
26.5604
 20
125.382963022141
 30
0.0
 11
26.4749
 21
125.149963022141
 31
0.0
  0
LINE
  5
97A
330
1D
100
AcDbEntity
  8
0
100
AcDbLine
 10
26.4749
 20
125.149963022141
 30
0.0
 11
26.3702
 21
124.923963022141
 31
0.0
  0
LINE
  5
97B
330
1D
100
AcDbEntity
  8
0
100
AcDbLine
 10
26.3702
 20
124.923963022141
 30
0.0
 11
26.2468
 21
124.707963022141
 31
0.0
  0
LINE
  5
97C
330
1D
100
AcDbEntity
  8
0
100
AcDbLine
 10
26.2468
 20
124.707963022141
 30
0.0
 11
26.1049
 21
124.501963022141
 31
0.0
  0
LINE
  5
97D
330
1D
100
AcDbEntity
  8
0
100
AcDbLine
 10
26.1049
 20
124.501963022141
 30
0.0
 11
25.9516
 21
124.315963022141
 31
0.0
  0
LINE
  5
97E
330
1D
100
AcDbEntity
  8
0
100
AcDbLine
 10
25.9516
 20
124.315963022141
 30
0.0
 11
25.806776816676
 21
124.167712071164
 31
0.0
  0
LINE
  5
97F
330
1D
100
AcDbEntity
  8
0
100
AcDbLine
 10
26.6458
 20
125.702963022141
 30
0.0
 11
26.5604
 21
125.382963022141
 31
0.0
  0
LINE
  5
980
330
1D
100
AcDbEntity
  8
0
100
AcDbLine
 10
26.6458
 20
125.702963022141
 30
0.0
 11
26.598763168826
 21
125.533016429321
 31
0.0
  0
LINE
  5
981
330
1D
100
AcDbEntity
  8
0
100
AcDbLine
 10
25.3718
 20
123.825963022141
 30
0.0
 11
25.806776816676
 21
124.167712071164
 31
0.0
  0
LINE
  5
982
330
1D
100
AcDbEntity
  8
0
100
AcDbLine
 10
26.5823
 20
127.288963022141
 30
0.0
 11
26.4909
 21
127.543963022141
 31
0.0
  0
LINE
  5
983
330
1D
100
AcDbEntity
  8
0
100
AcDbLine
 10
26.4909
 20
127.543963022141
 30
0.0
 11
26.3766
 21
127.790963022141
 31
0.0
  0
LINE
  5
984
330
1D
100
AcDbEntity
  8
0
100
AcDbLine
 10
26.0818
 20
128.248963022141
 30
0.0
 11
25.9147
 21
128.442963022141
 31
0.0
  0
LINE
  5
985
330
1D
100
AcDbEntity
  8
0
100
AcDbLine
 10
25.9147
 20
128.442963022141
 30
0.0
 11
25.7302
 21
128.620963022141
 31
0.0
  0
LINE
  5
986
330
1D
100
AcDbEntity
  8
0
100
AcDbLine
 10
25.7302
 20
128.620963022141
 30
0.0
 11
25.5294
 21
128.780963022141
 31
0.0
  0
LINE
  5
987
330
1D
100
AcDbEntity
  8
0
100
AcDbLine
 10
26.2401
 20
128.025963022141
 30
0.0
 11
26.0818
 21
128.248963022141
 31
0.0
  0
LINE
  5
988
330
1D
100
AcDbEntity
  8
0
100
AcDbLine
 10
26.3766
 20
127.790963022141
 30
0.0
 11
26.2401
 21
128.025963022141
 31
0.0
  0
LINE
  5
989
330
1D
100
AcDbEntity
  8
0
100
AcDbLine
 10
25.1366
 20
123.692963022141
 30
0.0
 11
24.8878
 21
123.583963022141
 31
0.0
  0
LINE
  5
98A
330
1D
100
AcDbEntity
  8
0
100
AcDbLine
 10
24.8878
 20
123.583963022141
 30
0.0
 11
24.6281
 21
123.502963022141
 31
0.0
  0
LINE
  5
98B
330
1D
100
AcDbEntity
  8
0
100
AcDbLine
 10
24.6281
 20
123.502963022141
 30
0.0
 11
24.3606
 21
123.450963022141
 31
0.0
  0
LINE
  5
98C
330
1D
100
AcDbEntity
  8
0
100
AcDbLine
 10
24.3606
 20
123.450963022141
 30
0.0
 11
24.133
 21
123.428963022141
 31
0.0
  0
LINE
  5
98D
330
1D
100
AcDbEntity
  8
0
100
AcDbLine
 10
25.3139
 20
128.921963022141
 30
0.0
 11
25.0758
 21
129.045963022141
 31
0.0
  0
LINE
  5
98E
330
1D
100
AcDbEntity
  8
0
100
AcDbLine
 10
25.0758
 20
129.045963022141
 30
0.0
 11
24.8258
 21
129.144963022141
 31
0.0
  0
LINE
  5
98F
330
1D
100
AcDbEntity
  8
0
100
AcDbLine
 10
24.8258
 20
129.144963022141
 30
0.0
 11
24.5664
 21
129.217963022141
 31
0.0
  0
LINE
  5
990
330
1D
100
AcDbEntity
  8
0
100
AcDbLine
 10
24.5664
 20
129.217963022141
 30
0.0
 11
24.3006
 21
129.261963022141
 31
0.0
  0
LINE
  5
991
330
1D
100
AcDbEntity
  8
0
100
AcDbLine
 10
24.3006
 20
129.261963022141
 30
0.0
 11
24.0684
 21
129.276963022141
 31
0.0
  0
LINE
  5
992
330
1D
100
AcDbEntity
  8
0
100
AcDbLine
 10
27.1416
 20
165.462963022141
 30
0.0
 11
26.396
 21
165.474963022141
 31
0.0
  0
LINE
  5
993
330
1D
100
AcDbEntity
  8
0
100
AcDbLine
 10
26.396
 20
165.474963022141
 30
0.0
 11
24.0194
 21
165.494963022141
 31
0.0
  0
LINE
  5
B8C
330
1D
100
AcDbEntity
  8
0
100
AcDbLine
 10
208.534359193577
 20
70.376879285119
 30
0.0
 11
210.865559193576
 21
70.602779285119
 31
0.0
  0
LINE
  5
B8D
330
1D
100
AcDbEntity
  8
0
100
AcDbLine
 10
207.126259193576
 20
70.734779285119
 30
0.0
 11
208.534359193577
 21
70.376879285119
 31
0.0
  0
LINE
  5
B8E
330
1D
100
AcDbEntity
  8
0
100
AcDbLine
 10
206.106459193576
 20
71.194879285119
 30
0.0
 11
207.126259193576
 21
70.734779285119
 31
0.0
  0
LINE
  5
B8F
330
1D
100
AcDbEntity
  8
0
100
AcDbLine
 10
205.478559193577
 20
71.593679285119
 30
0.0
 11
206.106459193576
 21
71.194879285119
 31
0.0
  0
LINE
  5
B90
330
1D
100
AcDbEntity
  8
0
100
AcDbLine
 10
205.185959193577
 20
71.861279285119
 30
0.0
 11
205.478559193577
 21
71.593679285119
 31
0.0
  0
LINE
  5
B91
330
1D
100
AcDbEntity
  8
0
100
AcDbLine
 10
205.038359193576
 20
72.108179285119
 30
0.0
 11
205.185959193577
 21
71.861279285119
 31
0.0
  0
LINE
  5
B92
330
1D
100
AcDbEntity
  8
0
100
AcDbLine
 10
205.038359193576
 20
72.108179285119
 30
0.0
 11
205.038359193576
 21
78.371379285119
 31
0.0
  0
LINE
  5
B93
330
1D
100
AcDbEntity
  8
0
100
AcDbLine
 10
210.858155199029
 20
73.708929051988
 30
0.0
 11
211.860759193576
 21
73.992179285119
 31
0.0
  0
LINE
  5
B94
330
1D
100
AcDbEntity
  8
0
100
AcDbLine
 10
205.038359193576
 20
78.371379285119
 30
0.0
 11
205.038359193576
 21
72.108179285119
 31
0.0
  0
LINE
  5
B95
330
1D
100
AcDbEntity
  8
0
100
AcDbLine
 10
205.038359193576
 20
78.371379285119
 30
0.0
 11
205.038359193576
 21
118.343079285119
 31
0.0
  0
LINE
  5
B96
330
1D
100
AcDbEntity
  8
0
100
AcDbLine
 10
205.038359193576
 20
78.371379285119
 30
0.0
 11
205.038359193576
 21
128.377079285119
 31
0.0
  0
LINE
  5
B97
330
1D
100
AcDbEntity
  8
0
100
AcDbLine
 10
211.860759193576
 20
73.992179285119
 30
0.0
 11
212.043680528924
 21
74.021356788411
 31
0.0
  0
LINE
  5
B98
330
1D
100
AcDbEntity
  8
0
100
AcDbLine
 10
212.098059193576
 20
35.472079285119
 30
0.0
 11
212.113959193576
 21
2.471079285119
 31
0.0
  0
LINE
  5
B99
330
1D
100
AcDbEntity
  8
0
100
AcDbLine
 10
212.098059193576
 20
35.472079285119
 30
0.0
 11
212.113959193576
 21
2.471079285119
 31
0.0
  0
LINE
  5
B9A
330
1D
100
AcDbEntity
  8
0
100
AcDbLine
 10
212.113959193576
 20
2.471079285119
 30
0.0
 11
212.688159193576
 21
2.466079285119
 31
0.0
  0
LINE
  5
B9B
330
1D
100
AcDbEntity
  8
0
100
AcDbLine
 10
212.238359193576
 20
88.423679285119
 30
0.0
 11
213.638359193576
 21
87.931979285119
 31
0.0
  0
LINE
  5
B9C
330
1D
100
AcDbEntity
  8
0
100
AcDbLine
 10
212.069959193576
 20
58.469279285119
 30
0.0
 11
212.098059193576
 21
35.472079285119
 31
0.0
  0
LINE
  5
B9D
330
1D
100
AcDbEntity
  8
0
100
AcDbLine
 10
212.028059193576
 20
83.266279285119
 30
0.0
 11
212.069959193576
 21
58.469279285119
 31
0.0
  0
LINE
  5
B9E
330
1D
100
AcDbEntity
  8
0
100
AcDbLine
 10
211.338359193577
 20
88.993079285119
 30
0.0
 11
212.238359193576
 21
88.423679285119
 31
0.0
  0
LINE
  5
B9F
330
1D
100
AcDbEntity
  8
0
100
AcDbLine
 10
208.558859193576
 20
116.793079285119
 30
0.0
 11
210.754959193576
 21
117.002079285119
 31
0.0
  0
LINE
  5
BA0
330
1D
100
AcDbEntity
  8
0
100
AcDbLine
 10
206.609859193576
 20
117.264079285119
 30
0.0
 11
208.558859193576
 21
116.793079285119
 31
0.0
  0
LINE
  5
BA1
330
1D
100
AcDbEntity
  8
0
100
AcDbLine
 10
209.448059193577
 20
117.368079285119
 30
0.0
 11
210.754959193576
 21
117.002079285119
 31
0.0
  0
LINE
  5
BA2
330
1D
100
AcDbEntity
  8
0
100
AcDbLine
 10
210.754959193576
 20
117.002079285119
 30
0.0
 11
210.865559193576
 21
70.602779285119
 31
0.0
  0
LINE
  5
BA3
330
1D
100
AcDbEntity
  8
0
100
AcDbLine
 10
205.727359193576
 20
117.626079285119
 30
0.0
 11
206.609859193576
 21
117.264079285119
 31
0.0
  0
LINE
  5
BA4
330
1D
100
AcDbEntity
  8
0
100
AcDbLine
 10
205.038359193576
 20
118.343079285119
 30
0.0
 11
205.038359193576
 21
78.371379285119
 31
0.0
  0
LINE
  5
BA5
330
1D
100
AcDbEntity
  8
0
100
AcDbLine
 10
205.038359193576
 20
118.343079285119
 30
0.0
 11
205.154459193576
 21
118.104079285119
 31
0.0
  0
LINE
  5
BA6
330
1D
100
AcDbEntity
  8
0
100
AcDbLine
 10
205.038359193576
 20
118.343079285119
 30
0.0
 11
205.038359193576
 21
128.377079285119
 31
0.0
  0
LINE
  5
BA7
330
1D
100
AcDbEntity
  8
0
100
AcDbLine
 10
205.154459193576
 20
118.104079285119
 30
0.0
 11
205.727359193576
 21
117.626079285119
 31
0.0
  0
LINE
  5
BA8
330
1D
100
AcDbEntity
  8
0
100
AcDbLine
 10
208.163459193577
 20
118.359079285119
 30
0.0
 11
208.442659193577
 21
117.879079285119
 31
0.0
  0
LINE
  5
BA9
330
1D
100
AcDbEntity
  8
0
100
AcDbLine
 10
208.163459193577
 20
118.359079285119
 30
0.0
 11
208.163459193577
 21
118.810079285119
 31
0.0
  0
LINE
  5
BAA
330
1D
100
AcDbEntity
  8
0
100
AcDbLine
 10
201.685759193577
 20
249.594079285119
 30
0.0
 11
202.651659193577
 21
246.596079285119
 31
0.0
  0
LINE
  5
BAB
330
1D
100
AcDbEntity
  8
0
100
AcDbLine
 10
203.617559193576
 20
246.596079285119
 30
0.0
 11
205.315859193577
 21
242.650079285119
 31
0.0
  0
LINE
  5
BAC
330
1D
100
AcDbEntity
  8
0
100
AcDbLine
 10
202.651659193577
 20
246.596079285119
 30
0.0
 11
204.449859193576
 21
242.418079285119
 31
0.0
  0
LINE
  5
BAD
330
1D
100
AcDbEntity
  8
0
100
AcDbLine
 10
204.449859193576
 20
242.418079285119
 30
0.0
 11
207.310359193576
 21
238.830079285119
 31
0.0
  0
LINE
  5
BAE
330
1D
100
AcDbEntity
  8
0
100
AcDbLine
 10
203.038359193576
 20
250.831079285119
 30
0.0
 11
203.617559193576
 21
246.596079285119
 31
0.0
  0
LINE
  5
BAF
330
1D
100
AcDbEntity
  8
0
100
AcDbLine
 10
203.038359193576
 20
250.831079285119
 30
0.0
 11
203.617559193576
 21
255.066079285119
 31
0.0
  0
LINE
  5
BB0
330
1D
100
AcDbEntity
  8
0
100
AcDbLine
 10
202.038359193576
 20
251.08107928512
 30
0.0
 11
202.651659193577
 21
246.596079285119
 31
0.0
  0
LINE
  5
BB1
330
1D
100
AcDbEntity
  8
0
100
AcDbLine
 10
202.038359193576
 20
251.08107928512
 30
0.0
 11
202.651659193577
 21
255.565079285119
 31
0.0
  0
LINE
  5
BB2
330
1D
100
AcDbEntity
  8
0
100
AcDbLine
 10
203.617559193576
 20
255.066079285119
 30
0.0
 11
205.315859193577
 21
259.012079285119
 31
0.0
  0
LINE
  5
BB3
330
1D
100
AcDbEntity
  8
0
100
AcDbLine
 10
202.651659193577
 20
255.565079285119
 30
0.0
 11
204.449859193576
 21
259.743079285119
 31
0.0
  0
LINE
  5
BB4
330
1D
100
AcDbEntity
  8
0
100
AcDbLine
 10
200.719859193576
 20
262.307079285119
 30
0.0
 11
202.717859193576
 21
266.950079285119
 31
0.0
  0
LINE
  5
BB5
330
1D
100
AcDbEntity
  8
0
100
AcDbLine
 10
204.449859193576
 20
259.743079285119
 30
0.0
 11
207.310359193576
 21
263.331079285119
 31
0.0
  0
LINE
  5
BB6
330
1D
100
AcDbEntity
  8
0
100
AcDbLine
 10
202.717859193576
 20
266.950079285119
 30
0.0
 11
205.896159193576
 21
270.937079285119
 31
0.0
  0
LINE
  5
BB7
330
1D
100
AcDbEntity
  8
0
100
AcDbLine
 10
200.038359193576
 20
257.325079285119
 30
0.0
 11
200.719859193576
 21
252.34307928512
 31
0.0
  0
LINE
  5
BB8
330
1D
100
AcDbEntity
  8
0
100
AcDbLine
 10
200.038359193576
 20
257.325079285119
 30
0.0
 11
200.719859193576
 21
262.307079285119
 31
0.0
  0
LINE
  5
BB9
330
1D
100
AcDbEntity
  8
0
100
AcDbLine
 10
200.719859193576
 20
252.34307928512
 30
0.0
 11
201.685759193577
 21
249.594079285119
 31
0.0
  0
LINE
  5
BBA
330
1D
100
AcDbEntity
  8
0
100
AcDbLine
 10
208.038359193576
 20
238.292476280827
 30
0.0
 11
208.038359193576
 21
237.005079285119
 31
0.0
  0
LINE
  5
BBB
330
1D
100
AcDbEntity
  8
0
100
AcDbLine
 10
208.038359193576
 20
237.005079285119
 30
0.0
 11
208.038359193576
 21
210.955079285119
 31
0.0
  0
LINE
  5
BBC
330
1D
100
AcDbEntity
  8
0
100
AcDbLine
 10
208.038359193576
 20
237.005079285119
 30
0.0
 11
208.038359193576
 21
238.292476280827
 31
0.0
  0
LINE
  5
BBD
330
1D
100
AcDbEntity
  8
0
100
AcDbLine
 10
208.038359193576
 20
210.955079285119
 30
0.0
 11
208.038359193576
 21
184.241079285119
 31
0.0
  0
LINE
  5
BBE
330
1D
100
AcDbEntity
  8
0
100
AcDbLine
 10
208.038359193576
 20
210.955079285119
 30
0.0
 11
208.038359193576
 21
237.005079285119
 31
0.0
  0
LINE
  5
BBF
330
1D
100
AcDbEntity
  8
0
100
AcDbLine
 10
208.038359193576
 20
184.241079285119
 30
0.0
 11
208.038359193576
 21
155.128079285119
 31
0.0
  0
LINE
  5
BC0
330
1D
100
AcDbEntity
  8
0
100
AcDbLine
 10
208.038359193576
 20
184.241079285119
 30
0.0
 11
208.038359193576
 21
210.955079285119
 31
0.0
  0
LINE
  5
BC1
330
1D
100
AcDbEntity
  8
0
100
AcDbLine
 10
205.315859193577
 20
259.012079285119
 30
0.0
 11
208.017559193576
 21
262.401079285119
 31
0.0
  0
LINE
  5
BC2
330
1D
100
AcDbEntity
  8
0
100
AcDbLine
 10
207.038359193576
 20
250.472079285119
 30
0.0
 11
207.497159193576
 21
247.270079285119
 31
0.0
  0
LINE
  5
BC3
330
1D
100
AcDbEntity
  8
0
100
AcDbLine
 10
207.038359193576
 20
250.472079285119
 30
0.0
 11
207.038359193576
 21
250.564800011272
 31
0.0
  0
LINE
  5
BC4
330
1D
100
AcDbEntity
  8
0
100
AcDbLine
 10
207.688359193577
 20
247.213079285119
 30
0.0
 11
208.950159193576
 21
244.232079285119
 31
0.0
  0
LINE
  5
BC5
330
1D
100
AcDbEntity
  8
0
100
AcDbLine
 10
207.497159193576
 20
247.270079285119
 30
0.0
 11
208.797159193577
 21
244.252079285119
 31
0.0
  0
LINE
  5
BC6
330
1D
100
AcDbEntity
  8
0
100
AcDbLine
 10
207.229559193577
 20
250.378079285119
 30
0.0
 11
207.688359193577
 21
253.543079285119
 31
0.0
  0
LINE
  5
BC7
330
1D
100
AcDbEntity
  8
0
100
AcDbLine
 10
207.229559193577
 20
250.378079285119
 30
0.0
 11
207.688359193577
 21
247.213079285119
 31
0.0
  0
LINE
  5
BC8
330
1D
100
AcDbEntity
  8
0
100
AcDbLine
 10
207.688359193577
 20
253.543079285119
 30
0.0
 11
208.950159193576
 21
256.524079285119
 31
0.0
  0
LINE
  5
BC9
330
1D
100
AcDbEntity
  8
0
100
AcDbLine
 10
207.038359193576
 20
250.564800011272
 30
0.0
 11
207.038359193576
 21
250.472079285119
 31
0.0
  0
LINE
  5
BCA
330
1D
100
AcDbEntity
  8
0
100
AcDbLine
 10
208.017559193576
 20
262.401079285119
 30
0.0
 11
211.538359193576
 21
265.001079285119
 31
0.0
  0
LINE
  5
BCB
330
1D
100
AcDbEntity
  8
0
100
AcDbLine
 10
207.310359193576
 20
263.331079285119
 30
0.0
 11
211.038359193576
 21
266.084079285119
 31
0.0
  0
LINE
  5
BCC
330
1D
100
AcDbEntity
  8
0
100
AcDbLine
 10
205.896159193576
 20
270.937079285119
 30
0.0
 11
210.038359193576
 21
273.996079285119
 31
0.0
  0
LINE
  5
BCD
330
1D
100
AcDbEntity
  8
0
100
AcDbLine
 10
205.315859193577
 20
242.650079285119
 30
0.0
 11
208.017559193576
 21
239.261079285119
 31
0.0
  0
LINE
  5
BCE
330
1D
100
AcDbEntity
  8
0
100
AcDbLine
 10
208.038359193576
 20
250.33107928512
 30
0.0
 11
208.038359193576
 21
250.20607928512
 31
0.0
  0
LINE
  5
BCF
330
1D
100
AcDbEntity
  8
0
100
AcDbLine
 10
208.038359193576
 20
250.20607928512
 30
0.0
 11
208.338359193577
 21
249.533079285119
 31
0.0
  0
LINE
  5
BD0
330
1D
100
AcDbEntity
  8
0
100
AcDbLine
 10
208.038359193576
 20
250.20607928512
 30
0.0
 11
208.338359193577
 21
250.880079285119
 31
0.0
  0
LINE
  5
BD1
330
1D
100
AcDbEntity
  8
0
100
AcDbLine
 10
208.038359193576
 20
250.20607928512
 30
0.0
 11
208.038359193576
 21
250.33107928512
 31
0.0
  0
LINE
  5
BD2
330
1D
100
AcDbEntity
  8
0
100
AcDbLine
 10
208.017559193576
 20
239.261079285119
 30
0.0
 11
211.538359193576
 21
236.661079285119
 31
0.0
  0
LINE
  5
BD3
330
1D
100
AcDbEntity
  8
0
100
AcDbLine
 10
207.310359193576
 20
238.830079285119
 30
0.0
 11
211.038359193576
 21
236.077079285119
 31
0.0
  0
LINE
  5
BD4
330
1D
100
AcDbEntity
  8
0
100
AcDbLine
 10
208.338359193577
 20
250.880079285119
 30
0.0
 11
209.038359193576
 21
251.169079285119
 31
0.0
  0
LINE
  5
BD5
330
1D
100
AcDbEntity
  8
0
100
AcDbLine
 10
208.338359193577
 20
249.533079285119
 30
0.0
 11
209.038359193576
 21
249.244079285119
 31
0.0
  0
LINE
  5
BD6
330
1D
100
AcDbEntity
  8
0
100
AcDbLine
 10
208.038359193576
 20
155.128079285119
 30
0.0
 11
208.038359193576
 21
121.541079285119
 31
0.0
  0
LINE
  5
BD7
330
1D
100
AcDbEntity
  8
0
100
AcDbLine
 10
208.038359193576
 20
155.128079285119
 30
0.0
 11
208.038359193576
 21
184.241079285119
 31
0.0
  0
LINE
  5
BD8
330
1D
100
AcDbEntity
  8
0
100
AcDbLine
 10
208.038359193576
 20
121.541079285119
 30
0.0
 11
209.038359193576
 21
119.293079285119
 31
0.0
  0
LINE
  5
BD9
330
1D
100
AcDbEntity
  8
0
100
AcDbLine
 10
208.038359193576
 20
121.541079285119
 30
0.0
 11
208.038359193576
 21
155.128079285119
 31
0.0
  0
LINE
  5
BDA
330
1D
100
AcDbEntity
  8
0
100
AcDbLine
 10
205.038359193576
 20
128.377079285119
 30
0.0
 11
205.038359193576
 21
78.371379285119
 31
0.0
  0
LINE
  5
BDB
330
1D
100
AcDbEntity
  8
0
100
AcDbLine
 10
205.038359193576
 20
128.377079285119
 30
0.0
 11
208.038359193576
 21
128.377079285119
 31
0.0
  0
LINE
  5
BDC
330
1D
100
AcDbEntity
  8
0
100
AcDbLine
 10
205.038359193576
 20
128.377079285119
 30
0.0
 11
205.038359193576
 21
118.343079285119
 31
0.0
  0
LINE
  5
BDD
330
1D
100
AcDbEntity
  8
0
100
AcDbLine
 10
208.163459193577
 20
118.810079285119
 30
0.0
 11
208.163459193577
 21
118.359079285119
 31
0.0
  0
LINE
  5
BDE
330
1D
100
AcDbEntity
  8
0
100
AcDbLine
 10
208.163459193577
 20
118.810079285119
 30
0.0
 11
208.166685585635
 21
118.353532479288
 31
0.0
  0
LINE
  5
BDF
330
1D
100
AcDbEntity
  8
0
100
AcDbLine
 10
208.163459193577
 20
118.810079285119
 30
0.0
 11
208.169593978428
 21
118.348532377065
 31
0.0
  0
LINE
  5
BE0
330
1D
100
AcDbEntity
  8
0
100
AcDbLine
 10
208.163459193577
 20
118.810079285119
 30
0.0
 11
208.166685585635
 21
118.353532479288
 31
0.0
  0
LINE
  5
BE1
330
1D
100
AcDbEntity
  8
0
100
AcDbLine
 10
208.163459193577
 20
118.810079285119
 30
0.0
 11
208.386859193576
 21
119.440079285119
 31
0.0
  0
LINE
  5
BE2
330
1D
100
AcDbEntity
  8
0
100
AcDbLine
 10
208.163459193577
 20
118.810079285119
 30
0.0
 11
208.169593978428
 21
118.348532377065
 31
0.0
  0
LINE
  5
BE3
330
1D
100
AcDbEntity
  8
0
100
AcDbLine
 10
210.765159193576
 20
117.816079285119
 30
0.0
 11
212.338359193577
 21
117.369079285119
 31
0.0
  0
LINE
  5
BE4
330
1D
100
AcDbEntity
  8
0
100
AcDbLine
 10
209.038359193576
 20
249.244079285119
 30
0.0
 11
209.738359193576
 21
249.533079285119
 31
0.0
  0
LINE
  5
BE5
330
1D
100
AcDbEntity
  8
0
100
AcDbLine
 10
209.038359193576
 20
251.169079285119
 30
0.0
 11
209.738359193576
 21
250.880079285119
 31
0.0
  0
LINE
  5
BE6
330
1D
100
AcDbEntity
  8
0
100
AcDbLine
 10
208.950159193576
 20
244.232079285119
 30
0.0
 11
210.976559193576
 21
241.656079285119
 31
0.0
  0
LINE
  5
BE7
330
1D
100
AcDbEntity
  8
0
100
AcDbLine
 10
208.797159193577
 20
244.252079285119
 30
0.0
 11
210.861859193576
 21
241.640079285119
 31
0.0
  0
LINE
  5
BE8
330
1D
100
AcDbEntity
  8
0
100
AcDbLine
 10
208.950159193576
 20
256.524079285119
 30
0.0
 11
210.976559193576
 21
259.100079285119
 31
0.0
  0
LINE
  5
BE9
330
1D
100
AcDbEntity
  8
0
100
AcDbLine
 10
209.555859193577
 20
245.159079285119
 30
0.0
 11
209.646059193576
 21
244.432079285119
 31
0.0
  0
LINE
  5
BEA
330
1D
100
AcDbEntity
  8
0
100
AcDbLine
 10
209.555859193577
 20
245.159079285119
 30
0.0
 11
210.012059193577
 21
245.746079285119
 31
0.0
  0
LINE
  5
BEB
330
1D
100
AcDbEntity
  8
0
100
AcDbLine
 10
209.646059193576
 20
244.432079285119
 30
0.0
 11
210.255859193576
 21
243.99207928512
 31
0.0
  0
LINE
  5
BEC
330
1D
100
AcDbEntity
  8
0
100
AcDbLine
 10
210.012059193577
 20
245.746079285119
 30
0.0
 11
210.768259193577
 21
245.833079285119
 31
0.0
  0
LINE
  5
BED
330
1D
100
AcDbEntity
  8
0
100
AcDbLine
 10
210.038359193576
 20
250.20607928512
 30
0.0
 11
210.038359193576
 21
250.33107928512
 31
0.0
  0
LINE
  5
BEE
330
1D
100
AcDbEntity
  8
0
100
AcDbLine
 10
210.038359193576
 20
250.33107928512
 30
0.0
 11
210.038359193576
 21
250.20607928512
 31
0.0
  0
LINE
  5
BEF
330
1D
100
AcDbEntity
  8
0
100
AcDbLine
 10
209.738359193576
 20
249.533079285119
 30
0.0
 11
210.038359193576
 21
250.20607928512
 31
0.0
  0
LINE
  5
BF0
330
1D
100
AcDbEntity
  8
0
100
AcDbLine
 10
209.555859193577
 20
255.25407928512
 30
0.0
 11
209.646059193576
 21
255.981079285119
 31
0.0
  0
LINE
  5
BF1
330
1D
100
AcDbEntity
  8
0
100
AcDbLine
 10
209.555859193577
 20
255.25407928512
 30
0.0
 11
210.012059193577
 21
254.667079285119
 31
0.0
  0
LINE
  5
BF2
330
1D
100
AcDbEntity
  8
0
100
AcDbLine
 10
210.012059193577
 20
254.667079285119
 30
0.0
 11
210.768259193577
 21
254.580079285119
 31
0.0
  0
LINE
  5
BF3
330
1D
100
AcDbEntity
  8
0
100
AcDbLine
 10
209.646059193576
 20
255.981079285119
 30
0.0
 11
210.255859193576
 21
256.421079285119
 31
0.0
  0
LINE
  5
BF4
330
1D
100
AcDbEntity
  8
0
100
AcDbLine
 10
209.738359193576
 20
250.880079285119
 30
0.0
 11
210.038359193576
 21
250.20607928512
 31
0.0
  0
LINE
  5
BF5
330
1D
100
AcDbEntity
  8
0
100
AcDbLine
 10
210.768259193577
 20
254.580079285119
 30
0.0
 11
211.378059193576
 21
255.019079285119
 31
0.0
  0
LINE
  5
BF6
330
1D
100
AcDbEntity
  8
0
100
AcDbLine
 10
210.255859193576
 20
256.421079285119
 30
0.0
 11
211.012059193576
 21
256.334079285119
 31
0.0
  0
LINE
  5
BF7
330
1D
100
AcDbEntity
  8
0
100
AcDbLine
 10
210.768259193577
 20
245.833079285119
 30
0.0
 11
211.378059193576
 21
245.394079285119
 31
0.0
  0
LINE
  5
BF8
330
1D
100
AcDbEntity
  8
0
100
AcDbLine
 10
210.255859193576
 20
243.99207928512
 30
0.0
 11
211.012059193576
 21
244.079079285119
 31
0.0
  0
LINE
  5
BF9
330
1D
100
AcDbEntity
  8
0
100
AcDbLine
 10
210.038359193576
 20
273.996079285119
 30
0.0
 11
214.861959193576
 21
275.920079285119
 31
0.0
  0
LINE
  5
BFA
330
1D
100
AcDbEntity
  8
0
100
AcDbLine
 10
209.543359193576
 20
118.462079285119
 30
0.0
 11
210.765159193576
 21
117.816079285119
 31
0.0
  0
LINE
  5
BFB
330
1D
100
AcDbEntity
  8
0
100
AcDbLine
 10
209.543359193576
 20
118.462079285119
 30
0.0
 11
210.417959193576
 21
117.602079285119
 31
0.0
  0
LINE
  5
BFC
330
1D
100
AcDbEntity
  8
0
100
AcDbLine
 10
209.038359193576
 20
119.293079285119
 30
0.0
 11
209.543359193576
 21
118.462079285119
 31
0.0
  0
LINE
  5
BFD
330
1D
100
AcDbEntity
  8
0
100
AcDbLine
 10
208.442659193577
 20
117.879079285119
 30
0.0
 11
209.448059193577
 21
117.368079285119
 31
0.0
  0
LINE
  5
BFE
330
1D
100
AcDbEntity
  8
0
100
AcDbLine
 10
208.386859193576
 20
119.440079285119
 30
0.0
 11
208.86488891103
 21
119.683040480284
 31
0.0
  0
LINE
  5
BFF
330
1D
100
AcDbEntity
  8
0
100
AcDbLine
 10
210.976559193576
 20
259.100079285119
 30
0.0
 11
213.653059193576
 21
261.050079285119
 31
0.0
  0
LINE
  5
C00
330
1D
100
AcDbEntity
  8
0
100
AcDbLine
 10
211.012059193576
 20
244.079079285119
 30
0.0
 11
211.468259193577
 21
244.666079285119
 31
0.0
  0
LINE
  5
C01
330
1D
100
AcDbEntity
  8
0
100
AcDbLine
 10
211.012059193576
 20
256.334079285119
 30
0.0
 11
211.468259193577
 21
255.747079285119
 31
0.0
  0
LINE
  5
C02
330
1D
100
AcDbEntity
  8
0
100
AcDbLine
 10
211.378059193576
 20
255.019079285119
 30
0.0
 11
211.468259193577
 21
255.747079285119
 31
0.0
  0
LINE
  5
C03
330
1D
100
AcDbEntity
  8
0
100
AcDbLine
 10
211.378059193576
 20
245.52620514024
 30
0.0
 11
211.378059193576
 21
245.394079285119
 31
0.0
  0
LINE
  5
C04
330
1D
100
AcDbEntity
  8
0
100
AcDbLine
 10
211.378059193576
 20
245.394079285119
 30
0.0
 11
211.468259193577
 21
244.666079285119
 31
0.0
  0
LINE
  5
C05
330
1D
100
AcDbEntity
  8
0
100
AcDbLine
 10
211.378059193576
 20
245.394079285119
 30
0.0
 11
211.378059193576
 21
245.52620514024
 31
0.0
  0
LINE
  5
C06
330
1D
100
AcDbEntity
  8
0
100
AcDbLine
 10
210.976559193576
 20
241.656079285119
 30
0.0
 11
213.653059193576
 21
239.70607928512
 31
0.0
  0
LINE
  5
C07
330
1D
100
AcDbEntity
  8
0
100
AcDbLine
 10
210.861859193576
 20
241.640079285119
 30
0.0
 11
213.576559193576
 21
239.652079285119
 31
0.0
  0
LINE
  5
C08
330
1D
100
AcDbEntity
  8
0
100
AcDbLine
 10
211.538359193576
 20
265.001079285119
 30
0.0
 11
215.638459193576
 21
266.636079285119
 31
0.0
  0
LINE
  5
C09
330
1D
100
AcDbEntity
  8
0
100
AcDbLine
 10
211.038359193576
 20
266.084079285119
 30
0.0
 11
215.379659193576
 21
267.816079285119
 31
0.0
  0
LINE
  5
C0A
330
1D
100
AcDbEntity
  8
0
100
AcDbLine
 10
211.538359193576
 20
236.661079285119
 30
0.0
 11
215.638459193576
 21
235.026079285119
 31
0.0
  0
LINE
  5
C0B
330
1D
100
AcDbEntity
  8
0
100
AcDbLine
 10
211.038359193576
 20
236.077079285119
 30
0.0
 11
215.379659193576
 21
234.346079285119
 31
0.0
  0
LINE
  5
C0C
330
1D
100
AcDbEntity
  8
0
100
AcDbLine
 10
210.813041179005
 20
92.635320998464
 30
0.0
 11
211.038359193576
 21
89.588379285119
 31
0.0
  0
LINE
  5
C0D
330
1D
100
AcDbEntity
  8
0
100
AcDbLine
 10
211.038359193576
 20
89.588379285119
 30
0.0
 11
211.338359193577
 21
88.993079285119
 31
0.0
  0
LINE
  5
C0E
330
1D
100
AcDbEntity
  8
0
100
AcDbLine
 10
212.016681518683
 20
88.563927360769
 30
0.0
 11
212.028059193576
 21
83.266279285119
 31
0.0
  0
LINE
  5
C0F
330
1D
100
AcDbEntity
  8
0
100
AcDbLine
 10
212.016681518683
 20
88.563927360769
 30
0.0
 11
212.028059193576
 21
83.266279285119
 31
0.0
  0
LINE
  5
C10
330
1D
100
AcDbEntity
  8
0
100
AcDbLine
 10
227.487159193577
 20
2.463079285119
 30
0.0
 11
228.114159193576
 21
2.470079285119
 31
0.0
  0
LINE
  5
C11
330
1D
100
AcDbEntity
  8
0
100
AcDbLine
 10
225.666059193577
 20
2.466079285119
 30
0.0
 11
227.487159193577
 21
2.463079285119
 31
0.0
  0
LINE
  5
C12
330
1D
100
AcDbEntity
  8
0
100
AcDbLine
 10
214.562059193576
 20
2.465079285119
 30
0.0
 11
216.109811331106
 21
2.468771735547
 31
0.0
  0
LINE
  5
C13
330
1D
100
AcDbEntity
  8
0
100
AcDbLine
 10
212.924676246234
 20
2.466877520194
 30
0.0
 11
214.562059193576
 21
2.465079285119
 31
0.0
  0
LINE
  5
C14
330
1D
100
AcDbEntity
  8
0
100
AcDbLine
 10
212.688159193576
 20
2.466079285119
 30
0.0
 11
214.465959193576
 21
2.472079285119
 31
0.0
  0
LINE
  5
C15
330
1D
100
AcDbEntity
  8
0
100
AcDbLine
 10
212.938359193577
 20
116.729079285119
 30
0.0
 11
215.038359193576
 21
116.314079285119
 31
0.0
  0
LINE
  5
C16
330
1D
100
AcDbEntity
  8
0
100
AcDbLine
 10
213.638359193576
 20
87.931979285119
 30
0.0
 11
215.538359193576
 21
87.569579285119
 31
0.0
  0
LINE
  5
C17
330
1D
100
AcDbEntity
  8
0
100
AcDbLine
 10
212.310959193577
 20
252.327563191667
 30
0.0
 11
212.310959193577
 21
252.199079285119
 31
0.0
  0
LINE
  5
C18
330
1D
100
AcDbEntity
  8
0
100
AcDbLine
 10
213.018059193577
 20
251.021079285119
 30
0.0
 11
213.771859193576
 21
251.125079285119
 31
0.0
  0
LINE
  5
C19
330
1D
100
AcDbEntity
  8
0
100
AcDbLine
 10
212.419559193577
 20
251.47407928512
 30
0.0
 11
213.018059193577
 21
251.021079285119
 31
0.0
  0
LINE
  5
C1A
330
1D
100
AcDbEntity
  8
0
100
AcDbLine
 10
212.310959193577
 20
252.199079285119
 30
0.0
 11
212.781859193577
 21
252.775079285119
 31
0.0
  0
LINE
  5
C1B
330
1D
100
AcDbEntity
  8
0
100
AcDbLine
 10
212.310959193577
 20
252.199079285119
 30
0.0
 11
212.419559193577
 21
251.47407928512
 31
0.0
  0
LINE
  5
C1C
330
1D
100
AcDbEntity
  8
0
100
AcDbLine
 10
212.310959193577
 20
252.199079285119
 30
0.0
 11
212.310959193577
 21
252.327563191667
 31
0.0
  0
LINE
  5
C1D
330
1D
100
AcDbEntity
  8
0
100
AcDbLine
 10
213.535659193576
 20
252.880079285119
 30
0.0
 11
214.134159193576
 21
252.427079285119
 31
0.0
  0
LINE
  5
C1E
330
1D
100
AcDbEntity
  8
0
100
AcDbLine
 10
212.781859193577
 20
252.775079285119
 30
0.0
 11
213.535659193576
 21
252.880079285119
 31
0.0
  0
LINE
  5
C1F
330
1D
100
AcDbEntity
  8
0
100
AcDbLine
 10
213.582059193576
 20
259.622079285119
 30
0.0
 11
214.038359193576
 21
260.209079285119
 31
0.0
  0
LINE
  5
C20
330
1D
100
AcDbEntity
  8
0
100
AcDbLine
 10
213.582059193576
 20
259.622079285119
 30
0.0
 11
213.672259193577
 21
258.894079285119
 31
0.0
  0
LINE
  5
C21
330
1D
100
AcDbEntity
  8
0
100
AcDbLine
 10
213.582059193576
 20
240.791079285119
 30
0.0
 11
214.038359193576
 21
240.204079285119
 31
0.0
  0
LINE
  5
C22
330
1D
100
AcDbEntity
  8
0
100
AcDbLine
 10
213.582059193576
 20
240.791079285119
 30
0.0
 11
213.672259193577
 21
241.519079285119
 31
0.0
  0
LINE
  5
C23
330
1D
100
AcDbEntity
  8
0
100
AcDbLine
 10
213.672259193577
 20
258.894079285119
 30
0.0
 11
214.282159193576
 21
258.455079285119
 31
0.0
  0
LINE
  5
C24
330
1D
100
AcDbEntity
  8
0
100
AcDbLine
 10
213.771859193576
 20
251.125079285119
 30
0.0
 11
214.242759193576
 21
251.701079285119
 31
0.0
  0
LINE
  5
C25
330
1D
100
AcDbEntity
  8
0
100
AcDbLine
 10
214.038359193576
 20
260.209079285119
 30
0.0
 11
214.794559193577
 21
260.296079285119
 31
0.0
  0
LINE
  5
C26
330
1D
100
AcDbEntity
  8
0
100
AcDbLine
 10
213.672259193577
 20
241.519079285119
 30
0.0
 11
214.282159193576
 21
241.958079285119
 31
0.0
  0
LINE
  5
C27
330
1D
100
AcDbEntity
  8
0
100
AcDbLine
 10
214.038359193576
 20
240.204079285119
 30
0.0
 11
214.794559193577
 21
240.117079285119
 31
0.0
  0
LINE
  5
C28
330
1D
100
AcDbEntity
  8
0
100
AcDbLine
 10
213.653059193576
 20
261.050079285119
 30
0.0
 11
216.750159193577
 21
262.265079285119
 31
0.0
  0
LINE
  5
C29
330
1D
100
AcDbEntity
  8
0
100
AcDbLine
 10
213.653059193576
 20
239.70607928512
 30
0.0
 11
216.750159193577
 21
238.491079285119
 31
0.0
  0
LINE
  5
C2A
330
1D
100
AcDbEntity
  8
0
100
AcDbLine
 10
213.576559193576
 20
239.652079285119
 30
0.0
 11
216.711859193576
 21
238.401079285119
 31
0.0
  0
LINE
  5
C2B
330
1D
100
AcDbEntity
  8
0
100
AcDbLine
 10
212.338359193577
 20
117.369079285119
 30
0.0
 11
214.319359193576
 21
116.965079285119
 31
0.0
  0
LINE
  5
C2C
330
1D
100
AcDbEntity
  8
0
100
AcDbLine
 10
214.242759193576
 20
251.701079285119
 30
0.0
 11
214.242759193576
 21
251.828455133242
 31
0.0
  0
LINE
  5
C2D
330
1D
100
AcDbEntity
  8
0
100
AcDbLine
 10
214.242759193576
 20
251.828455133242
 30
0.0
 11
214.242759193576
 21
251.701079285119
 31
0.0
  0
LINE
  5
C2E
330
1D
100
AcDbEntity
  8
0
100
AcDbLine
 10
214.134159193576
 20
252.427079285119
 30
0.0
 11
214.242759193576
 21
251.701079285119
 31
0.0
  0
LINE
  5
C2F
330
1D
100
AcDbEntity
  8
0
100
AcDbLine
 10
214.282159193576
 20
258.455079285119
 30
0.0
 11
215.038359193576
 21
258.542079285119
 31
0.0
  0
LINE
  5
C30
330
1D
100
AcDbEntity
  8
0
100
AcDbLine
 10
214.098659193577
 20
245.442079285119
 30
0.0
 11
214.381459193576
 21
244.762079285119
 31
0.0
  0
LINE
  5
C31
330
1D
100
AcDbEntity
  8
0
100
AcDbLine
 10
214.098659193577
 20
245.442079285119
 30
0.0
 11
214.381459193576
 21
246.12307928512
 31
0.0
  0
LINE
  5
C32
330
1D
100
AcDbEntity
  8
0
100
AcDbLine
 10
214.381459193576
 20
246.12307928512
 30
0.0
 11
215.088559193576
 21
246.395079285119
 31
0.0
  0
LINE
  5
C33
330
1D
100
AcDbEntity
  8
0
100
AcDbLine
 10
214.381459193576
 20
244.762079285119
 30
0.0
 11
215.088559193576
 21
244.490079285119
 31
0.0
  0
LINE
  5
C34
330
1D
100
AcDbEntity
  8
0
100
AcDbLine
 10
214.282159193576
 20
241.958079285119
 30
0.0
 11
215.038359193576
 21
241.871079285119
 31
0.0
  0
LINE
  5
C35
330
1D
100
AcDbEntity
  8
0
100
AcDbLine
 10
214.319359193576
 20
116.965079285119
 30
0.0
 11
216.985059193576
 21
116.651079285119
 31
0.0
  0
LINE
  5
C36
330
1D
100
AcDbEntity
  8
0
100
AcDbLine
 10
212.407449841311
 20
116.909256646544
 30
0.0
 11
212.938359193577
 21
116.729079285119
 31
0.0
  0
LINE
  5
C37
330
1D
100
AcDbEntity
  8
0
100
AcDbLine
 10
222.338359193576
 20
87.336679285119
 30
0.0
 11
224.538359193576
 21
87.569579285119
 31
0.0
  0
LINE
  5
C38
330
1D
100
AcDbEntity
  8
0
100
AcDbLine
 10
220.038359193576
 20
87.258979285119
 30
0.0
 11
222.338359193576
 21
87.336679285119
 31
0.0
  0
LINE
  5
C39
330
1D
100
AcDbEntity
  8
0
100
AcDbLine
 10
215.538359193576
 20
87.569579285119
 30
0.0
 11
217.738359193576
 21
87.336679285119
 31
0.0
  0
LINE
  5
C3A
330
1D
100
AcDbEntity
  8
0
100
AcDbLine
 10
217.738359193576
 20
87.336679285119
 30
0.0
 11
220.038359193576
 21
87.258979285119
 31
0.0
  0
LINE
  5
C3B
330
1D
100
AcDbEntity
  8
0
100
AcDbLine
 10
226.438359193577
 20
87.931979285119
 30
0.0
 11
227.838359193577
 21
88.423679285119
 31
0.0
  0
LINE
  5
C3C
330
1D
100
AcDbEntity
  8
0
100
AcDbLine
 10
227.838359193577
 20
88.423679285119
 30
0.0
 11
228.738359193576
 21
88.993079285119
 31
0.0
  0
LINE
  5
C3D
330
1D
100
AcDbEntity
  8
0
100
AcDbLine
 10
224.538359193576
 20
87.569579285119
 30
0.0
 11
226.438359193577
 21
87.931979285119
 31
0.0
  0
LINE
  5
C3E
330
1D
100
AcDbEntity
  8
0
100
AcDbLine
 10
223.151059193576
 20
2.470079285119
 30
0.0
 11
225.666059193577
 21
2.466079285119
 31
0.0
  0
LINE
  5
C3F
330
1D
100
AcDbEntity
  8
0
100
AcDbLine
 10
220.046059193576
 20
2.468079285119
 30
0.0
 11
223.151059193576
 21
2.470079285119
 31
0.0
  0
LINE
  5
C40
330
1D
100
AcDbEntity
  8
0
100
AcDbLine
 10
228.097959193576
 20
35.471079285119
 30
0.0
 11
228.114159193576
 21
2.470079285119
 31
0.0
  0
LINE
  5
C41
330
1D
100
AcDbEntity
  8
0
100
AcDbLine
 10
228.097959193576
 20
35.471079285119
 30
0.0
 11
228.114159193576
 21
2.470079285119
 31
0.0
  0
LINE
  5
C42
330
1D
100
AcDbEntity
  8
0
100
AcDbLine
 10
234.890759193577
 20
71.861279285119
 30
0.0
 11
235.038359193576
 21
72.108179285119
 31
0.0
  0
LINE
  5
C43
330
1D
100
AcDbEntity
  8
0
100
AcDbLine
 10
234.598159193576
 20
71.593679285119
 30
0.0
 11
234.890759193577
 21
71.861279285119
 31
0.0
  0
LINE
  5
C44
330
1D
100
AcDbEntity
  8
0
100
AcDbLine
 10
233.970159193577
 20
71.194879285119
 30
0.0
 11
234.598159193576
 21
71.593679285119
 31
0.0
  0
LINE
  5
C45
330
1D
100
AcDbEntity
  8
0
100
AcDbLine
 10
232.950459193577
 20
70.734779285119
 30
0.0
 11
233.970159193577
 21
71.194879285119
 31
0.0
  0
LINE
  5
C46
330
1D
100
AcDbEntity
  8
0
100
AcDbLine
 10
231.542259193577
 20
70.376879285119
 30
0.0
 11
232.950459193577
 21
70.734779285119
 31
0.0
  0
LINE
  5
C47
330
1D
100
AcDbEntity
  8
0
100
AcDbLine
 10
229.211259193576
 20
70.602779285119
 30
0.0
 11
231.542259193577
 21
70.376879285119
 31
0.0
  0
LINE
  5
C48
330
1D
100
AcDbEntity
  8
0
100
AcDbLine
 10
229.211259193576
 20
70.602779285119
 30
0.0
 11
229.321759193576
 21
117.002079285119
 31
0.0
  0
LINE
  5
C49
330
1D
100
AcDbEntity
  8
0
100
AcDbLine
 10
228.215959193577
 20
73.992179285119
 30
0.0
 11
229.218656431
 21
73.708902709518
 31
0.0
  0
LINE
  5
C4A
330
1D
100
AcDbEntity
  8
0
100
AcDbLine
 10
235.038359193576
 20
78.371379285119
 30
0.0
 11
235.038359193576
 21
118.343079285119
 31
0.0
  0
LINE
  5
C4B
330
1D
100
AcDbEntity
  8
0
100
AcDbLine
 10
235.038359193576
 20
78.371379285119
 30
0.0
 11
235.038359193576
 21
72.108179285119
 31
0.0
  0
LINE
  5
C4C
330
1D
100
AcDbEntity
  8
0
100
AcDbLine
 10
235.038359193576
 20
72.108179285119
 30
0.0
 11
235.038359193576
 21
78.371379285119
 31
0.0
  0
LINE
  5
C4D
330
1D
100
AcDbEntity
  8
0
100
AcDbLine
 10
228.043262564564
 20
74.019725861093
 30
0.0
 11
228.215959193577
 21
73.992179285119
 31
0.0
  0
LINE
  5
C4E
330
1D
100
AcDbEntity
  8
0
100
AcDbLine
 10
228.068959193576
 20
58.478279285119
 30
0.0
 11
228.097959193576
 21
35.471079285119
 31
0.0
  0
LINE
  5
C4F
330
1D
100
AcDbEntity
  8
0
100
AcDbLine
 10
228.027959193576
 20
83.275279285119
 30
0.0
 11
228.068959193576
 21
58.478279285119
 31
0.0
  0
LINE
  5
C50
330
1D
100
AcDbEntity
  8
0
100
AcDbLine
 10
216.038359193576
 20
206.946079285119
 30
0.0
 11
216.182359193577
 21
207.939079285119
 31
0.0
  0
LINE
  5
C51
330
1D
100
AcDbEntity
  8
0
100
AcDbLine
 10
216.038359193576
 20
206.946079285119
 30
0.0
 11
216.038359193576
 21
175.925079285119
 31
0.0
  0
LINE
  5
C52
330
1D
100
AcDbEntity
  8
0
100
AcDbLine
 10
216.182359193577
 20
207.939079285119
 30
0.0
 11
216.566359193576
 21
208.869079285119
 31
0.0
  0
LINE
  5
C53
330
1D
100
AcDbEntity
  8
0
100
AcDbLine
 10
216.566359193576
 20
208.869079285119
 30
0.0
 11
217.206359193577
 21
209.691079285119
 31
0.0
  0
LINE
  5
C54
330
1D
100
AcDbEntity
  8
0
100
AcDbLine
 10
216.038359193576
 20
175.925079285119
 30
0.0
 11
216.182359193577
 21
174.932079285119
 31
0.0
  0
LINE
  5
C55
330
1D
100
AcDbEntity
  8
0
100
AcDbLine
 10
216.038359193576
 20
175.925079285119
 30
0.0
 11
216.038359193576
 21
206.946079285119
 31
0.0
  0
LINE
  5
C56
330
1D
100
AcDbEntity
  8
0
100
AcDbLine
 10
216.182359193577
 20
174.932079285119
 30
0.0
 11
216.566359193576
 21
174.002079285119
 31
0.0
  0
LINE
  5
C57
330
1D
100
AcDbEntity
  8
0
100
AcDbLine
 10
216.566359193576
 20
174.002079285119
 30
0.0
 11
217.206359193577
 21
173.179079285119
 31
0.0
  0
LINE
  5
C58
330
1D
100
AcDbEntity
  8
0
100
AcDbLine
 10
215.038359193576
 20
258.542079285119
 30
0.0
 11
215.494559193576
 21
259.129079285119
 31
0.0
  0
LINE
  5
C59
330
1D
100
AcDbEntity
  8
0
100
AcDbLine
 10
214.794559193577
 20
260.296079285119
 30
0.0
 11
215.404359193576
 21
259.857079285119
 31
0.0
  0
LINE
  5
C5A
330
1D
100
AcDbEntity
  8
0
100
AcDbLine
 10
215.088559193576
 20
246.395079285119
 30
0.0
 11
215.795659193577
 21
246.12307928512
 31
0.0
  0
LINE
  5
C5B
330
1D
100
AcDbEntity
  8
0
100
AcDbLine
 10
215.088559193576
 20
244.490079285119
 30
0.0
 11
215.795659193577
 21
244.762079285119
 31
0.0
  0
LINE
  5
C5C
330
1D
100
AcDbEntity
  8
0
100
AcDbLine
 10
215.038359193576
 20
241.871079285119
 30
0.0
 11
215.494559193576
 21
241.284079285119
 31
0.0
  0
LINE
  5
C5D
330
1D
100
AcDbEntity
  8
0
100
AcDbLine
 10
214.794559193577
 20
240.117079285119
 30
0.0
 11
215.404359193576
 21
240.556079285119
 31
0.0
  0
LINE
  5
C5E
330
1D
100
AcDbEntity
  8
0
100
AcDbLine
 10
215.404359193576
 20
259.857079285119
 30
0.0
 11
215.494559193576
 21
259.129079285119
 31
0.0
  0
LINE
  5
C5F
330
1D
100
AcDbEntity
  8
0
100
AcDbLine
 10
215.404359193576
 20
240.556079285119
 30
0.0
 11
215.494559193576
 21
241.284079285119
 31
0.0
  0
LINE
  5
C60
330
1D
100
AcDbEntity
  8
0
100
AcDbLine
 10
215.638459193576
 20
266.636079285119
 30
0.0
 11
220.038359193576
 21
267.193079285119
 31
0.0
  0
LINE
  5
C61
330
1D
100
AcDbEntity
  8
0
100
AcDbLine
 10
215.379659193576
 20
267.816079285119
 30
0.0
 11
220.038359193576
 21
268.406079285119
 31
0.0
  0
LINE
  5
C62
330
1D
100
AcDbEntity
  8
0
100
AcDbLine
 10
214.861959193576
 20
275.920079285119
 30
0.0
 11
220.038359193576
 21
276.575079285119
 31
0.0
  0
LINE
  5
C63
330
1D
100
AcDbEntity
  8
0
100
AcDbLine
 10
215.795659193577
 20
246.247635521687
 30
0.0
 11
215.795659193577
 21
246.12307928512
 31
0.0
  0
LINE
  5
C64
330
1D
100
AcDbEntity
  8
0
100
AcDbLine
 10
215.795659193577
 20
244.762079285119
 30
0.0
 11
216.078559193576
 21
245.442079285119
 31
0.0
  0
LINE
  5
C65
330
1D
100
AcDbEntity
  8
0
100
AcDbLine
 10
216.484059193576
 20
251.404079285119
 30
0.0
 11
216.574259193576
 21
252.131079285119
 31
0.0
  0
LINE
  5
C66
330
1D
100
AcDbEntity
  8
0
100
AcDbLine
 10
216.484059193576
 20
251.404079285119
 30
0.0
 11
216.940259193577
 21
250.817079285119
 31
0.0
  0
LINE
  5
C67
330
1D
100
AcDbEntity
  8
0
100
AcDbLine
 10
216.574259193576
 20
252.131079285119
 30
0.0
 11
217.184059193577
 21
252.571079285119
 31
0.0
  0
LINE
  5
C68
330
1D
100
AcDbEntity
  8
0
100
AcDbLine
 10
216.484059193576
 20
249.009079285119
 30
0.0
 11
216.574259193576
 21
248.281079285119
 31
0.0
  0
LINE
  5
C69
330
1D
100
AcDbEntity
  8
0
100
AcDbLine
 10
216.484059193576
 20
249.009079285119
 30
0.0
 11
216.940259193577
 21
249.596079285119
 31
0.0
  0
LINE
  5
C6A
330
1D
100
AcDbEntity
  8
0
100
AcDbLine
 10
216.574259193576
 20
248.281079285119
 30
0.0
 11
217.184059193577
 21
247.842079285119
 31
0.0
  0
LINE
  5
C6B
330
1D
100
AcDbEntity
  8
0
100
AcDbLine
 10
215.795659193577
 20
246.12307928512
 30
0.0
 11
216.078559193576
 21
245.442079285119
 31
0.0
  0
LINE
  5
C6C
330
1D
100
AcDbEntity
  8
0
100
AcDbLine
 10
215.795659193577
 20
246.12307928512
 30
0.0
 11
215.795659193577
 21
246.247635521687
 31
0.0
  0
LINE
  5
C6D
330
1D
100
AcDbEntity
  8
0
100
AcDbLine
 10
216.750159193577
 20
262.265079285119
 30
0.0
 11
220.038359193576
 21
262.707079285119
 31
0.0
  0
LINE
  5
C6E
330
1D
100
AcDbEntity
  8
0
100
AcDbLine
 10
216.940259193577
 20
250.817079285119
 30
0.0
 11
217.696459193576
 21
250.73007928512
 31
0.0
  0
LINE
  5
C6F
330
1D
100
AcDbEntity
  8
0
100
AcDbLine
 10
216.940259193577
 20
249.596079285119
 30
0.0
 11
217.696459193576
 21
249.683079285119
 31
0.0
  0
LINE
  5
C70
330
1D
100
AcDbEntity
  8
0
100
AcDbLine
 10
216.750159193577
 20
238.491079285119
 30
0.0
 11
220.038359193576
 21
238.050079285119
 31
0.0
  0
LINE
  5
C71
330
1D
100
AcDbEntity
  8
0
100
AcDbLine
 10
216.711859193576
 20
238.401079285119
 30
0.0
 11
220.038359193576
 21
237.959079285119
 31
0.0
  0
LINE
  5
C72
330
1D
100
AcDbEntity
  8
0
100
AcDbLine
 10
215.638459193576
 20
235.026079285119
 30
0.0
 11
220.038359193576
 21
234.469079285119
 31
0.0
  0
LINE
  5
C73
330
1D
100
AcDbEntity
  8
0
100
AcDbLine
 10
215.379659193576
 20
234.346079285119
 30
0.0
 11
220.038359193576
 21
233.756079285119
 31
0.0
  0
LINE
  5
C74
330
1D
100
AcDbEntity
  8
0
100
AcDbLine
 10
217.184059193577
 20
252.571079285119
 30
0.0
 11
217.940259193577
 21
252.484079285119
 31
0.0
  0
LINE
  5
C75
330
1D
100
AcDbEntity
  8
0
100
AcDbLine
 10
217.184059193577
 20
247.842079285119
 30
0.0
 11
217.940259193577
 21
247.929079285119
 31
0.0
  0
LINE
  5
C76
330
1D
100
AcDbEntity
  8
0
100
AcDbLine
 10
217.260659193576
 20
256.465079285119
 30
0.0
 11
217.369259193576
 21
257.191079285119
 31
0.0
  0
LINE
  5
C77
330
1D
100
AcDbEntity
  8
0
100
AcDbLine
 10
217.260659193576
 20
256.465079285119
 30
0.0
 11
217.731659193576
 21
255.889079285119
 31
0.0
  0
LINE
  5
C78
330
1D
100
AcDbEntity
  8
0
100
AcDbLine
 10
217.369259193576
 20
257.191079285119
 30
0.0
 11
217.967759193577
 21
257.644079285119
 31
0.0
  0
LINE
  5
C79
330
1D
100
AcDbEntity
  8
0
100
AcDbLine
 10
217.206359193577
 20
209.691079285119
 30
0.0
 11
218.054359193576
 21
210.312079285119
 31
0.0
  0
LINE
  5
C7A
330
1D
100
AcDbEntity
  8
0
100
AcDbLine
 10
217.206359193577
 20
173.179079285119
 30
0.0
 11
218.054359193576
 21
172.558079285119
 31
0.0
  0
LINE
  5
C7B
330
1D
100
AcDbEntity
  8
0
100
AcDbLine
 10
216.985059193576
 20
116.651079285119
 30
0.0
 11
220.038359193576
 21
116.545079285119
 31
0.0
  0
LINE
  5
C7C
330
1D
100
AcDbEntity
  8
0
100
AcDbLine
 10
215.038359193576
 20
116.314079285119
 30
0.0
 11
217.438359193577
 21
116.081079285119
 31
0.0
  0
LINE
  5
C7D
330
1D
100
AcDbEntity
  8
0
100
AcDbLine
 10
228.738359193576
 20
88.993079285119
 30
0.0
 11
229.038359193576
 21
89.588379285119
 31
0.0
  0
LINE
  5
C7E
330
1D
100
AcDbEntity
  8
0
100
AcDbLine
 10
229.038359193576
 20
89.588379285119
 30
0.0
 11
229.263731471024
 21
92.636054787203
 31
0.0
  0
LINE
  5
C7F
330
1D
100
AcDbEntity
  8
0
100
AcDbLine
 10
229.038359193576
 20
89.588379285119
 30
0.0
 11
229.263731471024
 21
92.636054787203
 31
0.0
  0
LINE
  5
C80
330
1D
100
AcDbEntity
  8
0
100
AcDbLine
 10
218.054359193576
 20
210.312079285119
 30
0.0
 11
219.014359193576
 21
210.684079285119
 31
0.0
  0
LINE
  5
C81
330
1D
100
AcDbEntity
  8
0
100
AcDbLine
 10
219.014359193576
 20
210.684079285119
 30
0.0
 11
220.038359193576
 21
210.824079285119
 31
0.0
  0
LINE
  5
C82
330
1D
100
AcDbEntity
  8
0
100
AcDbLine
 10
218.054359193576
 20
172.558079285119
 30
0.0
 11
219.014359193576
 21
172.186079285119
 31
0.0
  0
LINE
  5
C83
330
1D
100
AcDbEntity
  8
0
100
AcDbLine
 10
220.038359193576
 20
210.824079285119
 30
0.0
 11
221.062359193576
 21
210.684079285119
 31
0.0
  0
LINE
  5
C84
330
1D
100
AcDbEntity
  8
0
100
AcDbLine
 10
219.014359193576
 20
172.186079285119
 30
0.0
 11
220.038359193576
 21
172.046079285119
 31
0.0
  0
LINE
  5
C85
330
1D
100
AcDbEntity
  8
0
100
AcDbLine
 10
220.038359193576
 20
172.046079285119
 30
0.0
 11
221.062359193576
 21
172.186079285119
 31
0.0
  0
LINE
  5
C86
330
1D
100
AcDbEntity
  8
0
100
AcDbLine
 10
220.038359193576
 20
116.545079285119
 30
0.0
 11
223.091659193577
 21
116.651079285119
 31
0.0
  0
LINE
  5
C87
330
1D
100
AcDbEntity
  8
0
100
AcDbLine
 10
222.022359193577
 20
210.312079285119
 30
0.0
 11
222.870359193576
 21
209.691079285119
 31
0.0
  0
LINE
  5
C88
330
1D
100
AcDbEntity
  8
0
100
AcDbLine
 10
221.062359193576
 20
210.684079285119
 30
0.0
 11
222.022359193577
 21
210.312079285119
 31
0.0
  0
LINE
  5
C89
330
1D
100
AcDbEntity
  8
0
100
AcDbLine
 10
222.022359193577
 20
172.558079285119
 30
0.0
 11
222.870359193576
 21
173.179079285119
 31
0.0
  0
LINE
  5
C8A
330
1D
100
AcDbEntity
  8
0
100
AcDbLine
 10
221.062359193576
 20
172.186079285119
 30
0.0
 11
222.022359193577
 21
172.558079285119
 31
0.0
  0
LINE
  5
C8B
330
1D
100
AcDbEntity
  8
0
100
AcDbLine
 10
220.038359193576
 20
233.756079285119
 30
0.0
 11
224.697059193577
 21
234.346079285119
 31
0.0
  0
LINE
  5
C8C
330
1D
100
AcDbEntity
  8
0
100
AcDbLine
 10
219.038359193576
 20
239.619079285119
 30
0.0
 11
219.338359193577
 21
238.945079285119
 31
0.0
  0
LINE
  5
C8D
330
1D
100
AcDbEntity
  8
0
100
AcDbLine
 10
219.038359193576
 20
239.619079285119
 30
0.0
 11
219.338359193577
 21
240.293079285119
 31
0.0
  0
LINE
  5
C8E
330
1D
100
AcDbEntity
  8
0
100
AcDbLine
 10
219.338359193577
 20
238.945079285119
 30
0.0
 11
220.038359193576
 21
238.657079285119
 31
0.0
  0
LINE
  5
C8F
330
1D
100
AcDbEntity
  8
0
100
AcDbLine
 10
220.038359193576
 20
238.657079285119
 30
0.0
 11
220.738359193576
 21
238.945079285119
 31
0.0
  0
LINE
  5
C90
330
1D
100
AcDbEntity
  8
0
100
AcDbLine
 10
217.940259193577
 20
247.929079285119
 30
0.0
 11
218.396459193577
 21
248.51607928512
 31
0.0
  0
LINE
  5
C91
330
1D
100
AcDbEntity
  8
0
100
AcDbLine
 10
218.306259193576
 20
249.244079285119
 30
0.0
 11
218.396459193577
 21
248.51607928512
 31
0.0
  0
LINE
  5
C92
330
1D
100
AcDbEntity
  8
0
100
AcDbLine
 10
217.696459193576
 20
250.73007928512
 30
0.0
 11
218.306259193576
 21
251.169079285119
 31
0.0
  0
LINE
  5
C93
330
1D
100
AcDbEntity
  8
0
100
AcDbLine
 10
217.940259193577
 20
252.484079285119
 30
0.0
 11
218.396459193577
 21
251.897079285119
 31
0.0
  0
LINE
  5
C94
330
1D
100
AcDbEntity
  8
0
100
AcDbLine
 10
218.306259193576
 20
251.169079285119
 30
0.0
 11
218.396459193577
 21
251.897079285119
 31
0.0
  0
LINE
  5
C95
330
1D
100
AcDbEntity
  8
0
100
AcDbLine
 10
218.485459193577
 20
255.785079285119
 30
0.0
 11
219.083959193577
 21
256.238079285119
 31
0.0
  0
LINE
  5
C96
330
1D
100
AcDbEntity
  8
0
100
AcDbLine
 10
217.731659193576
 20
255.889079285119
 30
0.0
 11
218.485459193577
 21
255.785079285119
 31
0.0
  0
LINE
  5
C97
330
1D
100
AcDbEntity
  8
0
100
AcDbLine
 10
217.967759193577
 20
257.644079285119
 30
0.0
 11
218.721559193576
 21
257.540079285119
 31
0.0
  0
LINE
  5
C98
330
1D
100
AcDbEntity
  8
0
100
AcDbLine
 10
218.721559193576
 20
257.540079285119
 30
0.0
 11
219.192559193576
 21
256.963079285119
 31
0.0
  0
LINE
  5
C99
330
1D
100
AcDbEntity
  8
0
100
AcDbLine
 10
219.038359193576
 20
260.794079285119
 30
0.0
 11
219.338359193577
 21
261.468079285119
 31
0.0
  0
LINE
  5
C9A
330
1D
100
AcDbEntity
  8
0
100
AcDbLine
 10
219.038359193576
 20
260.794079285119
 30
0.0
 11
219.338359193577
 21
260.120079285119
 31
0.0
  0
LINE
  5
C9B
330
1D
100
AcDbEntity
  8
0
100
AcDbLine
 10
219.038359193576
 20
253.094079285119
 30
0.0
 11
219.338359193577
 21
253.768079285119
 31
0.0
  0
LINE
  5
C9C
330
1D
100
AcDbEntity
  8
0
100
AcDbLine
 10
219.038359193576
 20
253.094079285119
 30
0.0
 11
219.338359193577
 21
252.420079285119
 31
0.0
  0
LINE
  5
C9D
330
1D
100
AcDbEntity
  8
0
100
AcDbLine
 10
217.696459193576
 20
249.683079285119
 30
0.0
 11
218.306259193576
 21
249.244079285119
 31
0.0
  0
LINE
  5
C9E
330
1D
100
AcDbEntity
  8
0
100
AcDbLine
 10
219.083959193577
 20
256.238079285119
 30
0.0
 11
219.192559193576
 21
256.963079285119
 31
0.0
  0
LINE
  5
C9F
330
1D
100
AcDbEntity
  8
0
100
AcDbLine
 10
219.338359193577
 20
260.120079285119
 30
0.0
 11
220.038359193576
 21
259.831079285119
 31
0.0
  0
LINE
  5
CA0
330
1D
100
AcDbEntity
  8
0
100
AcDbLine
 10
219.338359193577
 20
261.468079285119
 30
0.0
 11
220.038359193576
 21
261.756079285119
 31
0.0
  0
LINE
  5
CA1
330
1D
100
AcDbEntity
  8
0
100
AcDbLine
 10
219.338359193577
 20
252.420079285119
 30
0.0
 11
220.038359193576
 21
252.131079285119
 31
0.0
  0
LINE
  5
CA2
330
1D
100
AcDbEntity
  8
0
100
AcDbLine
 10
219.338359193577
 20
253.768079285119
 30
0.0
 11
220.038359193576
 21
254.056079285119
 31
0.0
  0
LINE
  5
CA3
330
1D
100
AcDbEntity
  8
0
100
AcDbLine
 10
219.338359193577
 20
247.993079285119
 30
0.0
 11
220.038359193576
 21
248.281079285119
 31
0.0
  0
LINE
  5
CA4
330
1D
100
AcDbEntity
  8
0
100
AcDbLine
 10
219.038359193576
 20
247.319079285119
 30
0.0
 11
219.338359193577
 21
246.645079285119
 31
0.0
  0
LINE
  5
CA5
330
1D
100
AcDbEntity
  8
0
100
AcDbLine
 10
219.038359193576
 20
247.319079285119
 30
0.0
 11
219.338359193577
 21
247.993079285119
 31
0.0
  0
LINE
  5
CA6
330
1D
100
AcDbEntity
  8
0
100
AcDbLine
 10
219.338359193577
 20
246.645079285119
 30
0.0
 11
220.038359193576
 21
246.357079285119
 31
0.0
  0
LINE
  5
CA7
330
1D
100
AcDbEntity
  8
0
100
AcDbLine
 10
220.038359193576
 20
259.831079285119
 30
0.0
 11
220.738359193576
 21
260.120079285119
 31
0.0
  0
LINE
  5
CA8
330
1D
100
AcDbEntity
  8
0
100
AcDbLine
 10
220.038359193576
 20
261.756079285119
 30
0.0
 11
220.738359193576
 21
261.468079285119
 31
0.0
  0
LINE
  5
CA9
330
1D
100
AcDbEntity
  8
0
100
AcDbLine
 10
220.038359193576
 20
252.131079285119
 30
0.0
 11
220.738359193576
 21
252.420079285119
 31
0.0
  0
LINE
  5
CAA
330
1D
100
AcDbEntity
  8
0
100
AcDbLine
 10
220.038359193576
 20
254.056079285119
 30
0.0
 11
220.738359193576
 21
253.768079285119
 31
0.0
  0
LINE
  5
CAB
330
1D
100
AcDbEntity
  8
0
100
AcDbLine
 10
220.038359193576
 20
248.281079285119
 30
0.0
 11
220.738359193576
 21
247.993079285119
 31
0.0
  0
LINE
  5
CAC
330
1D
100
AcDbEntity
  8
0
100
AcDbLine
 10
220.038359193576
 20
246.357079285119
 30
0.0
 11
220.738359193576
 21
246.645079285119
 31
0.0
  0
LINE
  5
CAD
330
1D
100
AcDbEntity
  8
0
100
AcDbLine
 10
220.038359193576
 20
240.582079285119
 30
0.0
 11
220.738359193576
 21
240.293079285119
 31
0.0
  0
LINE
  5
CAE
330
1D
100
AcDbEntity
  8
0
100
AcDbLine
 10
219.338359193577
 20
240.293079285119
 30
0.0
 11
220.038359193576
 21
240.582079285119
 31
0.0
  0
LINE
  5
CAF
330
1D
100
AcDbEntity
  8
0
100
AcDbLine
 10
220.038359193576
 20
262.707079285119
 30
0.0
 11
223.326559193576
 21
262.265079285119
 31
0.0
  0
LINE
  5
CB0
330
1D
100
AcDbEntity
  8
0
100
AcDbLine
 10
220.038359193576
 20
238.050079285119
 30
0.0
 11
223.326559193576
 21
238.491079285119
 31
0.0
  0
LINE
  5
CB1
330
1D
100
AcDbEntity
  8
0
100
AcDbLine
 10
220.038359193576
 20
237.959079285119
 30
0.0
 11
223.364859193577
 21
238.401079285119
 31
0.0
  0
LINE
  5
CB2
330
1D
100
AcDbEntity
  8
0
100
AcDbLine
 10
220.038359193576
 20
276.575079285119
 30
0.0
 11
225.214759193576
 21
275.920079285119
 31
0.0
  0
LINE
  5
CB3
330
1D
100
AcDbEntity
  8
0
100
AcDbLine
 10
220.038359193576
 20
267.193079285119
 30
0.0
 11
224.438259193576
 21
266.636079285119
 31
0.0
  0
LINE
  5
CB4
330
1D
100
AcDbEntity
  8
0
100
AcDbLine
 10
220.038359193576
 20
234.469079285119
 30
0.0
 11
224.438259193576
 21
235.026079285119
 31
0.0
  0
LINE
  5
CB5
330
1D
100
AcDbEntity
  8
0
100
AcDbLine
 10
220.738359193576
 20
240.293079285119
 30
0.0
 11
221.038359193576
 21
239.619079285119
 31
0.0
  0
LINE
  5
CB6
330
1D
100
AcDbEntity
  8
0
100
AcDbLine
 10
220.738359193576
 20
238.945079285119
 30
0.0
 11
221.038359193576
 21
239.619079285119
 31
0.0
  0
LINE
  5
CB7
330
1D
100
AcDbEntity
  8
0
100
AcDbLine
 10
220.884159193576
 20
243.449079285119
 30
0.0
 11
221.355059193576
 21
242.87307928512
 31
0.0
  0
LINE
  5
CB8
330
1D
100
AcDbEntity
  8
0
100
AcDbLine
 10
220.884159193576
 20
243.449079285119
 30
0.0
 11
220.992759193576
 21
244.175079285119
 31
0.0
  0
LINE
  5
CB9
330
1D
100
AcDbEntity
  8
0
100
AcDbLine
 10
221.355059193576
 20
242.87307928512
 30
0.0
 11
222.108859193577
 21
242.769079285119
 31
0.0
  0
LINE
  5
CBA
330
1D
100
AcDbEntity
  8
0
100
AcDbLine
 10
222.108859193577
 20
242.769079285119
 30
0.0
 11
222.707359193577
 21
243.222079285119
 31
0.0
  0
LINE
  5
CBB
330
1D
100
AcDbEntity
  8
0
100
AcDbLine
 10
220.738359193576
 20
252.420079285119
 30
0.0
 11
221.038359193576
 21
253.094079285119
 31
0.0
  0
LINE
  5
CBC
330
1D
100
AcDbEntity
  8
0
100
AcDbLine
 10
220.738359193576
 20
260.120079285119
 30
0.0
 11
221.038359193576
 21
260.794079285119
 31
0.0
  0
LINE
  5
CBD
330
1D
100
AcDbEntity
  8
0
100
AcDbLine
 10
220.738359193576
 20
261.468079285119
 30
0.0
 11
221.038359193576
 21
260.794079285119
 31
0.0
  0
LINE
  5
CBE
330
1D
100
AcDbEntity
  8
0
100
AcDbLine
 10
220.738359193576
 20
253.768079285119
 30
0.0
 11
221.038359193576
 21
253.094079285119
 31
0.0
  0
LINE
  5
CBF
330
1D
100
AcDbEntity
  8
0
100
AcDbLine
 10
220.992759193576
 20
256.238079285119
 30
0.0
 11
221.591259193576
 21
255.785079285119
 31
0.0
  0
LINE
  5
CC0
330
1D
100
AcDbEntity
  8
0
100
AcDbLine
 10
220.884159193576
 20
256.963079285119
 30
0.0
 11
221.355059193576
 21
257.540079285119
 31
0.0
  0
LINE
  5
CC1
330
1D
100
AcDbEntity
  8
0
100
AcDbLine
 10
220.884159193576
 20
256.963079285119
 30
0.0
 11
220.992759193576
 21
256.238079285119
 31
0.0
  0
LINE
  5
CC2
330
1D
100
AcDbEntity
  8
0
100
AcDbLine
 10
220.738359193576
 20
247.993079285119
 30
0.0
 11
221.038359193576
 21
247.319079285119
 31
0.0
  0
LINE
  5
CC3
330
1D
100
AcDbEntity
  8
0
100
AcDbLine
 10
220.738359193576
 20
246.645079285119
 30
0.0
 11
221.038359193576
 21
247.319079285119
 31
0.0
  0
LINE
  5
CC4
330
1D
100
AcDbEntity
  8
0
100
AcDbLine
 10
222.345059193576
 20
244.524079285119
 30
0.0
 11
222.815959193577
 21
243.948079285119
 31
0.0
  0
LINE
  5
CC5
330
1D
100
AcDbEntity
  8
0
100
AcDbLine
 10
221.591259193576
 20
255.785079285119
 30
0.0
 11
222.345059193576
 21
255.889079285119
 31
0.0
  0
LINE
  5
CC6
330
1D
100
AcDbEntity
  8
0
100
AcDbLine
 10
221.355059193576
 20
257.540079285119
 30
0.0
 11
222.108859193577
 21
257.644079285119
 31
0.0
  0
LINE
  5
CC7
330
1D
100
AcDbEntity
  8
0
100
AcDbLine
 10
221.680159193576
 20
248.51607928512
 30
0.0
 11
221.770359193576
 21
249.244079285119
 31
0.0
  0
LINE
  5
CC8
330
1D
100
AcDbEntity
  8
0
100
AcDbLine
 10
221.680159193576
 20
248.51607928512
 30
0.0
 11
222.136359193576
 21
247.929079285119
 31
0.0
  0
LINE
  5
CC9
330
1D
100
AcDbEntity
  8
0
100
AcDbLine
 10
221.770359193576
 20
249.244079285119
 30
0.0
 11
222.380159193576
 21
249.683079285119
 31
0.0
  0
LINE
  5
CCA
330
1D
100
AcDbEntity
  8
0
100
AcDbLine
 10
221.680159193576
 20
251.897079285119
 30
0.0
 11
221.770359193576
 21
251.169079285119
 31
0.0
  0
LINE
  5
CCB
330
1D
100
AcDbEntity
  8
0
100
AcDbLine
 10
221.680159193576
 20
251.897079285119
 30
0.0
 11
222.136359193576
 21
252.484079285119
 31
0.0
  0
LINE
  5
CCC
330
1D
100
AcDbEntity
  8
0
100
AcDbLine
 10
222.136359193576
 20
247.929079285119
 30
0.0
 11
222.892659193576
 21
247.842079285119
 31
0.0
  0
LINE
  5
CCD
330
1D
100
AcDbEntity
  8
0
100
AcDbLine
 10
221.770359193576
 20
251.169079285119
 30
0.0
 11
222.380159193576
 21
250.73007928512
 31
0.0
  0
LINE
  5
CCE
330
1D
100
AcDbEntity
  8
0
100
AcDbLine
 10
222.136359193576
 20
252.484079285119
 30
0.0
 11
222.892659193576
 21
252.571079285119
 31
0.0
  0
LINE
  5
CCF
330
1D
100
AcDbEntity
  8
0
100
AcDbLine
 10
222.380159193576
 20
249.683079285119
 30
0.0
 11
223.136359193576
 21
249.596079285119
 31
0.0
  0
LINE
  5
CD0
330
1D
100
AcDbEntity
  8
0
100
AcDbLine
 10
222.380159193576
 20
250.73007928512
 30
0.0
 11
223.136359193576
 21
250.817079285119
 31
0.0
  0
LINE
  5
CD1
330
1D
100
AcDbEntity
  8
0
100
AcDbLine
 10
222.345059193576
 20
255.889079285119
 30
0.0
 11
222.815959193577
 21
256.465079285119
 31
0.0
  0
LINE
  5
CD2
330
1D
100
AcDbEntity
  8
0
100
AcDbLine
 10
222.108859193577
 20
257.644079285119
 30
0.0
 11
222.707359193577
 21
257.191079285119
 31
0.0
  0
LINE
  5
CD3
330
1D
100
AcDbEntity
  8
0
100
AcDbLine
 10
221.591259193576
 20
244.628079285119
 30
0.0
 11
222.345059193576
 21
244.524079285119
 31
0.0
  0
LINE
  5
CD4
330
1D
100
AcDbEntity
  8
0
100
AcDbLine
 10
220.992759193576
 20
244.175079285119
 30
0.0
 11
221.591259193576
 21
244.628079285119
 31
0.0
  0
LINE
  5
CD5
330
1D
100
AcDbEntity
  8
0
100
AcDbLine
 10
220.038359193576
 20
268.406079285119
 30
0.0
 11
224.697059193577
 21
267.816079285119
 31
0.0
  0
LINE
  5
CD6
330
1D
100
AcDbEntity
  8
0
100
AcDbLine
 10
222.870359193576
 20
209.691079285119
 30
0.0
 11
223.510359193576
 21
208.869079285119
 31
0.0
  0
LINE
  5
CD7
330
1D
100
AcDbEntity
  8
0
100
AcDbLine
 10
222.870359193576
 20
173.179079285119
 30
0.0
 11
223.510359193576
 21
174.002079285119
 31
0.0
  0
LINE
  5
CD8
330
1D
100
AcDbEntity
  8
0
100
AcDbLine
 10
223.894359193576
 20
207.939079285119
 30
0.0
 11
224.038359193576
 21
206.946079285119
 31
0.0
  0
LINE
  5
CD9
330
1D
100
AcDbEntity
  8
0
100
AcDbLine
 10
223.510359193576
 20
208.869079285119
 30
0.0
 11
223.894359193576
 21
207.939079285119
 31
0.0
  0
LINE
  5
CDA
330
1D
100
AcDbEntity
  8
0
100
AcDbLine
 10
224.038359193576
 20
206.946079285119
 30
0.0
 11
224.038359193576
 21
175.925079285119
 31
0.0
  0
LINE
  5
CDB
330
1D
100
AcDbEntity
  8
0
100
AcDbLine
 10
224.038359193576
 20
175.925079285119
 30
0.0
 11
224.038359193576
 21
206.946079285119
 31
0.0
  0
LINE
  5
CDC
330
1D
100
AcDbEntity
  8
0
100
AcDbLine
 10
223.894359193576
 20
174.932079285119
 30
0.0
 11
224.038359193576
 21
175.925079285119
 31
0.0
  0
LINE
  5
CDD
330
1D
100
AcDbEntity
  8
0
100
AcDbLine
 10
223.510359193576
 20
174.002079285119
 30
0.0
 11
223.894359193576
 21
174.932079285119
 31
0.0
  0
LINE
  5
CDE
330
1D
100
AcDbEntity
  8
0
100
AcDbLine
 10
223.091659193577
 20
116.651079285119
 30
0.0
 11
225.757359193576
 21
116.965079285119
 31
0.0
  0
LINE
  5
CDF
330
1D
100
AcDbEntity
  8
0
100
AcDbLine
 10
223.136359193576
 20
249.596079285119
 30
0.0
 11
223.592659193577
 21
249.009079285119
 31
0.0
  0
LINE
  5
CE0
330
1D
100
AcDbEntity
  8
0
100
AcDbLine
 10
222.892659193576
 20
247.842079285119
 30
0.0
 11
223.502459193576
 21
248.281079285119
 31
0.0
  0
LINE
  5
CE1
330
1D
100
AcDbEntity
  8
0
100
AcDbLine
 10
223.136359193576
 20
250.817079285119
 30
0.0
 11
223.592659193577
 21
251.404079285119
 31
0.0
  0
LINE
  5
CE2
330
1D
100
AcDbEntity
  8
0
100
AcDbLine
 10
222.892659193576
 20
252.571079285119
 30
0.0
 11
223.502459193576
 21
252.131079285119
 31
0.0
  0
LINE
  5
CE3
330
1D
100
AcDbEntity
  8
0
100
AcDbLine
 10
222.707359193577
 20
257.191079285119
 30
0.0
 11
222.815959193577
 21
256.465079285119
 31
0.0
  0
LINE
  5
CE4
330
1D
100
AcDbEntity
  8
0
100
AcDbLine
 10
222.707359193577
 20
243.222079285119
 30
0.0
 11
222.815959193577
 21
243.948079285119
 31
0.0
  0
LINE
  5
CE5
330
1D
100
AcDbEntity
  8
0
100
AcDbLine
 10
223.326559193576
 20
262.265079285119
 30
0.0
 11
226.423659193576
 21
261.050079285119
 31
0.0
  0
LINE
  5
CE6
330
1D
100
AcDbEntity
  8
0
100
AcDbLine
 10
223.326559193576
 20
238.491079285119
 30
0.0
 11
226.423659193576
 21
239.70607928512
 31
0.0
  0
LINE
  5
CE7
330
1D
100
AcDbEntity
  8
0
100
AcDbLine
 10
223.502459193576
 20
248.281079285119
 30
0.0
 11
223.592659193577
 21
249.009079285119
 31
0.0
  0
LINE
  5
CE8
330
1D
100
AcDbEntity
  8
0
100
AcDbLine
 10
223.998159193576
 20
254.971079285119
 30
0.0
 11
224.280959193577
 21
254.290079285119
 31
0.0
  0
LINE
  5
CE9
330
1D
100
AcDbEntity
  8
0
100
AcDbLine
 10
223.998159193576
 20
254.971079285119
 30
0.0
 11
224.280959193577
 21
255.651079285119
 31
0.0
  0
LINE
  5
CEA
330
1D
100
AcDbEntity
  8
0
100
AcDbLine
 10
224.280959193577
 20
254.290079285119
 30
0.0
 11
224.988059193577
 21
254.018079285119
 31
0.0
  0
LINE
  5
CEB
330
1D
100
AcDbEntity
  8
0
100
AcDbLine
 10
224.280959193577
 20
255.651079285119
 30
0.0
 11
224.988059193577
 21
255.923079285119
 31
0.0
  0
LINE
  5
CEC
330
1D
100
AcDbEntity
  8
0
100
AcDbLine
 10
223.502459193576
 20
252.253340265564
 30
0.0
 11
223.502459193576
 21
252.131079285119
 31
0.0
  0
LINE
  5
CED
330
1D
100
AcDbEntity
  8
0
100
AcDbLine
 10
223.502459193576
 20
252.131079285119
 30
0.0
 11
223.592659193577
 21
251.404079285119
 31
0.0
  0
LINE
  5
CEE
330
1D
100
AcDbEntity
  8
0
100
AcDbLine
 10
223.502459193576
 20
252.131079285119
 30
0.0
 11
223.502459193576
 21
252.253340265564
 31
0.0
  0
LINE
  5
CEF
330
1D
100
AcDbEntity
  8
0
100
AcDbLine
 10
223.364859193577
 20
238.401079285119
 30
0.0
 11
226.500159193577
 21
239.652079285119
 31
0.0
  0
LINE
  5
CF0
330
1D
100
AcDbEntity
  8
0
100
AcDbLine
 10
224.438259193576
 20
235.026079285119
 30
0.0
 11
228.538359193576
 21
236.661079285119
 31
0.0
  0
LINE
  5
CF1
330
1D
100
AcDbEntity
  8
0
100
AcDbLine
 10
224.582059193576
 20
259.129079285119
 30
0.0
 11
225.038359193576
 21
258.542079285119
 31
0.0
  0
LINE
  5
CF2
330
1D
100
AcDbEntity
  8
0
100
AcDbLine
 10
224.582059193576
 20
259.129079285119
 30
0.0
 11
224.672259193577
 21
259.857079285119
 31
0.0
  0
LINE
  5
CF3
330
1D
100
AcDbEntity
  8
0
100
AcDbLine
 10
224.672259193577
 20
259.857079285119
 30
0.0
 11
225.282159193576
 21
260.296079285119
 31
0.0
  0
LINE
  5
CF4
330
1D
100
AcDbEntity
  8
0
100
AcDbLine
 10
224.582059193576
 20
241.284079285119
 30
0.0
 11
225.038359193576
 21
241.871079285119
 31
0.0
  0
LINE
  5
CF5
330
1D
100
AcDbEntity
  8
0
100
AcDbLine
 10
224.582059193576
 20
241.284079285119
 30
0.0
 11
224.672259193577
 21
240.556079285119
 31
0.0
  0
LINE
  5
CF6
330
1D
100
AcDbEntity
  8
0
100
AcDbLine
 10
224.672259193577
 20
240.556079285119
 30
0.0
 11
225.282159193576
 21
240.117079285119
 31
0.0
  0
LINE
  5
CF7
330
1D
100
AcDbEntity
  8
0
100
AcDbLine
 10
224.438259193576
 20
266.636079285119
 30
0.0
 11
228.538359193576
 21
265.001079285119
 31
0.0
  0
LINE
  5
CF8
330
1D
100
AcDbEntity
  8
0
100
AcDbLine
 10
224.697059193577
 20
267.816079285119
 30
0.0
 11
229.038359193576
 21
266.084079285119
 31
0.0
  0
LINE
  5
CF9
330
1D
100
AcDbEntity
  8
0
100
AcDbLine
 10
225.038359193576
 20
241.871079285119
 30
0.0
 11
225.794559193577
 21
241.958079285119
 31
0.0
  0
LINE
  5
CFA
330
1D
100
AcDbEntity
  8
0
100
AcDbLine
 10
224.988059193577
 20
254.018079285119
 30
0.0
 11
225.695159193577
 21
254.290079285119
 31
0.0
  0
LINE
  5
CFB
330
1D
100
AcDbEntity
  8
0
100
AcDbLine
 10
224.988059193577
 20
255.923079285119
 30
0.0
 11
225.695159193577
 21
255.651079285119
 31
0.0
  0
LINE
  5
CFC
330
1D
100
AcDbEntity
  8
0
100
AcDbLine
 10
225.038359193576
 20
258.542079285119
 30
0.0
 11
225.794559193577
 21
258.455079285119
 31
0.0
  0
LINE
  5
CFD
330
1D
100
AcDbEntity
  8
0
100
AcDbLine
 10
225.695159193577
 20
254.290079285119
 30
0.0
 11
225.978059193576
 21
254.971079285119
 31
0.0
  0
LINE
  5
CFE
330
1D
100
AcDbEntity
  8
0
100
AcDbLine
 10
225.695159193577
 20
255.651079285119
 30
0.0
 11
225.978059193576
 21
254.971079285119
 31
0.0
  0
LINE
  5
CFF
330
1D
100
AcDbEntity
  8
0
100
AcDbLine
 10
225.833859193577
 20
248.834213539272
 30
0.0
 11
225.833859193577
 21
248.712079285119
 31
0.0
  0
LINE
  5
D00
330
1D
100
AcDbEntity
  8
0
100
AcDbLine
 10
225.942459193576
 20
247.98607928512
 30
0.0
 11
226.540959193576
 21
247.533079285119
 31
0.0
  0
LINE
  5
D01
330
1D
100
AcDbEntity
  8
0
100
AcDbLine
 10
225.833859193577
 20
248.712079285119
 30
0.0
 11
226.304859193577
 21
249.288079285119
 31
0.0
  0
LINE
  5
D02
330
1D
100
AcDbEntity
  8
0
100
AcDbLine
 10
225.833859193577
 20
248.712079285119
 30
0.0
 11
225.942459193576
 21
247.98607928512
 31
0.0
  0
LINE
  5
D03
330
1D
100
AcDbEntity
  8
0
100
AcDbLine
 10
225.833859193577
 20
248.712079285119
 30
0.0
 11
225.833859193577
 21
248.834213539272
 31
0.0
  0
LINE
  5
D04
330
1D
100
AcDbEntity
  8
0
100
AcDbLine
 10
225.794559193577
 20
258.455079285119
 30
0.0
 11
226.404359193577
 21
258.894079285119
 31
0.0
  0
LINE
  5
D05
330
1D
100
AcDbEntity
  8
0
100
AcDbLine
 10
226.038359193576
 20
260.209079285119
 30
0.0
 11
226.494559193576
 21
259.622079285119
 31
0.0
  0
LINE
  5
D06
330
1D
100
AcDbEntity
  8
0
100
AcDbLine
 10
225.282159193576
 20
260.296079285119
 30
0.0
 11
226.038359193576
 21
260.209079285119
 31
0.0
  0
LINE
  5
D07
330
1D
100
AcDbEntity
  8
0
100
AcDbLine
 10
225.794559193577
 20
241.958079285119
 30
0.0
 11
226.404359193577
 21
241.519079285119
 31
0.0
  0
LINE
  5
D08
330
1D
100
AcDbEntity
  8
0
100
AcDbLine
 10
226.304859193577
 20
249.288079285119
 30
0.0
 11
227.058659193576
 21
249.392079285119
 31
0.0
  0
LINE
  5
D09
330
1D
100
AcDbEntity
  8
0
100
AcDbLine
 10
226.404359193577
 20
258.894079285119
 30
0.0
 11
226.494559193576
 21
259.622079285119
 31
0.0
  0
LINE
  5
D0A
330
1D
100
AcDbEntity
  8
0
100
AcDbLine
 10
226.404359193577
 20
241.519079285119
 30
0.0
 11
226.494559193576
 21
240.791079285119
 31
0.0
  0
LINE
  5
D0B
330
1D
100
AcDbEntity
  8
0
100
AcDbLine
 10
226.038359193576
 20
240.204079285119
 30
0.0
 11
226.494559193576
 21
240.791079285119
 31
0.0
  0
LINE
  5
D0C
330
1D
100
AcDbEntity
  8
0
100
AcDbLine
 10
225.282159193576
 20
240.117079285119
 30
0.0
 11
226.038359193576
 21
240.204079285119
 31
0.0
  0
LINE
  5
D0D
330
1D
100
AcDbEntity
  8
0
100
AcDbLine
 10
226.423659193576
 20
261.050079285119
 30
0.0
 11
229.100059193576
 21
259.100079285119
 31
0.0
  0
LINE
  5
D0E
330
1D
100
AcDbEntity
  8
0
100
AcDbLine
 10
226.423659193576
 20
239.70607928512
 30
0.0
 11
229.100059193576
 21
241.656079285119
 31
0.0
  0
LINE
  5
D0F
330
1D
100
AcDbEntity
  8
0
100
AcDbLine
 10
227.058659193576
 20
249.392079285119
 30
0.0
 11
227.657159193576
 21
248.939079285119
 31
0.0
  0
LINE
  5
D10
330
1D
100
AcDbEntity
  8
0
100
AcDbLine
 10
226.540959193576
 20
247.533079285119
 30
0.0
 11
227.294759193577
 21
247.637079285119
 31
0.0
  0
LINE
  5
D11
330
1D
100
AcDbEntity
  8
0
100
AcDbLine
 10
226.500159193577
 20
239.652079285119
 30
0.0
 11
229.214759193576
 21
241.640079285119
 31
0.0
  0
LINE
  5
D12
330
1D
100
AcDbEntity
  8
0
100
AcDbLine
 10
225.757359193576
 20
116.965079285119
 30
0.0
 11
227.738359193576
 21
117.369079285119
 31
0.0
  0
LINE
  5
D13
330
1D
100
AcDbEntity
  8
0
100
AcDbLine
 10
224.697059193577
 20
234.346079285119
 30
0.0
 11
229.038359193576
 21
236.077079285119
 31
0.0
  0
LINE
  5
D14
330
1D
100
AcDbEntity
  8
0
100
AcDbLine
 10
225.214759193576
 20
275.920079285119
 30
0.0
 11
230.038359193576
 21
273.996079285119
 31
0.0
  0
LINE
  5
D15
330
1D
100
AcDbEntity
  8
0
100
AcDbLine
 10
227.738359193576
 20
117.369079285119
 30
0.0
 11
229.311559193576
 21
117.816079285119
 31
0.0
  0
LINE
  5
D16
330
1D
100
AcDbEntity
  8
0
100
AcDbLine
 10
227.765759193576
 20
248.214079285119
 30
0.0
 11
227.765759193576
 21
248.335241071943
 31
0.0
  0
LINE
  5
D17
330
1D
100
AcDbEntity
  8
0
100
AcDbLine
 10
227.765759193576
 20
248.335241071943
 30
0.0
 11
227.765759193576
 21
248.214079285119
 31
0.0
  0
LINE
  5
D18
330
1D
100
AcDbEntity
  8
0
100
AcDbLine
 10
227.657159193576
 20
248.939079285119
 30
0.0
 11
227.765759193576
 21
248.214079285119
 31
0.0
  0
LINE
  5
D19
330
1D
100
AcDbEntity
  8
0
100
AcDbLine
 10
227.294759193577
 20
247.637079285119
 30
0.0
 11
227.765759193576
 21
248.214079285119
 31
0.0
  0
LINE
  5
D1A
330
1D
100
AcDbEntity
  8
0
100
AcDbLine
 10
228.538359193576
 20
236.661079285119
 30
0.0
 11
232.059159193577
 21
239.261079285119
 31
0.0
  0
LINE
  5
D1B
330
1D
100
AcDbEntity
  8
0
100
AcDbLine
 10
228.608359193576
 20
244.666079285119
 30
0.0
 11
228.698559193577
 21
245.394079285119
 31
0.0
  0
LINE
  5
D1C
330
1D
100
AcDbEntity
  8
0
100
AcDbLine
 10
228.608359193576
 20
244.666079285119
 30
0.0
 11
229.064559193576
 21
244.079079285119
 31
0.0
  0
LINE
  5
D1D
330
1D
100
AcDbEntity
  8
0
100
AcDbLine
 10
228.608359193576
 20
255.747079285119
 30
0.0
 11
228.698559193577
 21
255.019079285119
 31
0.0
  0
LINE
  5
D1E
330
1D
100
AcDbEntity
  8
0
100
AcDbLine
 10
228.608359193576
 20
255.747079285119
 30
0.0
 11
229.064559193576
 21
256.334079285119
 31
0.0
  0
LINE
  5
D1F
330
1D
100
AcDbEntity
  8
0
100
AcDbLine
 10
228.698559193577
 20
255.019079285119
 30
0.0
 11
229.308359193576
 21
254.580079285119
 31
0.0
  0
LINE
  5
D20
330
1D
100
AcDbEntity
  8
0
100
AcDbLine
 10
228.698559193577
 20
245.394079285119
 30
0.0
 11
229.308359193576
 21
245.833079285119
 31
0.0
  0
LINE
  5
D21
330
1D
100
AcDbEntity
  8
0
100
AcDbLine
 10
229.064559193576
 20
256.334079285119
 30
0.0
 11
229.820859193576
 21
256.421079285119
 31
0.0
  0
LINE
  5
D22
330
1D
100
AcDbEntity
  8
0
100
AcDbLine
 10
229.064559193576
 20
244.079079285119
 30
0.0
 11
229.820859193576
 21
243.99207928512
 31
0.0
  0
LINE
  5
D23
330
1D
100
AcDbEntity
  8
0
100
AcDbLine
 10
229.100059193576
 20
259.100079285119
 30
0.0
 11
231.126559193576
 21
256.524079285119
 31
0.0
  0
LINE
  5
D24
330
1D
100
AcDbEntity
  8
0
100
AcDbLine
 10
229.308359193576
 20
254.580079285119
 30
0.0
 11
230.064559193576
 21
254.667079285119
 31
0.0
  0
LINE
  5
D25
330
1D
100
AcDbEntity
  8
0
100
AcDbLine
 10
229.308359193576
 20
245.833079285119
 30
0.0
 11
230.064559193576
 21
245.746079285119
 31
0.0
  0
LINE
  5
D26
330
1D
100
AcDbEntity
  8
0
100
AcDbLine
 10
229.100059193576
 20
241.656079285119
 30
0.0
 11
231.126559193576
 21
244.232079285119
 31
0.0
  0
LINE
  5
D27
330
1D
100
AcDbEntity
  8
0
100
AcDbLine
 10
229.214759193576
 20
241.640079285119
 30
0.0
 11
231.279459193576
 21
244.252079285119
 31
0.0
  0
LINE
  5
D28
330
1D
100
AcDbEntity
  8
0
100
AcDbLine
 10
229.038359193576
 20
266.084079285119
 30
0.0
 11
232.766259193577
 21
263.331079285119
 31
0.0
  0
LINE
  5
D29
330
1D
100
AcDbEntity
  8
0
100
AcDbLine
 10
229.038359193576
 20
236.077079285119
 30
0.0
 11
232.766259193577
 21
238.830079285119
 31
0.0
  0
LINE
  5
D2A
330
1D
100
AcDbEntity
  8
0
100
AcDbLine
 10
228.538359193576
 20
265.001079285119
 30
0.0
 11
232.059159193577
 21
262.401079285119
 31
0.0
  0
LINE
  5
D2B
330
1D
100
AcDbEntity
  8
0
100
AcDbLine
 10
229.311559193576
 20
117.816079285119
 30
0.0
 11
230.533359193577
 21
118.462079285119
 31
0.0
  0
LINE
  5
D2C
330
1D
100
AcDbEntity
  8
0
100
AcDbLine
 10
229.820859193576
 20
256.421079285119
 30
0.0
 11
230.430659193577
 21
255.981079285119
 31
0.0
  0
LINE
  5
D2D
330
1D
100
AcDbEntity
  8
0
100
AcDbLine
 10
230.038359193576
 20
250.33107928512
 30
0.0
 11
230.038359193576
 21
250.20607928512
 31
0.0
  0
LINE
  5
D2E
330
1D
100
AcDbEntity
  8
0
100
AcDbLine
 10
230.064559193576
 20
254.667079285119
 30
0.0
 11
230.520859193576
 21
255.25407928512
 31
0.0
  0
LINE
  5
D2F
330
1D
100
AcDbEntity
  8
0
100
AcDbLine
 10
230.038359193576
 20
250.20607928512
 30
0.0
 11
230.338359193577
 21
250.880079285119
 31
0.0
  0
LINE
  5
D30
330
1D
100
AcDbEntity
  8
0
100
AcDbLine
 10
230.038359193576
 20
250.20607928512
 30
0.0
 11
230.338359193577
 21
249.533079285119
 31
0.0
  0
LINE
  5
D31
330
1D
100
AcDbEntity
  8
0
100
AcDbLine
 10
230.038359193576
 20
250.20607928512
 30
0.0
 11
230.038359193576
 21
250.33107928512
 31
0.0
  0
LINE
  5
D32
330
1D
100
AcDbEntity
  8
0
100
AcDbLine
 10
230.064559193576
 20
245.746079285119
 30
0.0
 11
230.520859193576
 21
245.159079285119
 31
0.0
  0
LINE
  5
D33
330
1D
100
AcDbEntity
  8
0
100
AcDbLine
 10
229.820859193576
 20
243.99207928512
 30
0.0
 11
230.430659193577
 21
244.432079285119
 31
0.0
  0
LINE
  5
D34
330
1D
100
AcDbEntity
  8
0
100
AcDbLine
 10
230.038359193576
 20
273.996079285119
 30
0.0
 11
234.180459193576
 21
270.937079285119
 31
0.0
  0
LINE
  5
D35
330
1D
100
AcDbEntity
  8
0
100
AcDbLine
 10
229.658759193576
 20
117.602079285119
 30
0.0
 11
230.533359193577
 21
118.462079285119
 31
0.0
  0
LINE
  5
D36
330
1D
100
AcDbEntity
  8
0
100
AcDbLine
 10
229.321759193576
 20
117.002079285119
 30
0.0
 11
231.517859193576
 21
116.793079285119
 31
0.0
  0
LINE
  5
D37
330
1D
100
AcDbEntity
  8
0
100
AcDbLine
 10
229.321759193576
 20
117.002079285119
 30
0.0
 11
230.628559193577
 21
117.368079285119
 31
0.0
  0
LINE
  5
D38
330
1D
100
AcDbEntity
  8
0
100
AcDbLine
 10
227.138359193576
 20
116.729079285119
 30
0.0
 11
227.669268545842
 21
116.909256646544
 31
0.0
  0
LINE
  5
D39
330
1D
100
AcDbEntity
  8
0
100
AcDbLine
 10
227.138359193576
 20
116.729079285119
 30
0.0
 11
227.669268545842
 21
116.909256646544
 31
0.0
  0
LINE
  5
D3A
330
1D
100
AcDbEntity
  8
0
100
AcDbLine
 10
225.038359193576
 20
116.314079285119
 30
0.0
 11
227.138359193576
 21
116.729079285119
 31
0.0
  0
LINE
  5
D3B
330
1D
100
AcDbEntity
  8
0
100
AcDbLine
 10
222.638359193576
 20
116.081079285119
 30
0.0
 11
225.038359193576
 21
116.314079285119
 31
0.0
  0
LINE
  5
D3C
330
1D
100
AcDbEntity
  8
0
100
AcDbLine
 10
220.038359193576
 20
115.978079285119
 30
0.0
 11
222.638359193576
 21
116.081079285119
 31
0.0
  0
LINE
  5
D3D
330
1D
100
AcDbEntity
  8
0
100
AcDbLine
 10
231.038359193576
 20
119.293079285119
 30
0.0
 11
232.038359193576
 21
121.541079285119
 31
0.0
  0
LINE
  5
D3E
330
1D
100
AcDbEntity
  8
0
100
AcDbLine
 10
230.533359193577
 20
118.462079285119
 30
0.0
 11
231.038359193576
 21
119.293079285119
 31
0.0
  0
LINE
  5
D3F
330
1D
100
AcDbEntity
  8
0
100
AcDbLine
 10
231.211829476123
 20
119.683040480284
 30
0.0
 11
231.689859193576
 21
119.440079285119
 31
0.0
  0
LINE
  5
D40
330
1D
100
AcDbEntity
  8
0
100
AcDbLine
 10
230.628559193577
 20
117.368079285119
 30
0.0
 11
231.633959193576
 21
117.879079285119
 31
0.0
  0
LINE
  5
D41
330
1D
100
AcDbEntity
  8
0
100
AcDbLine
 10
231.913359193576
 20
118.359079285119
 30
0.0
 11
231.913359193576
 21
118.810079285119
 31
0.0
  0
LINE
  5
D42
330
1D
100
AcDbEntity
  8
0
100
AcDbLine
 10
231.689859193576
 20
119.440079285119
 30
0.0
 11
231.913359193576
 21
118.810079285119
 31
0.0
  0
LINE
  5
D43
330
1D
100
AcDbEntity
  8
0
100
AcDbLine
 10
232.038359193576
 20
121.541079285119
 30
0.0
 11
232.038359193576
 21
155.128079285119
 31
0.0
  0
LINE
  5
D44
330
1D
100
AcDbEntity
  8
0
100
AcDbLine
 10
231.913359193576
 20
118.810079285119
 30
0.0
 11
231.913359193576
 21
118.359079285119
 31
0.0
  0
LINE
  5
D45
330
1D
100
AcDbEntity
  8
0
100
AcDbLine
 10
231.633959193576
 20
117.879079285119
 30
0.0
 11
231.913359193576
 21
118.359079285119
 31
0.0
  0
LINE
  5
D46
330
1D
100
AcDbEntity
  8
0
100
AcDbLine
 10
235.038359193576
 20
128.377079285119
 30
0.0
 11
235.038359193576
 21
118.343079285119
 31
0.0
  0
LINE
  5
D47
330
1D
100
AcDbEntity
  8
0
100
AcDbLine
 10
235.038359193576
 20
118.343079285119
 30
0.0
 11
235.038359193576
 21
128.377079285119
 31
0.0
  0
LINE
  5
D48
330
1D
100
AcDbEntity
  8
0
100
AcDbLine
 10
235.038359193576
 20
118.343079285119
 30
0.0
 11
235.038359193576
 21
78.371379285119
 31
0.0
  0
LINE
  5
D49
330
1D
100
AcDbEntity
  8
0
100
AcDbLine
 10
234.922259193576
 20
118.104079285119
 30
0.0
 11
235.038359193576
 21
118.343079285119
 31
0.0
  0
LINE
  5
D4A
330
1D
100
AcDbEntity
  8
0
100
AcDbLine
 10
234.349459193577
 20
117.626079285119
 30
0.0
 11
234.922259193576
 21
118.104079285119
 31
0.0
  0
LINE
  5
D4B
330
1D
100
AcDbEntity
  8
0
100
AcDbLine
 10
233.466859193577
 20
117.264079285119
 30
0.0
 11
234.349459193577
 21
117.626079285119
 31
0.0
  0
LINE
  5
D4C
330
1D
100
AcDbEntity
  8
0
100
AcDbLine
 10
231.517859193576
 20
116.793079285119
 30
0.0
 11
233.466859193577
 21
117.264079285119
 31
0.0
  0
LINE
  5
D4D
330
1D
100
AcDbEntity
  8
0
100
AcDbLine
 10
232.038359193576
 20
155.128079285119
 30
0.0
 11
232.038359193576
 21
184.241079285119
 31
0.0
  0
LINE
  5
D4E
330
1D
100
AcDbEntity
  8
0
100
AcDbLine
 10
232.038359193576
 20
155.128079285119
 30
0.0
 11
232.038359193576
 21
121.541079285119
 31
0.0
  0
LINE
  5
D4F
330
1D
100
AcDbEntity
  8
0
100
AcDbLine
 10
232.038359193576
 20
238.292535708306
 30
0.0
 11
232.038359193576
 21
237.005079285119
 31
0.0
  0
LINE
  5
D50
330
1D
100
AcDbEntity
  8
0
100
AcDbLine
 10
232.038359193576
 20
237.005079285119
 30
0.0
 11
232.038359193576
 21
238.292535708306
 31
0.0
  0
LINE
  5
D51
330
1D
100
AcDbEntity
  8
0
100
AcDbLine
 10
232.038359193576
 20
237.005079285119
 30
0.0
 11
232.038359193576
 21
210.955079285119
 31
0.0
  0
LINE
  5
D52
330
1D
100
AcDbEntity
  8
0
100
AcDbLine
 10
232.038359193576
 20
210.955079285119
 30
0.0
 11
232.038359193576
 21
184.241079285119
 31
0.0
  0
LINE
  5
D53
330
1D
100
AcDbEntity
  8
0
100
AcDbLine
 10
232.038359193576
 20
210.955079285119
 30
0.0
 11
232.038359193576
 21
237.005079285119
 31
0.0
  0
LINE
  5
D54
330
1D
100
AcDbEntity
  8
0
100
AcDbLine
 10
232.766259193577
 20
238.830079285119
 30
0.0
 11
235.626859193577
 21
242.418079285119
 31
0.0
  0
LINE
  5
D55
330
1D
100
AcDbEntity
  8
0
100
AcDbLine
 10
232.038359193576
 20
184.241079285119
 30
0.0
 11
232.038359193576
 21
210.955079285119
 31
0.0
  0
LINE
  5
D56
330
1D
100
AcDbEntity
  8
0
100
AcDbLine
 10
232.038359193576
 20
184.241079285119
 30
0.0
 11
232.038359193576
 21
155.128079285119
 31
0.0
  0
LINE
  5
D57
330
1D
100
AcDbEntity
  8
0
100
AcDbLine
 10
230.430659193577
 20
244.432079285119
 30
0.0
 11
230.520859193576
 21
245.159079285119
 31
0.0
  0
LINE
  5
D58
330
1D
100
AcDbEntity
  8
0
100
AcDbLine
 10
231.126559193576
 20
244.232079285119
 30
0.0
 11
232.388359193576
 21
247.213079285119
 31
0.0
  0
LINE
  5
D59
330
1D
100
AcDbEntity
  8
0
100
AcDbLine
 10
231.279459193576
 20
244.252079285119
 30
0.0
 11
232.579459193576
 21
247.270079285119
 31
0.0
  0
LINE
  5
D5A
330
1D
100
AcDbEntity
  8
0
100
AcDbLine
 10
232.059159193577
 20
239.261079285119
 30
0.0
 11
234.760759193576
 21
242.650079285119
 31
0.0
  0
LINE
  5
D5B
330
1D
100
AcDbEntity
  8
0
100
AcDbLine
 10
235.626859193577
 20
242.418079285119
 30
0.0
 11
237.425059193576
 21
246.596079285119
 31
0.0
  0
LINE
  5
D5C
330
1D
100
AcDbEntity
  8
0
100
AcDbLine
 10
234.760759193576
 20
242.650079285119
 30
0.0
 11
236.459059193576
 21
246.596079285119
 31
0.0
  0
LINE
  5
D5D
330
1D
100
AcDbEntity
  8
0
100
AcDbLine
 10
230.338359193577
 20
249.533079285119
 30
0.0
 11
231.038359193576
 21
249.244079285119
 31
0.0
  0
LINE
  5
D5E
330
1D
100
AcDbEntity
  8
0
100
AcDbLine
 10
230.338359193577
 20
250.880079285119
 30
0.0
 11
231.038359193576
 21
251.169079285119
 31
0.0
  0
LINE
  5
D5F
330
1D
100
AcDbEntity
  8
0
100
AcDbLine
 10
230.430659193577
 20
255.981079285119
 30
0.0
 11
230.520859193576
 21
255.25407928512
 31
0.0
  0
LINE
  5
D60
330
1D
100
AcDbEntity
  8
0
100
AcDbLine
 10
231.038359193576
 20
251.169079285119
 30
0.0
 11
231.738359193576
 21
250.880079285119
 31
0.0
  0
LINE
  5
D61
330
1D
100
AcDbEntity
  8
0
100
AcDbLine
 10
232.038359193576
 20
250.20607928512
 30
0.0
 11
232.038359193576
 21
250.33107928512
 31
0.0
  0
LINE
  5
D62
330
1D
100
AcDbEntity
  8
0
100
AcDbLine
 10
232.038359193576
 20
250.33107928512
 30
0.0
 11
232.038359193576
 21
250.20607928512
 31
0.0
  0
LINE
  5
D63
330
1D
100
AcDbEntity
  8
0
100
AcDbLine
 10
231.738359193576
 20
250.880079285119
 30
0.0
 11
232.038359193576
 21
250.20607928512
 31
0.0
  0
LINE
  5
D64
330
1D
100
AcDbEntity
  8
0
100
AcDbLine
 10
231.738359193576
 20
249.533079285119
 30
0.0
 11
232.038359193576
 21
250.20607928512
 31
0.0
  0
LINE
  5
D65
330
1D
100
AcDbEntity
  8
0
100
AcDbLine
 10
231.038359193576
 20
249.244079285119
 30
0.0
 11
231.738359193576
 21
249.533079285119
 31
0.0
  0
LINE
  5
D66
330
1D
100
AcDbEntity
  8
0
100
AcDbLine
 10
231.126559193576
 20
256.524079285119
 30
0.0
 11
232.388359193576
 21
253.543079285119
 31
0.0
  0
LINE
  5
D67
330
1D
100
AcDbEntity
  8
0
100
AcDbLine
 10
232.388359193576
 20
253.543079285119
 30
0.0
 11
232.847159193576
 21
250.378079285119
 31
0.0
  0
LINE
  5
D68
330
1D
100
AcDbEntity
  8
0
100
AcDbLine
 10
232.388359193576
 20
247.213079285119
 30
0.0
 11
232.847159193576
 21
250.378079285119
 31
0.0
  0
LINE
  5
D69
330
1D
100
AcDbEntity
  8
0
100
AcDbLine
 10
233.038359193576
 20
250.472079285119
 30
0.0
 11
233.038359193576
 21
250.564800260534
 31
0.0
  0
LINE
  5
D6A
330
1D
100
AcDbEntity
  8
0
100
AcDbLine
 10
233.038359193576
 20
250.564800260534
 30
0.0
 11
233.038359193576
 21
250.472079285119
 31
0.0
  0
LINE
  5
D6B
330
1D
100
AcDbEntity
  8
0
100
AcDbLine
 10
232.579459193576
 20
247.270079285119
 30
0.0
 11
233.038359193576
 21
250.472079285119
 31
0.0
  0
LINE
  5
D6C
330
1D
100
AcDbEntity
  8
0
100
AcDbLine
 10
234.180459193576
 20
270.937079285119
 30
0.0
 11
237.358859193577
 21
266.950079285119
 31
0.0
  0
LINE
  5
D6D
330
1D
100
AcDbEntity
  8
0
100
AcDbLine
 10
232.766259193577
 20
263.331079285119
 30
0.0
 11
235.626859193577
 21
259.743079285119
 31
0.0
  0
LINE
  5
D6E
330
1D
100
AcDbEntity
  8
0
100
AcDbLine
 10
232.059159193577
 20
262.401079285119
 30
0.0
 11
234.760759193576
 21
259.012079285119
 31
0.0
  0
LINE
  5
D6F
330
1D
100
AcDbEntity
  8
0
100
AcDbLine
 10
235.626859193577
 20
259.743079285119
 30
0.0
 11
237.425059193576
 21
255.565079285119
 31
0.0
  0
LINE
  5
D70
330
1D
100
AcDbEntity
  8
0
100
AcDbLine
 10
234.760759193576
 20
259.012079285119
 30
0.0
 11
236.459059193576
 21
255.066079285119
 31
0.0
  0
LINE
  5
D71
330
1D
100
AcDbEntity
  8
0
100
AcDbLine
 10
236.459059193576
 20
246.596079285119
 30
0.0
 11
237.038359193576
 21
250.831079285119
 31
0.0
  0
LINE
  5
D72
330
1D
100
AcDbEntity
  8
0
100
AcDbLine
 10
237.358859193577
 20
266.950079285119
 30
0.0
 11
239.356859193576
 21
262.307079285119
 31
0.0
  0
LINE
  5
D73
330
1D
100
AcDbEntity
  8
0
100
AcDbLine
 10
239.356859193576
 20
252.34307928512
 30
0.0
 11
240.038359193576
 21
257.325079285119
 31
0.0
  0
LINE
  5
D74
330
1D
100
AcDbEntity
  8
0
100
AcDbLine
 10
238.390959193576
 20
249.594079285119
 30
0.0
 11
239.356859193576
 21
252.34307928512
 31
0.0
  0
LINE
  5
D75
330
1D
100
AcDbEntity
  8
0
100
AcDbLine
 10
239.356859193576
 20
262.307079285119
 30
0.0
 11
240.038359193576
 21
257.325079285119
 31
0.0
  0
LINE
  5
D76
330
1D
100
AcDbEntity
  8
0
100
AcDbLine
 10
237.425059193576
 20
255.565079285119
 30
0.0
 11
238.038359193576
 21
251.08107928512
 31
0.0
  0
LINE
  5
D77
330
1D
100
AcDbEntity
  8
0
100
AcDbLine
 10
237.425059193576
 20
246.596079285119
 30
0.0
 11
238.390959193576
 21
249.594079285119
 31
0.0
  0
LINE
  5
D78
330
1D
100
AcDbEntity
  8
0
100
AcDbLine
 10
237.425059193576
 20
246.596079285119
 30
0.0
 11
238.038359193576
 21
251.08107928512
 31
0.0
  0
LINE
  5
D79
330
1D
100
AcDbEntity
  8
0
100
AcDbLine
 10
236.459059193576
 20
255.066079285119
 30
0.0
 11
237.038359193576
 21
250.831079285119
 31
0.0
  0
LINE
  5
D7A
330
1D
100
AcDbEntity
  8
0
100
AcDbLine
 10
232.038359193576
 20
128.377079285119
 30
0.0
 11
235.038359193576
 21
128.377079285119
 31
0.0
  0
LINE
  5
D7B
330
1D
100
AcDbEntity
  8
0
100
AcDbLine
 10
217.438359193577
 20
116.081079285119
 30
0.0
 11
220.038359193576
 21
115.978079285119
 31
0.0
  0
LINE
  5
D7C
330
1D
100
AcDbEntity
  8
0
100
AcDbLine
 10
228.016450440488
 20
88.536351680665
 30
0.0
 11
228.027959193576
 21
83.275279285119
 31
0.0
  0
LINE
  5
D7D
330
1D
100
AcDbEntity
  8
0
100
AcDbLine
 10
214.465959193576
 20
2.472079285119
 30
0.0
 11
216.950959193576
 21
2.467079285119
 31
0.0
  0
LINE
  5
D7E
330
1D
100
AcDbEntity
  8
0
100
AcDbLine
 10
216.950959193576
 20
2.467079285119
 30
0.0
 11
220.046059193576
 21
2.468079285119
 31
0.0
  0
LINE
  5
D7F
330
1D
100
AcDbEntity
  8
0
100
AcDbLine
 10
212.407449841311
 20
116.909256646544
 30
0.0
 11
210.417959193576
 21
117.602079285119
 31
0.0
  0
LINE
  5
D80
330
1D
100
AcDbEntity
  8
0
100
AcDbLine
 10
229.658759193576
 20
117.602079285119
 30
0.0
 11
227.669268545842
 21
116.909256646544
 31
0.0
  0
ENDSEC
  0
SECTION
  2
OBJECTS
  0
DICTIONARY
  5
C
330
0
100
AcDbDictionary
281
     1
  3
ACAD_GROUP
350
D
  3
ACAD_LAYOUT
350
1A
  3
ACAD_MLEADERSTYLE
350
D83
  3
ACAD_MLINESTYLE
350
17
  3
ACAD_PLOTSETTINGS
350
19
  3
ACAD_PLOTSTYLENAME
350
E
  3
ACAD_SCALELIST
350
4B7
  3
AcDbVariableDictionary
350
D81
  3
DWGPROPS
350
D86
  0
DICTIONARY
  5
D
102
{ACAD_REACTORS
330
C
102
}
330
C
100
AcDbDictionary
281
     1
  0
DICTIONARY
  5
1A
102
{ACAD_REACTORS
330
C
102
}
330
C
100
AcDbDictionary
281
     1
  3
Layout1
350
1C
  3
Model
350
1E
  0
DICTIONARY
  5
D83
102
{ACAD_REACTORS
330
C
102
}
330
C
100
AcDbDictionary
281
     1
  0
DICTIONARY
  5
17
102
{ACAD_REACTORS
330
C
102
}
330
C
100
AcDbDictionary
281
     1
  3
Standard
350
18
  0
DICTIONARY
  5
19
102
{ACAD_REACTORS
330
C
102
}
330
C
100
AcDbDictionary
281
     1
  0
ACDBDICTIONARYWDFLT
  5
E
102
{ACAD_REACTORS
330
C
102
}
330
C
100
AcDbDictionary
281
     1
  3
Normal
350
F
100
AcDbDictionaryWithDefault
340
F
  0
DICTIONARY
  5
4B7
102
{ACAD_REACTORS
330
C
102
}
330
C
100
AcDbDictionary
281
     1
  3
A0
350
4B8
  3
A1
350
4B9
  3
A2
350
4BA
  3
A3
350
4BB
  3
A4
350
4BC
  3
A5
350
4BD
  3
A6
350
4BE
  3
A7
350
4BF
  3
A8
350
4C0
  3
A9
350
4C1
  3
B0
350
4C2
  3
B1
350
4C3
  3
B2
350
4C4
  3
B3
350
4C5
  3
B4
350
4C6
  3
B5
350
4C7
  3
B6
350
4C8
  3
B7
350
4C9
  3
B8
350
4CA
  3
B9
350
4CB
  3
C0
350
4CC
  3
C1
350
4CD
  3
C2
350
4CE
  3
C3
350
4CF
  3
C4
350
4D0
  3
C5
350
4D1
  3
C6
350
4D2
  3
C7
350
4D3
  3
C8
350
4D4
  3
C9
350
4D5
  3
D0
350
4D6
  3
D1
350
4D7
  3
D2
350
4D8
  0
DICTIONARY
  5
D81
102
{ACAD_REACTORS
330
C
102
}
330
C
100
AcDbDictionary
281
     1
  3
CANNOSCALE
350
D84
  0
XRECORD
  5
D86
102
{ACAD_REACTORS
330
C
102
}
330
C
100
AcDbXrecord
280
     1
  1
DWGPROPS COOKIE
  2

  3

  4

  6

  7

  8
MARTIN
  9

300
=
301
=
302
=
303
=
304
=
305
=
306
=
307
=
308
=
309
=
 40
0.0
 41
2456646.397060185
 42
2456646.399239005
  1

 90
        0
  0
LAYOUT
  5
1C
102
{ACAD_REACTORS
330
1A
102
}
330
1A
100
AcDbPlotSettings
  1

  2
none_device
  4

  6

 40
0.0
 41
0.0
 42
0.0
 43
0.0
 44
0.0
 45
0.0
 46
0.0
 47
0.0
 48
0.0
 49
0.0
140
0.0
141
0.0
142
1.0
143
1.0
 70
   688
 72
     0
 73
     0
 74
     5
  7

 75
    16
147
1.0
148
0.0
149
0.0
100
AcDbLayout
  1
Layout1
 70
     1
 71
     1
 10
0.0
 20
0.0
 11
12.0
 21
9.0
 12
0.0
 22
0.0
 32
0.0
 14
1.000000000000E+20
 24
1.000000000000E+20
 34
1.000000000000E+20
 15
-1.000000000000E+20
 25
-1.000000000000E+20
 35
-1.000000000000E+20
146
0.0
 13
0.0
 23
0.0
 33
0.0
 16
1.0
 26
0.0
 36
0.0
 17
0.0
 27
1.0
 37
0.0
 76
     0
330
1B
  0
LAYOUT
  5
1E
102
{ACAD_REACTORS
330
1A
102
}
330
1A
100
AcDbPlotSettings
  1

  2
none_device
  4

  6

 40
0.0
 41
0.0
 42
0.0
 43
0.0
 44
0.0
 45
0.0
 46
0.0
 47
0.0
 48
0.0
 49
0.0
140
0.0
141
0.0
142
1.0
143
1.0
 70
  1712
 72
     0
 73
     0
 74
     0
  7

 75
     0
147
1.0
148
0.0
149
0.0
100
AcDbLayout
  1
Model
 70
     1
 71
     0
 10
0.0
 20
0.0
 11
12.0
 21
9.0
 12
0.0
 22
0.0
 32
0.0
 14
-0.0104
 24
0.1938895
 34
0.0
 15
240.038359193576
 25
276.575079285119
 35
0.0
146
0.0
 13
0.0
 23
0.0
 33
0.0
 16
1.0
 26
0.0
 36
0.0
 17
0.0
 27
1.0
 37
0.0
 76
     0
330
1D
331
4B2
  0
MLINESTYLE
  5
18
102
{ACAD_REACTORS
330
17
102
}
330
17
100
AcDbMlineStyle
  2
Standard
 70
     0
  3

 62
   256
 51
90.0
 52
90.0
 71
     2
 49
0.5
 62
   256
  6
BYLAYER
 49
-0.5
 62
   256
  6
BYLAYER
  0
ACDBPLACEHOLDER
  5
F
102
{ACAD_REACTORS
330
E
102
}
330
E
  0
SCALE
  5
4B8
102
{ACAD_REACTORS
330
4B7
102
}
330
4B7
100
AcDbScale
 70
     0
300
1:1
140
1.0
141
1.0
290
     1
  0
SCALE
  5
4B9
102
{ACAD_REACTORS
330
4B7
102
}
330
4B7
100
AcDbScale
 70
     0
300
1:2
140
1.0
141
2.0
290
     0
  0
SCALE
  5
4BA
102
{ACAD_REACTORS
330
4B7
102
}
330
4B7
100
AcDbScale
 70
     0
300
1:4
140
1.0
141
4.0
290
     0
  0
SCALE
  5
4BB
102
{ACAD_REACTORS
330
4B7
102
}
330
4B7
100
AcDbScale
 70
     0
300
1:5
140
1.0
141
5.0
290
     0
  0
SCALE
  5
4BC
102
{ACAD_REACTORS
330
4B7
102
}
330
4B7
100
AcDbScale
 70
     0
300
1:8
140
1.0
141
8.0
290
     0
  0
SCALE
  5
4BD
102
{ACAD_REACTORS
330
4B7
102
}
330
4B7
100
AcDbScale
 70
     0
300
1:10
140
1.0
141
10.0
290
     0
  0
SCALE
  5
4BE
102
{ACAD_REACTORS
330
4B7
102
}
330
4B7
100
AcDbScale
 70
     0
300
1:16
140
1.0
141
16.0
290
     0
  0
SCALE
  5
4BF
102
{ACAD_REACTORS
330
4B7
102
}
330
4B7
100
AcDbScale
 70
     0
300
1:20
140
1.0
141
20.0
290
     0
  0
SCALE
  5
4C0
102
{ACAD_REACTORS
330
4B7
102
}
330
4B7
100
AcDbScale
 70
     0
300
1:30
140
1.0
141
30.0
290
     0
  0
SCALE
  5
4C1
102
{ACAD_REACTORS
330
4B7
102
}
330
4B7
100
AcDbScale
 70
     0
300
1:40
140
1.0
141
40.0
290
     0
  0
SCALE
  5
4C2
102
{ACAD_REACTORS
330
4B7
102
}
330
4B7
100
AcDbScale
 70
     0
300
1:50
140
1.0
141
50.0
290
     0
  0
SCALE
  5
4C3
102
{ACAD_REACTORS
330
4B7
102
}
330
4B7
100
AcDbScale
 70
     0
300
1:100
140
1.0
141
100.0
290
     0
  0
SCALE
  5
4C4
102
{ACAD_REACTORS
330
4B7
102
}
330
4B7
100
AcDbScale
 70
     0
300
2:1
140
2.0
141
1.0
290
     0
  0
SCALE
  5
4C5
102
{ACAD_REACTORS
330
4B7
102
}
330
4B7
100
AcDbScale
 70
     0
300
4:1
140
4.0
141
1.0
290
     0
  0
SCALE
  5
4C6
102
{ACAD_REACTORS
330
4B7
102
}
330
4B7
100
AcDbScale
 70
     0
300
8:1
140
8.0
141
1.0
290
     0
  0
SCALE
  5
4C7
102
{ACAD_REACTORS
330
4B7
102
}
330
4B7
100
AcDbScale
 70
     0
300
10:1
140
10.0
141
1.0
290
     0
  0
SCALE
  5
4C8
102
{ACAD_REACTORS
330
4B7
102
}
330
4B7
100
AcDbScale
 70
     0
300
100:1
140
100.0
141
1.0
290
     0
  0
SCALE
  5
4C9
102
{ACAD_REACTORS
330
4B7
102
}
330
4B7
100
AcDbScale
 70
     0
300
1/128" = 1'-0"
140
0.0078125
141
12.0
290
     0
  0
SCALE
  5
4CA
102
{ACAD_REACTORS
330
4B7
102
}
330
4B7
100
AcDbScale
 70
     0
300
1/64" = 1'-0"
140
0.015625
141
12.0
290
     0
  0
SCALE
  5
4CB
102
{ACAD_REACTORS
330
4B7
102
}
330
4B7
100
AcDbScale
 70
     0
300
1/32" = 1'-0"
140
0.03125
141
12.0
290
     0
  0
SCALE
  5
4CC
102
{ACAD_REACTORS
330
4B7
102
}
330
4B7
100
AcDbScale
 70
     0
300
1/16" = 1'-0"
140
0.0625
141
12.0
290
     0
  0
SCALE
  5
4CD
102
{ACAD_REACTORS
330
4B7
102
}
330
4B7
100
AcDbScale
 70
     0
300
3/32" = 1'-0"
140
0.09375
141
12.0
290
     0
  0
SCALE
  5
4CE
102
{ACAD_REACTORS
330
4B7
102
}
330
4B7
100
AcDbScale
 70
     0
300
1/8" = 1'-0"
140
0.125
141
12.0
290
     0
  0
SCALE
  5
4CF
102
{ACAD_REACTORS
330
4B7
102
}
330
4B7
100
AcDbScale
 70
     0
300
3/16" = 1'-0"
140
0.1875
141
12.0
290
     0
  0
SCALE
  5
4D0
102
{ACAD_REACTORS
330
4B7
102
}
330
4B7
100
AcDbScale
 70
     0
300
1/4" = 1'-0"
140
0.25
141
12.0
290
     0
  0
SCALE
  5
4D1
102
{ACAD_REACTORS
330
4B7
102
}
330
4B7
100
AcDbScale
 70
     0
300
3/8" = 1'-0"
140
0.375
141
12.0
290
     0
  0
SCALE
  5
4D2
102
{ACAD_REACTORS
330
4B7
102
}
330
4B7
100
AcDbScale
 70
     0
300
1/2" = 1'-0"
140
0.5
141
12.0
290
     0
  0
SCALE
  5
4D3
102
{ACAD_REACTORS
330
4B7
102
}
330
4B7
100
AcDbScale
 70
     0
300
3/4" = 1'-0"
140
0.75
141
12.0
290
     0
  0
SCALE
  5
4D4
102
{ACAD_REACTORS
330
4B7
102
}
330
4B7
100
AcDbScale
 70
     0
300
1" = 1'-0"
140
1.0
141
12.0
290
     0
  0
SCALE
  5
4D5
102
{ACAD_REACTORS
330
4B7
102
}
330
4B7
100
AcDbScale
 70
     0
300
1-1/2" = 1'-0"
140
1.5
141
12.0
290
     0
  0
SCALE
  5
4D6
102
{ACAD_REACTORS
330
4B7
102
}
330
4B7
100
AcDbScale
 70
     0
300
3" = 1'-0"
140
3.0
141
12.0
290
     0
  0
SCALE
  5
4D7
102
{ACAD_REACTORS
330
4B7
102
}
330
4B7
100
AcDbScale
 70
     0
300
6" = 1'-0"
140
6.0
141
12.0
290
     0
  0
SCALE
  5
4D8
102
{ACAD_REACTORS
330
4B7
102
}
330
4B7
100
AcDbScale
 70
     0
300
1'-0" = 1'-0"
140
12.0
141
12.0
290
     0
  0
DICTIONARYVAR
  5
D84
102
{ACAD_REACTORS
330
D81
102
}
330
D81
100
DictionaryVariables
280
     0
  1
1:1
  0
ENDSEC
  0
SECTION
  2
THUMBNAILIMAGE
 90
    16364
310
28000000B40000005500000001000800000000000000000000000000000000000000000000000000FFFFFF000000FF0000FFFF0000FF0000FFFF0000FF000000FF00FF000000000080808000C0C0C0000000FF007F7FFF000000A5005252A50000007F003F3F7F0000004C0026264C000000260013132600003FFF007F9FFF
310
000029A5005267A500001F7F003F4F7F0000134C00262F4C000009260013172600007FFF007FBFFF000052A500527CA500003F7F003F5F7F0000264C0026394C0000132600131C260000BFFF007FDFFF00007CA5005291A500005F7F003F6F7F0000394C0026424C00001C26001321260000FFFF007FFFFF0000A5A50052A5
310
A500007F7F003F7F7F00004C4C00264C4C00002626001326260000FFBF007FFFDF0000A57C0052A59100007F5F003F7F6F00004C3900264C420000261C001326210000FF7F007FFFBF0000A5520052A57C00007F3F003F7F5F00004C2600264C39000026130013261C0000FF3F007FFF9F0000A5290052A56700007F1F003F
310
7F4F00004C1300264C2F00002609001326170000FF00007FFF7F0000A5000052A55200007F00003F7F3F00004C0000264C260000260000132613003FFF00009FFF7F0029A5000067A552001F7F00004F7F3F00134C00002F4C260009260000172613007FFF0000BFFF7F0052A500007CA552003F7F00005F7F3F00264C0000
310
394C2600132600001C261300BFFF0000DFFF7F007CA5000091A552005F7F00006F7F3F00394C0000424C26001C26000021261300FFFF0000FFFF7F00A5A50000A5A552007F7F00007F7F3F004C4C00004C4C26002626000026261300FFBF0000FFDF7F00A57C0000A59152007F5F00007F6F3F004C3900004C422600261C00
310
0026211300FF7F0000FFBF7F00A5520000A57C52007F3F00007F5F3F004C2600004C39260026130000261C1300FF3F0000FF9F7F00A5290000A56752007F1F00007F4F3F004C1300004C2F26002609000026171300FF000000FF7F7F00A5000000A55252007F0000007F3F3F004C0000004C2626002600000026131300FF00
310
3F00FF7F9F00A5002900A55267007F001F007F3F4F004C0013004C262F002600090026131700FF007F00FF7FBF00A5005200A5527C007F003F007F3F5F004C0026004C2639002600130026131C00FF00BF00FF7FDF00A5007C00A55291007F005F007F3F6F004C0039004C26420026001C0026132100FF00FF00FF7FFF00A5
310
00A500A552A5007F007F007F3F7F004C004C004C264C002600260026132600BF00FF00DF7FFF007C00A5009152A5005F007F006F3F7F0039004C0042264C001C002600211326007F00FF00BF7FFF005200A5007C52A5003F007F005F3F7F0026004C0039264C00130026001C1326003F00FF009F7FFF002900A5006752A500
310
1F007F004F3F7F0013004C002F264C000900260017132600000000002D2D2D005B5B5B0089898900B7B7B700B3B3B30000000000000000000000000000000000000000000000000000000000000000000000000000000000000000000000000000000000000007070707070707070707070707070700000000000000000000
310
00000000000000000000000000000000000000000000000000000000000000000000000000000000000000000000000000000000000000000000000000000000000000000000000000000000000000000000000000000000000000000000000000000000000000000000000000000000000000000000000000000000000000
310
00000000000000000000000000000000000000000000000000000000070000000000000000000000000007000000000000000000000000000000000000000000000000000000000000000000000000000000000000000000000000000707070707000000000000000000000000000000000000000000000000000000000000
310
00000000000000000000000000000000000000000000000000000000000000000000000000000000000000000000000000000000000000000000000000000000000000000000000000000000000000000007000000000000000000000000000700000000000000000000000000000000000000000000000000000000000000
310
00000000000000000000000000000000000007000000000700000000000000000000000000000000000000000000000000000000000000000000000000000000000000000000000000000000000000000000000000000000000000000000000000000000000000000000000000000000000000000000000000000000000000
310
00000000000000070000000000000000000000000007000000000000000000000000000000000000000000000000000000000000000000000000000000000000000000000000000700000000070000000000000000000000000000000000000000000000000000000000000000000000000000000000000000000000000000
310
00000000000000000000000000000000000000000000000000000000000000000000000000000000000000000000000000000000000000000000000007000000000000000000000000000700000000000000000000000000000000000000000000000000000000000000000000000000000000000000000000000000070000
310
00000700000000000000000000000000000000000000000000000000000000000000000000000000000000000000000000000000000000000000000000000000000000000000000000000000000000000000000000000000000000000000000000000000000000000000000000000000000700000000000000000000000000
310
07000000000000000000000000000000000000000000000000000000000000000000000000000000000000000000000000000700000000070000000000000000000000000000000000000000000000000000000000000000000000000000000000000000000000000000000000000000000000000000000000000000000000
310
00000000000000000000000000000000000000000000000000000000000000000000000000000007000000000000000000000000000700000000000000000000000000000000000000000000000000000000000000000000000000000000000000000000000000070000000007000000000000000000000000000000000000
310
00000000000000000000000000000000000000000000000000000000000000000000000000000000000000000000000000000000000000000000000000000000000000000000000000000000000000000000000000000000000000000700000000000000000000000000070000000000000000000000000000000000000000
310
00000000000000000000000000000000000000000000000000000000000700000000070000000000000000000000000000000000000000000000000000000000000000000000000000000000000000000000000000000000000000000000000000000000000000000000000000000000000000000000000000000000000000
310
00000000000000000000000000000000000007000000000000000000000000000700000000000000000000000000000000000000000000000000000000000000000000000000000000000000000000000000070000000007000000000000000000000000000000000000000000000000000000000000000000000000000000
310
00000000000000000000000000000000000000000000000000000000000000000000000000000000000000000000000000000000000000000000000000000000000000000000000700000000000000000000000000070000000000000000000000000000000000000000000000000000000000000000000000000000000000
310
00000000000000000700000000070000000000000000000000000000000000000000000000000000000000000000000000000000000000000000000000000000000000000000000000000000000000000000000000000000000000000000000000000000000000000000000000000000000000000000000000000000070000
310
00000000000000000000000700000000000000000000000000000000000000000000000000000000000000000000000000000000000000000000000000070000000007000000000000000000000000000000000000000000000000000000000000000000000000000000000000000000000000000000000000000000000000
310
00000000000000000000000000000000000000000000000000000000000000000000000000000000000000000000000000000700000000000000000000000000070000000000000000000000000000000000000000000000000000000000000000000000000000000000000000000000000007000000000700000000000000
310
00000000000000000000000000000000000000000000000000000000000000000000000000000000000000000000000000000000000000000000000000000000000000000000000000000000000000000000000000000000000000000000000000000000000000070000000000000000000000000007000000000000000000
310
00000000000000000000000000000000000000000000000000000000000000000000000000000000070000000007000000000000000000000000000000000000000000000000000000000000000000000000000000000000000000000000000000000000000000000000000000000000000000000000000000000000000000
310
00000000000000000000000000000000000000000000000000000000000700000000000000000000000000070000000000000000000000000000000000000000000000000000000000000000000000000000000000000000000000000007000000000700000000000000000000000000000000000000000000000000000000
310
00000000000000000000000000000000000000000000000000000000000000000000000000000000000000000000000000000000000000000000000000000000000000000000000000000000000000000000070000000000000000000000000007000000000000000000000000000000000000000000000000000000000000
310
00000000000000000000000000000000000000070000000007000000000000000000000000000000000000000000000000000000000000000000000000000000000000000000000000000000000000000000000000000000000000000000000000000000000000000000000000000000000000000000000000000000000000
310
00000000000000000700000000000000000000000000070000000000000000000000000000000000000000000000000000000000000000000000000000000000000000000000000007000000000700000000000000000000000000000000000000000000000000000000000000000000000000000000000000000000000000
310
00000000000000000000000000000000000000000000000000000000000000000000000000000000000000000000000000000000000000000000000000070000000000000000000000000007000000000000000000000000000000000000000000000000000000000000000000000000000000000000000000000000000700
310
00000007000000000000000000000000000000000000000000000000000000000000000000000000000000000000000000000000000000000000000000000000000000000000000000000000000000000000000000000000000000000000000000000000000000000000000000000000000007000000000000000000000000
310
00070000000000000000000000000000000000000000000000000000000000000000000000000000000000000000000000000007000000000700000000000000000000000000000000000000000000000000000000000000000000000000000000000000000000000000000000000000000000000000000000000000000000
310
00000000000000000000000000000000000000000000000000000000000000000000000000000000070000000000000000000000000007000000000000000000000000000000000000000000000000000000000000000000000000000000000000000000000000000700000000070000000000000000000000000000000000
310
00000000000000000000000000000000000000000000000000000000000000000000000000000000000000000000000000000000000000000000000000000000000000000000000000000000000000000000000000000000000000000007000000000000000000000000000700000000000000000000000000000000000000
310
00000000000000000000000000000000000000000000000000000000000007000000000700000000000000000000000000000000000000000000000000000000000000000000000000000000000000000000000000000000000000000000000000000000000000000000000000000000000000000000000000000000000000
310
00000000000000000000000000000000000000070000000000000000000000000007000000000000000000000000000000000000000000000000000000000000000000000000000000000000000000000000000700000000070000000000000000000000000000000000000000000000000000000000000000000000000000
310
00000000000000000000000000000000000000000000000000000000000000000000000000000000000000000000000000000000000000000000000000000000000000000000000007000000000000000000000000000700000000000000000000000000000000000000000000000000000000000000000000000000000000
310
00000000000000070707000000000707070000000000000000000000000000000000000000000000000000000000000000000000000000000000000000000000000000000000000000000000000000000000000000000000000000000000000000000000000000000000000000000000000000000000000000000000000700
310
00000000000000000000000007000000000000000000000000000000000000000000000000000000000000000000000000000000000000000000000007070700000000070007000000000000000000000000000000000000000000000000000000000000000000000000000000000000000000000000000000000000000000
310
00000000000000000000000000000000000000000000000000000000000000000000000000000000000000000000000000000007000000000000000000000000000700000000000000000000000000000000000000000000000000000000000000000000000000000000000000000000000707070000000007000700000000
310
00000000000000000000000000000000000000000000000000000000000000000000000000000000000000000000000000000000000000000000000000000000000000000000000000000000000000000000000000000000000000000000000000000000000000000700000000000000000000000000070000000000000000
310
00000000000000000000000000000000000000000000000000000000000000000000000000000007070700000000070007000000000000000000000000000000000000000000000000000000000000000000000000000000000000000000000000000000000000000000000000000000000000000000000000000000000000
310
00000000000000000000000000000000000000000000000000000000000007000000070707070707070000000700000000000000000000000000000000000000000000000000000000000000000000000000000000000000000000000707070000000007000700000000000000000000000000000000000000000000000000
310
00000000000000000000000000000000000000000000000000000000000000000000000000000000000000000000000000000000000000000000000000000000000000000000000000000000000000000000000700000707070707070707070000070000000000000000000000000000000000000000000000000000000000
310
00000000000000000000000000000000000007070707070707070007000000000000000000000000000000000000000000000000000000000000000000000000000000000000000000000000000000000000000000000000000000000000000000000000000000000000000000000000000000000000000000000000000000
310
00000000000000000007000707070700000007070707000700000000000000000000000000000000000000000000000000000000000000000000000000000000000000000000000707070000000007000700000000000000000000000000000000000000000000000000000000000000000000000000000000000000000000
310
00000000000000000000000000000000000000000000000000000000000000000000000000000000000000000000000000000000000000000000000000000700070707070707070707070700070000000000000000000000000000000000000000000000000000000000000000000000000000000000000000000000070700
310
00000000070007000000000000000000000000000000000000000000000000000000000000000000000000000000000000000000000000000000000000000000000000000000000000000000000000000000000000000000000000000000000000000000000000000000000000000000000000070700000707070707070707
310
00070700000000000000000000000000000000000000000000000000000000000000000000000000000000000000000000000707000000000007000700000000000000000000000000000000000000000000000000000000000000000000000000000000000000000000000000000000000000000000000000000000000000
310
00000000000000000000000000000000000000000000000000000000000000000000000000000000000700000000070700070700000000070000000000000000000000000000000000000000000000000000000000000000000000000000000000000000000000070700000000000700070000000000000000000000000000
310
00000000000000000000000000000000000000000000000000000000000000000000000000000000000000000000000000000000000000000000000000000000000000000000000000000000000000000000000000000000000000000000070000000000000000000000000007000000000000000000000000000000000000
310
00000000000000000000000000000000000000000000000000000000000707000000000007000700000000000000000000000000000000000000000000000000000000000000000000000000000000000000000000000000000000000000000000000000000000000000000000000000000000000000000000000000000000
310
00000000000000000000000000000000000000000700000000000000000000000000070000000000000000000000000000000000000000000000000000000000000000000000000000000000000000000000070700000000000700070000000000000000000000000000000000000000000000000000000000000000000000
310
00000000000000000000000000000000000000000000000000000000000000000000000000000000000000000000000000000000000000000000000000000000000000000000000000070000000000000000000000000007000000000000000000000000000000000000000000000000000000000000000000000000000000
310
00000000000000000707000000000007000700000000000000000000000000000000000000000000000000000000000000000000000000000000000000000000000000000000000000000000000000000000000000000000000000000000000000000000000000000000000000000000000000000000000000000000000007
310
00000000000000000000000000070000000000000000000000000000000000000000000000000000000000000000000000000000000000000000000000070700000000000700070000000000000000000000000000000000000000000000000000000000000000000000000000000000000000000000000000000000000000
310
00000000000000000000000000000000000000000000000000000000000000000000000000000000000000000000000000000000070707070707070007070707070707000000000000000000000000000000000000000000000000000000000000000000000000000000000000000000000007070707070707070707000000
310
00000000000000000000000000000000000000000000000000000000000000000000000000000000000000000000000000000000000000000000000000000000000000000000000000000000000000000000000000000000000000000000000000000000000000000007070000000000000000000000070700000000000000
310
00000000000000000000000000000000000000000000000000000000000000000000000000000000070700000000000707070000000000000000000000000000000000000000000000000000000000000000000000000000000000000000000000000000000000000000000000000000000000000000000000000000000000
310
00000000000000000000000000000000000000000000000000000000000000070000000000070707000000000007000000000000000000000000000000000000000000000000000000000000000000000000000000000000000000000007070000000000000707000000000000000000000000000000000000000000000000
310
00000000000000000000000000000000000000000000000000000000000000000000000000000000000000000000000000000000000000000000000000000000000000000000000000000000000000000000000007000000000007000700000000000700000000000000000000000000000000000000000000000000000000
310
00000000000000000000000000000000000000070700000000000007070000000000000000000000000000000000000000000000000000000000000000000000000000000000000000000000000000000000000000000000000000000000000000000000000000000000000000000000000000000000000000000000000000
310
00000000000000000000070000000000000707000000000007000000000000000000000000000000000000000000000000000000000000000000000000000000000000000000000007070000000000000707000000000000000000000000000000000000000000000000000000000000000000000000000000000000000000
310
00000000000000000000000000000000000000000000000000000000000000000000000000000000000000000000000000000000000000000000000000000007000000000000000000000000000700000000000000000000000000000000000000000000000000000000000000000000000000000000000000000000000007
310
00000000000007000000000000000000000000000000000000000000000000000000000000000000000000000000000000000000000000000000000000000000000000000000000000000000000000000000000000000000000000000000000000000000000000000000000000000000000000000700000000000000000000
310
00000007000000000000000000000000000000000000000000000000000000000000000000000000000000000000000000000000070000000000000700000000000000000000000000000000000000000000000000000000000000000000000000000000000000000000000000000000000000000000000000000000000000
310
00000000000000000000000000000000000000000000000000000000000000000000000000000000000007000000000000000000000000000700000000000000000000000000000000000000000000000000000000000000000000000000000000000000000000000007000000000000070000000000000000000000000000
310
00000000000000000000000000000000000000000000000000000000000000000000000000000000000000000000000000000000000000000000000000000000000000000000000000000000000000000000000000000000000000000000000700000000000000000000000000070000000000000000000000000000000000
310
00000000000000000000000000000000000000000000000000000000000000070000000000000700000000000000000000000000000000000000000000000000000000000000000000000000000000000000000000000000000000000000000000000000000000000000000000000000000000000000000000000000000000
310
00000000000000000000000000000000000000000007000000000000000000000000000700000000000000000000000000000000000000000000000000000000000000000000000000000000000000000000000007000000000000070000000000000000000000000000000000000000000000000000000000000000000000
310
00000000000000000000000000000000000000000000000000000000000000000000000000000000000000000000000000000000000000000000000000000000000000000000000000000700000000000000000000000000070000000000000000000000000000000000000000000000000000000000000000000000000000
310
00000000000000000000070000000000000700000000000000000000000000000000000000000000000000000000000000000000000000000000000000000000000000000000000000000000000000000000000000000000000000000000000000000000000000000000000000000000000000000000000000000000000000
310
07000000000000000000000000000700000000000000000000000000000000000000000000000000000000000000000000000000000000000000000000000007000000000000070000000000000000000000000000000000000000000000000000000000000000000000000000000000000000000000000000000000000000
310
00000000000000000000000000000000000000000000000000000000000000000000000000000000000000000000000000000000000700000000000000000000000000070000000000000000000000000000000000000000000000000000000000000000000000000000000000000000000000000700000000000007000000
310
00000000000000000000000000000000000000000000000000000000000000000000000000000000000000000000000000000000000000000000000000000000000000000000000000000000000000000000000000000000000000000000000000000000000000000000000700000000000000000000000707000000000000
310
00000000000000000000000000000000000000000000000000000000000000000000000000000000000007000000000000070000000000000000000000000000000000000000000000000000000000000000000000000000000000000000000000000000000000000000000000000000000000000000000000000000000000
310
00000000000000000000000000000000000000000000000000000000000000000007070000000000000000000707000000000000000000000000000000000000000000000000000000000000000000000000000000000000000000000000000700000000000007000000000000000000000000000000000000000000000000
310
00000000000000000000000000000000000000000000000000000000000000000000000000000000000000000000000000000000000000000000000000000000000000000000000000000000000000000000000000000007070707070007070707070000000000000000000000000000000000000000000000000000000000
310
00000000000000000000000000000000000000000007000000000000070000000000000000000000000000000000000000000000000000000000000000000000000000000000000000000000000000000000000000000000000000000000000000000000000000000000000000000000000000000000000000000000000000
310
00000000000000000000000000000000000000000000000000000000000000000000000000000000000000000000000000000000000000000000000000000000000000000000000000000700000000000007000000000000000000000000000000000000000000000000000000000000000000000000000000000000000000
310
00000000000000000000000000000000000000000000000000000000000000000000000000000000000000000000000000000000000000000000000000000000000000000000000000000000000000000000000000000000000000000000000000000000000000000000000000000000000000000000000000000000000000
310
07000707070000070000000000000000000000000000000000000000000000000000000000000000000000000000000000000000000000000000000000000000000000000000000000000000000000000000000000000000000000000000000000000000000000000000000000000000000000000000000000000000000000
310
00000000000000000000000000000000000000000000000000000000000000000000000000000000000000000000000000000000000700070007000007000000000000000000000000000000000000000000000000000000000000000000000000000000000000000000000000000000000000000000000000000000000000
310
00000000000000000000000000000000000000000000000000000000000000000000000000000000000000000000000000000000000000000000000000000000000000000000000000000000000000000000000000000000000000000000000000000000000000000000070007000700000700000000000000000000000000
310
00000000000000000000000000000000000000000000000000000000000000000000000000000000000000000000000000000000000000000000000000000000000000000000000000000000000000000000000000000000000000000000000000000000000000000000000000000000000000000000000000000000000000
310
00000000000000000000000000000000000000000000000000000000000000000700070007000007000000000000000000000000000000000000000000000000000000000000000000000000000000000000000000000000000000000000000000000000000000000000000000000000000000000000000000000000000000
310
00000000000000000000000000000000000000000000000000000000000000000000000000000000000000000000000000000000000000000000000000000000000000000000000000000000000000000000000000070007000700000700000000000000000000000000000000000000000000000000000000000000000000
310
00000000000000000000000000000000000000000000000000000000000000000000000000000000000000000000000000000000000000000000000000000000000000000000000000000000000000000000000000000000000000000000000000000000000000000000000000000000000000000000000000000000000000
310
00000000000000000000000700070007000007000000000000000000000000000000000000000000000000000000000000000000000000000000000000000000000000000000000000000000000000000000000000000000000000000000000000000000000000000000000000000000000000000000000000000000000000
310
00000000000000000000000000000000000000000000000000000000000000000000000000000000000000000000000000000000000000000000000000000000070007000700000700000000000000000000000000000000000000000000000000000000000000000000000000000000000000000000000000000000000000
310
00000000000000000000000000000000000000000000000000000000000000000000000000000000000000000000000000000000000000000000000000000000000000000000000000000000000000000000000000000000000000000000000000000000000000000000000000000000000000000007000700070000070000
310
00000000000000000000000000000000000000000000000000000000000000000000000000000000000000000000000000000000000000000000000000000000000000000000000000000000000000000000000000000000000000000000000000000000000000000000000000000000000000000000000000000000000000
310
00000000000000000000000000000000000000000000000000000000000000000000000000000000000000070007000700000700000000000000000000000000000000000000000000000000000000000000000000000000000000000000000000000000000000000000000000000000000000000000000000000000000000
310
00000000000000000000000000000000000000000000000000000000000000000000000000000000000000000000000000000000000000000000000000000000000000000000000000000000000000000000000000000000000000000000000007000700070000070000000000000000000000000000000000000000000000
310
00000000000000000000000000000000000000000000000000000000000000000000000000000000000000000000000000000000000000000000000000000000000000000000000000000000000000000000000000000000000000000000000000000000000000000000000000000000000000000000000000000000000000
310
00000000000000000000000000000000000000000000070007000700000700000000000000000000000000000000000000000000000000000000000000000000000000000000000000000000000000000000000000000000000000000000000000000000000000000000000000000000000000000000000000000000000000
310
00000000000000000000000000000000000000000000000000000000000000000000000000000000000000000000000000000000000000000000000000000000000000000000000000000007000707070000070000000000000000000000000000000000000000000000000000000000000000000000000000000000000000
310
00000000000000000000000000000000000000000000000000000000000000000000000000000000000000000000000000000000000000000000000000000000000000000000000000000000000000000000000000000000000000000000000000000000000000000000000000000000000000000000000000000000000000
310
00070000000000000700000000000000000000000000000000000000000000000000000000000000000000000000000000000000000000000000000000000000000000000000000000000000000000000000000000000000000000000000000000000000000000000000000000000000000000000000000000000000000000
310
00000000000000000000000000000000000000000000000000000000000000000000000000000000000000000000000000000000000007000000000000070000000000000000000000000000000000000000000000000000000000000000000000000000000000000000000000000000000000000000000000000000000000
310
00000000000000000000000000000000000000000000000000000000000000000000000000000000000000000000000000000000000000000000000000000000000000000000000000000000000000000000000000000000000000000000000000000000000000000000000700000000000007000000000000000000000000
310
00000000000000000000000000000000000000000000000000000000000000000000000000000000000000000000000000000000000000000000000000000000000000000000000000000000000000000000000000000000000000000000000000000000000000000000000000000000000000000000000000000000000000
310
00000000000000000000000000000000000000000000000000000000000000000007000000000000070000000000000000000000000000000000000000000000000000000000000000000000000000000000000000000000000000000000000000000000000000000000000000000000000000000000000000000000000000
310
00000000000000000000000000000000000000000000000000000000000000000000000000000000000000000000000000000000000000000000000000000000000000000000000000000000000000000000000000000700000000000007000000000000000000000000000000000000000000000000000000000000000000
310
00000000000000000000000000000000000000000000000000000000000000000000000000000000000000000000000000000000000000000000000000000000000000000000000000000000000000000000000000000000000000000000000000000000000000000000000000000000000000000000000000000000000000
310
00000000000000000000000007000000000000070000000000000000000000000000000000000000000000000000000000000000000000000000000000000000000000000000000000000000000000000000000000000000000000000000000000000000000000000000000000000000000000000000000000000000000000
310
00000000000000000000000000000000000000000000000000000000000000000000000000000000000000000000000000000000000000000000000000000000000700070707070007000000000000000000000000000000000000000000000000000000000000000000000000000000000000000000000000000000000000
310
00000000000000000000000000000000000000000000000000000000000000000000000000000000000000000000000000000000000000000000000000000000000000000000000000000000000000000000000000000000000000000000000000000000000000000000000000000000000000000000070707000707070700
310
00000000000000000000000000000000000000000000000000000000000000000000000000000000000000000000000000000000000000000000000000000000000000000000000000000000000000000000000000000000000000000000000000000000000000000000000000000000000000000000000000000000000000
310
00000000000000000000000000000000000000000000000000000000000000000000000000000000000000070707070707070007000000000000000000000000000000000000000000000000000000000000000000000000000000000000000000000000000000000000000000000000000000000000000000000000000000
310
00000000000000000000000000000000000000000000000000000000000000000000000000000000000000000000000000000000000000000000000000000000000000000000000000000000000000000000000000000000000000000000000707070707070707070707000000000000000000000000000000000000000000
310
00000000000000000000000000000000000000000000000000000000000000000000000000000000000000000000000000000000000000000000000000000000000000000000000000000000000000000000000000000000000000000000000000000000000000000000000000000000000000000000000000000000000000
310
00000000000000000000000000000000000000000007070707070707070707070000000000000000000000000000000000000000000000000000000000000000000000000000000000000000000000000000000000000000000000000000000000000000000000000000000000000000000000000000000000000000000000
310
00000000000000000000000000000000000000000000000000000000000000000000000000000000000000000000000000000000000000000000000000000000000000000000000000000707070707070707070700070000000000000000000000000000000000000000000000000000000000000000000000000000000000
310
00000000000000000000000000000000000000000000000000000000000000000000000000000000000000000000000000000000000000000000000000000000000000000000000000000000000000000000000000000000000000000000000000000000000000000000000000000000000000000000000000000000000007
310
07070707070707070707070700000000000000000000000000000000000000000000000000000000000000000000000000000000000000000000000000000000000000000000000000000000000000000000000000000000000000000000000000000000000000000000000000000000000000000000000000000000000000
310
00000000000000000000000000000000000000000000000000000000000000000000000000000000000000000000000000000000070700070707070707070007000000000000000000000000000000000000000000000000000000000000000000000000000000000000000000000000000000000000000000000000000000
310
00000000000000000000000000000000000000000000000000000000000000000000000000000000000000000000000000000000000000000000000000000000000000000000000000000000000000000000000000000000000000000000000000000000000000000007070707070707000707000707000000000000000000
310
00000000000000000000000000000000000000000000000000000000000000000000000000000000000000000000000000000000000000000000000000000000000000000000000000000000000000000000000000000000000000000000000000000000000000000000000000000000000000000000000000000000000000
310
00000000000000000000000000000000000000000000000000000000000000070007070007070700000700070000000000000000000000000000000000000000000000000000000000000000000000000000000000000000000000000000000000000000000000000000000000000000000000000000000000000000000000
310
00000000000000000000000000000000000000000000000000000000000000000000000000000000000000000000000000000000000000000000000000000000000000000000000000000000000000000000000000070007070707070707000700000000000000000000000000000000000000000000000000000000000000
310
00000000000000000000000000000000000000000000000000000000000000000000000000000000000000000000000000000000000000000000000000000000000000000000000000000000000000000000000000000000000000000000000000000000000000000000000000000000000000000000000000000000000000
310
00000000000000000000000007000707070707000700000000000000000000000000000000000000000000000000000000000000000000000000000000000000000000000000000000000000000000000000000000000000000000000000000000000000000000000000000000000000000000000000000000000000000000
310
00000000000000000000000000000000000000000000000000000000000000000000000000000000000000000000000000000000000000000000000000000000000007000000000007000000000000000000000000000000000000000000000000000000000000000000000000000000000000000000000000000000000000
310
00000000000000000000000000000000000000000000000000000000000000000000000000000000000000000000000000000000000000000000000000000000000000000000000000000000000000000000000000000000000000000000000000000000000000000000000000000000000000000000000007070707070000
310
00000000000000000000000000000000000000000000000000000000000000000000000000000000000000000000000000000000000000000000000000000000000000000000000000000000000000000000000000000000000000000000000000000000000000000000000000000000000000000000000000000000000000
310
000000000000000000000000000000000000000000000000000000000000000000000000000000000000000000000000000000000000000000000000000000000000000000000000000000000000000000000000000000000000000000000000000000000000000000000000
  0
ENDSEC
  0
EOF
