  0
SECTION
  2
HEADER
  9
$ACADVER
  1
AC1015
  9
$ACADMAINTVER
 70
     6
  9
$DWGCODEPAGE
  3
ANSI_1252
  9
$INSBASE
 10
0.0
 20
0.0
 30
0.0
  9
$EXTMIN
 10
0.01
 20
-0.1755
 30
0.0
  9
$EXTMAX
 10
220.99
 20
197.1755
 30
0.0
  9
$LIMMIN
 10
0.0
 20
0.0
  9
$LIMMAX
 10
12.0
 20
9.0
  9
$ORTHOMODE
 70
     0
  9
$REGENMODE
 70
     1
  9
$FILLMODE
 70
     1
  9
$QTEXTMODE
 70
     0
  9
$MIRRTEXT
 70
     1
  9
$LTSCALE
 40
1.0
  9
$ATTMODE
 70
     1
  9
$TEXTSIZE
 40
0.2
  9
$TRACEWID
 40
0.05
  9
$TEXTSTYLE
  7
Standard
  9
$CLAYER
  8
0
  9
$CELTYPE
  6
ByBlock
  9
$CECOLOR
 62
   256
  9
$CELTSCALE
 40
1.0
  9
$DISPSILH
 70
     0
  9
$DIMSCALE
 40
1.0
  9
$DIMASZ
 40
0.18
  9
$DIMEXO
 40
0.0625
  9
$DIMDLI
 40
0.38
  9
$DIMRND
 40
0.0
  9
$DIMDLE
 40
0.0
  9
$DIMEXE
 40
0.18
  9
$DIMTP
 40
0.0
  9
$DIMTM
 40
0.0
  9
$DIMTXT
 40
0.18
  9
$DIMCEN
 40
0.09
  9
$DIMTSZ
 40
0.0
  9
$DIMTOL
 70
     0
  9
$DIMLIM
 70
     0
  9
$DIMTIH
 70
     1
  9
$DIMTOH
 70
     1
  9
$DIMSE1
 70
     0
  9
$DIMSE2
 70
     0
  9
$DIMTAD
 70
     0
  9
$DIMZIN
 70
     0
  9
$DIMBLK
  1

  9
$DIMASO
 70
     1
  9
$DIMSHO
 70
     1
  9
$DIMPOST
  1

  9
$DIMAPOST
  1

  9
$DIMALT
 70
     0
  9
$DIMALTD
 70
     2
  9
$DIMALTF
 40
25.4
  9
$DIMLFAC
 40
1.0
  9
$DIMTOFL
 70
     0
  9
$DIMTVP
 40
0.0
  9
$DIMTIX
 70
     0
  9
$DIMSOXD
 70
     0
  9
$DIMSAH
 70
     0
  9
$DIMBLK1
  1

  9
$DIMBLK2
  1

  9
$DIMSTYLE
  2
Standard
  9
$DIMCLRD
 70
     0
  9
$DIMCLRE
 70
     0
  9
$DIMCLRT
 70
     0
  9
$DIMTFAC
 40
1.0
  9
$DIMGAP
 40
0.09
  9
$DIMJUST
 70
     0
  9
$DIMSD1
 70
     0
  9
$DIMSD2
 70
     0
  9
$DIMTOLJ
 70
     1
  9
$DIMTZIN
 70
     0
  9
$DIMALTZ
 70
     0
  9
$DIMALTTZ
 70
     0
  9
$DIMUPT
 70
     0
  9
$DIMDEC
 70
     4
  9
$DIMTDEC
 70
     4
  9
$DIMALTU
 70
     2
  9
$DIMALTTD
 70
     2
  9
$DIMTXSTY
  7
Standard
  9
$DIMAUNIT
 70
     0
  9
$DIMADEC
 70
     0
  9
$DIMALTRND
 40
0.0
  9
$DIMAZIN
 70
     0
  9
$DIMDSEP
 70
    46
  9
$DIMATFIT
 70
     3
  9
$DIMFRAC
 70
     0
  9
$DIMLDRBLK
  1

  9
$DIMLUNIT
 70
     2
  9
$DIMLWD
 70
    -2
  9
$DIMLWE
 70
    -2
  9
$DIMTMOVE
 70
     2
  9
$LUNITS
 70
     2
  9
$LUPREC
 70
     4
  9
$SKETCHINC
 40
0.1
  9
$FILLETRAD
 40
0.5
  9
$AUNITS
 70
     0
  9
$AUPREC
 70
     0
  9
$MENU
  1
.
  9
$ELEVATION
 40
0.0
  9
$PELEVATION
 40
0.0
  9
$THICKNESS
 40
0.0
  9
$LIMCHECK
 70
     0
  9
$CHAMFERA
 40
0.5
  9
$CHAMFERB
 40
0.5
  9
$CHAMFERC
 40
1.0
  9
$CHAMFERD
 40
0.0
  9
$SKPOLY
 70
     0
  9
$TDCREATE
 40
2456646.417373588
  9
$TDUCREATE
 40
2456646.375706921
  9
$TDUPDATE
 40
2456646.42726978
  9
$TDUUPDATE
 40
2456646.385603114
  9
$TDINDWG
 40
0.0098962037
  9
$TDUSRTIMER
 40
0.0098962037
  9
$USRTIMER
 70
     1
  9
$ANGBASE
 50
0.0
  9
$ANGDIR
 70
     0
  9
$PDMODE
 70
     0
  9
$PDSIZE
 40
0.0
  9
$PLINEWID
 40
0.0
  9
$SPLFRAME
 70
     0
  9
$SPLINETYPE
 70
     6
  9
$SPLINESEGS
 70
     8
  9
$HANDSEED
  5
366
  9
$SURFTAB1
 70
     6
  9
$SURFTAB2
 70
     6
  9
$SURFTYPE
 70
     6
  9
$SURFU
 70
     6
  9
$SURFV
 70
     6
  9
$UCSBASE
  2

  9
$UCSNAME
  2

  9
$UCSORG
 10
0.0
 20
0.0
 30
0.0
  9
$UCSXDIR
 10
1.0
 20
0.0
 30
0.0
  9
$UCSYDIR
 10
0.0
 20
1.0
 30
0.0
  9
$UCSORTHOREF
  2

  9
$UCSORTHOVIEW
 70
     0
  9
$UCSORGTOP
 10
0.0
 20
0.0
 30
0.0
  9
$UCSORGBOTTOM
 10
0.0
 20
0.0
 30
0.0
  9
$UCSORGLEFT
 10
0.0
 20
0.0
 30
0.0
  9
$UCSORGRIGHT
 10
0.0
 20
0.0
 30
0.0
  9
$UCSORGFRONT
 10
0.0
 20
0.0
 30
0.0
  9
$UCSORGBACK
 10
0.0
 20
0.0
 30
0.0
  9
$PUCSBASE
  2

  9
$PUCSNAME
  2

  9
$PUCSORG
 10
0.0
 20
0.0
 30
0.0
  9
$PUCSXDIR
 10
1.0
 20
0.0
 30
0.0
  9
$PUCSYDIR
 10
0.0
 20
1.0
 30
0.0
  9
$PUCSORTHOREF
  2

  9
$PUCSORTHOVIEW
 70
     0
  9
$PUCSORGTOP
 10
0.0
 20
0.0
 30
0.0
  9
$PUCSORGBOTTOM
 10
0.0
 20
0.0
 30
0.0
  9
$PUCSORGLEFT
 10
0.0
 20
0.0
 30
0.0
  9
$PUCSORGRIGHT
 10
0.0
 20
0.0
 30
0.0
  9
$PUCSORGFRONT
 10
0.0
 20
0.0
 30
0.0
  9
$PUCSORGBACK
 10
0.0
 20
0.0
 30
0.0
  9
$USERI1
 70
     0
  9
$USERI2
 70
     0
  9
$USERI3
 70
     0
  9
$USERI4
 70
     0
  9
$USERI5
 70
     0
  9
$USERR1
 40
0.0
  9
$USERR2
 40
0.0
  9
$USERR3
 40
0.0
  9
$USERR4
 40
0.0
  9
$USERR5
 40
0.0
  9
$WORLDVIEW
 70
     1
  9
$SHADEDGE
 70
     3
  9
$SHADEDIF
 70
    70
  9
$TILEMODE
 70
     1
  9
$MAXACTVP
 70
    64
  9
$PINSBASE
 10
0.0
 20
0.0
 30
0.0
  9
$PLIMCHECK
 70
     0
  9
$PEXTMIN
 10
1.000000000000E+20
 20
1.000000000000E+20
 30
1.000000000000E+20
  9
$PEXTMAX
 10
-1.000000000000E+20
 20
-1.000000000000E+20
 30
-1.000000000000E+20
  9
$PLIMMIN
 10
0.0
 20
0.0
  9
$PLIMMAX
 10
12.0
 20
9.0
  9
$UNITMODE
 70
     0
  9
$VISRETAIN
 70
     1
  9
$PLINEGEN
 70
     0
  9
$PSLTSCALE
 70
     1
  9
$TREEDEPTH
 70
  3020
  9
$CMLSTYLE
  2
Standard
  9
$CMLJUST
 70
     0
  9
$CMLSCALE
 40
1.0
  9
$PROXYGRAPHICS
 70
     1
  9
$MEASUREMENT
 70
     0
  9
$CELWEIGHT
370
    -1
  9
$ENDCAPS
280
     0
  9
$JOINSTYLE
280
     0
  9
$LWDISPLAY
290
     0
  9
$INSUNITS
 70
     0
  9
$HYPERLINKBASE
  1

  9
$STYLESHEET
  1

  9
$XEDIT
290
     1
  9
$CEPSNTYPE
380
     0
  9
$PSTYLEMODE
290
     1
  9
$FINGERPRINTGUID
  2
{2F37BD0C-940B-4110-8EB9-C7D8554B2B25}
  9
$VERSIONGUID
  2
{FAEB1C32-E019-11D5-929B-00C0DF256EC4}
  9
$EXTNAMES
290
     1
  9
$PSVPSCALE
 40
0.0
  9
$OLESTARTUP
290
     0
  0
ENDSEC
  0
SECTION
  2
CLASSES
  0
CLASS
  1
ACDBDICTIONARYWDFLT
  2
AcDbDictionaryWithDefault
  3
ObjectDBX Classes
 90
        0
280
     0
281
     0
  0
CLASS
  1
SCALE
  2
AcDbScale
  3
ObjectDBX Classes
 90
     1153
280
     0
281
     0
  0
CLASS
  1
DICTIONARYVAR
  2
AcDbDictionaryVar
  3
ObjectDBX Classes
 90
        0
280
     0
281
     0
  0
CLASS
  1
ACDBPLACEHOLDER
  2
AcDbPlaceHolder
  3
ObjectDBX Classes
 90
        0
280
     0
281
     0
  0
CLASS
  1
LAYOUT
  2
AcDbLayout
  3
ObjectDBX Classes
 90
        0
280
     0
281
     0
  0
ENDSEC
  0
SECTION
  2
TABLES
  0
TABLE
  2
VPORT
  5
8
330
0
100
AcDbSymbolTable
 70
     1
  0
VPORT
  5
23D
330
8
100
AcDbSymbolTableRecord
100
AcDbViewportTableRecord
  2
*Active
 70
     0
 10
0.0
 20
0.0
 11
1.0
 21
1.0
 12
110.495
 22
98.5
 13
0.0
 23
0.0
 14
0.5
 24
0.5
 15
0.5
 25
0.5
 16
0.0
 26
0.0
 36
1.0
 17
0.0
 27
0.0
 37
0.0
 40
201.29802
 41
1.319001386963
 42
50.0
 43
0.0
 44
0.0
 50
0.0
 51
0.0
 71
    16
 72
   100
 73
     1
 74
     3
 75
     0
 76
     0
 77
     0
 78
     0
281
     0
 65
     1
110
0.0
120
0.0
130
0.0
111
1.0
121
0.0
131
0.0
112
0.0
122
1.0
132
0.0
 79
     0
146
0.0
  0
ENDTAB
  0
TABLE
  2
LTYPE
  5
5
330
0
100
AcDbSymbolTable
 70
     1
  0
LTYPE
  5
14
330
5
100
AcDbSymbolTableRecord
100
AcDbLinetypeTableRecord
  2
ByBlock
 70
     0
  3

 72
    65
 73
     0
 40
0.0
  0
LTYPE
  5
15
330
5
100
AcDbSymbolTableRecord
100
AcDbLinetypeTableRecord
  2
ByLayer
 70
     0
  3

 72
    65
 73
     0
 40
0.0
  0
LTYPE
  5
16
330
5
100
AcDbSymbolTableRecord
100
AcDbLinetypeTableRecord
  2
Continuous
 70
     0
  3
Solid line
 72
    65
 73
     0
 40
0.0
  0
ENDTAB
  0
TABLE
  2
LAYER
  5
2
330
0
100
AcDbSymbolTable
 70
     1
  0
LAYER
  5
10
330
2
100
AcDbSymbolTableRecord
100
AcDbLayerTableRecord
  2
0
 70
     0
 62
     7
  6
Continuous
370
    -3
390
F
  0
ENDTAB
  0
TABLE
  2
STYLE
  5
3
330
0
100
AcDbSymbolTable
 70
     1
  0
STYLE
  5
11
330
3
100
AcDbSymbolTableRecord
100
AcDbTextStyleTableRecord
  2
Standard
 70
     0
 40
0.0
 41
1.0
 50
0.0
 71
     0
 42
0.2
  3
txt
  4

  0
ENDTAB
  0
TABLE
  2
VIEW
  5
6
330
0
100
AcDbSymbolTable
 70
     0
  0
ENDTAB
  0
TABLE
  2
UCS
  5
7
330
0
100
AcDbSymbolTable
 70
     0
  0
ENDTAB
  0
TABLE
  2
APPID
  5
9
330
0
100
AcDbSymbolTable
 70
     1
  0
APPID
  5
12
330
9
100
AcDbSymbolTableRecord
100
AcDbRegAppTableRecord
  2
ACAD
 70
     0
  0
ENDTAB
  0
TABLE
  2
DIMSTYLE
  5
A
330
0
100
AcDbSymbolTable
 70
     1
100
AcDbDimStyleTable
  0
DIMSTYLE
105
20
330
A
100
AcDbSymbolTableRecord
100
AcDbDimStyleTableRecord
  2
Standard
 70
     0
340
11
  0
ENDTAB
  0
TABLE
  2
BLOCK_RECORD
  5
1
330
0
100
AcDbSymbolTable
 70
     0
  0
BLOCK_RECORD
  5
1D
330
1
100
AcDbSymbolTableRecord
100
AcDbBlockTableRecord
  2
*Model_Space
340
1E
  0
BLOCK_RECORD
  5
1B
330
1
100
AcDbSymbolTableRecord
100
AcDbBlockTableRecord
  2
*Paper_Space
340
1C
  0
ENDTAB
  0
ENDSEC
  0
SECTION
  2
BLOCKS
  0
BLOCK
  5
240
330
1D
100
AcDbEntity
  8
0
100
AcDbBlockBegin
  2
*Model_Space
 70
     0
 10
0.0
 20
0.0
 30
0.0
  3
*Model_Space
  1
*Model_Space
  0
ENDBLK
  5
241
330
1D
100
AcDbEntity
  8
0
100
AcDbBlockEnd
  0
BLOCK
  5
23E
330
1B
100
AcDbEntity
 67
     1
  8
0
100
AcDbBlockBegin
  2
*Paper_Space
 70
     0
 10
0.0
 20
0.0
 30
0.0
  3
*Paper_Space
  1
*Paper_Space
  0
ENDBLK
  5
23F
330
1B
100
AcDbEntity
 67
     1
  8
0
100
AcDbBlockEnd
  0
ENDSEC
  0
SECTION
  2
ENTITIES
  0
LINE
  5
21
330
1D
100
AcDbEntity
  8
0
100
AcDbLine
 10
17.0015
 20
153.1755
 30
0.0
 11
17.0685
 21
153.4255
 31
0.0
  0
LINE
  5
22
330
1D
100
AcDbEntity
  8
0
100
AcDbLine
 10
17.0685
 20
153.4255
 30
0.0
 11
17.2514
 21
153.6085
 31
0.0
  0
LINE
  5
23
330
1D
100
AcDbEntity
  8
0
100
AcDbLine
 10
16.9955
 20
129.3975
 30
0.0
 11
17.0936
 21
128.6715
 31
0.0
  0
LINE
  5
24
330
1D
100
AcDbEntity
  8
0
100
AcDbLine
 10
16.9955
 20
129.3975
 30
0.0
 11
17.0015
 21
153.1755
 31
0.0
  0
LINE
  5
25
330
1D
100
AcDbEntity
  8
0
100
AcDbLine
 10
17.2514
 20
153.6085
 30
0.0
 11
17.5014
 21
153.6755
 31
0.0
  0
LINE
  5
26
330
1D
100
AcDbEntity
  8
0
100
AcDbLine
 10
17.0936
 20
128.6715
 30
0.0
 11
17.5539
 21
128.1395
 31
0.0
  0
LINE
  5
27
330
1D
100
AcDbEntity
  8
0
100
AcDbLine
 10
17.5014
 20
153.6755
 30
0.0
 11
17.8192
 21
153.6755
 31
0.0
  0
LINE
  5
28
330
1D
100
AcDbEntity
  8
0
100
AcDbLine
 10
18.2586
 20
127.9365
 30
0.0
 11
22.4937
 21
127.4685
 31
0.0
  0
LINE
  5
29
330
1D
100
AcDbEntity
  8
0
100
AcDbLine
 10
18.611
 20
153.6755
 30
0.0
 11
19.857
 21
153.6755
 31
0.0
  0
LINE
  5
2A
330
1D
100
AcDbEntity
  8
0
100
AcDbLine
 10
19.857
 20
153.6755
 30
0.0
 11
21.5173
 21
153.6755
 31
0.0
  0
LINE
  5
2B
330
1D
100
AcDbEntity
  8
0
100
AcDbLine
 10
17.5539
 20
128.1395
 30
0.0
 11
18.2586
 21
127.9365
 31
0.0
  0
LINE
  5
2C
330
1D
100
AcDbEntity
  8
0
100
AcDbLine
 10
17.8192
 20
153.6755
 30
0.0
 11
18.611
 21
153.6755
 31
0.0
  0
LINE
  5
2D
330
1D
100
AcDbEntity
  8
0
100
AcDbLine
 10
21.5173
 20
153.6755
 30
0.0
 11
23.5466
 21
153.6755
 31
0.0
  0
LINE
  5
2E
330
1D
100
AcDbEntity
  8
0
100
AcDbLine
 10
21.608
 20
155.1755
 30
0.0
 11
22.411
 21
155.1755
 31
0.0
  0
LINE
  5
2F
330
1D
100
AcDbEntity
  8
0
100
AcDbLine
 10
21.212
 20
155.1755
 30
0.0
 11
21.819
 21
155.1755
 31
0.0
  0
LINE
  5
30
330
1D
100
AcDbEntity
  8
0
100
AcDbLine
 10
21.25
 20
155.1755
 30
0.0
 11
21.608
 21
155.1755
 31
0.0
  0
LINE
  5
31
330
1D
100
AcDbEntity
  8
0
100
AcDbLine
 10
20.987
 20
155.1755
 30
0.0
 11
21.212
 21
155.1755
 31
0.0
  0
LINE
  5
32
330
1D
100
AcDbEntity
  8
0
100
AcDbLine
 10
20.987
 20
155.1755
 30
0.0
 11
21.25
 21
155.1755
 31
0.0
  0
LINE
  5
33
330
1D
100
AcDbEntity
  8
0
100
AcDbLine
 10
22.264
 20
155.6655
 30
0.0
 11
24.365
 21
156.0495
 31
0.0
  0
LINE
  5
34
330
1D
100
AcDbEntity
  8
0
100
AcDbLine
 10
20.52
 20
156.1515
 30
0.0
 11
22.264
 21
155.6655
 31
0.0
  0
LINE
  5
35
330
1D
100
AcDbEntity
  8
0
100
AcDbLine
 10
21.819
 20
155.1755
 30
0.0
 11
22.396
 21
155.1755
 31
0.0
  0
LINE
  5
36
330
1D
100
AcDbEntity
  8
0
100
AcDbLine
 10
23.5466
 20
153.6755
 30
0.0
 11
25.8795
 21
153.6755
 31
0.0
  0
LINE
  5
37
330
1D
100
AcDbEntity
  8
0
100
AcDbLine
 10
22.4937
 20
127.4685
 30
0.0
 11
26.6745
 21
127.2435
 31
0.0
  0
LINE
  5
38
330
1D
100
AcDbEntity
  8
0
100
AcDbLine
 10
26.6745
 20
127.2435
 30
0.0
 11
27.1207
 21
127.2625
 31
0.0
  0
LINE
  5
39
330
1D
100
AcDbEntity
  8
0
100
AcDbLine
 10
27.1207
 20
127.2625
 30
0.0
 11
33.9999
 21
127.1705
 31
0.0
  0
LINE
  5
3A
330
1D
100
AcDbEntity
  8
0
100
AcDbLine
 10
25.8795
 20
153.6755
 30
0.0
 11
28.4537
 21
153.6755
 31
0.0
  0
LINE
  5
3B
330
1D
100
AcDbEntity
  8
0
100
AcDbLine
 10
25.257
 20
155.1755
 30
0.0
 11
25.257
 21
153.6755
 31
0.0
  0
LINE
  5
3C
330
1D
100
AcDbEntity
  8
0
100
AcDbLine
 10
25.257
 20
153.6755
 30
0.0
 11
25.257
 21
155.1755
 31
0.0
  0
LINE
  5
3D
330
1D
100
AcDbEntity
  8
0
100
AcDbLine
 10
28.4537
 20
153.6755
 30
0.0
 11
31.1852
 21
153.6755
 31
0.0
  0
LINE
  5
3E
330
1D
100
AcDbEntity
  8
0
100
AcDbLine
 10
31.1852
 20
153.6755
 30
0.0
 11
33.9994
 21
153.6755
 31
0.0
  0
LINE
  5
3F
330
1D
100
AcDbEntity
  8
0
100
AcDbLine
 10
30.601
 20
155.1755
 30
0.0
 11
33.592
 21
155.1755
 31
0.0
  0
LINE
  5
40
330
1D
100
AcDbEntity
  8
0
100
AcDbLine
 10
27.885
 20
155.1755
 30
0.0
 11
30.601
 21
155.1755
 31
0.0
  0
LINE
  5
41
330
1D
100
AcDbEntity
  8
0
100
AcDbLine
 10
24.956
 20
155.1755
 30
0.0
 11
26.055
 21
155.1755
 31
0.0
  0
LINE
  5
42
330
1D
100
AcDbEntity
  8
0
100
AcDbLine
 10
26.055
 20
155.1755
 30
0.0
 11
27.885
 21
155.1755
 31
0.0
  0
LINE
  5
43
330
1D
100
AcDbEntity
  8
0
100
AcDbLine
 10
24.001
 20
155.1755
 30
0.0
 11
25.257
 21
155.1755
 31
0.0
  0
LINE
  5
44
330
1D
100
AcDbEntity
  8
0
100
AcDbLine
 10
23.974
 20
155.1755
 30
0.0
 11
24.956
 21
155.1755
 31
0.0
  0
LINE
  5
45
330
1D
100
AcDbEntity
  8
0
100
AcDbLine
 10
22.411
 20
155.1755
 30
0.0
 11
24.001
 21
155.1755
 31
0.0
  0
LINE
  5
46
330
1D
100
AcDbEntity
  8
0
100
AcDbLine
 10
30.138
 20
156.6055
 30
0.0
 11
32.253
 21
156.0065
 31
0.0
  0
LINE
  5
47
330
1D
100
AcDbEntity
  8
0
100
AcDbLine
 10
24.365
 20
156.0495
 30
0.0
 11
25.947
 21
157.1755
 31
0.0
  0
LINE
  5
48
330
1D
100
AcDbEntity
  8
0
100
AcDbLine
 10
32.253
 20
156.0065
 30
0.0
 11
35.005
 21
155.6655
 31
0.0
  0
LINE
  5
49
330
1D
100
AcDbEntity
  8
0
100
AcDbLine
 10
23.117
 20
155.1755
 30
0.0
 11
23.974
 21
155.1755
 31
0.0
  0
LINE
  5
4A
330
1D
100
AcDbEntity
  8
0
100
AcDbLine
 10
22.396
 20
155.1755
 30
0.0
 11
23.117
 21
155.1755
 31
0.0
  0
LINE
  5
4B
330
1D
100
AcDbEntity
  8
0
100
AcDbLine
 10
0.112
 20
192.6415
 30
0.0
 11
0.412
 21
191.9185
 31
0.0
  0
LINE
  5
4C
330
1D
100
AcDbEntity
  8
0
100
AcDbLine
 10
0.01
 20
193.4185
 30
0.0
 11
0.01
 21
197.1755
 31
0.0
  0
LINE
  5
4D
330
1D
100
AcDbEntity
  8
0
100
AcDbLine
 10
0.01
 20
193.4185
 30
0.0
 11
0.112
 21
192.6415
 31
0.0
  0
LINE
  5
4E
330
1D
100
AcDbEntity
  8
0
100
AcDbLine
 10
0.889
 20
191.2965
 30
0.0
 11
19.602
 21
172.6145
 31
0.0
  0
LINE
  5
4F
330
1D
100
AcDbEntity
  8
0
100
AcDbLine
 10
4.346
 20
197.1755
 30
0.0
 11
6.105
 21
197.1755
 31
0.0
  0
LINE
  5
50
330
1D
100
AcDbEntity
  8
0
100
AcDbLine
 10
2.869
 20
197.1755
 30
0.0
 11
4.346
 21
197.1755
 31
0.0
  0
LINE
  5
51
330
1D
100
AcDbEntity
  8
0
100
AcDbLine
 10
0.889
 20
191.2965
 30
0.0
 11
19.602
 21
172.6145
 31
0.0
  0
LINE
  5
52
330
1D
100
AcDbEntity
  8
0
100
AcDbLine
 10
0.412
 20
191.9185
 30
0.0
 11
0.889
 21
191.2965
 31
0.0
  0
LINE
  5
53
330
1D
100
AcDbEntity
  8
0
100
AcDbLine
 10
1.688
 20
197.1755
 30
0.0
 11
2.869
 21
197.1755
 31
0.0
  0
LINE
  5
54
330
1D
100
AcDbEntity
  8
0
100
AcDbLine
 10
10.402
 20
197.1755
 30
0.0
 11
12.903
 21
197.1755
 31
0.0
  0
LINE
  5
55
330
1D
100
AcDbEntity
  8
0
100
AcDbLine
 10
18.493
 20
197.1755
 30
0.0
 11
21.532
 21
197.1755
 31
0.0
  0
LINE
  5
56
330
1D
100
AcDbEntity
  8
0
100
AcDbLine
 10
19.073
 20
157.1755
 30
0.0
 11
20.52
 21
156.1515
 31
0.0
  0
LINE
  5
57
330
1D
100
AcDbEntity
  8
0
100
AcDbLine
 10
20.064
 20
172.2895
 30
0.0
 11
20.534298507463
 21
172.211231343284
 31
0.0
  0
LINE
  5
58
330
1D
100
AcDbEntity
  8
0
100
AcDbLine
 10
19.601
 20
172.6145
 30
0.0
 11
20.064
 21
172.2895
 31
0.0
  0
LINE
  5
59
330
1D
100
AcDbEntity
  8
0
100
AcDbLine
 10
19.073
 20
170.1755
 30
0.0
 11
20.479
 21
171.1165
 31
0.0
  0
LINE
  5
5A
330
1D
100
AcDbEntity
  8
0
100
AcDbLine
 10
19.073
 20
170.1755
 30
0.0
 11
21.024182421776
 21
172.173638680774
 31
0.0
  0
LINE
  5
5B
330
1D
100
AcDbEntity
  8
0
100
AcDbLine
 10
15.608
 20
197.1755
 30
0.0
 11
18.493
 21
197.1755
 31
0.0
  0
LINE
  5
5C
330
1D
100
AcDbEntity
  8
0
100
AcDbLine
 10
12.903
 20
197.1755
 30
0.0
 11
15.608
 21
197.1755
 31
0.0
  0
LINE
  5
5D
330
1D
100
AcDbEntity
  8
0
100
AcDbLine
 10
8.13
 20
197.1755
 30
0.0
 11
10.402
 21
197.1755
 31
0.0
  0
LINE
  5
5E
330
1D
100
AcDbEntity
  8
0
100
AcDbLine
 10
6.105
 20
197.1755
 30
0.0
 11
8.13
 21
197.1755
 31
0.0
  0
LINE
  5
5F
330
1D
100
AcDbEntity
  8
0
100
AcDbLine
 10
0.813
 20
197.1755
 30
0.0
 11
1.688
 21
197.1755
 31
0.0
  0
LINE
  5
60
330
1D
100
AcDbEntity
  8
0
100
AcDbLine
 10
0.252
 20
197.1755
 30
0.0
 11
0.813
 21
197.1755
 31
0.0
  0
LINE
  5
61
330
1D
100
AcDbEntity
  8
0
100
AcDbLine
 10
0.01
 20
197.1755
 30
0.0
 11
0.252
 21
197.1755
 31
0.0
  0
LINE
  5
62
330
1D
100
AcDbEntity
  8
0
100
AcDbLine
 10
0.01
 20
197.1755
 30
0.0
 11
0.01
 21
193.4185
 31
0.0
  0
LINE
  5
63
330
1D
100
AcDbEntity
  8
0
100
AcDbLine
 10
27.25
 20
157.1755
 30
0.0
 11
28.626
 21
157.1755
 31
0.0
  0
LINE
  5
64
330
1D
100
AcDbEntity
  8
0
100
AcDbLine
 10
25.947
 20
157.1755
 30
0.0
 11
27.25
 21
157.1755
 31
0.0
  0
LINE
  5
65
330
1D
100
AcDbEntity
  8
0
100
AcDbLine
 10
25.947
 20
170.1755
 30
0.0
 11
27.25
 21
170.1755
 31
0.0
  0
LINE
  5
66
330
1D
100
AcDbEntity
  8
0
100
AcDbLine
 10
28.634
 20
170.1895
 30
0.0
 11
31.421
 21
171.1475
 31
0.0
  0
LINE
  5
67
330
1D
100
AcDbEntity
  8
0
100
AcDbLine
 10
27.25
 20
170.1755
 30
0.0
 11
28.634
 21
170.1895
 31
0.0
  0
LINE
  5
68
330
1D
100
AcDbEntity
  8
0
100
AcDbLine
 10
20.479
 20
171.1165
 30
0.0
 11
22.353
 21
171.7235
 31
0.0
  0
LINE
  5
69
330
1D
100
AcDbEntity
  8
0
100
AcDbLine
 10
22.001
 20
172.1675
 30
0.0
 11
22.714486725664
 21
172.1675
 31
0.0
  0
LINE
  5
6A
330
1D
100
AcDbEntity
  8
0
100
AcDbLine
 10
22.001
 20
172.1675
 30
0.0
 11
22.714486725664
 21
172.1675
 31
0.0
  0
LINE
  5
6B
330
1D
100
AcDbEntity
  8
0
100
AcDbLine
 10
21.532
 20
197.1755
 30
0.0
 11
24.698
 21
197.1755
 31
0.0
  0
LINE
  5
6C
330
1D
100
AcDbEntity
  8
0
100
AcDbLine
 10
20.728
 20
172.1755
 30
0.0
 11
22.001
 21
172.1675
 31
0.0
  0
LINE
  5
6D
330
1D
100
AcDbEntity
  8
0
100
AcDbLine
 10
24.698
 20
197.1755
 30
0.0
 11
27.961
 21
197.1755
 31
0.0
  0
LINE
  5
6E
330
1D
100
AcDbEntity
  8
0
100
AcDbLine
 10
27.961
 20
197.1755
 30
0.0
 11
31.293
 21
197.1755
 31
0.0
  0
LINE
  5
70
330
1D
100
AcDbEntity
  8
0
100
AcDbLine
 10
24.135
 20
171.3125
 30
0.0
 11
25.947
 21
170.1755
 31
0.0
  0
LINE
  5
71
330
1D
100
AcDbEntity
  8
0
100
AcDbLine
 10
22.353
 20
171.7235
 30
0.0
 11
24.135
 21
171.3125
 31
0.0
  0
LINE
  5
72
330
1D
100
AcDbEntity
  8
0
100
AcDbLine
 10
31.293
 20
197.1755
 30
0.0
 11
34.662
 21
197.1755
 31
0.0
  0
LINE
  5
73
330
1D
100
AcDbEntity
  8
0
100
AcDbLine
 10
31.421
 20
171.1475
 30
0.0
 11
34.449
 21
171.6585
 31
0.0
  0
LINE
  5
76
330
1D
100
AcDbEntity
  8
0
100
AcDbLine
 10
28.626
 20
157.1755
 30
0.0
 11
30.138
 21
156.6055
 31
0.0
  0
LINE
  5
77
330
1D
100
AcDbEntity
  8
0
100
AcDbLine
 10
19.023
 20
157.1685
 30
0.0
 11
19.073
 21
170.1755
 31
0.0
  0
LINE
  5
78
330
1D
100
AcDbEntity
  8
0
100
AcDbLine
 10
19.023
 20
157.1685
 30
0.0
 11
20.987
 21
155.1755
 31
0.0
  0
LINE
  5
79
330
1D
100
AcDbEntity
  8
0
100
AcDbLine
 10
19.023
 20
157.1685
 30
0.0
 11
19.073
 21
157.1755
 31
0.0
  0
LINE
  5
7A
330
1D
100
AcDbEntity
  8
0
100
AcDbLine
 10
33.9994
 20
153.6755
 30
0.0
 11
66.8584
 21
153.6755
 31
0.0
  0
LINE
  5
7B
330
1D
100
AcDbEntity
  8
0
100
AcDbLine
 10
33.9999
 20
127.1705
 30
0.0
 11
70.7811
 21
127.1685
 31
0.0
  0
LINE
  5
7C
330
1D
100
AcDbEntity
  8
0
100
AcDbLine
 10
40.305
 20
155.1755
 30
0.0
 11
41.709
 21
155.1755
 31
0.0
  0
LINE
  5
7D
330
1D
100
AcDbEntity
  8
0
100
AcDbLine
 10
41.709
 20
155.1755
 30
0.0
 11
43.679
 21
155.1755
 31
0.0
  0
LINE
  5
7E
330
1D
100
AcDbEntity
  8
0
100
AcDbLine
 10
35.842
 20
155.1755
 30
0.0
 11
38.117
 21
155.1755
 31
0.0
  0
LINE
  5
7F
330
1D
100
AcDbEntity
  8
0
100
AcDbLine
 10
33.592
 20
155.1755
 30
0.0
 11
35.842
 21
155.1755
 31
0.0
  0
LINE
  5
80
330
1D
100
AcDbEntity
  8
0
100
AcDbLine
 10
45.7184
 20
153.6755
 30
0.0
 11
45.7286
 21
155.1755
 31
0.0
  0
LINE
  5
81
330
1D
100
AcDbEntity
  8
0
100
AcDbLine
 10
45.454
 20
155.1755
 30
0.0
 11
46.502
 21
155.1755
 31
0.0
  0
LINE
  5
82
330
1D
100
AcDbEntity
  8
0
100
AcDbLine
 10
43.679
 20
155.1755
 30
0.0
 11
45.454
 21
155.1755
 31
0.0
  0
LINE
  5
83
330
1D
100
AcDbEntity
  8
0
100
AcDbLine
 10
45.7286
 20
155.1755
 30
0.0
 11
46.535
 21
155.1755
 31
0.0
  0
LINE
  5
84
330
1D
100
AcDbEntity
  8
0
100
AcDbLine
 10
39.484
 20
156.1785
 30
0.0
 11
42.374
 21
157.1755
 31
0.0
  0
LINE
  5
85
330
1D
100
AcDbEntity
  8
0
100
AcDbLine
 10
37.242
 20
155.7765
 30
0.0
 11
39.484
 21
156.1785
 31
0.0
  0
LINE
  5
86
330
1D
100
AcDbEntity
  8
0
100
AcDbLine
 10
35.005
 20
155.6655
 30
0.0
 11
37.242
 21
155.7765
 31
0.0
  0
LINE
  5
87
330
1D
100
AcDbEntity
  8
0
100
AcDbLine
 10
38.117
 20
155.1755
 30
0.0
 11
40.305
 21
155.1755
 31
0.0
  0
LINE
  5
88
330
1D
100
AcDbEntity
  8
0
100
AcDbLine
 10
46.588
 20
156.1505
 30
0.0
 11
47.297
 21
155.8645
 31
0.0
  0
LINE
  5
89
330
1D
100
AcDbEntity
  8
0
100
AcDbLine
 10
46.535
 20
155.1755
 30
0.0
 11
48.277
 21
155.1755
 31
0.0
  0
LINE
  5
8A
330
1D
100
AcDbEntity
  8
0
100
AcDbLine
 10
46.502
 20
155.1755
 30
0.0
 11
47.428
 21
155.1755
 31
0.0
  0
LINE
  5
8B
330
1D
100
AcDbEntity
  8
0
100
AcDbLine
 10
42.374
 20
157.1755
 30
0.0
 11
43.75
 21
157.1755
 31
0.0
  0
LINE
  5
8C
330
1D
100
AcDbEntity
  8
0
100
AcDbLine
 10
45.054
 20
157.1755
 30
0.0
 11
45.849
 21
156.5785
 31
0.0
  0
LINE
  5
8D
330
1D
100
AcDbEntity
  8
0
100
AcDbLine
 10
43.75
 20
157.1755
 30
0.0
 11
45.054
 21
157.1755
 31
0.0
  0
LINE
  5
8E
330
1D
100
AcDbEntity
  8
0
100
AcDbLine
 10
42.374
 20
170.1755
 30
0.0
 11
43.75
 21
170.1755
 31
0.0
  0
LINE
  5
8F
330
1D
100
AcDbEntity
  8
0
100
AcDbLine
 10
43.75
 20
170.1755
 30
0.0
 11
45.054
 21
170.1755
 31
0.0
  0
LINE
  5
90
330
1D
100
AcDbEntity
  8
0
100
AcDbLine
 10
45.054
 20
170.1755
 30
0.0
 11
46.219
 21
170.9865
 31
0.0
  0
LINE
  5
91
330
1D
100
AcDbEntity
  8
0
100
AcDbLine
 10
45.849
 20
156.5785
 30
0.0
 11
46.588
 21
156.1505
 31
0.0
  0
LINE
  5
92
330
1D
100
AcDbEntity
  8
0
100
AcDbLine
 10
49.996
 20
155.1755
 30
0.0
 11
51.977
 21
157.1685
 31
0.0
  0
LINE
  5
93
330
1D
100
AcDbEntity
  8
0
100
AcDbLine
 10
49.787
 20
155.1755
 30
0.0
 11
49.996
 21
155.1755
 31
0.0
  0
LINE
  5
94
330
1D
100
AcDbEntity
  8
0
100
AcDbLine
 10
49.181
 20
155.1755
 30
0.0
 11
49.787
 21
155.1755
 31
0.0
  0
LINE
  5
95
330
1D
100
AcDbEntity
  8
0
100
AcDbLine
 10
49.807
 20
155.1755
 30
0.0
 11
49.996
 21
155.1755
 31
0.0
  0
LINE
  5
96
330
1D
100
AcDbEntity
  8
0
100
AcDbLine
 10
48.277
 20
155.1755
 30
0.0
 11
49.181
 21
155.1755
 31
0.0
  0
LINE
  5
97
330
1D
100
AcDbEntity
  8
0
100
AcDbLine
 10
48.882
 20
155.1755
 30
0.0
 11
49.807
 21
155.1755
 31
0.0
  0
LINE
  5
98
330
1D
100
AcDbEntity
  8
0
100
AcDbLine
 10
48.225
 20
155.1755
 30
0.0
 11
48.882
 21
155.1755
 31
0.0
  0
LINE
  5
99
330
1D
100
AcDbEntity
  8
0
100
AcDbLine
 10
47.986
 20
155.7095
 30
0.0
 11
49.394
 21
155.7375
 31
0.0
  0
LINE
  5
9A
330
1D
100
AcDbEntity
  8
0
100
AcDbLine
 10
49.394
 20
155.7375
 30
0.0
 11
51.977
 21
157.1685
 31
0.0
  0
LINE
  5
9B
330
1D
100
AcDbEntity
  8
0
100
AcDbLine
 10
47.428
 20
155.1755
 30
0.0
 11
48.225
 21
155.1755
 31
0.0
  0
LINE
  5
9C
330
1D
100
AcDbEntity
  8
0
100
AcDbLine
 10
47.297
 20
155.8645
 30
0.0
 11
47.986
 21
155.7095
 31
0.0
  0
LINE
  5
9D
330
1D
100
AcDbEntity
  8
0
100
AcDbLine
 10
40.275
 20
170.9485
 30
0.0
 11
42.374
 21
170.1755
 31
0.0
  0
LINE
  5
9E
330
1D
100
AcDbEntity
  8
0
100
AcDbLine
 10
34.449
 20
171.6585
 30
0.0
 11
37.423
 21
171.5695
 31
0.0
  0
LINE
  5
9F
330
1D
100
AcDbEntity
  8
0
100
AcDbLine
 10
37.423
 20
171.5695
 30
0.0
 11
40.275
 21
170.9485
 31
0.0
  0
LINE
  5
A0
330
1D
100
AcDbEntity
  8
0
100
AcDbLine
 10
46.219
 20
170.9865
 30
0.0
 11
48.004
 21
171.6865
 31
0.0
  0
LINE
  5
A1
330
1D
100
AcDbEntity
  8
0
100
AcDbLine
 10
49.384
 20
171.5695
 30
0.0
 11
50.115
 21
171.3275
 31
0.0
  0
LINE
  5
A3
330
1D
100
AcDbEntity
  8
0
100
AcDbLine
 10
49.391894389439
 20
172.1675
 30
0.0
 11
49.741
 21
172.1675
 31
0.0
  0
LINE
  5
A5
330
1D
100
AcDbEntity
  8
0
100
AcDbLine
 10
49.741
 20
172.1675
 30
0.0
 11
50.341
 21
172.1755
 31
0.0
  0
LINE
  5
A6
330
1D
100
AcDbEntity
  8
0
100
AcDbLine
 10
50.000548432936
 20
172.170960645772
 30
0.0
 11
52.0
 21
170.1755
 31
0.0
  0
LINE
  5
A8
330
1D
100
AcDbEntity
  8
0
100
AcDbLine
 10
48.004
 20
171.6865
 30
0.0
 11
49.384
 21
171.5695
 31
0.0
  0
LINE
  5
A9
330
1D
100
AcDbEntity
  8
0
100
AcDbLine
 10
50.341
 20
172.1755
 30
0.0
 11
50.977
 21
172.2885
 31
0.0
  0
LINE
  5
AA
330
1D
100
AcDbEntity
  8
0
100
AcDbLine
 10
50.115
 20
171.3275
 30
0.0
 11
51.225
 21
170.7245
 31
0.0
  0
LINE
  5
AB
330
1D
100
AcDbEntity
  8
0
100
AcDbLine
 10
51.225
 20
170.7245
 30
0.0
 11
51.927
 21
170.1755
 31
0.0
  0
LINE
  5
AE
330
1D
100
AcDbEntity
  8
0
100
AcDbLine
 10
88.8321
 20
111.8665
 30
0.0
 11
88.9207
 21
107.9015
 31
0.0
  0
LINE
  5
AF
330
1D
100
AcDbEntity
  8
0
100
AcDbLine
 10
89.6098
 20
90.0957
 30
0.0
 11
89.9143
 21
82.6749
 31
0.0
  0
LINE
  5
B0
330
1D
100
AcDbEntity
  8
0
100
AcDbLine
 10
88.72123392837
 20
117.336501635167
 30
0.0
 11
89.3485
 21
97.4445
 31
0.0
  0
LINE
  5
B1
330
1D
100
AcDbEntity
  8
0
100
AcDbLine
 10
89.3485
 20
97.4445
 30
0.0
 11
89.6098
 21
90.0957
 31
0.0
  0
LINE
  5
B2
330
1D
100
AcDbEntity
  8
0
100
AcDbLine
 10
89.0693
 20
93.3066
 30
0.0
 11
89.3756
 21
64.7733
 31
0.0
  0
LINE
  5
B3
330
1D
100
AcDbEntity
  8
0
100
AcDbLine
 10
88.9207
 20
107.9015
 30
0.0
 11
89.0693
 21
93.3066
 31
0.0
  0
LINE
  5
B4
330
1D
100
AcDbEntity
  8
0
100
AcDbLine
 10
89.3756
 20
64.7733
 30
0.0
 11
89.8446
 21
22.0495
 31
0.0
  0
LINE
  5
B5
330
1D
100
AcDbEntity
  8
0
100
AcDbLine
 10
89.8792
 20
19.5885
 30
0.0
 11
89.9007
 21
18.3665
 31
0.0
  0
LINE
  5
B6
330
1D
100
AcDbEntity
  8
0
100
AcDbLine
 10
89.8446
 20
22.0495
 30
0.0
 11
89.8792
 21
19.5885
 31
0.0
  0
LINE
  5
B7
330
1D
100
AcDbEntity
  8
0
100
AcDbLine
 10
88.6862
 20
114.1625
 30
0.0
 11
88.8321
 21
111.8665
 31
0.0
  0
LINE
  5
B9
330
1D
100
AcDbEntity
  8
0
100
AcDbLine
 10
93.4765
 20
3.2625
 30
0.0
 11
94.9524
 21
2.0435
 31
0.0
  0
LINE
  5
BC
330
1D
100
AcDbEntity
  8
0
100
AcDbLine
 10
98.5728
 20
0.5965
 30
0.0
 11
99.886
 21
0.3455
 31
0.0
  0
LINE
  5
BE
330
1D
100
AcDbEntity
  8
0
100
AcDbLine
 10
94.9994
 20
2.0145
 30
0.0
 11
96.7648
 21
1.1755
 31
0.0
  0
LINE
  5
BF
330
1D
100
AcDbEntity
  8
0
100
AcDbLine
 10
96.7648
 20
1.1755
 30
0.0
 11
98.5728
 21
0.5965
 31
0.0
  0
LINE
  5
C0
330
1D
100
AcDbEntity
  8
0
100
AcDbLine
 10
94.9524
 20
2.0435
 30
0.0
 11
94.9994
 21
2.0145
 31
0.0
  0
LINE
  5
C1
330
1D
100
AcDbEntity
  8
0
100
AcDbLine
 10
99.886
 20
0.3455
 30
0.0
 11
106.564
 21
-0.1335
 31
0.0
  0
LINE
  5
C4
330
1D
100
AcDbEntity
  8
0
100
AcDbLine
 10
92.2455
 20
4.9545
 30
0.0
 11
93.4765
 21
3.2625
 31
0.0
  0
LINE
  5
C7
330
1D
100
AcDbEntity
  8
0
100
AcDbLine
 10
90.693726063138
 20
9.48247276427
 30
0.0
 11
91.365
 21
6.9115
 31
0.0
  0
LINE
  5
C8
330
1D
100
AcDbEntity
  8
0
100
AcDbLine
 10
89.9143
 20
82.6749
 30
0.0
 11
90.2979
 21
75.2119
 31
0.0
  0
LINE
  5
D0
330
1D
100
AcDbEntity
  8
0
100
AcDbLine
 10
106.513
 20
61.1051
 30
0.0
 11
110.421
 21
60.9847
 31
0.0
  0
LINE
  5
D2
330
1D
100
AcDbEntity
  8
0
100
AcDbLine
 10
102.537
 20
61.4279
 30
0.0
 11
106.513
 21
61.1051
 31
0.0
  0
LINE
  5
D3
330
1D
100
AcDbEntity
  8
0
100
AcDbLine
 10
100.102
 20
61.7489
 30
0.0
 11
102.537
 21
61.4279
 31
0.0
  0
LINE
  5
D4
330
1D
100
AcDbEntity
  8
0
100
AcDbLine
 10
98.9327
 20
61.9791
 30
0.0
 11
100.102
 21
61.7489
 31
0.0
  0
LINE
  5
D5
330
1D
100
AcDbEntity
  8
0
100
AcDbLine
 10
90.4803
 20
72.6703
 30
0.0
 11
90.6331
 21
71.3999
 31
0.0
  0
LINE
  5
D6
330
1D
100
AcDbEntity
  8
0
100
AcDbLine
 10
90.2979
 20
75.2119
 30
0.0
 11
90.4803
 21
72.6703
 31
0.0
  0
LINE
  5
D7
330
1D
100
AcDbEntity
  8
0
100
AcDbLine
 10
92.2612
 20
66.3597
 30
0.0
 11
92.7104
 21
65.6816
 31
0.0
  0
LINE
  5
D8
330
1D
100
AcDbEntity
  8
0
100
AcDbLine
 10
96.485
 20
62.7514
 30
0.0
 11
97.2679
 21
62.4493
 31
0.0
  0
LINE
  5
D9
330
1D
100
AcDbEntity
  8
0
100
AcDbLine
 10
95.7403
 20
63.1035
 30
0.0
 11
96.485
 21
62.7514
 31
0.0
  0
LINE
  5
DA
330
1D
100
AcDbEntity
  8
0
100
AcDbLine
 10
94.8133
 20
63.6557
 30
0.0
 11
95.7403
 21
63.1035
 31
0.0
  0
LINE
  5
DB
330
1D
100
AcDbEntity
  8
0
100
AcDbLine
 10
93.9687
 20
64.3064
 30
0.0
 11
94.8133
 21
63.6557
 31
0.0
  0
LINE
  5
DD
330
1D
100
AcDbEntity
  8
0
100
AcDbLine
 10
93.2278
 20
65.0364
 30
0.0
 11
93.9687
 21
64.3064
 31
0.0
  0
LINE
  5
E1
330
1D
100
AcDbEntity
  8
0
100
AcDbLine
 10
92.7104
 20
65.6816
 30
0.0
 11
93.2278
 21
65.0364
 31
0.0
  0
LINE
  5
E5
330
1D
100
AcDbEntity
  8
0
100
AcDbLine
 10
91.638
 20
67.5555
 30
0.0
 11
92.2612
 21
66.3597
 31
0.0
  0
LINE
  5
E6
330
1D
100
AcDbEntity
  8
0
100
AcDbLine
 10
90.9841
 20
69.5722
 30
0.0
 11
91.638
 21
67.5555
 31
0.0
  0
LINE
  5
E7
330
1D
100
AcDbEntity
  8
0
100
AcDbLine
 10
90.6331
 20
71.3999
 30
0.0
 11
90.9841
 21
69.5722
 31
0.0
  0
LINE
  5
E8
330
1D
100
AcDbEntity
  8
0
100
AcDbLine
 10
97.2679
 20
62.4493
 30
0.0
 11
98.9327
 21
61.9791
 31
0.0
  0
LINE
  5
10C
330
1D
100
AcDbEntity
  8
0
100
AcDbLine
 10
90.0117
 20
15.1665
 30
0.0
 11
90.265
 21
12.0625
 31
0.0
  0
LINE
  5
10D
330
1D
100
AcDbEntity
  8
0
100
AcDbLine
 10
90.265
 20
12.0625
 30
0.0
 11
90.693726063138
 21
9.48247276427
 31
0.0
  0
LINE
  5
10E
330
1D
100
AcDbEntity
  8
0
100
AcDbLine
 10
90.265
 20
12.0625
 30
0.0
 11
90.693726063138
 21
9.48247276427
 31
0.0
  0
LINE
  5
110
330
1D
100
AcDbEntity
  8
0
100
AcDbLine
 10
91.365
 20
6.9115
 30
0.0
 11
92.2455
 21
4.9545
 31
0.0
  0
LINE
  5
111
330
1D
100
AcDbEntity
  8
0
100
AcDbLine
 10
89.9007
 20
18.3665
 30
0.0
 11
90.0117
 21
15.1665
 31
0.0
  0
LINE
  5
114
330
1D
100
AcDbEntity
  8
0
100
AcDbLine
 10
76.6484
 20
127.0385
 30
0.0
 11
78.51058308424
 21
126.795704072425
 31
0.0
  0
LINE
  5
115
330
1D
100
AcDbEntity
  8
0
100
AcDbLine
 10
66.8584
 20
153.6755
 30
0.0
 11
100.733
 21
153.6755
 31
0.0
  0
LINE
  5
116
330
1D
100
AcDbEntity
  8
0
100
AcDbLine
 10
70.7811
 20
127.1685
 30
0.0
 11
74.7062
 21
127.1475
 31
0.0
  0
LINE
  5
117
330
1D
100
AcDbEntity
  8
0
100
AcDbLine
 10
74.7062
 20
127.1475
 30
0.0
 11
76.6484
 21
127.0385
 31
0.0
  0
LINE
  5
119
330
1D
100
AcDbEntity
  8
0
100
AcDbLine
 10
88.6285
 20
119.5795
 30
0.0
 11
88.72123392837
 21
117.336501635167
 31
0.0
  0
LINE
  5
11A
330
1D
100
AcDbEntity
  8
0
100
AcDbLine
 10
87.9417
 20
118.3955
 30
0.0
 11
88.4309
 21
116.1585
 31
0.0
  0
LINE
  5
11B
330
1D
100
AcDbEntity
  8
0
100
AcDbLine
 10
87.2954
 20
120.2295
 30
0.0
 11
87.9417
 21
118.3955
 31
0.0
  0
LINE
  5
11C
330
1D
100
AcDbEntity
  8
0
100
AcDbLine
 10
87.056235025732
 20
120.742349880156
 30
0.0
 11
87.2954
 21
120.2295
 31
0.0
  0
LINE
  5
11D
330
1D
100
AcDbEntity
  8
0
100
AcDbLine
 10
78.51058308424
 20
126.795704072425
 30
0.0
 11
81.0746
 21
126.1695
 31
0.0
  0
LINE
  5
11E
330
1D
100
AcDbEntity
  8
0
100
AcDbLine
 10
81.0746
 20
126.1695
 30
0.0
 11
83.0296
 21
125.2675
 31
0.0
  0
LINE
  5
11F
330
1D
100
AcDbEntity
  8
0
100
AcDbLine
 10
83.0296
 20
125.2675
 30
0.0
 11
84.77757059101
 21
123.955400604268
 31
0.0
  0
LINE
  5
120
330
1D
100
AcDbEntity
  8
0
100
AcDbLine
 10
84.777570591009
 20
123.955400604269
 30
0.0
 11
86.1364
 21
122.3565
 31
0.0
  0
LINE
  5
121
330
1D
100
AcDbEntity
  8
0
100
AcDbLine
 10
88.1605
 20
136.7425
 30
0.0
 11
88.2121
 21
138.1115
 31
0.0
  0
LINE
  5
122
330
1D
100
AcDbEntity
  8
0
100
AcDbLine
 10
88.1605
 20
136.7425
 30
0.0
 11
88.1772
 21
134.6865
 31
0.0
  0
LINE
  5
123
330
1D
100
AcDbEntity
  8
0
100
AcDbLine
 10
88.2059
 20
132.9905
 30
0.0
 11
88.3031
 21
128.4125
 31
0.0
  0
LINE
  5
124
330
1D
100
AcDbEntity
  8
0
100
AcDbLine
 10
88.3031
 20
128.4125
 30
0.0
 11
88.3948
 21
125.4645
 31
0.0
  0
LINE
  5
125
330
1D
100
AcDbEntity
  8
0
100
AcDbLine
 10
88.3948
 20
125.4645
 30
0.0
 11
88.5061
 21
122.5255
 31
0.0
  0
LINE
  5
126
330
1D
100
AcDbEntity
  8
0
100
AcDbLine
 10
88.5061
 20
122.5255
 30
0.0
 11
88.6285
 21
119.5795
 31
0.0
  0
LINE
  5
128
330
1D
100
AcDbEntity
  8
0
100
AcDbLine
 10
88.1772
 20
134.6865
 30
0.0
 11
88.2059
 21
132.9905
 31
0.0
  0
LINE
  5
12A
330
1D
100
AcDbEntity
  8
0
100
AcDbLine
 10
88.2865
 20
139.4775
 30
0.0
 11
88.4308
 21
140.5475
 31
0.0
  0
LINE
  5
12C
330
1D
100
AcDbEntity
  8
0
100
AcDbLine
 10
90.4664
 20
145.2355
 30
0.0
 11
91.1961
 21
146.0165
 31
0.0
  0
LINE
  5
12D
330
1D
100
AcDbEntity
  8
0
100
AcDbLine
 10
90.0173
 20
144.6405
 30
0.0
 11
90.4664
 21
145.2355
 31
0.0
  0
LINE
  5
12E
330
1D
100
AcDbEntity
  8
0
100
AcDbLine
 10
89.4245
 20
143.6675
 30
0.0
 11
90.0173
 21
144.6405
 31
0.0
  0
LINE
  5
12F
330
1D
100
AcDbEntity
  8
0
100
AcDbLine
 10
92.9181
 20
147.3245
 30
0.0
 11
93.8733
 21
147.8495
 31
0.0
  0
LINE
  5
130
330
1D
100
AcDbEntity
  8
0
100
AcDbLine
 10
92.0158
 20
146.7115
 30
0.0
 11
92.9181
 21
147.3245
 31
0.0
  0
LINE
  5
131
330
1D
100
AcDbEntity
  8
0
100
AcDbLine
 10
91.1961
 20
146.0165
 30
0.0
 11
92.0158
 21
146.7115
 31
0.0
  0
LINE
  5
138
330
1D
100
AcDbEntity
  8
0
100
AcDbLine
 10
94.9627
 20
148.3375
 30
0.0
 11
96.079
 21
148.7475
 31
0.0
  0
LINE
  5
139
330
1D
100
AcDbEntity
  8
0
100
AcDbLine
 10
104.024
 20
150.4055
 30
0.0
 11
106.09
 21
150.5925
 31
0.0
  0
LINE
  5
13A
330
1D
100
AcDbEntity
  8
0
100
AcDbLine
 10
101.966
 20
150.1335
 30
0.0
 11
104.024
 21
150.4055
 31
0.0
  0
LINE
  5
13B
330
1D
100
AcDbEntity
  8
0
100
AcDbLine
 10
99.659
 20
149.7105
 30
0.0
 11
101.966
 21
150.1335
 31
0.0
  0
LINE
  5
13C
330
1D
100
AcDbEntity
  8
0
100
AcDbLine
 10
106.09
 20
150.5925
 30
0.0
 11
108.162
 21
150.7025
 31
0.0
  0
LINE
  5
13D
330
1D
100
AcDbEntity
  8
0
100
AcDbLine
 10
98.5162
 20
149.4485
 30
0.0
 11
99.659
 21
149.7105
 31
0.0
  0
LINE
  5
13E
330
1D
100
AcDbEntity
  8
0
100
AcDbLine
 10
108.162
 20
150.7025
 30
0.0
 11
110.5
 21
150.7425
 31
0.0
  0
LINE
  5
13F
330
1D
100
AcDbEntity
  8
0
100
AcDbLine
 10
97.0897
 20
149.0635
 30
0.0
 11
98.5162
 21
149.4485
 31
0.0
  0
LINE
  5
140
330
1D
100
AcDbEntity
  8
0
100
AcDbLine
 10
96.079
 20
148.7475
 30
0.0
 11
97.0897
 21
149.0635
 31
0.0
  0
LINE
  5
141
330
1D
100
AcDbEntity
  8
0
100
AcDbLine
 10
93.8733
 20
147.8495
 30
0.0
 11
94.9627
 21
148.3375
 31
0.0
  0
LINE
  5
142
330
1D
100
AcDbEntity
  8
0
100
AcDbLine
 10
88.9331
 20
142.5035
 30
0.0
 11
89.4245
 21
143.6675
 31
0.0
  0
LINE
  5
143
330
1D
100
AcDbEntity
  8
0
100
AcDbLine
 10
88.6385
 20
141.5315
 30
0.0
 11
88.9331
 21
142.5035
 31
0.0
  0
LINE
  5
144
330
1D
100
AcDbEntity
  8
0
100
AcDbLine
 10
88.4308
 20
140.5475
 30
0.0
 11
88.6385
 21
141.5315
 31
0.0
  0
LINE
  5
145
330
1D
100
AcDbEntity
  8
0
100
AcDbLine
 10
88.2121
 20
138.1115
 30
0.0
 11
88.2865
 21
139.4775
 31
0.0
  0
LINE
  5
146
330
1D
100
AcDbEntity
  8
0
100
AcDbLine
 10
86.1364
 20
122.3565
 30
0.0
 11
86.490190371268
 21
121.79911108284
 31
0.0
  0
LINE
  5
147
330
1D
100
AcDbEntity
  8
0
100
AcDbLine
 10
86.490190371268
 20
121.79911108284
 30
0.0
 11
87.056235025733
 21
120.742349880154
 31
0.0
  0
LINE
  5
149
330
1D
100
AcDbEntity
  8
0
100
AcDbLine
 10
100.733
 20
153.6755
 30
0.0
 11
110.499
 21
153.6755
 31
0.0
  0
LINE
  5
17E
330
1D
100
AcDbEntity
  8
0
100
AcDbLine
 10
88.4309
 20
116.1585
 30
0.0
 11
88.6862
 21
114.1625
 31
0.0
  0
LINE
  5
188
330
1D
100
AcDbEntity
  8
0
100
AcDbLine
 10
106.564
 20
-0.1335
 30
0.0
 11
110.5
 21
-0.1755
 31
0.0
  0
LINE
  5
1EE
330
1D
100
AcDbEntity
  8
0
100
AcDbLine
 10
51.977
 20
157.1685
 30
0.0
 11
52.0
 21
170.1755
 31
0.0
  0
LINE
  5
1EF
330
1D
100
AcDbEntity
  8
0
100
AcDbLine
 10
51.927
 20
170.1755
 30
0.0
 11
52.0
 21
170.1755
 31
0.0
  0
LINE
  5
1F0
330
1D
100
AcDbEntity
  8
0
100
AcDbLine
 10
51.63791025641
 20
172.854012820513
 30
0.0
 11
70.111
 21
191.2965
 31
0.0
  0
LINE
  5
1F1
330
1D
100
AcDbEntity
  8
0
100
AcDbLine
 10
50.977
 20
172.2885
 30
0.0
 11
51.399
 21
172.6145
 31
0.0
  0
LINE
  5
1F2
330
1D
100
AcDbEntity
  8
0
100
AcDbLine
 10
63.924
 20
197.1755
 30
0.0
 11
65.817
 21
197.1755
 31
0.0
  0
LINE
  5
1F3
330
1D
100
AcDbEntity
  8
0
100
AcDbLine
 10
61.773
 20
197.1755
 30
0.0
 11
63.924
 21
197.1755
 31
0.0
  0
LINE
  5
1F4
330
1D
100
AcDbEntity
  8
0
100
AcDbLine
 10
59.385
 20
197.1755
 30
0.0
 11
61.773
 21
197.1755
 31
0.0
  0
LINE
  5
1F5
330
1D
100
AcDbEntity
  8
0
100
AcDbLine
 10
56.78
 20
197.1755
 30
0.0
 11
59.385
 21
197.1755
 31
0.0
  0
LINE
  5
1F6
330
1D
100
AcDbEntity
  8
0
100
AcDbLine
 10
53.982
 20
197.1755
 30
0.0
 11
56.78
 21
197.1755
 31
0.0
  0
LINE
  5
1F7
330
1D
100
AcDbEntity
  8
0
100
AcDbLine
 10
51.018
 20
197.1755
 30
0.0
 11
53.982
 21
197.1755
 31
0.0
  0
LINE
  5
1F8
330
1D
100
AcDbEntity
  8
0
100
AcDbLine
 10
47.913
 20
197.1755
 30
0.0
 11
51.018
 21
197.1755
 31
0.0
  0
LINE
  5
1F9
330
1D
100
AcDbEntity
  8
0
100
AcDbLine
 10
44.695
 20
197.1755
 30
0.0
 11
47.913
 21
197.1755
 31
0.0
  0
LINE
  5
1FA
330
1D
100
AcDbEntity
  8
0
100
AcDbLine
 10
41.394
 20
197.1755
 30
0.0
 11
44.695
 21
197.1755
 31
0.0
  0
LINE
  5
1FB
330
1D
100
AcDbEntity
  8
0
100
AcDbLine
 10
38.039
 20
197.1755
 30
0.0
 11
41.394
 21
197.1755
 31
0.0
  0
LINE
  5
1FC
330
1D
100
AcDbEntity
  8
0
100
AcDbLine
 10
34.662
 20
197.1755
 30
0.0
 11
38.039
 21
197.1755
 31
0.0
  0
LINE
  5
1FD
330
1D
100
AcDbEntity
  8
0
100
AcDbLine
 10
51.63791025641
 20
172.854012820513
 30
0.0
 11
70.111
 21
191.2965
 31
0.0
  0
LINE
  5
1FE
330
1D
100
AcDbEntity
  8
0
100
AcDbLine
 10
67.435
 20
197.1755
 30
0.0
 11
68.764
 21
197.1755
 31
0.0
  0
LINE
  5
1FF
330
1D
100
AcDbEntity
  8
0
100
AcDbLine
 10
70.588
 20
191.9185
 30
0.0
 11
70.888
 21
192.6415
 31
0.0
  0
LINE
  5
200
330
1D
100
AcDbEntity
  8
0
100
AcDbLine
 10
70.111
 20
191.2965
 30
0.0
 11
70.588
 21
191.9185
 31
0.0
  0
LINE
  5
201
330
1D
100
AcDbEntity
  8
0
100
AcDbLine
 10
70.51
 20
197.1755
 30
0.0
 11
70.91
 21
197.1755
 31
0.0
  0
LINE
  5
202
330
1D
100
AcDbEntity
  8
0
100
AcDbLine
 10
70.888
 20
192.6415
 30
0.0
 11
70.99
 21
193.4185
 31
0.0
  0
LINE
  5
235
330
1D
100
AcDbEntity
  8
0
100
AcDbLine
 10
70.99
 20
193.4185
 30
0.0
 11
70.99
 21
197.1755
 31
0.0
  0
LINE
  5
236
330
1D
100
AcDbEntity
  8
0
100
AcDbLine
 10
70.91
 20
197.1755
 30
0.0
 11
70.99
 21
197.1755
 31
0.0
  0
LINE
  5
237
330
1D
100
AcDbEntity
  8
0
100
AcDbLine
 10
70.99
 20
197.1755
 30
0.0
 11
70.99
 21
193.4185
 31
0.0
  0
LINE
  5
238
330
1D
100
AcDbEntity
  8
0
100
AcDbLine
 10
69.792
 20
197.1755
 30
0.0
 11
70.51
 21
197.1755
 31
0.0
  0
LINE
  5
239
330
1D
100
AcDbEntity
  8
0
100
AcDbLine
 10
68.764
 20
197.1755
 30
0.0
 11
69.792
 21
197.1755
 31
0.0
  0
LINE
  5
23A
330
1D
100
AcDbEntity
  8
0
100
AcDbLine
 10
65.817
 20
197.1755
 30
0.0
 11
67.435
 21
197.1755
 31
0.0
  0
LINE
  5
264
330
1D
100
AcDbEntity
  8
0
100
AcDbLine
 10
22.714486725664
 20
172.1675
 30
0.0
 11
49.391894389439
 21
172.1675
 31
0.0
  0
LINE
  5
265
330
1D
100
AcDbEntity
  8
0
100
AcDbLine
 10
51.399
 20
172.6145
 30
0.0
 11
51.63791025641
 21
172.854012820513
 31
0.0
  0
LINE
  5
266
330
1D
100
AcDbEntity
  8
0
100
AcDbLine
 10
20.534298507463
 20
172.211231343284
 30
0.0
 11
20.728
 21
172.1755
 31
0.0
  0
LINE
  5
267
330
1D
100
AcDbEntity
  8
0
100
AcDbLine
 10
112.838
 20
150.7025
 30
0.0
 11
110.5
 21
150.7425
 31
0.0
  0
LINE
  5
268
330
1D
100
AcDbEntity
  8
0
100
AcDbLine
 10
114.436
 20
-0.1335
 30
0.0
 11
110.5
 21
-0.1755
 31
0.0
  0
LINE
  5
269
330
1D
100
AcDbEntity
  8
0
100
AcDbLine
 10
132.1679
 20
111.8665
 30
0.0
 11
132.0793
 21
107.9015
 31
0.0
  0
LINE
  5
26A
330
1D
100
AcDbEntity
  8
0
100
AcDbLine
 10
132.27876607163
 20
117.336501635167
 30
0.0
 11
131.6515
 21
97.4445
 31
0.0
  0
LINE
  5
26B
330
1D
100
AcDbEntity
  8
0
100
AcDbLine
 10
131.6244
 20
64.7733
 30
0.0
 11
131.1554
 21
22.0495
 31
0.0
  0
LINE
  5
26C
330
1D
100
AcDbEntity
  8
0
100
AcDbLine
 10
131.1208
 20
19.5885
 30
0.0
 11
131.0993
 21
18.3665
 31
0.0
  0
LINE
  5
26D
330
1D
100
AcDbEntity
  8
0
100
AcDbLine
 10
131.1554
 20
22.0495
 30
0.0
 11
131.1208
 21
19.5885
 31
0.0
  0
LINE
  5
26E
330
1D
100
AcDbEntity
  8
0
100
AcDbLine
 10
127.5235
 20
3.2625
 30
0.0
 11
126.0476
 21
2.0435
 31
0.0
  0
LINE
  5
26F
330
1D
100
AcDbEntity
  8
0
100
AcDbLine
 10
122.4272
 20
0.5965
 30
0.0
 11
121.114
 21
0.3455
 31
0.0
  0
LINE
  5
270
330
1D
100
AcDbEntity
  8
0
100
AcDbLine
 10
126.0006
 20
2.0145
 30
0.0
 11
124.2352
 21
1.1755
 31
0.0
  0
LINE
  5
271
330
1D
100
AcDbEntity
  8
0
100
AcDbLine
 10
124.2352
 20
1.1755
 30
0.0
 11
122.4272
 21
0.5965
 31
0.0
  0
LINE
  5
272
330
1D
100
AcDbEntity
  8
0
100
AcDbLine
 10
126.0476
 20
2.0435
 30
0.0
 11
126.0006
 21
2.0145
 31
0.0
  0
LINE
  5
273
330
1D
100
AcDbEntity
  8
0
100
AcDbLine
 10
121.114
 20
0.3455
 30
0.0
 11
114.436
 21
-0.1335
 31
0.0
  0
LINE
  5
274
330
1D
100
AcDbEntity
  8
0
100
AcDbLine
 10
128.7545
 20
4.9545
 30
0.0
 11
127.5235
 21
3.2625
 31
0.0
  0
LINE
  5
275
330
1D
100
AcDbEntity
  8
0
100
AcDbLine
 10
130.9883
 20
15.1665
 30
0.0
 11
130.735
 21
12.0625
 31
0.0
  0
LINE
  5
276
330
1D
100
AcDbEntity
  8
0
100
AcDbLine
 10
130.735
 20
12.0625
 30
0.0
 11
130.306273936862
 21
9.48247276427
 31
0.0
  0
LINE
  5
277
330
1D
100
AcDbEntity
  8
0
100
AcDbLine
 10
130.735
 20
12.0625
 30
0.0
 11
130.306273936862
 21
9.48247276427
 31
0.0
  0
LINE
  5
278
330
1D
100
AcDbEntity
  8
0
100
AcDbLine
 10
129.635
 20
6.9115
 30
0.0
 11
128.7545
 21
4.9545
 31
0.0
  0
LINE
  5
279
330
1D
100
AcDbEntity
  8
0
100
AcDbLine
 10
131.0993
 20
18.3665
 30
0.0
 11
130.9883
 21
15.1665
 31
0.0
  0
LINE
  5
27A
330
1D
100
AcDbEntity
  8
0
100
AcDbLine
 10
130.306273936862
 20
9.48247276427
 30
0.0
 11
129.635
 21
6.9115
 31
0.0
  0
LINE
  5
27B
330
1D
100
AcDbEntity
  8
0
100
AcDbLine
 10
131.3902
 20
90.0957
 30
0.0
 11
131.0857
 21
82.6749
 31
0.0
  0
LINE
  5
27C
330
1D
100
AcDbEntity
  8
0
100
AcDbLine
 10
131.9307
 20
93.3066
 30
0.0
 11
131.6244
 21
64.7733
 31
0.0
  0
LINE
  5
27D
330
1D
100
AcDbEntity
  8
0
100
AcDbLine
 10
124.515
 20
62.7514
 30
0.0
 11
123.7321
 21
62.4493
 31
0.0
  0
LINE
  5
27E
330
1D
100
AcDbEntity
  8
0
100
AcDbLine
 10
131.0857
 20
82.6749
 30
0.0
 11
130.7021
 21
75.2119
 31
0.0
  0
LINE
  5
27F
330
1D
100
AcDbEntity
  8
0
100
AcDbLine
 10
130.5197
 20
72.6703
 30
0.0
 11
130.3669
 21
71.3999
 31
0.0
  0
LINE
  5
280
330
1D
100
AcDbEntity
  8
0
100
AcDbLine
 10
130.7021
 20
75.2119
 30
0.0
 11
130.5197
 21
72.6703
 31
0.0
  0
LINE
  5
281
330
1D
100
AcDbEntity
  8
0
100
AcDbLine
 10
128.7388
 20
66.3597
 30
0.0
 11
128.2896
 21
65.6816
 31
0.0
  0
LINE
  5
282
330
1D
100
AcDbEntity
  8
0
100
AcDbLine
 10
125.2597
 20
63.1035
 30
0.0
 11
124.515
 21
62.7514
 31
0.0
  0
LINE
  5
283
330
1D
100
AcDbEntity
  8
0
100
AcDbLine
 10
126.1867
 20
63.6557
 30
0.0
 11
125.2597
 21
63.1035
 31
0.0
  0
LINE
  5
284
330
1D
100
AcDbEntity
  8
0
100
AcDbLine
 10
127.0313
 20
64.3064
 30
0.0
 11
126.1867
 21
63.6557
 31
0.0
  0
LINE
  5
285
330
1D
100
AcDbEntity
  8
0
100
AcDbLine
 10
127.7722
 20
65.0364
 30
0.0
 11
127.0313
 21
64.3064
 31
0.0
  0
LINE
  5
286
330
1D
100
AcDbEntity
  8
0
100
AcDbLine
 10
129.362
 20
67.5555
 30
0.0
 11
128.7388
 21
66.3597
 31
0.0
  0
LINE
  5
287
330
1D
100
AcDbEntity
  8
0
100
AcDbLine
 10
130.0159
 20
69.5722
 30
0.0
 11
129.362
 21
67.5555
 31
0.0
  0
LINE
  5
288
330
1D
100
AcDbEntity
  8
0
100
AcDbLine
 10
130.3669
 20
71.3999
 30
0.0
 11
130.0159
 21
69.5722
 31
0.0
  0
LINE
  5
289
330
1D
100
AcDbEntity
  8
0
100
AcDbLine
 10
128.2896
 20
65.6816
 30
0.0
 11
127.7722
 21
65.0364
 31
0.0
  0
LINE
  5
28A
330
1D
100
AcDbEntity
  8
0
100
AcDbLine
 10
114.487
 20
61.1051
 30
0.0
 11
110.421
 21
60.9847
 31
0.0
  0
LINE
  5
28B
330
1D
100
AcDbEntity
  8
0
100
AcDbLine
 10
118.463
 20
61.4279
 30
0.0
 11
114.487
 21
61.1051
 31
0.0
  0
LINE
  5
28C
330
1D
100
AcDbEntity
  8
0
100
AcDbLine
 10
120.898
 20
61.7489
 30
0.0
 11
118.463
 21
61.4279
 31
0.0
  0
LINE
  5
28D
330
1D
100
AcDbEntity
  8
0
100
AcDbLine
 10
122.0673
 20
61.9791
 30
0.0
 11
120.898
 21
61.7489
 31
0.0
  0
LINE
  5
28E
330
1D
100
AcDbEntity
  8
0
100
AcDbLine
 10
123.7321
 20
62.4493
 30
0.0
 11
122.0673
 21
61.9791
 31
0.0
  0
LINE
  5
28F
330
1D
100
AcDbEntity
  8
0
100
AcDbLine
 10
131.6515
 20
97.4445
 30
0.0
 11
131.3902
 21
90.0957
 31
0.0
  0
LINE
  5
290
330
1D
100
AcDbEntity
  8
0
100
AcDbLine
 10
132.0793
 20
107.9015
 30
0.0
 11
131.9307
 21
93.3066
 31
0.0
  0
LINE
  5
291
330
1D
100
AcDbEntity
  8
0
100
AcDbLine
 10
187.0006
 20
153.6755
 30
0.0
 11
154.1416
 21
153.6755
 31
0.0
  0
LINE
  5
292
330
1D
100
AcDbEntity
  8
0
100
AcDbLine
 10
187.0001
 20
127.1705
 30
0.0
 11
150.2189
 21
127.1685
 31
0.0
  0
LINE
  5
293
330
1D
100
AcDbEntity
  8
0
100
AcDbLine
 10
169.36208974359
 20
172.854012820513
 30
0.0
 11
150.889
 21
191.2965
 31
0.0
  0
LINE
  5
294
330
1D
100
AcDbEntity
  8
0
100
AcDbLine
 10
167.018
 20
197.1755
 30
0.0
 11
164.22
 21
197.1755
 31
0.0
  0
LINE
  5
295
330
1D
100
AcDbEntity
  8
0
100
AcDbLine
 10
169.36208974359
 20
172.854012820513
 30
0.0
 11
150.889
 21
191.2965
 31
0.0
  0
LINE
  5
296
330
1D
100
AcDbEntity
  8
0
100
AcDbLine
 10
201.977
 20
157.1685
 30
0.0
 11
201.927
 21
170.1755
 31
0.0
  0
LINE
  5
297
330
1D
100
AcDbEntity
  8
0
100
AcDbLine
 10
169.023
 20
157.1685
 30
0.0
 11
169.0
 21
170.1755
 31
0.0
  0
LINE
  5
298
330
1D
100
AcDbEntity
  8
0
100
AcDbLine
 10
193.8793
 20
127.2625
 30
0.0
 11
187.0001
 21
127.1705
 31
0.0
  0
LINE
  5
299
330
1D
100
AcDbEntity
  8
0
100
AcDbLine
 10
195.1205
 20
153.6755
 30
0.0
 11
192.5463
 21
153.6755
 31
0.0
  0
LINE
  5
29A
330
1D
100
AcDbEntity
  8
0
100
AcDbLine
 10
194.945
 20
155.1755
 30
0.0
 11
193.115
 21
155.1755
 31
0.0
  0
LINE
  5
29B
330
1D
100
AcDbEntity
  8
0
100
AcDbLine
 10
193.75
 20
157.1755
 30
0.0
 11
192.374
 21
157.1755
 31
0.0
  0
LINE
  5
29C
330
1D
100
AcDbEntity
  8
0
100
AcDbLine
 10
204.0045
 20
129.3975
 30
0.0
 11
203.9985
 21
153.1755
 31
0.0
  0
LINE
  5
29D
330
1D
100
AcDbEntity
  8
0
100
AcDbLine
 10
204.0045
 20
129.3975
 30
0.0
 11
203.9064
 21
128.6715
 31
0.0
  0
LINE
  5
29E
330
1D
100
AcDbEntity
  8
0
100
AcDbLine
 10
203.9064
 20
128.6715
 30
0.0
 11
203.4461
 21
128.1395
 31
0.0
  0
LINE
  5
29F
330
1D
100
AcDbEntity
  8
0
100
AcDbLine
 10
202.7414
 20
127.9365
 30
0.0
 11
198.5063
 21
127.4685
 31
0.0
  0
LINE
  5
2A0
330
1D
100
AcDbEntity
  8
0
100
AcDbLine
 10
203.4461
 20
128.1395
 30
0.0
 11
202.7414
 21
127.9365
 31
0.0
  0
LINE
  5
2A1
330
1D
100
AcDbEntity
  8
0
100
AcDbLine
 10
198.5063
 20
127.4685
 30
0.0
 11
194.3255
 21
127.2435
 31
0.0
  0
LINE
  5
2A2
330
1D
100
AcDbEntity
  8
0
100
AcDbLine
 10
194.3255
 20
127.2435
 30
0.0
 11
193.8793
 21
127.2625
 31
0.0
  0
LINE
  5
2A3
330
1D
100
AcDbEntity
  8
0
100
AcDbLine
 10
201.143
 20
153.6755
 30
0.0
 11
199.4827
 21
153.6755
 31
0.0
  0
LINE
  5
2A4
330
1D
100
AcDbEntity
  8
0
100
AcDbLine
 10
200.48
 20
156.1515
 30
0.0
 11
198.736
 21
155.6655
 31
0.0
  0
LINE
  5
2A5
330
1D
100
AcDbEntity
  8
0
100
AcDbLine
 10
201.977
 20
157.1685
 30
0.0
 11
200.013
 21
155.1755
 31
0.0
  0
LINE
  5
2A6
330
1D
100
AcDbEntity
  8
0
100
AcDbLine
 10
203.9985
 20
153.1755
 30
0.0
 11
203.9315
 21
153.4255
 31
0.0
  0
LINE
  5
2A7
330
1D
100
AcDbEntity
  8
0
100
AcDbLine
 10
203.9315
 20
153.4255
 30
0.0
 11
203.7486
 21
153.6085
 31
0.0
  0
LINE
  5
2A8
330
1D
100
AcDbEntity
  8
0
100
AcDbLine
 10
203.7486
 20
153.6085
 30
0.0
 11
203.4986
 21
153.6755
 31
0.0
  0
LINE
  5
2A9
330
1D
100
AcDbEntity
  8
0
100
AcDbLine
 10
203.4986
 20
153.6755
 30
0.0
 11
203.1808
 21
153.6755
 31
0.0
  0
LINE
  5
2AA
330
1D
100
AcDbEntity
  8
0
100
AcDbLine
 10
202.389
 20
153.6755
 30
0.0
 11
201.143
 21
153.6755
 31
0.0
  0
LINE
  5
2AB
330
1D
100
AcDbEntity
  8
0
100
AcDbLine
 10
203.1808
 20
153.6755
 30
0.0
 11
202.389
 21
153.6755
 31
0.0
  0
LINE
  5
2AC
330
1D
100
AcDbEntity
  8
0
100
AcDbLine
 10
201.927
 20
157.1755
 30
0.0
 11
200.48
 21
156.1515
 31
0.0
  0
LINE
  5
2AD
330
1D
100
AcDbEntity
  8
0
100
AcDbLine
 10
201.977
 20
157.1685
 30
0.0
 11
201.927
 21
157.1755
 31
0.0
  0
LINE
  5
2AE
330
1D
100
AcDbEntity
  8
0
100
AcDbLine
 10
199.4827
 20
153.6755
 30
0.0
 11
197.4534
 21
153.6755
 31
0.0
  0
LINE
  5
2AF
330
1D
100
AcDbEntity
  8
0
100
AcDbLine
 10
199.392
 20
155.1755
 30
0.0
 11
198.589
 21
155.1755
 31
0.0
  0
LINE
  5
2B0
330
1D
100
AcDbEntity
  8
0
100
AcDbLine
 10
199.788
 20
155.1755
 30
0.0
 11
199.181
 21
155.1755
 31
0.0
  0
LINE
  5
2B1
330
1D
100
AcDbEntity
  8
0
100
AcDbLine
 10
199.75
 20
155.1755
 30
0.0
 11
199.392
 21
155.1755
 31
0.0
  0
LINE
  5
2B2
330
1D
100
AcDbEntity
  8
0
100
AcDbLine
 10
200.013
 20
155.1755
 30
0.0
 11
199.788
 21
155.1755
 31
0.0
  0
LINE
  5
2B3
330
1D
100
AcDbEntity
  8
0
100
AcDbLine
 10
200.013
 20
155.1755
 30
0.0
 11
199.75
 21
155.1755
 31
0.0
  0
LINE
  5
2B4
330
1D
100
AcDbEntity
  8
0
100
AcDbLine
 10
198.736
 20
155.6655
 30
0.0
 11
196.635
 21
156.0495
 31
0.0
  0
LINE
  5
2B5
330
1D
100
AcDbEntity
  8
0
100
AcDbLine
 10
199.181
 20
155.1755
 30
0.0
 11
198.604
 21
155.1755
 31
0.0
  0
LINE
  5
2B6
330
1D
100
AcDbEntity
  8
0
100
AcDbLine
 10
197.4534
 20
153.6755
 30
0.0
 11
195.1205
 21
153.6755
 31
0.0
  0
LINE
  5
2B7
330
1D
100
AcDbEntity
  8
0
100
AcDbLine
 10
195.743
 20
155.1755
 30
0.0
 11
195.743
 21
153.6755
 31
0.0
  0
LINE
  5
2B8
330
1D
100
AcDbEntity
  8
0
100
AcDbLine
 10
195.743
 20
153.6755
 30
0.0
 11
195.743
 21
155.1755
 31
0.0
  0
LINE
  5
2B9
330
1D
100
AcDbEntity
  8
0
100
AcDbLine
 10
196.044
 20
155.1755
 30
0.0
 11
194.945
 21
155.1755
 31
0.0
  0
LINE
  5
2BA
330
1D
100
AcDbEntity
  8
0
100
AcDbLine
 10
196.999
 20
155.1755
 30
0.0
 11
195.743
 21
155.1755
 31
0.0
  0
LINE
  5
2BB
330
1D
100
AcDbEntity
  8
0
100
AcDbLine
 10
197.026
 20
155.1755
 30
0.0
 11
196.044
 21
155.1755
 31
0.0
  0
LINE
  5
2BC
330
1D
100
AcDbEntity
  8
0
100
AcDbLine
 10
198.589
 20
155.1755
 30
0.0
 11
196.999
 21
155.1755
 31
0.0
  0
LINE
  5
2BD
330
1D
100
AcDbEntity
  8
0
100
AcDbLine
 10
196.635
 20
156.0495
 30
0.0
 11
195.053
 21
157.1755
 31
0.0
  0
LINE
  5
2BE
330
1D
100
AcDbEntity
  8
0
100
AcDbLine
 10
197.883
 20
155.1755
 30
0.0
 11
197.026
 21
155.1755
 31
0.0
  0
LINE
  5
2BF
330
1D
100
AcDbEntity
  8
0
100
AcDbLine
 10
198.604
 20
155.1755
 30
0.0
 11
197.883
 21
155.1755
 31
0.0
  0
LINE
  5
2C0
330
1D
100
AcDbEntity
  8
0
100
AcDbLine
 10
195.053
 20
157.1755
 30
0.0
 11
193.75
 21
157.1755
 31
0.0
  0
LINE
  5
2C1
330
1D
100
AcDbEntity
  8
0
100
AcDbLine
 10
180.695
 20
155.1755
 30
0.0
 11
179.291
 21
155.1755
 31
0.0
  0
LINE
  5
2C2
330
1D
100
AcDbEntity
  8
0
100
AcDbLine
 10
181.516
 20
156.1785
 30
0.0
 11
178.626
 21
157.1755
 31
0.0
  0
LINE
  5
2C3
330
1D
100
AcDbEntity
  8
0
100
AcDbLine
 10
192.5463
 20
153.6755
 30
0.0
 11
189.8148
 21
153.6755
 31
0.0
  0
LINE
  5
2C4
330
1D
100
AcDbEntity
  8
0
100
AcDbLine
 10
189.8148
 20
153.6755
 30
0.0
 11
187.0006
 21
153.6755
 31
0.0
  0
LINE
  5
2C5
330
1D
100
AcDbEntity
  8
0
100
AcDbLine
 10
190.399
 20
155.1755
 30
0.0
 11
187.408
 21
155.1755
 31
0.0
  0
LINE
  5
2C6
330
1D
100
AcDbEntity
  8
0
100
AcDbLine
 10
193.115
 20
155.1755
 30
0.0
 11
190.399
 21
155.1755
 31
0.0
  0
LINE
  5
2C7
330
1D
100
AcDbEntity
  8
0
100
AcDbLine
 10
190.862
 20
156.6055
 30
0.0
 11
188.747
 21
156.0065
 31
0.0
  0
LINE
  5
2C8
330
1D
100
AcDbEntity
  8
0
100
AcDbLine
 10
188.747
 20
156.0065
 30
0.0
 11
185.995
 21
155.6655
 31
0.0
  0
LINE
  5
2C9
330
1D
100
AcDbEntity
  8
0
100
AcDbLine
 10
192.374
 20
157.1755
 30
0.0
 11
190.862
 21
156.6055
 31
0.0
  0
LINE
  5
2CA
330
1D
100
AcDbEntity
  8
0
100
AcDbLine
 10
185.158
 20
155.1755
 30
0.0
 11
182.883
 21
155.1755
 31
0.0
  0
LINE
  5
2CB
330
1D
100
AcDbEntity
  8
0
100
AcDbLine
 10
187.408
 20
155.1755
 30
0.0
 11
185.158
 21
155.1755
 31
0.0
  0
LINE
  5
2CC
330
1D
100
AcDbEntity
  8
0
100
AcDbLine
 10
183.758
 20
155.7765
 30
0.0
 11
181.516
 21
156.1785
 31
0.0
  0
LINE
  5
2CD
330
1D
100
AcDbEntity
  8
0
100
AcDbLine
 10
185.995
 20
155.6655
 30
0.0
 11
183.758
 21
155.7765
 31
0.0
  0
LINE
  5
2CE
330
1D
100
AcDbEntity
  8
0
100
AcDbLine
 10
182.883
 20
155.1755
 30
0.0
 11
180.695
 21
155.1755
 31
0.0
  0
LINE
  5
2CF
330
1D
100
AcDbEntity
  8
0
100
AcDbLine
 10
172.723
 20
155.1755
 30
0.0
 11
171.819
 21
155.1755
 31
0.0
  0
LINE
  5
2D0
330
1D
100
AcDbEntity
  8
0
100
AcDbLine
 10
172.775
 20
155.1755
 30
0.0
 11
172.118
 21
155.1755
 31
0.0
  0
LINE
  5
2D1
330
1D
100
AcDbEntity
  8
0
100
AcDbLine
 10
173.014
 20
155.7095
 30
0.0
 11
171.606
 21
155.7375
 31
0.0
  0
LINE
  5
2D2
330
1D
100
AcDbEntity
  8
0
100
AcDbLine
 10
179.291
 20
155.1755
 30
0.0
 11
177.321
 21
155.1755
 31
0.0
  0
LINE
  5
2D3
330
1D
100
AcDbEntity
  8
0
100
AcDbLine
 10
175.2816
 20
153.6755
 30
0.0
 11
175.2714
 21
155.1755
 31
0.0
  0
LINE
  5
2D4
330
1D
100
AcDbEntity
  8
0
100
AcDbLine
 10
175.546
 20
155.1755
 30
0.0
 11
174.498
 21
155.1755
 31
0.0
  0
LINE
  5
2D5
330
1D
100
AcDbEntity
  8
0
100
AcDbLine
 10
177.321
 20
155.1755
 30
0.0
 11
175.546
 21
155.1755
 31
0.0
  0
LINE
  5
2D6
330
1D
100
AcDbEntity
  8
0
100
AcDbLine
 10
175.2714
 20
155.1755
 30
0.0
 11
174.465
 21
155.1755
 31
0.0
  0
LINE
  5
2D7
330
1D
100
AcDbEntity
  8
0
100
AcDbLine
 10
174.412
 20
156.1505
 30
0.0
 11
173.703
 21
155.8645
 31
0.0
  0
LINE
  5
2D8
330
1D
100
AcDbEntity
  8
0
100
AcDbLine
 10
174.465
 20
155.1755
 30
0.0
 11
172.723
 21
155.1755
 31
0.0
  0
LINE
  5
2D9
330
1D
100
AcDbEntity
  8
0
100
AcDbLine
 10
174.498
 20
155.1755
 30
0.0
 11
173.572
 21
155.1755
 31
0.0
  0
LINE
  5
2DA
330
1D
100
AcDbEntity
  8
0
100
AcDbLine
 10
178.626
 20
157.1755
 30
0.0
 11
177.25
 21
157.1755
 31
0.0
  0
LINE
  5
2DB
330
1D
100
AcDbEntity
  8
0
100
AcDbLine
 10
175.946
 20
157.1755
 30
0.0
 11
175.151
 21
156.5785
 31
0.0
  0
LINE
  5
2DC
330
1D
100
AcDbEntity
  8
0
100
AcDbLine
 10
177.25
 20
157.1755
 30
0.0
 11
175.946
 21
157.1755
 31
0.0
  0
LINE
  5
2DD
330
1D
100
AcDbEntity
  8
0
100
AcDbLine
 10
175.151
 20
156.5785
 30
0.0
 11
174.412
 21
156.1505
 31
0.0
  0
LINE
  5
2DE
330
1D
100
AcDbEntity
  8
0
100
AcDbLine
 10
173.572
 20
155.1755
 30
0.0
 11
172.775
 21
155.1755
 31
0.0
  0
LINE
  5
2DF
330
1D
100
AcDbEntity
  8
0
100
AcDbLine
 10
173.703
 20
155.8645
 30
0.0
 11
173.014
 21
155.7095
 31
0.0
  0
LINE
  5
2E0
330
1D
100
AcDbEntity
  8
0
100
AcDbLine
 10
171.004
 20
155.1755
 30
0.0
 11
169.023
 21
157.1685
 31
0.0
  0
LINE
  5
2E1
330
1D
100
AcDbEntity
  8
0
100
AcDbLine
 10
171.213
 20
155.1755
 30
0.0
 11
171.004
 21
155.1755
 31
0.0
  0
LINE
  5
2E2
330
1D
100
AcDbEntity
  8
0
100
AcDbLine
 10
171.819
 20
155.1755
 30
0.0
 11
171.213
 21
155.1755
 31
0.0
  0
LINE
  5
2E3
330
1D
100
AcDbEntity
  8
0
100
AcDbLine
 10
171.193
 20
155.1755
 30
0.0
 11
171.004
 21
155.1755
 31
0.0
  0
LINE
  5
2E4
330
1D
100
AcDbEntity
  8
0
100
AcDbLine
 10
172.118
 20
155.1755
 30
0.0
 11
171.193
 21
155.1755
 31
0.0
  0
LINE
  5
2E5
330
1D
100
AcDbEntity
  8
0
100
AcDbLine
 10
171.606
 20
155.7375
 30
0.0
 11
169.023
 21
157.1685
 31
0.0
  0
LINE
  5
2E6
330
1D
100
AcDbEntity
  8
0
100
AcDbLine
 10
193.75
 20
170.1755
 30
0.0
 11
192.366
 21
170.1895
 31
0.0
  0
LINE
  5
2E7
330
1D
100
AcDbEntity
  8
0
100
AcDbLine
 10
196.302
 20
197.1755
 30
0.0
 11
193.039
 21
197.1755
 31
0.0
  0
LINE
  5
2E8
330
1D
100
AcDbEntity
  8
0
100
AcDbLine
 10
198.285513274336
 20
172.1675
 30
0.0
 11
171.608105610561
 21
172.1675
 31
0.0
  0
LINE
  5
2E9
330
1D
100
AcDbEntity
  8
0
100
AcDbLine
 10
220.99
 20
193.4185
 30
0.0
 11
220.888
 21
192.6415
 31
0.0
  0
LINE
  5
2EA
330
1D
100
AcDbEntity
  8
0
100
AcDbLine
 10
220.888
 20
192.6415
 30
0.0
 11
220.588
 21
191.9185
 31
0.0
  0
LINE
  5
2EB
330
1D
100
AcDbEntity
  8
0
100
AcDbLine
 10
220.111
 20
191.2965
 30
0.0
 11
201.398
 21
172.6145
 31
0.0
  0
LINE
  5
2EC
330
1D
100
AcDbEntity
  8
0
100
AcDbLine
 10
220.111
 20
191.2965
 30
0.0
 11
201.398
 21
172.6145
 31
0.0
  0
LINE
  5
2ED
330
1D
100
AcDbEntity
  8
0
100
AcDbLine
 10
220.588
 20
191.9185
 30
0.0
 11
220.111
 21
191.2965
 31
0.0
  0
LINE
  5
2EE
330
1D
100
AcDbEntity
  8
0
100
AcDbLine
 10
200.936
 20
172.2895
 30
0.0
 11
200.465701492537
 21
172.211231343284
 31
0.0
  0
LINE
  5
2EF
330
1D
100
AcDbEntity
  8
0
100
AcDbLine
 10
201.399
 20
172.6145
 30
0.0
 11
200.936
 21
172.2895
 31
0.0
  0
LINE
  5
2F0
330
1D
100
AcDbEntity
  8
0
100
AcDbLine
 10
201.927
 20
170.1755
 30
0.0
 11
200.521
 21
171.1165
 31
0.0
  0
LINE
  5
2F1
330
1D
100
AcDbEntity
  8
0
100
AcDbLine
 10
201.927
 20
170.1755
 30
0.0
 11
199.975817578224
 21
172.173638680774
 31
0.0
  0
LINE
  5
2F2
330
1D
100
AcDbEntity
  8
0
100
AcDbLine
 10
195.053
 20
170.1755
 30
0.0
 11
193.75
 21
170.1755
 31
0.0
  0
LINE
  5
2F3
330
1D
100
AcDbEntity
  8
0
100
AcDbLine
 10
200.521
 20
171.1165
 30
0.0
 11
198.647
 21
171.7235
 31
0.0
  0
LINE
  5
2F4
330
1D
100
AcDbEntity
  8
0
100
AcDbLine
 10
198.999
 20
172.1675
 30
0.0
 11
198.285513274336
 21
172.1675
 31
0.0
  0
LINE
  5
2F5
330
1D
100
AcDbEntity
  8
0
100
AcDbLine
 10
198.999
 20
172.1675
 30
0.0
 11
198.285513274336
 21
172.1675
 31
0.0
  0
LINE
  5
2F6
330
1D
100
AcDbEntity
  8
0
100
AcDbLine
 10
200.272
 20
172.1755
 30
0.0
 11
198.999
 21
172.1675
 31
0.0
  0
LINE
  5
2F7
330
1D
100
AcDbEntity
  8
0
100
AcDbLine
 10
196.865
 20
171.3125
 30
0.0
 11
195.053
 21
170.1755
 31
0.0
  0
LINE
  5
2F8
330
1D
100
AcDbEntity
  8
0
100
AcDbLine
 10
198.647
 20
171.7235
 30
0.0
 11
196.865
 21
171.3125
 31
0.0
  0
LINE
  5
2F9
330
1D
100
AcDbEntity
  8
0
100
AcDbLine
 10
200.465701492537
 20
172.211231343284
 30
0.0
 11
200.272
 21
172.1755
 31
0.0
  0
LINE
  5
2FA
330
1D
100
AcDbEntity
  8
0
100
AcDbLine
 10
220.99
 20
193.4185
 30
0.0
 11
220.99
 21
197.1755
 31
0.0
  0
LINE
  5
2FB
330
1D
100
AcDbEntity
  8
0
100
AcDbLine
 10
216.654
 20
197.1755
 30
0.0
 11
214.895
 21
197.1755
 31
0.0
  0
LINE
  5
2FC
330
1D
100
AcDbEntity
  8
0
100
AcDbLine
 10
218.131
 20
197.1755
 30
0.0
 11
216.654
 21
197.1755
 31
0.0
  0
LINE
  5
2FD
330
1D
100
AcDbEntity
  8
0
100
AcDbLine
 10
219.312
 20
197.1755
 30
0.0
 11
218.131
 21
197.1755
 31
0.0
  0
LINE
  5
2FE
330
1D
100
AcDbEntity
  8
0
100
AcDbLine
 10
210.598
 20
197.1755
 30
0.0
 11
208.097
 21
197.1755
 31
0.0
  0
LINE
  5
2FF
330
1D
100
AcDbEntity
  8
0
100
AcDbLine
 10
202.507
 20
197.1755
 30
0.0
 11
199.468
 21
197.1755
 31
0.0
  0
LINE
  5
300
330
1D
100
AcDbEntity
  8
0
100
AcDbLine
 10
205.392
 20
197.1755
 30
0.0
 11
202.507
 21
197.1755
 31
0.0
  0
LINE
  5
301
330
1D
100
AcDbEntity
  8
0
100
AcDbLine
 10
208.097
 20
197.1755
 30
0.0
 11
205.392
 21
197.1755
 31
0.0
  0
LINE
  5
302
330
1D
100
AcDbEntity
  8
0
100
AcDbLine
 10
212.87
 20
197.1755
 30
0.0
 11
210.598
 21
197.1755
 31
0.0
  0
LINE
  5
303
330
1D
100
AcDbEntity
  8
0
100
AcDbLine
 10
214.895
 20
197.1755
 30
0.0
 11
212.87
 21
197.1755
 31
0.0
  0
LINE
  5
304
330
1D
100
AcDbEntity
  8
0
100
AcDbLine
 10
220.187
 20
197.1755
 30
0.0
 11
219.312
 21
197.1755
 31
0.0
  0
LINE
  5
305
330
1D
100
AcDbEntity
  8
0
100
AcDbLine
 10
220.748
 20
197.1755
 30
0.0
 11
220.187
 21
197.1755
 31
0.0
  0
LINE
  5
306
330
1D
100
AcDbEntity
  8
0
100
AcDbLine
 10
220.99
 20
197.1755
 30
0.0
 11
220.748
 21
197.1755
 31
0.0
  0
LINE
  5
307
330
1D
100
AcDbEntity
  8
0
100
AcDbLine
 10
220.99
 20
197.1755
 30
0.0
 11
220.99
 21
193.4185
 31
0.0
  0
LINE
  5
308
330
1D
100
AcDbEntity
  8
0
100
AcDbLine
 10
199.468
 20
197.1755
 30
0.0
 11
196.302
 21
197.1755
 31
0.0
  0
LINE
  5
309
330
1D
100
AcDbEntity
  8
0
100
AcDbLine
 10
180.725
 20
170.9485
 30
0.0
 11
178.626
 21
170.1755
 31
0.0
  0
LINE
  5
30A
330
1D
100
AcDbEntity
  8
0
100
AcDbLine
 10
192.366
 20
170.1895
 30
0.0
 11
189.579
 21
171.1475
 31
0.0
  0
LINE
  5
30B
330
1D
100
AcDbEntity
  8
0
100
AcDbLine
 10
189.579
 20
171.1475
 30
0.0
 11
186.551
 21
171.6585
 31
0.0
  0
LINE
  5
30C
330
1D
100
AcDbEntity
  8
0
100
AcDbLine
 10
186.551
 20
171.6585
 30
0.0
 11
183.577
 21
171.5695
 31
0.0
  0
LINE
  5
30D
330
1D
100
AcDbEntity
  8
0
100
AcDbLine
 10
183.577
 20
171.5695
 30
0.0
 11
180.725
 21
170.9485
 31
0.0
  0
LINE
  5
30E
330
1D
100
AcDbEntity
  8
0
100
AcDbLine
 10
178.626
 20
170.1755
 30
0.0
 11
177.25
 21
170.1755
 31
0.0
  0
LINE
  5
30F
330
1D
100
AcDbEntity
  8
0
100
AcDbLine
 10
177.25
 20
170.1755
 30
0.0
 11
175.946
 21
170.1755
 31
0.0
  0
LINE
  5
310
330
1D
100
AcDbEntity
  8
0
100
AcDbLine
 10
175.946
 20
170.1755
 30
0.0
 11
174.781
 21
170.9865
 31
0.0
  0
LINE
  5
311
330
1D
100
AcDbEntity
  8
0
100
AcDbLine
 10
174.781
 20
170.9865
 30
0.0
 11
172.996
 21
171.6865
 31
0.0
  0
LINE
  5
312
330
1D
100
AcDbEntity
  8
0
100
AcDbLine
 10
171.616
 20
171.5695
 30
0.0
 11
170.885
 21
171.3275
 31
0.0
  0
LINE
  5
313
330
1D
100
AcDbEntity
  8
0
100
AcDbLine
 10
171.608105610561
 20
172.1675
 30
0.0
 11
171.259
 21
172.1675
 31
0.0
  0
LINE
  5
314
330
1D
100
AcDbEntity
  8
0
100
AcDbLine
 10
171.259
 20
172.1675
 30
0.0
 11
170.659
 21
172.1755
 31
0.0
  0
LINE
  5
315
330
1D
100
AcDbEntity
  8
0
100
AcDbLine
 10
170.999451567064
 20
172.170960645772
 30
0.0
 11
169.0
 21
170.1755
 31
0.0
  0
LINE
  5
316
330
1D
100
AcDbEntity
  8
0
100
AcDbLine
 10
172.996
 20
171.6865
 30
0.0
 11
171.616
 21
171.5695
 31
0.0
  0
LINE
  5
317
330
1D
100
AcDbEntity
  8
0
100
AcDbLine
 10
170.659
 20
172.1755
 30
0.0
 11
170.023
 21
172.2885
 31
0.0
  0
LINE
  5
318
330
1D
100
AcDbEntity
  8
0
100
AcDbLine
 10
170.885
 20
171.3275
 30
0.0
 11
169.775
 21
170.7245
 31
0.0
  0
LINE
  5
319
330
1D
100
AcDbEntity
  8
0
100
AcDbLine
 10
169.775
 20
170.7245
 30
0.0
 11
169.073
 21
170.1755
 31
0.0
  0
LINE
  5
31A
330
1D
100
AcDbEntity
  8
0
100
AcDbLine
 10
169.073
 20
170.1755
 30
0.0
 11
169.0
 21
170.1755
 31
0.0
  0
LINE
  5
31B
330
1D
100
AcDbEntity
  8
0
100
AcDbLine
 10
170.023
 20
172.2885
 30
0.0
 11
169.601
 21
172.6145
 31
0.0
  0
LINE
  5
31C
330
1D
100
AcDbEntity
  8
0
100
AcDbLine
 10
169.601
 20
172.6145
 30
0.0
 11
169.36208974359
 21
172.854012820513
 31
0.0
  0
LINE
  5
31D
330
1D
100
AcDbEntity
  8
0
100
AcDbLine
 10
193.039
 20
197.1755
 30
0.0
 11
189.707
 21
197.1755
 31
0.0
  0
LINE
  5
31E
330
1D
100
AcDbEntity
  8
0
100
AcDbLine
 10
189.707
 20
197.1755
 30
0.0
 11
186.338
 21
197.1755
 31
0.0
  0
LINE
  5
31F
330
1D
100
AcDbEntity
  8
0
100
AcDbLine
 10
169.982
 20
197.1755
 30
0.0
 11
167.018
 21
197.1755
 31
0.0
  0
LINE
  5
320
330
1D
100
AcDbEntity
  8
0
100
AcDbLine
 10
173.087
 20
197.1755
 30
0.0
 11
169.982
 21
197.1755
 31
0.0
  0
LINE
  5
321
330
1D
100
AcDbEntity
  8
0
100
AcDbLine
 10
176.305
 20
197.1755
 30
0.0
 11
173.087
 21
197.1755
 31
0.0
  0
LINE
  5
322
330
1D
100
AcDbEntity
  8
0
100
AcDbLine
 10
179.606
 20
197.1755
 30
0.0
 11
176.305
 21
197.1755
 31
0.0
  0
LINE
  5
323
330
1D
100
AcDbEntity
  8
0
100
AcDbLine
 10
182.961
 20
197.1755
 30
0.0
 11
179.606
 21
197.1755
 31
0.0
  0
LINE
  5
324
330
1D
100
AcDbEntity
  8
0
100
AcDbLine
 10
186.338
 20
197.1755
 30
0.0
 11
182.961
 21
197.1755
 31
0.0
  0
LINE
  5
325
330
1D
100
AcDbEntity
  8
0
100
AcDbLine
 10
154.1416
 20
153.6755
 30
0.0
 11
120.267
 21
153.6755
 31
0.0
  0
LINE
  5
326
330
1D
100
AcDbEntity
  8
0
100
AcDbLine
 10
139.9254
 20
126.1695
 30
0.0
 11
137.9704
 21
125.2675
 31
0.0
  0
LINE
  5
327
330
1D
100
AcDbEntity
  8
0
100
AcDbLine
 10
144.3516
 20
127.0385
 30
0.0
 11
142.48941691576
 21
126.795704072425
 31
0.0
  0
LINE
  5
328
330
1D
100
AcDbEntity
  8
0
100
AcDbLine
 10
150.2189
 20
127.1685
 30
0.0
 11
146.2938
 21
127.1475
 31
0.0
  0
LINE
  5
329
330
1D
100
AcDbEntity
  8
0
100
AcDbLine
 10
146.2938
 20
127.1475
 30
0.0
 11
144.3516
 21
127.0385
 31
0.0
  0
LINE
  5
32A
330
1D
100
AcDbEntity
  8
0
100
AcDbLine
 10
142.48941691576
 20
126.795704072425
 30
0.0
 11
139.9254
 21
126.1695
 31
0.0
  0
LINE
  5
32B
330
1D
100
AcDbEntity
  8
0
100
AcDbLine
 10
132.8395
 20
136.7425
 30
0.0
 11
132.7879
 21
138.1115
 31
0.0
  0
LINE
  5
32C
330
1D
100
AcDbEntity
  8
0
100
AcDbLine
 10
132.3138
 20
114.1625
 30
0.0
 11
132.1679
 21
111.8665
 31
0.0
  0
LINE
  5
32D
330
1D
100
AcDbEntity
  8
0
100
AcDbLine
 10
132.3715
 20
119.5795
 30
0.0
 11
132.27876607163
 21
117.336501635167
 31
0.0
  0
LINE
  5
32E
330
1D
100
AcDbEntity
  8
0
100
AcDbLine
 10
133.0583
 20
118.3955
 30
0.0
 11
132.5691
 21
116.1585
 31
0.0
  0
LINE
  5
32F
330
1D
100
AcDbEntity
  8
0
100
AcDbLine
 10
133.7046
 20
120.2295
 30
0.0
 11
133.0583
 21
118.3955
 31
0.0
  0
LINE
  5
330
330
1D
100
AcDbEntity
  8
0
100
AcDbLine
 10
133.943764974268
 20
120.742349880156
 30
0.0
 11
133.7046
 21
120.2295
 31
0.0
  0
LINE
  5
331
330
1D
100
AcDbEntity
  8
0
100
AcDbLine
 10
137.9704
 20
125.2675
 30
0.0
 11
136.22242940899
 21
123.955400604268
 31
0.0
  0
LINE
  5
332
330
1D
100
AcDbEntity
  8
0
100
AcDbLine
 10
132.8395
 20
136.7425
 30
0.0
 11
132.8228
 21
134.6865
 31
0.0
  0
LINE
  5
333
330
1D
100
AcDbEntity
  8
0
100
AcDbLine
 10
132.7941
 20
132.9905
 30
0.0
 11
132.6969
 21
128.4125
 31
0.0
  0
LINE
  5
334
330
1D
100
AcDbEntity
  8
0
100
AcDbLine
 10
132.6969
 20
128.4125
 30
0.0
 11
132.6052
 21
125.4645
 31
0.0
  0
LINE
  5
335
330
1D
100
AcDbEntity
  8
0
100
AcDbLine
 10
132.6052
 20
125.4645
 30
0.0
 11
132.4939
 21
122.5255
 31
0.0
  0
LINE
  5
336
330
1D
100
AcDbEntity
  8
0
100
AcDbLine
 10
132.4939
 20
122.5255
 30
0.0
 11
132.3715
 21
119.5795
 31
0.0
  0
LINE
  5
337
330
1D
100
AcDbEntity
  8
0
100
AcDbLine
 10
132.8228
 20
134.6865
 30
0.0
 11
132.7941
 21
132.9905
 31
0.0
  0
LINE
  5
338
330
1D
100
AcDbEntity
  8
0
100
AcDbLine
 10
134.8636
 20
122.3565
 30
0.0
 11
134.509809628731
 21
121.79911108284
 31
0.0
  0
LINE
  5
339
330
1D
100
AcDbEntity
  8
0
100
AcDbLine
 10
132.5691
 20
116.1585
 30
0.0
 11
132.3138
 21
114.1625
 31
0.0
  0
LINE
  5
33A
330
1D
100
AcDbEntity
  8
0
100
AcDbLine
 10
134.509809628731
 20
121.79911108284
 30
0.0
 11
133.943764974267
 21
120.742349880154
 31
0.0
  0
LINE
  5
33B
330
1D
100
AcDbEntity
  8
0
100
AcDbLine
 10
136.222429408991
 20
123.955400604269
 30
0.0
 11
134.8636
 21
122.3565
 31
0.0
  0
LINE
  5
33C
330
1D
100
AcDbEntity
  8
0
100
AcDbLine
 10
124.921
 20
148.7475
 30
0.0
 11
123.9103
 21
149.0635
 31
0.0
  0
LINE
  5
33D
330
1D
100
AcDbEntity
  8
0
100
AcDbLine
 10
131.5755
 20
143.6675
 30
0.0
 11
130.9827
 21
144.6405
 31
0.0
  0
LINE
  5
33E
330
1D
100
AcDbEntity
  8
0
100
AcDbLine
 10
132.7135
 20
139.4775
 30
0.0
 11
132.5692
 21
140.5475
 31
0.0
  0
LINE
  5
33F
330
1D
100
AcDbEntity
  8
0
100
AcDbLine
 10
132.0669
 20
142.5035
 30
0.0
 11
131.5755
 21
143.6675
 31
0.0
  0
LINE
  5
340
330
1D
100
AcDbEntity
  8
0
100
AcDbLine
 10
132.3615
 20
141.5315
 30
0.0
 11
132.0669
 21
142.5035
 31
0.0
  0
LINE
  5
341
330
1D
100
AcDbEntity
  8
0
100
AcDbLine
 10
132.5692
 20
140.5475
 30
0.0
 11
132.3615
 21
141.5315
 31
0.0
  0
LINE
  5
342
330
1D
100
AcDbEntity
  8
0
100
AcDbLine
 10
132.7879
 20
138.1115
 30
0.0
 11
132.7135
 21
139.4775
 31
0.0
  0
LINE
  5
343
330
1D
100
AcDbEntity
  8
0
100
AcDbLine
 10
130.5336
 20
145.2355
 30
0.0
 11
129.8039
 21
146.0165
 31
0.0
  0
LINE
  5
344
330
1D
100
AcDbEntity
  8
0
100
AcDbLine
 10
130.9827
 20
144.6405
 30
0.0
 11
130.5336
 21
145.2355
 31
0.0
  0
LINE
  5
345
330
1D
100
AcDbEntity
  8
0
100
AcDbLine
 10
128.0819
 20
147.3245
 30
0.0
 11
127.1267
 21
147.8495
 31
0.0
  0
LINE
  5
346
330
1D
100
AcDbEntity
  8
0
100
AcDbLine
 10
128.9842
 20
146.7115
 30
0.0
 11
128.0819
 21
147.3245
 31
0.0
  0
LINE
  5
347
330
1D
100
AcDbEntity
  8
0
100
AcDbLine
 10
129.8039
 20
146.0165
 30
0.0
 11
128.9842
 21
146.7115
 31
0.0
  0
LINE
  5
348
330
1D
100
AcDbEntity
  8
0
100
AcDbLine
 10
126.0373
 20
148.3375
 30
0.0
 11
124.921
 21
148.7475
 31
0.0
  0
LINE
  5
349
330
1D
100
AcDbEntity
  8
0
100
AcDbLine
 10
127.1267
 20
147.8495
 30
0.0
 11
126.0373
 21
148.3375
 31
0.0
  0
LINE
  5
34A
330
1D
100
AcDbEntity
  8
0
100
AcDbLine
 10
116.976
 20
150.4055
 30
0.0
 11
114.91
 21
150.5925
 31
0.0
  0
LINE
  5
34B
330
1D
100
AcDbEntity
  8
0
100
AcDbLine
 10
119.034
 20
150.1335
 30
0.0
 11
116.976
 21
150.4055
 31
0.0
  0
LINE
  5
34C
330
1D
100
AcDbEntity
  8
0
100
AcDbLine
 10
121.341
 20
149.7105
 30
0.0
 11
119.034
 21
150.1335
 31
0.0
  0
LINE
  5
34D
330
1D
100
AcDbEntity
  8
0
100
AcDbLine
 10
114.91
 20
150.5925
 30
0.0
 11
112.838
 21
150.7025
 31
0.0
  0
LINE
  5
34E
330
1D
100
AcDbEntity
  8
0
100
AcDbLine
 10
122.4838
 20
149.4485
 30
0.0
 11
121.341
 21
149.7105
 31
0.0
  0
LINE
  5
34F
330
1D
100
AcDbEntity
  8
0
100
AcDbLine
 10
123.9103
 20
149.0635
 30
0.0
 11
122.4838
 21
149.4485
 31
0.0
  0
LINE
  5
350
330
1D
100
AcDbEntity
  8
0
100
AcDbLine
 10
120.267
 20
153.6755
 30
0.0
 11
110.501
 21
153.6755
 31
0.0
  0
LINE
  5
351
330
1D
100
AcDbEntity
  8
0
100
AcDbLine
 10
157.076
 20
197.1755
 30
0.0
 11
155.183
 21
197.1755
 31
0.0
  0
LINE
  5
352
330
1D
100
AcDbEntity
  8
0
100
AcDbLine
 10
159.227
 20
197.1755
 30
0.0
 11
157.076
 21
197.1755
 31
0.0
  0
LINE
  5
353
330
1D
100
AcDbEntity
  8
0
100
AcDbLine
 10
161.615
 20
197.1755
 30
0.0
 11
159.227
 21
197.1755
 31
0.0
  0
LINE
  5
354
330
1D
100
AcDbEntity
  8
0
100
AcDbLine
 10
164.22
 20
197.1755
 30
0.0
 11
161.615
 21
197.1755
 31
0.0
  0
LINE
  5
355
330
1D
100
AcDbEntity
  8
0
100
AcDbLine
 10
153.565
 20
197.1755
 30
0.0
 11
152.236
 21
197.1755
 31
0.0
  0
LINE
  5
356
330
1D
100
AcDbEntity
  8
0
100
AcDbLine
 10
150.412
 20
191.9185
 30
0.0
 11
150.112
 21
192.6415
 31
0.0
  0
LINE
  5
357
330
1D
100
AcDbEntity
  8
0
100
AcDbLine
 10
150.889
 20
191.2965
 30
0.0
 11
150.412
 21
191.9185
 31
0.0
  0
LINE
  5
358
330
1D
100
AcDbEntity
  8
0
100
AcDbLine
 10
150.49
 20
197.1755
 30
0.0
 11
150.09
 21
197.1755
 31
0.0
  0
LINE
  5
359
330
1D
100
AcDbEntity
  8
0
100
AcDbLine
 10
150.112
 20
192.6415
 30
0.0
 11
150.01
 21
193.4185
 31
0.0
  0
LINE
  5
35A
330
1D
100
AcDbEntity
  8
0
100
AcDbLine
 10
150.01
 20
193.4185
 30
0.0
 11
150.01
 21
197.1755
 31
0.0
  0
LINE
  5
35B
330
1D
100
AcDbEntity
  8
0
100
AcDbLine
 10
150.09
 20
197.1755
 30
0.0
 11
150.01
 21
197.1755
 31
0.0
  0
LINE
  5
35C
330
1D
100
AcDbEntity
  8
0
100
AcDbLine
 10
150.01
 20
197.1755
 30
0.0
 11
150.01
 21
193.4185
 31
0.0
  0
LINE
  5
35D
330
1D
100
AcDbEntity
  8
0
100
AcDbLine
 10
151.208
 20
197.1755
 30
0.0
 11
150.49
 21
197.1755
 31
0.0
  0
LINE
  5
35E
330
1D
100
AcDbEntity
  8
0
100
AcDbLine
 10
152.236
 20
197.1755
 30
0.0
 11
151.208
 21
197.1755
 31
0.0
  0
LINE
  5
35F
330
1D
100
AcDbEntity
  8
0
100
AcDbLine
 10
155.183
 20
197.1755
 30
0.0
 11
153.565
 21
197.1755
 31
0.0
  0
ENDSEC
  0
SECTION
  2
OBJECTS
  0
DICTIONARY
  5
C
330
0
100
AcDbDictionary
281
     1
  3
ACAD_GROUP
350
D
  3
ACAD_LAYOUT
350
1A
  3
ACAD_MLEADERSTYLE
350
362
  3
ACAD_MLINESTYLE
350
17
  3
ACAD_PLOTSETTINGS
350
19
  3
ACAD_PLOTSTYLENAME
350
E
  3
ACAD_SCALELIST
350
242
  3
AcDbVariableDictionary
350
360
  3
DWGPROPS
350
365
  0
DICTIONARY
  5
D
102
{ACAD_REACTORS
330
C
102
}
330
C
100
AcDbDictionary
281
     1
  0
DICTIONARY
  5
1A
102
{ACAD_REACTORS
330
C
102
}
330
C
100
AcDbDictionary
281
     1
  3
Layout1
350
1C
  3
Model
350
1E
  0
DICTIONARY
  5
362
102
{ACAD_REACTORS
330
C
102
}
330
C
100
AcDbDictionary
281
     1
  0
DICTIONARY
  5
17
102
{ACAD_REACTORS
330
C
102
}
330
C
100
AcDbDictionary
281
     1
  3
Standard
350
18
  0
DICTIONARY
  5
19
102
{ACAD_REACTORS
330
C
102
}
330
C
100
AcDbDictionary
281
     1
  0
ACDBDICTIONARYWDFLT
  5
E
102
{ACAD_REACTORS
330
C
102
}
330
C
100
AcDbDictionary
281
     1
  3
Normal
350
F
100
AcDbDictionaryWithDefault
340
F
  0
DICTIONARY
  5
242
102
{ACAD_REACTORS
330
C
102
}
330
C
100
AcDbDictionary
281
     1
  3
A0
350
243
  3
A1
350
244
  3
A2
350
245
  3
A3
350
246
  3
A4
350
247
  3
A5
350
248
  3
A6
350
249
  3
A7
350
24A
  3
A8
350
24B
  3
A9
350
24C
  3
B0
350
24D
  3
B1
350
24E
  3
B2
350
24F
  3
B3
350
250
  3
B4
350
251
  3
B5
350
252
  3
B6
350
253
  3
B7
350
254
  3
B8
350
255
  3
B9
350
256
  3
C0
350
257
  3
C1
350
258
  3
C2
350
259
  3
C3
350
25A
  3
C4
350
25B
  3
C5
350
25C
  3
C6
350
25D
  3
C7
350
25E
  3
C8
350
25F
  3
C9
350
260
  3
D0
350
261
  3
D1
350
262
  3
D2
350
263
  0
DICTIONARY
  5
360
102
{ACAD_REACTORS
330
C
102
}
330
C
100
AcDbDictionary
281
     1
  3
CANNOSCALE
350
363
  0
XRECORD
  5
365
102
{ACAD_REACTORS
330
C
102
}
330
C
100
AcDbXrecord
280
     1
  1
DWGPROPS COOKIE
  2

  3

  4

  6

  7

  8
MARTIN
  9

300
=
301
=
302
=
303
=
304
=
305
=
306
=
307
=
308
=
309
=
 40
0.0
 41
2456646.375706921
 42
2456646.385603114
  1

 90
        0
  0
LAYOUT
  5
1C
102
{ACAD_REACTORS
330
1A
102
}
330
1A
100
AcDbPlotSettings
  1

  2
none_device
  4

  6

 40
0.0
 41
0.0
 42
0.0
 43
0.0
 44
0.0
 45
0.0
 46
0.0
 47
0.0
 48
0.0
 49
0.0
140
0.0
141
0.0
142
1.0
143
1.0
 70
   688
 72
     0
 73
     0
 74
     5
  7

 75
    16
147
1.0
148
0.0
149
0.0
100
AcDbLayout
  1
Layout1
 70
     1
 71
     1
 10
0.0
 20
0.0
 11
12.0
 21
9.0
 12
0.0
 22
0.0
 32
0.0
 14
1.000000000000E+20
 24
1.000000000000E+20
 34
1.000000000000E+20
 15
-1.000000000000E+20
 25
-1.000000000000E+20
 35
-1.000000000000E+20
146
0.0
 13
0.0
 23
0.0
 33
0.0
 16
1.0
 26
0.0
 36
0.0
 17
0.0
 27
1.0
 37
0.0
 76
     0
330
1B
  0
LAYOUT
  5
1E
102
{ACAD_REACTORS
330
1A
102
}
330
1A
100
AcDbPlotSettings
  1

  2
none_device
  4

  6

 40
0.0
 41
0.0
 42
0.0
 43
0.0
 44
0.0
 45
0.0
 46
0.0
 47
0.0
 48
0.0
 49
0.0
140
0.0
141
0.0
142
1.0
143
1.0
 70
  1712
 72
     0
 73
     0
 74
     0
  7

 75
     0
147
1.0
148
0.0
149
0.0
100
AcDbLayout
  1
Model
 70
     1
 71
     0
 10
0.0
 20
0.0
 11
12.0
 21
9.0
 12
0.0
 22
0.0
 32
0.0
 14
0.01
 24
-0.1755
 34
0.0
 15
220.99
 25
197.1755
 35
0.0
146
0.0
 13
0.0
 23
0.0
 33
0.0
 16
1.0
 26
0.0
 36
0.0
 17
0.0
 27
1.0
 37
0.0
 76
     0
330
1D
331
23D
  0
MLINESTYLE
  5
18
102
{ACAD_REACTORS
330
17
102
}
330
17
100
AcDbMlineStyle
  2
Standard
 70
     0
  3

 62
   256
 51
90.0
 52
90.0
 71
     2
 49
0.5
 62
   256
  6
BYLAYER
 49
-0.5
 62
   256
  6
BYLAYER
  0
ACDBPLACEHOLDER
  5
F
102
{ACAD_REACTORS
330
E
102
}
330
E
  0
SCALE
  5
243
102
{ACAD_REACTORS
330
242
102
}
330
242
100
AcDbScale
 70
     0
300
1:1
140
1.0
141
1.0
290
     1
  0
SCALE
  5
244
102
{ACAD_REACTORS
330
242
102
}
330
242
100
AcDbScale
 70
     0
300
1:2
140
1.0
141
2.0
290
     0
  0
SCALE
  5
245
102
{ACAD_REACTORS
330
242
102
}
330
242
100
AcDbScale
 70
     0
300
1:4
140
1.0
141
4.0
290
     0
  0
SCALE
  5
246
102
{ACAD_REACTORS
330
242
102
}
330
242
100
AcDbScale
 70
     0
300
1:5
140
1.0
141
5.0
290
     0
  0
SCALE
  5
247
102
{ACAD_REACTORS
330
242
102
}
330
242
100
AcDbScale
 70
     0
300
1:8
140
1.0
141
8.0
290
     0
  0
SCALE
  5
248
102
{ACAD_REACTORS
330
242
102
}
330
242
100
AcDbScale
 70
     0
300
1:10
140
1.0
141
10.0
290
     0
  0
SCALE
  5
249
102
{ACAD_REACTORS
330
242
102
}
330
242
100
AcDbScale
 70
     0
300
1:16
140
1.0
141
16.0
290
     0
  0
SCALE
  5
24A
102
{ACAD_REACTORS
330
242
102
}
330
242
100
AcDbScale
 70
     0
300
1:20
140
1.0
141
20.0
290
     0
  0
SCALE
  5
24B
102
{ACAD_REACTORS
330
242
102
}
330
242
100
AcDbScale
 70
     0
300
1:30
140
1.0
141
30.0
290
     0
  0
SCALE
  5
24C
102
{ACAD_REACTORS
330
242
102
}
330
242
100
AcDbScale
 70
     0
300
1:40
140
1.0
141
40.0
290
     0
  0
SCALE
  5
24D
102
{ACAD_REACTORS
330
242
102
}
330
242
100
AcDbScale
 70
     0
300
1:50
140
1.0
141
50.0
290
     0
  0
SCALE
  5
24E
102
{ACAD_REACTORS
330
242
102
}
330
242
100
AcDbScale
 70
     0
300
1:100
140
1.0
141
100.0
290
     0
  0
SCALE
  5
24F
102
{ACAD_REACTORS
330
242
102
}
330
242
100
AcDbScale
 70
     0
300
2:1
140
2.0
141
1.0
290
     0
  0
SCALE
  5
250
102
{ACAD_REACTORS
330
242
102
}
330
242
100
AcDbScale
 70
     0
300
4:1
140
4.0
141
1.0
290
     0
  0
SCALE
  5
251
102
{ACAD_REACTORS
330
242
102
}
330
242
100
AcDbScale
 70
     0
300
8:1
140
8.0
141
1.0
290
     0
  0
SCALE
  5
252
102
{ACAD_REACTORS
330
242
102
}
330
242
100
AcDbScale
 70
     0
300
10:1
140
10.0
141
1.0
290
     0
  0
SCALE
  5
253
102
{ACAD_REACTORS
330
242
102
}
330
242
100
AcDbScale
 70
     0
300
100:1
140
100.0
141
1.0
290
     0
  0
SCALE
  5
254
102
{ACAD_REACTORS
330
242
102
}
330
242
100
AcDbScale
 70
     0
300
1/128" = 1'-0"
140
0.0078125
141
12.0
290
     0
  0
SCALE
  5
255
102
{ACAD_REACTORS
330
242
102
}
330
242
100
AcDbScale
 70
     0
300
1/64" = 1'-0"
140
0.015625
141
12.0
290
     0
  0
SCALE
  5
256
102
{ACAD_REACTORS
330
242
102
}
330
242
100
AcDbScale
 70
     0
300
1/32" = 1'-0"
140
0.03125
141
12.0
290
     0
  0
SCALE
  5
257
102
{ACAD_REACTORS
330
242
102
}
330
242
100
AcDbScale
 70
     0
300
1/16" = 1'-0"
140
0.0625
141
12.0
290
     0
  0
SCALE
  5
258
102
{ACAD_REACTORS
330
242
102
}
330
242
100
AcDbScale
 70
     0
300
3/32" = 1'-0"
140
0.09375
141
12.0
290
     0
  0
SCALE
  5
259
102
{ACAD_REACTORS
330
242
102
}
330
242
100
AcDbScale
 70
     0
300
1/8" = 1'-0"
140
0.125
141
12.0
290
     0
  0
SCALE
  5
25A
102
{ACAD_REACTORS
330
242
102
}
330
242
100
AcDbScale
 70
     0
300
3/16" = 1'-0"
140
0.1875
141
12.0
290
     0
  0
SCALE
  5
25B
102
{ACAD_REACTORS
330
242
102
}
330
242
100
AcDbScale
 70
     0
300
1/4" = 1'-0"
140
0.25
141
12.0
290
     0
  0
SCALE
  5
25C
102
{ACAD_REACTORS
330
242
102
}
330
242
100
AcDbScale
 70
     0
300
3/8" = 1'-0"
140
0.375
141
12.0
290
     0
  0
SCALE
  5
25D
102
{ACAD_REACTORS
330
242
102
}
330
242
100
AcDbScale
 70
     0
300
1/2" = 1'-0"
140
0.5
141
12.0
290
     0
  0
SCALE
  5
25E
102
{ACAD_REACTORS
330
242
102
}
330
242
100
AcDbScale
 70
     0
300
3/4" = 1'-0"
140
0.75
141
12.0
290
     0
  0
SCALE
  5
25F
102
{ACAD_REACTORS
330
242
102
}
330
242
100
AcDbScale
 70
     0
300
1" = 1'-0"
140
1.0
141
12.0
290
     0
  0
SCALE
  5
260
102
{ACAD_REACTORS
330
242
102
}
330
242
100
AcDbScale
 70
     0
300
1-1/2" = 1'-0"
140
1.5
141
12.0
290
     0
  0
SCALE
  5
261
102
{ACAD_REACTORS
330
242
102
}
330
242
100
AcDbScale
 70
     0
300
3" = 1'-0"
140
3.0
141
12.0
290
     0
  0
SCALE
  5
262
102
{ACAD_REACTORS
330
242
102
}
330
242
100
AcDbScale
 70
     0
300
6" = 1'-0"
140
6.0
141
12.0
290
     0
  0
SCALE
  5
263
102
{ACAD_REACTORS
330
242
102
}
330
242
100
AcDbScale
 70
     0
300
1'-0" = 1'-0"
140
12.0
141
12.0
290
     0
  0
DICTIONARYVAR
  5
363
102
{ACAD_REACTORS
330
360
102
}
330
360
100
DictionaryVariables
280
     0
  1
1:1
  0
ENDSEC
  0
SECTION
  2
THUMBNAILIMAGE
 90
    16364
310
28000000B40000005500000001000800000000000000000000000000000000000000000000000000FFFFFF000000FF0000FFFF0000FF0000FFFF0000FF000000FF00FF000000000080808000C0C0C0000000FF007F7FFF000000A5005252A50000007F003F3F7F0000004C0026264C000000260013132600003FFF007F9FFF
310
000029A5005267A500001F7F003F4F7F0000134C00262F4C000009260013172600007FFF007FBFFF000052A500527CA500003F7F003F5F7F0000264C0026394C0000132600131C260000BFFF007FDFFF00007CA5005291A500005F7F003F6F7F0000394C0026424C00001C26001321260000FFFF007FFFFF0000A5A50052A5
310
A500007F7F003F7F7F00004C4C00264C4C00002626001326260000FFBF007FFFDF0000A57C0052A59100007F5F003F7F6F00004C3900264C420000261C001326210000FF7F007FFFBF0000A5520052A57C00007F3F003F7F5F00004C2600264C39000026130013261C0000FF3F007FFF9F0000A5290052A56700007F1F003F
310
7F4F00004C1300264C2F00002609001326170000FF00007FFF7F0000A5000052A55200007F00003F7F3F00004C0000264C260000260000132613003FFF00009FFF7F0029A5000067A552001F7F00004F7F3F00134C00002F4C260009260000172613007FFF0000BFFF7F0052A500007CA552003F7F00005F7F3F00264C0000
310
394C2600132600001C261300BFFF0000DFFF7F007CA5000091A552005F7F00006F7F3F00394C0000424C26001C26000021261300FFFF0000FFFF7F00A5A50000A5A552007F7F00007F7F3F004C4C00004C4C26002626000026261300FFBF0000FFDF7F00A57C0000A59152007F5F00007F6F3F004C3900004C422600261C00
310
0026211300FF7F0000FFBF7F00A5520000A57C52007F3F00007F5F3F004C2600004C39260026130000261C1300FF3F0000FF9F7F00A5290000A56752007F1F00007F4F3F004C1300004C2F26002609000026171300FF000000FF7F7F00A5000000A55252007F0000007F3F3F004C0000004C2626002600000026131300FF00
310
3F00FF7F9F00A5002900A55267007F001F007F3F4F004C0013004C262F002600090026131700FF007F00FF7FBF00A5005200A5527C007F003F007F3F5F004C0026004C2639002600130026131C00FF00BF00FF7FDF00A5007C00A55291007F005F007F3F6F004C0039004C26420026001C0026132100FF00FF00FF7FFF00A5
310
00A500A552A5007F007F007F3F7F004C004C004C264C002600260026132600BF00FF00DF7FFF007C00A5009152A5005F007F006F3F7F0039004C0042264C001C002600211326007F00FF00BF7FFF005200A5007C52A5003F007F005F3F7F0026004C0039264C00130026001C1326003F00FF009F7FFF002900A5006752A500
310
1F007F004F3F7F0013004C002F264C000900260017132600000000002D2D2D005B5B5B0089898900B7B7B700B3B3B30000000000000000000000000000000000000000000000000000000000000000000000000000000000000000000000000000000000000000000000000000000000000000000000000000000000000000
310
00000000000707070707070007070707070700000000000000000000000000000000000000000000000000000000000000000000000000000000000000000000000000000000000000000000000000000000000000000000000000000000000000000000000000000000000000000000000000000000000000000000000000
310
00000000000000000000000000000000000000000000000000000000000000000000000000000000000000000000000000000000000000000007000000000000000000000000000700000000000000000000000000000000000000000000000000000000000000000000000000000000000000000000000000000000000000
310
00000000000000000000000000000000000000000000000000000000000000000000000000000000000000000000000000000000000000000000000000000000000000000000000000000000000000000000000000000000000000000000000000000000000000000000000000070000000000000000000000000000000700
310
00000000000000000000000000000000000000000000000000000000000000000000000000000000000000000000000000000000000000000000000000000000000000000000000000000000000000000000000000000000000000000000000000000000000000000000000000000000000000000000000000000000000000
310
00000000000000000000000000000000000000000000000000000000000000000000000700000000000000000000000000000007000000000000000000000000000000000000000000000000000000000000000000000000000000000000000000000000000000000000000000000000000000000000000000000000000000
310
00000000000000000000000000000000000000000000000000000000000000000000000000000000000000000000000000000000000000000000000000000000000000000000000000000000000000000000000000000000070000000000000000000000000000000700000000000000000000000000000000000000000000
310
00000000000000000000000000000000000000000000000000000000000000000000000000000000000000000000000000000000000000000000000000000000000000000000000000000000000000000000000000000000000000000000000000000000000000000000000000000000000000000000000000000000000000
310
00000000000000000000000000070000000000000000000000000000000000070000000000000000000000000000000000000000000000000000000000000000000000000000000000000000000000000000000000000000000000000000000000000000000000000000000000000000000000000000000000000000000000
310
00000000000000000000000000000000000000000000000000000000000000000000000000000000000000000000000000000000000000000000000000000000000007000000000000000000000000000000000007000000000000000000000000000000000000000000000000000000000000000000000000000000000000
310
00000000000000000000000000000000000000000000000000000000000000000000000000000000000000000000000000000000000000000000000000000000000000000000000000000000000000000000000000000000000000000000000000000000000000000000000000000000000000000000000700000000000000
310
00000000000000000000070000000000000000000000000000000000000000000000000000000000000000000000000000000000000000000000000000000000000000000000000000000000000000000000000000000000000000000000000000000000000000000000000000000000000000000000000000000000000000
310
00000000000000000000000000000000000000000000000000000000000000000000000000000000000000000007000000000000000000000000000000000007000000000000000000000000000000000000000000000000000000000000000000000000000000000000000000000000000000000000000000000000000000
310
00000000000000000000000000000000000000000000000000000000000000000000000000000000000000000000000000000000000000000000000000000000000000000000000000000000000000000000000000000000000000000000000000000700000000000000000000000000000000000700000000000000000000
310
00000000000000000000000000000000000000000000000000000000000000000000000000000000000000000000000000000000000000000000000000000000000000000000000000000000000000000000000000000000000000000000000000000000000000000000000000000000000000000000000000000000000000
310
00000000000000000000000000000000000000000000000007000000000000000000000000000000000007000000000000000000000000000000000000000000000000000000000000000000000000000000000000000000000000000000000000000000000000000000000000000000000000000000000000000000000000
310
00000000000000000000000000000000000000000000000000000000000000000000000000000000000000000000000000000000000000000000000000000000000000000000000000000000000700000000000000000000000000000000000700000000000000000000000000000000000000000000000000000000000000
310
00000000000000000000000000000000000000000000000000000000000000000000000000000000000000000000000000000000000000000000000000000000000000000000000000000000000000000000000000000000000000000000000000000000000000000000000000000000000000000000000000000000000000
310
00000007000000000000000000000000000000000007000000000000000000000000000000000000000000000000000000000000000000000000000000000000000000000000000000000000000000000000000000000000000000000000000000000000000000000000000000000000000000000000000000000000000000
310
00000000000000000000000000000000000000000000000000000000000000000000000000000000000000000000000000000000000000000700000000000000000000000000000000000700000000000000000000000000000000000000000000000000000000000000000000000000000000000000000000000000000000
310
00000000000000000000000000000000000000000000000000000000000000000000000000000000000000000000000000000000000000000000000000000000000000000000000000000000000000000000000000000000000000000000000000000000000000000000000000070000000000000000000000000000000000
310
07000000000000000000000000000000000000000000000000000000000000000000000000000000000000000000000000000000000000000000000000000000000000000000000000000000000000000000000000000000000000000000000000000000000000000000000000000000000000000000000000000000000000
310
00000000000000000000000000000000000000000000000000000000000000000000000700000000000000000000000000000000000700000000000000000000000000000000000000000000000000000000000000000000000000000000000000000000000000000000000000000000000000000000000000000000000000
310
00000000000000000000000000000000000000000000000000000000000000000000000000000000000000000000000000000000000000000000000000000000000000000000000000000000000000000000000000000000070000000000000000000000000000000000070000000000000000000000000000000000000000
310
00000000000000000000000000000000000000000000000000000000000000000000000000000000000000000000000000000000000000000000000000000000000000000000000000000000000000000000000000000000000000000000000000000000000000000000000000000000000000000000000000000000000000
310
00000000000000000000000000000700000000000000000000000000000000000700000000000000000000000000000000000000000000000000000000000000000000000000000000000000000000000000000000000000000000000000000000000000000000000000000000000000000000000000000000000000000000
310
00000000000000000000000000000000000000000000000000000000000000000000000000000000000000000000000000000000000000000000000000000000000000070000000000000000000000000000000000070000000000000000000000000000000000000000000000000000000000000000000000000000000000
310
00000000000000000000000000000000000000000000000000000000000000000000000000000000000000000000000000000000000000000000000000000000000000000000000000000000000000000000000000000000000000000000000000000000000000000000000000000000000000000000000007000000000000
310
00000000000000000000000700000000000000000000000000000000000000000000000000000000000000000000000000000000000000000000000000000000000000000000000000000000000000000000000000000000000000000000000000000000000000000000000000000000000000000000000000000000000000
310
00000000000000000000000000000000000000000000000000000000000000000000000000000000000000000000070000000000000000000000000000000000070000000000000000000000000000000000000000000000000000000000000000000000000000000000000000000000000000000000000000000000000000
310
00000000000000000000000000000000000000000000000000000000000000000000000000000000000000000000000000000000000000000000000000000000000000000000000000000000000000000000000000000000000000000000000000000007000000000000000000000000000000000007000000000000000000
310
00000000000000000000000000000000000000000000000000000000000000000000000000000000000000000000000000000000000000000000000000000000000000000000000000000000000000000000000000000000000000000000000000000000000000000000000000000000000000000000000000000000000000
310
00000000000000000000000000000000000000000000000000070000000000000000000000000000000000070000000000000000000000000000000000000000000000000000000000000000000000000000000000000000000000000000000000000000000000000000000000000000000000000000000000000000000000
310
00000000000000000000000000000000000000000000000000000000000000000000000000000000000000000000000000000000000000000000000000000000000000000000000000000000000007000000000000000000000000000000000007000000000000000000000000000000000000000000000000000000000000
310
00000000000000000000000000000000000000000000000000000000000000000000000000000000000000000000000000000000000000000000000000000000000000000000000000000000000000000000000000000000000000000000000000000000000000000000000000000000000000000000000000000000000000
310
00000000070000000000000000000000000000000000070000000000000000000000000000000000000000000000000000000000000000000000000000000000000000000000000000000000000000000000000000000000000000000000000000000000000000000000000000000000000000000000000000000000000000
310
00000000000000000000000000000000000000000000000000000000000000000000000000000000000000000000000000000000000000000007000000000000000000000000000000000007000000000000000000000000000000000000000000000000000000000000000000000000000000000000000000000000000000
310
00000000000000000000000000000000000000000000000000000000000000000000000000000000000000000000000000000000000000000000000000000000000000000000000000000000000000000000000000000000000000000000000000000000000000000000000000000700000707070707070007070707070700
310
00070000000000000000000000000000000000000000000000000000000000000000000000000000000000000000000000000000000000000000000000000000000000000000000000000000000000000000000000000000000000000000000000000000000000000000000000000000000000000000000000000000000000
310
00000000000000000000000000000000000000000000000000000000000000000000000007000707000000000000000000000007070007000000000000000000000000000000000000000000000000000000000000000000000000000000000000000000000000000000000000000000000000000000000000000000000000
310
00000000000000000000000000000000000000000000000000000000000000000000000000000000000000000000000000000000000000000000000000000000000000000000000000000000000000000000000000000000000707000000000000000000000000000000070700000000000000000000000000000000000000
310
00000000000000000000000000000000000000000000000000000000000000000000000000000000000000000000000000000000000000000000000000000000000000000000000000000000000000000000000000000000000000000000000000000000000000000000000000000000000000000000000000000000000000
310
00000000000000000000000000000007070000000000000000000000000000000707000000000000000000000000000000000000000000000000000000000000000000000000000000000000000000000000000000000000000000000000000000000000000000000000000000000000000000000000000000000000000000
310
00000000000000000000000000000000000000000000000000000000000000000000000000000000000000000000000000000000000000000000000000000000000000000707000000000000000000000000000000070700000000000000000000000000000000000000000000000000000000000000000000000000000000
310
00000000000000000000000000000000000000000000000000000000000000000000000000000000000000000000000000000000000000000000000000000000000000000000000000000000000000000000000000000000000000000000000000000000000000000000000000000000000000000000000000070700000000
310
00000000000000000000000707000000000000000000000000000000000000000000000000000000000000000000000000000000000000000000000000000000000000000000000000000000000000000000000000000000000000000000000000000000000000000000000000000000000000000000000000000000000000
310
00000000000000000000000000000000000000000000000000000000000000000000000000000000000000000000000700000000000000000000000000000000000700000000000000000000000000000000000000000000000000000000000000000000000000000000000000000000000000000000000000000000000000
310
00000000000000000000000000000000000000000000000000000000000000000000000000000000000000000000000000000000000000000000000000000000000000000000000000000000000000000000000000000000000000000000000000000000070000000000000000000000000000000000070000000000000000
310
00000000000000000000000000000000000000000000000000000000000000000000000000000000000000000000000000000000000000000000000000000000000000000000000000000000000000000000000000000000000000000000000000000000000000000000000000000000000000000000000000000000000000
310
00000000000000000000000000000000000000000000000000000700000000000000000000000000000000000700000000000000000000000000000000000000000000000000000000000000000000000000000000000000000000000000000000000000000000000000000000000000000000000000000000000000000000
310
00000000000000000000000000000000000000000000000000000000000000000000000000000000000000000000000000000000000000000000000000000000000000000000000000000000000000070000000000000000000000000000000000070000000000000000000000000000000000000000000000000000000000
310
00000000000000000000000000000000000000000000000000000000000000000000000000000000000000000000000000000000000000000000000000000000000000000000000000000000000000000000000000000000000000000000000000000000000000000000000000000000000000000000000000000000000000
310
00000000000700000000000000000000000000000000000700000000000000000000000000000000000000000000000000000000000000000000000000000000000000000000000000000000000000000000000000000000000000000000000000000000000000000000000000000000000000000000000000000000000000
310
00000000000000000000000000000000000000000000000000000000000000000000000000000000000000000000000000000000000000000000070000000000000000000000000000000000070000000000000000000000000000000000000000000000000000000000000000000000000000000000000000000000000000
310
00000000000000000000000000000000000000000000000000000000000000000000000000000000000000000000000000000000000000000000000000000000000000000000000000000000000000000000000000000000000000000000000000000000000000000000000000000007000000000000000000000000000000
310
00000700000000000000000000000000000000000000000000000000000000000000000000000000000000000000000000000000000000000000000000000000000000000000000000000000000000000000000000000000000000000000000000000000000000000000000000000000000000000000000000000000000000
310
00000000000000000000000000000000000000000000000000000000000000000000000000070000000000000000000000000000000000070000000000000000000000000000000000000000000000000000000000000000000000000000000000000000000000000000000000000000000000000000000000000000000000
310
00000000000000000000000000000000000000000000000000000000000000000000000000000000000000000000000000000000000000000000000000000000000000000000000000000000000000000000000000000000000007000000000000000000000000000000000007000000000000000000000000000000000000
310
00000000000000000000000000000000000000000000000000000000000000000000000000000000000000000000000000000000000000000000000000000000000000000000000000000000000000000000000000000000000000000000000000000000000000000000000000000000000000000000000000000000000000
310
00000000000000000000000000000000070000000000000000000000000000000000070000000000000000000000000000000000000000000000000000000000000000000000000000000000000000000000000000000000000000000000000000000000000000000000000000000000000000000000000000000000000000
310
00000000000000000000000000000000000000000000000000000000000000000000000000000000000000000000000000000000000000000000000000000000000000000007000000000000000000000000000000000007000000000000000000000000000000000000000000000000000000000000000000000000000000
310
00000000000000000000000000000000000000000000000000000000000000000000000000000000000000000000000000000000000000000000000000000000000000000000000000000000000000000000000000000000000000000000000000000000000000000000000000000000000000000000000000000700000000
310
00000000000000000000000000070000000000000000000000000000000000000000000000000000000000000000000000000000000000000000000000000000000000000000000000000000000000000000000000000000000000000000000000000000000000000000000000000000000000000000000000000000000000
310
00000000000000000000000000000000000000000000000000000000000000000000000000000000000000000000000007000000000000000000000000000000000007000000000000000000000000000000000000000000000000000000000000000000000000000000000000000000000000000000000000000000000000
310
00000000000000000000000000000000000000000000000000000000000000000000000000000000000000000000000000000000000000000000000000000000000000000000000000000000000000000000000000000000000000000000000000000000000700000000000000000000000000000000000700000000000000
310
00000000000000000000000000000000000000000000000000000000000000000000000000000000000000000000000000000000000000000000000000000000000000000000000000000000000000000000000000000000000000000000000000000000000000000000000000000000000000000000000000000000000000
310
00000000000000000000000000000000000000000000000000000007000000000000000000000000000000000007000000000000000000000000000000000000000000000000000000000000000000000000000000000000000000000000000000000000000000000000000000000000000000000000000000000000000000
310
00000000000000000000000000000000000000000000000000000000000000000000000000000000000000000000000000000000000000000000000000000000000000000000000000000000000000000700000000000000000000000000000000000700000000000000000000000000000000000000000000000000000000
310
00000000000000000000000000000000000000000000000000000000000000000000000000000000000000000000000000000000000000000000000000000000000000000000000000000000000000000000000000000000000000000000000000000000000000000000000000000000000000000000000000000000000000
310
00000000000007000000000000000000000000000000000007000000000000000000000000000000000000000000000000000000000000000000000000000000000000000000000000000000000000000000000000000000000000000000000000000000000000000000000000000000000000000000000000000000000000
310
00000000000000000000000000000000000000000000000000000000000000000000000000000000000000000000000000000000000000000000000700000000000000000000000000000000000700000000000000000000000000000000000000000000000000000000000000000000000000000000000000000000000000
310
00000000000000000000000000000000000000000000000000000000000000000000000000000000000000000000000000000000000000000000000000000000000000000000000000000000000000000000000000000000000000000000000000000000000000000000000000000007070000000000000000000000000000
310
00000007070000000000000000000000000000000000000000000000000000000000000000000000000000000000000000000000000000000000000000000000000000000000000000000000000000000000000000000000000000000000000000000000000000000000000000000000000000000000000000000000000000
310
00000000000000000000000000000000000000000000000000000000000000000000000000070700000000000000000000000000000000000707000000000000000000000000000000000000000000000000000000000000000000000000000000000000000000000000000000000000000000000000000000000000000000
310
00000000000000000000000000000000000000000000000000000000000000000000000000000000000000000000000000000000000000000000000000000000000000000000000000000000000000000000000000000000000707070000000000000000000000000000000000070707000000000000000000000000000000
310
00000000000000000000000000000000000000000000000000000000000000000000000000000000000000000000000000000000000000000000000000000000000000000000000000000000000000000000000000000000000000000000000000000000000000000000000000000000000000000000000000000000000000
310
00000000000000000000000007070700000700000000000000000000000000000000000700000707070000000000000000000000000000000000000000000000000000000000000000000000000000000000000000000000000000000000000000000000000000000000000000000000000000000000000000000000000000
310
00000000000000000000000000000000000000000000000000000000000000000000000000000000070707070707070707070707070707070707070707070707070700000000070000000000000000000000000000000000070000000007070707070707070707070707070707070707070707070707070000000000000000
310
00000000000000000000000000000000000000000000000000000000000000000000000000000000000000000000000000000000000000000000000000000000000000000000000000000000000000000000000000000000000000000007000000000000000000000000000000000000000000000000000000000007000000
310
00000000000000000000000000000700000000000000000000000000000000000000000000000000000000000700000000000000000000000000000000000000000000000000000000000000000000000000000000000000000000000000000000000000000000000000000000000000000000000000000000000000000000
310
00000000000000000000000000000000000000070000000000000000000000000000000000000000000000000000000000070000000000000000000000000000000000070000000000000000000000000000000000000000000000000000000000070000000000000000000000000000000000000000000000000000000000
310
00000000000000000000000000000000000000000000000000000000000000000000000000000000000000000000000000000000000000000000000000000000000000000000000007000000000000000000000000000000000000000000000000000000000007000000000000000000000000000000000007000000000000
310
00000000000000000000000000000000000000000000000700000000000000000000000000000000000000000000000000000000000000000000000000000000000000000000000000000000000000000000000000000000000000000000000000000000000000000000000000000000000000000000000000000000000700
310
00000000000000000000000000000000000000000000000000000000070000000000000000000000000000000000070000000000000000000000000000000000000000000000000000000000070000000000000000000000000000000000000000000000000000000000000000000000000000000000000000000000000000
310
00000000000000000000000000000000000000000000000000000000000000000000000000000000000000000000000000000007000000000000000000000000000000000000000000000000000000000007000000000000000000000000000000000007000000000000000000000000000000000000000000000000000000
310
00000700000000000000000000000000000000000000000000000000000000000000000000000000000000000000000000000000000000000000000000000000000000000000000000000000000000000000000000000000000000000000000000000000000000000700000000000000000000000000000000000000000000
310
00000000000000070000000000000000000000000000000000070000000000000000000000000000000000000000000000000000000000070000000000000000000000000000000000000000000000000000000000000000000000000000000000000000000000000000000000000000000000000000000000000000000000
310
00000000000000000000000000000000000000000000000000000000000007000000000000000000000000000000000000000000000000000000000007070000000000000000000000000000000707000000000000000000000000000000000000000000000000000000000007000000000000000000000000000000000000
310
00000000000000000000000000000000000000000000000000000000000000000000000000000000000000000000000000000000000000000000000000000000000000000000000000000000000000000000000700000000000000000000000000000000000000000000000000000000000007070000000000000000000000
310
00000707000000000000000000000000000000000000000000000000000000000000070000000000000000000000000000000000000000000000000000000000000000000000000000000000000000000000000000000000000000000000000000000000000000000000000000000000000000000000000000000000000000
310
00000000000000000007000000000000000000000000000000000000000000000000000000000000000707070707070000000707070707070000000000000000000000000000000000000000000000000000000000000007000000000000000000000000000000000000000000000000000000000000000000000000000000
310
00000000000000000000000000000000000000000000000000000000000000000000000000000000000000000000000000000000000000000000000000000700000000000000000000000000000000000000000000000000000000000000000000000000070007000000000000000000000000000000000000000000000000
310
00000000000000000000000000070000000000000000000000000000000000000000000000000000000000000000000000000000000000000000000000000000000000000000000000000000000000000000000000000000000000000000000000000000000000000000000000000000000000070707070707070707070707
310
07070707070707070707070707070707070707070707070707070700070707070707070707070707070707070707070707070707070707070707070707070707070707000000000000000000000000000000000000000000000000000000000000000000000000000000000000000000000000000000000000000000000000
310
00000000000000000000000000000000000000000000000000000000000000000000000000000000000707070707070707070707070707070000000000000000000000000000000000000000000000000000000000000000000000000000000000000000000000000007070707070707070707070707070700000000000000
310
00000000000000000000000000000000000000000000000000000000000000000000000000000000000000000000000000000000000000000000000000000000000000000000000000000000000000000000000000000000000000000000070000000000000000000000000007000000000000000000000000000000000000
310
00000000000000000000000000000000000000000000000000000000000000070000000000000000000000000007000000000000000000000000000000000000000000000000000000000000000000000000000000000000000000000000000000000000000000000000000000000000000000000000000000000000000000
310
00000000000000000000000000000000000000000700000000000000000000000000070000000000000000000000000000000000000000000000000000000000000000000000000000000000000000000000000007000000000000000000000000000700000000000000000000000000000000000000000000000000000000
310
00000000000000000000000000000000000000000000000000000000000000000000000000000000000000000000000000000000000000000000000000000000000000000000000000070000000000000000000000000007000000000000000000000000000000000000000000000000000000000000000000000000000000
310
00000000000000000000070000000000000000000000000007000000000000000000000000000000000000000000000000000000000000000000000000000000000000000000000000000000000000000000000000000000000000000000000000000000000000000000000000000000000000000000000000000000000007
310
00000000000000000000000000070000000000000000000000000000000000000000000000000000000000000000000000000000000000000000000000000007000000000000000000000000000700000000000000000000000000000000000000000000000000000000000000000000000000000000000000000000000000
310
00000000000000000000000000000000000000000000000000000000000000000000000000000000000000000000000000000000070000000000000000000000000007000000000000000000000000000000000000000000000000000000000000000000000000000000000000000000000000000700000000000000000000
310
00000007000000000000000000000000000000000000000000000000000000000000000000000000000000000000000000000000000000000000000000000000000000000000000000000000000000000000000000000000000000000000000000000000000000000007070707070707070707070707070700000000000000
310
00000000000000000000000000000000000000000000000000000000000000000000000000000000000007070707070707070707070707070700000000000000000000000000000000000000000000000000000000000000000000000000000000000000000000000000000000000000000000000000000000000000000000
310
00000000000000000000000000000000000000000000000000000000000000000707070707070707070707070707000000000000000000000000000000000000000000000000000000000000000000000000000000000000000000000000000707070707070707070707070707000000000000000000000000000000000000
310
00000000000000000000000000000000000000000000000000000000000000000000000000000000000000000000000000000000000000000000000000000000000000000000000000000000000000000000000007000000000000000000000000000007000000000000000000000000000000000000000000000000000000
310
00000000000000000000000000000000000000000700000000000000000000000000000700000000000000000000000000000000000000000000000000000000000000000000000000000000000000000000000000000000000000000000000000000000000000000000000000000000000000000000000000000000000000
310
00000000000000000007000000000000000000000000000000000700000000000000000000000000000000000000000000000000000000000000000000000000000000000000000007000000000000000000000000000000000700000000000000000000000000000000000000000000000000000000000000000000000000
310
00000000000000000000000000000000000000000000000000000000000000000000000000000000000000000000000000000000000000000000000000070000000000000000000000000000000000000700000000000000000000000000000000000000000000000000000000000000000000000000000000000000070000
310
00000000000000000000000000000000070000000000000000000000000000000000000000000000000000000000000000000000000000000000000000000000000000000000000000000000000000000000000000000000000000000000000000000000000000000000000000000000000700000000000000000000000000
310
00000000000000070000000000000000000000000000000000000000000000000000000000000000000000000000000000070000000000000000000000000000000000000000070000000000000000000000000000000000000000000000000000000000000000000000000000000000000000000000000000000000000000
310
00000000000000000000000000000000000000000000000000000000000000000000000000000700000000000000000000000000000000000000000000070000000000000000000000000000000000000000000000000000000000000000000000000000000700000000000000000000000000000000000000000000070000
310
00000000000000000000000000000000000000000000000000000000000000000000000000000000000000000000000000000000000000000000000000000000000000000000000000000000000000000000000000000000000007000000000000000000000000000000000000000000000000070000000000000000000000
310
00000000000000000000000000000000000000000000000000000700000000000000000000000000000000000000000000000007000000000000000000000000000000000000000000000000000000000000000000000000000000000000000000000000000000000000000000000000000000000000000000000000000000
310
00000000000000000000000000000007000000000000000000000000000000000000000000000000000007000000000000000000000000000000000000000000000000000000000000000000000007000000000000000000000000000000000000000000000000000007000000000000000000000000000000000000000000
310
00000000000000000000000000000000000000000000000000000000000000000000000000000000000000000000000000000000000000000000000000000000000007070000000000000000000000000000000000000000000000000000000007000000000000000000000000000000000000000000000000000000000000
310
00000007000000000000000000000000000000000000000000000000000000000707000000000000000000000000000000000000000000000000000000000000000000000000000000000000000000000000000000000000000000000000000000000000000000000000000000000000000000000000000700000000000000
310
00000000000000000000000000000000000000000000070000000000000000000000000000000000000000000000000000000000000000000700000000000000000000000000000000000000000000000000000000000700000000000000000000000000000000000000000000000000000000000000000000000000000000
310
00000000000000000000000000000000000000000000000000000000000000000000000000000000000000000007070707070707070707070707070707070707070707070707070707070707000000000000000000000000000000000000000000000000000000000000000000070707070707070707070707070707070707
310
07070707070707070707070707000000000000000000000000000000000000000000000000000000000000000000000000000000000000000000000000000000000000000000000000000000000000000000000000000000000000000000000000000000000000000000000000000000000000000000000000000000000000
310
000000000000000000000000000000000000000000000000000000000000000000000000000000000000000000000000000000000000000000000000000000000000000000000000000000000000000000000000000000000000000000000000000000000000000000000000
  0
ENDSEC
  0
EOF
