  0
SECTION
  2
HEADER
  9
$ACADVER
  1
AC1015
  9
$ACADMAINTVER
 70
     6
  9
$DWGCODEPAGE
  3
ANSI_1252
  9
$INSBASE
 10
0.0
 20
0.0
 30
0.0
  9
$EXTMIN
 10
0.01
 20
0.238
 30
0.0
  9
$EXTMAX
 10
220.99
 20
199.762
 30
0.0
  9
$LIMMIN
 10
0.0
 20
0.0
  9
$LIMMAX
 10
12.0
 20
9.0
  9
$ORTHOMODE
 70
     0
  9
$REGENMODE
 70
     1
  9
$FILLMODE
 70
     1
  9
$QTEXTMODE
 70
     0
  9
$MIRRTEXT
 70
     1
  9
$LTSCALE
 40
1.0
  9
$ATTMODE
 70
     1
  9
$TEXTSIZE
 40
0.2
  9
$TRACEWID
 40
0.05
  9
$TEXTSTYLE
  7
Standard
  9
$CLAYER
  8
0
  9
$CELTYPE
  6
ByBlock
  9
$CECOLOR
 62
   256
  9
$CELTSCALE
 40
1.0
  9
$DISPSILH
 70
     0
  9
$DIMSCALE
 40
1.0
  9
$DIMASZ
 40
0.18
  9
$DIMEXO
 40
0.0625
  9
$DIMDLI
 40
0.38
  9
$DIMRND
 40
0.0
  9
$DIMDLE
 40
0.0
  9
$DIMEXE
 40
0.18
  9
$DIMTP
 40
0.0
  9
$DIMTM
 40
0.0
  9
$DIMTXT
 40
0.18
  9
$DIMCEN
 40
0.09
  9
$DIMTSZ
 40
0.0
  9
$DIMTOL
 70
     0
  9
$DIMLIM
 70
     0
  9
$DIMTIH
 70
     1
  9
$DIMTOH
 70
     1
  9
$DIMSE1
 70
     0
  9
$DIMSE2
 70
     0
  9
$DIMTAD
 70
     0
  9
$DIMZIN
 70
     0
  9
$DIMBLK
  1

  9
$DIMASO
 70
     1
  9
$DIMSHO
 70
     1
  9
$DIMPOST
  1

  9
$DIMAPOST
  1

  9
$DIMALT
 70
     0
  9
$DIMALTD
 70
     2
  9
$DIMALTF
 40
25.4
  9
$DIMLFAC
 40
1.0
  9
$DIMTOFL
 70
     0
  9
$DIMTVP
 40
0.0
  9
$DIMTIX
 70
     0
  9
$DIMSOXD
 70
     0
  9
$DIMSAH
 70
     0
  9
$DIMBLK1
  1

  9
$DIMBLK2
  1

  9
$DIMSTYLE
  2
Standard
  9
$DIMCLRD
 70
     0
  9
$DIMCLRE
 70
     0
  9
$DIMCLRT
 70
     0
  9
$DIMTFAC
 40
1.0
  9
$DIMGAP
 40
0.09
  9
$DIMJUST
 70
     0
  9
$DIMSD1
 70
     0
  9
$DIMSD2
 70
     0
  9
$DIMTOLJ
 70
     1
  9
$DIMTZIN
 70
     0
  9
$DIMALTZ
 70
     0
  9
$DIMALTTZ
 70
     0
  9
$DIMUPT
 70
     0
  9
$DIMDEC
 70
     4
  9
$DIMTDEC
 70
     4
  9
$DIMALTU
 70
     2
  9
$DIMALTTD
 70
     2
  9
$DIMTXSTY
  7
Standard
  9
$DIMAUNIT
 70
     0
  9
$DIMADEC
 70
     0
  9
$DIMALTRND
 40
0.0
  9
$DIMAZIN
 70
     0
  9
$DIMDSEP
 70
    46
  9
$DIMATFIT
 70
     3
  9
$DIMFRAC
 70
     0
  9
$DIMLDRBLK
  1

  9
$DIMLUNIT
 70
     2
  9
$DIMLWD
 70
    -2
  9
$DIMLWE
 70
    -2
  9
$DIMTMOVE
 70
     2
  9
$LUNITS
 70
     2
  9
$LUPREC
 70
     4
  9
$SKETCHINC
 40
0.1
  9
$FILLETRAD
 40
0.5
  9
$AUNITS
 70
     0
  9
$AUPREC
 70
     0
  9
$MENU
  1
.
  9
$ELEVATION
 40
0.0
  9
$PELEVATION
 40
0.0
  9
$THICKNESS
 40
0.0
  9
$LIMCHECK
 70
     0
  9
$CHAMFERA
 40
0.5
  9
$CHAMFERB
 40
0.5
  9
$CHAMFERC
 40
1.0
  9
$CHAMFERD
 40
0.0
  9
$SKPOLY
 70
     0
  9
$TDCREATE
 40
2456646.417375394
  9
$TDUCREATE
 40
2456646.375708727
  9
$TDUPDATE
 40
2456646.425563322
  9
$TDUUPDATE
 40
2456646.383896655
  9
$TDINDWG
 40
0.0081879398
  9
$TDUSRTIMER
 40
0.0081879398
  9
$USRTIMER
 70
     1
  9
$ANGBASE
 50
0.0
  9
$ANGDIR
 70
     0
  9
$PDMODE
 70
     0
  9
$PDSIZE
 40
0.0
  9
$PLINEWID
 40
0.0
  9
$SPLFRAME
 70
     0
  9
$SPLINETYPE
 70
     6
  9
$SPLINESEGS
 70
     8
  9
$HANDSEED
  5
5CA
  9
$SURFTAB1
 70
     6
  9
$SURFTAB2
 70
     6
  9
$SURFTYPE
 70
     6
  9
$SURFU
 70
     6
  9
$SURFV
 70
     6
  9
$UCSBASE
  2

  9
$UCSNAME
  2

  9
$UCSORG
 10
0.0
 20
0.0
 30
0.0
  9
$UCSXDIR
 10
1.0
 20
0.0
 30
0.0
  9
$UCSYDIR
 10
0.0
 20
1.0
 30
0.0
  9
$UCSORTHOREF
  2

  9
$UCSORTHOVIEW
 70
     0
  9
$UCSORGTOP
 10
0.0
 20
0.0
 30
0.0
  9
$UCSORGBOTTOM
 10
0.0
 20
0.0
 30
0.0
  9
$UCSORGLEFT
 10
0.0
 20
0.0
 30
0.0
  9
$UCSORGRIGHT
 10
0.0
 20
0.0
 30
0.0
  9
$UCSORGFRONT
 10
0.0
 20
0.0
 30
0.0
  9
$UCSORGBACK
 10
0.0
 20
0.0
 30
0.0
  9
$PUCSBASE
  2

  9
$PUCSNAME
  2

  9
$PUCSORG
 10
0.0
 20
0.0
 30
0.0
  9
$PUCSXDIR
 10
1.0
 20
0.0
 30
0.0
  9
$PUCSYDIR
 10
0.0
 20
1.0
 30
0.0
  9
$PUCSORTHOREF
  2

  9
$PUCSORTHOVIEW
 70
     0
  9
$PUCSORGTOP
 10
0.0
 20
0.0
 30
0.0
  9
$PUCSORGBOTTOM
 10
0.0
 20
0.0
 30
0.0
  9
$PUCSORGLEFT
 10
0.0
 20
0.0
 30
0.0
  9
$PUCSORGRIGHT
 10
0.0
 20
0.0
 30
0.0
  9
$PUCSORGFRONT
 10
0.0
 20
0.0
 30
0.0
  9
$PUCSORGBACK
 10
0.0
 20
0.0
 30
0.0
  9
$USERI1
 70
     0
  9
$USERI2
 70
     0
  9
$USERI3
 70
     0
  9
$USERI4
 70
     0
  9
$USERI5
 70
     0
  9
$USERR1
 40
0.0
  9
$USERR2
 40
0.0
  9
$USERR3
 40
0.0
  9
$USERR4
 40
0.0
  9
$USERR5
 40
0.0
  9
$WORLDVIEW
 70
     1
  9
$SHADEDGE
 70
     3
  9
$SHADEDIF
 70
    70
  9
$TILEMODE
 70
     1
  9
$MAXACTVP
 70
    64
  9
$PINSBASE
 10
0.0
 20
0.0
 30
0.0
  9
$PLIMCHECK
 70
     0
  9
$PEXTMIN
 10
1.000000000000E+20
 20
1.000000000000E+20
 30
1.000000000000E+20
  9
$PEXTMAX
 10
-1.000000000000E+20
 20
-1.000000000000E+20
 30
-1.000000000000E+20
  9
$PLIMMIN
 10
0.0
 20
0.0
  9
$PLIMMAX
 10
12.0
 20
9.0
  9
$UNITMODE
 70
     0
  9
$VISRETAIN
 70
     1
  9
$PLINEGEN
 70
     0
  9
$PSLTSCALE
 70
     1
  9
$TREEDEPTH
 70
  3020
  9
$CMLSTYLE
  2
Standard
  9
$CMLJUST
 70
     0
  9
$CMLSCALE
 40
1.0
  9
$PROXYGRAPHICS
 70
     1
  9
$MEASUREMENT
 70
     0
  9
$CELWEIGHT
370
    -1
  9
$ENDCAPS
280
     0
  9
$JOINSTYLE
280
     0
  9
$LWDISPLAY
290
     0
  9
$INSUNITS
 70
     0
  9
$HYPERLINKBASE
  1

  9
$STYLESHEET
  1

  9
$XEDIT
290
     1
  9
$CEPSNTYPE
380
     0
  9
$PSTYLEMODE
290
     1
  9
$FINGERPRINTGUID
  2
{702F8A08-21CD-4B6D-94AB-4BF10F8258EB}
  9
$VERSIONGUID
  2
{FAEB1C32-E019-11D5-929B-00C0DF256EC4}
  9
$EXTNAMES
290
     1
  9
$PSVPSCALE
 40
0.0
  9
$OLESTARTUP
290
     0
  0
ENDSEC
  0
SECTION
  2
CLASSES
  0
CLASS
  1
ACDBDICTIONARYWDFLT
  2
AcDbDictionaryWithDefault
  3
ObjectDBX Classes
 90
        0
280
     0
281
     0
  0
CLASS
  1
SCALE
  2
AcDbScale
  3
ObjectDBX Classes
 90
     1153
280
     0
281
     0
  0
CLASS
  1
DICTIONARYVAR
  2
AcDbDictionaryVar
  3
ObjectDBX Classes
 90
        0
280
     0
281
     0
  0
CLASS
  1
ACDBPLACEHOLDER
  2
AcDbPlaceHolder
  3
ObjectDBX Classes
 90
        0
280
     0
281
     0
  0
CLASS
  1
LAYOUT
  2
AcDbLayout
  3
ObjectDBX Classes
 90
        0
280
     0
281
     0
  0
ENDSEC
  0
SECTION
  2
TABLES
  0
TABLE
  2
VPORT
  5
8
330
0
100
AcDbSymbolTable
 70
     1
  0
VPORT
  5
3F2
330
8
100
AcDbSymbolTableRecord
100
AcDbViewportTableRecord
  2
*Active
 70
     0
 10
0.0
 20
0.0
 11
1.0
 21
1.0
 12
110.495
 22
99.881
 13
0.0
 23
0.0
 14
0.5
 24
0.5
 15
0.5
 25
0.5
 16
0.0
 26
0.0
 36
1.0
 17
0.0
 27
0.0
 37
0.0
 40
203.75724
 41
1.319001386963
 42
50.0
 43
0.0
 44
0.0
 50
0.0
 51
0.0
 71
    16
 72
   100
 73
     1
 74
     3
 75
     0
 76
     0
 77
     0
 78
     0
281
     0
 65
     1
110
0.0
120
0.0
130
0.0
111
1.0
121
0.0
131
0.0
112
0.0
122
1.0
132
0.0
 79
     0
146
0.0
  0
ENDTAB
  0
TABLE
  2
LTYPE
  5
5
330
0
100
AcDbSymbolTable
 70
     1
  0
LTYPE
  5
14
330
5
100
AcDbSymbolTableRecord
100
AcDbLinetypeTableRecord
  2
ByBlock
 70
     0
  3

 72
    65
 73
     0
 40
0.0
  0
LTYPE
  5
15
330
5
100
AcDbSymbolTableRecord
100
AcDbLinetypeTableRecord
  2
ByLayer
 70
     0
  3

 72
    65
 73
     0
 40
0.0
  0
LTYPE
  5
16
330
5
100
AcDbSymbolTableRecord
100
AcDbLinetypeTableRecord
  2
Continuous
 70
     0
  3
Solid line
 72
    65
 73
     0
 40
0.0
  0
ENDTAB
  0
TABLE
  2
LAYER
  5
2
330
0
100
AcDbSymbolTable
 70
     1
  0
LAYER
  5
10
330
2
100
AcDbSymbolTableRecord
100
AcDbLayerTableRecord
  2
0
 70
     0
 62
     7
  6
Continuous
370
    -3
390
F
  0
ENDTAB
  0
TABLE
  2
STYLE
  5
3
330
0
100
AcDbSymbolTable
 70
     1
  0
STYLE
  5
11
330
3
100
AcDbSymbolTableRecord
100
AcDbTextStyleTableRecord
  2
Standard
 70
     0
 40
0.0
 41
1.0
 50
0.0
 71
     0
 42
0.2
  3
txt
  4

  0
ENDTAB
  0
TABLE
  2
VIEW
  5
6
330
0
100
AcDbSymbolTable
 70
     0
  0
ENDTAB
  0
TABLE
  2
UCS
  5
7
330
0
100
AcDbSymbolTable
 70
     0
  0
ENDTAB
  0
TABLE
  2
APPID
  5
9
330
0
100
AcDbSymbolTable
 70
     1
  0
APPID
  5
12
330
9
100
AcDbSymbolTableRecord
100
AcDbRegAppTableRecord
  2
ACAD
 70
     0
  0
ENDTAB
  0
TABLE
  2
DIMSTYLE
  5
A
330
0
100
AcDbSymbolTable
 70
     1
100
AcDbDimStyleTable
  0
DIMSTYLE
105
20
330
A
100
AcDbSymbolTableRecord
100
AcDbDimStyleTableRecord
  2
Standard
 70
     0
340
11
  0
ENDTAB
  0
TABLE
  2
BLOCK_RECORD
  5
1
330
0
100
AcDbSymbolTable
 70
     0
  0
BLOCK_RECORD
  5
1D
330
1
100
AcDbSymbolTableRecord
100
AcDbBlockTableRecord
  2
*Model_Space
340
1E
  0
BLOCK_RECORD
  5
1B
330
1
100
AcDbSymbolTableRecord
100
AcDbBlockTableRecord
  2
*Paper_Space
340
1C
  0
ENDTAB
  0
ENDSEC
  0
SECTION
  2
BLOCKS
  0
BLOCK
  5
3F5
330
1D
100
AcDbEntity
  8
0
100
AcDbBlockBegin
  2
*Model_Space
 70
     0
 10
0.0
 20
0.0
 30
0.0
  3
*Model_Space
  1
*Model_Space
  0
ENDBLK
  5
3F6
330
1D
100
AcDbEntity
  8
0
100
AcDbBlockEnd
  0
BLOCK
  5
3F3
330
1B
100
AcDbEntity
 67
     1
  8
0
100
AcDbBlockBegin
  2
*Paper_Space
 70
     0
 10
0.0
 20
0.0
 30
0.0
  3
*Paper_Space
  1
*Paper_Space
  0
ENDBLK
  5
3F4
330
1B
100
AcDbEntity
 67
     1
  8
0
100
AcDbBlockEnd
  0
ENDSEC
  0
SECTION
  2
ENTITIES
  0
LINE
  5
21
330
1D
100
AcDbEntity
  8
0
100
AcDbLine
 10
0.325
 20
102.29621
 30
0.0
 11
0.77
 21
99.35066
 31
0.0
  0
LINE
  5
22
330
1D
100
AcDbEntity
  8
0
100
AcDbLine
 10
11.615
 20
80.6292
 30
0.0
 11
14.22
 21
78.4779
 31
0.0
  0
LINE
  5
23
330
1D
100
AcDbEntity
  8
0
100
AcDbLine
 10
9.227
 20
83.0186
 30
0.0
 11
11.615
 21
80.6292
 31
0.0
  0
LINE
  5
24
330
1D
100
AcDbEntity
  8
0
100
AcDbLine
 10
7.076
 20
85.6238
 30
0.0
 11
9.227
 21
83.0186
 31
0.0
  0
LINE
  5
25
330
1D
100
AcDbEntity
  8
0
100
AcDbLine
 10
14.22
 20
78.4779
 30
0.0
 11
17.018
 21
76.5844
 31
0.0
  0
LINE
  5
26
330
1D
100
AcDbEntity
  8
0
100
AcDbLine
 10
24.159666666647
 20
73.290666666673
 30
0.0
 11
26.305
 21
72.604
 31
0.0
  0
LINE
  5
27
330
1D
100
AcDbEntity
  8
0
100
AcDbLine
 10
29.606
 20
71.886
 30
0.0
 11
32.961
 21
71.4838
 31
0.0
  0
LINE
  5
28
330
1D
100
AcDbEntity
  8
0
100
AcDbLine
 10
32.961
 20
71.4838
 30
0.0
 11
36.338
 21
71.4029
 31
0.0
  0
LINE
  5
29
330
1D
100
AcDbEntity
  8
0
100
AcDbLine
 10
39.708
 20
71.6433
 30
0.0
 11
43.039
 21
72.2025
 31
0.0
  0
LINE
  5
2A
330
1D
100
AcDbEntity
  8
0
100
AcDbLine
 10
36.338
 20
71.4029
 30
0.0
 11
39.708
 21
71.6433
 31
0.0
  0
LINE
  5
2B
330
1D
100
AcDbEntity
  8
0
100
AcDbLine
 10
46.303
 20
73.0767
 30
0.0
 11
49.468
 21
74.2561
 31
0.0
  0
LINE
  5
2C
330
1D
100
AcDbEntity
  8
0
100
AcDbLine
 10
49.468
 20
74.2561
 30
0.0
 11
52.507
 21
75.732
 31
0.0
  0
LINE
  5
2D
330
1D
100
AcDbEntity
  8
0
100
AcDbLine
 10
26.305
 20
72.604
 30
0.0
 11
29.606
 21
71.886
 31
0.0
  0
LINE
  5
2E
330
1D
100
AcDbEntity
  8
0
100
AcDbLine
 10
24.159666666647
 20
73.290666666673
 30
0.0
 11
26.305
 21
72.604
 31
0.0
  0
LINE
  5
2F
330
1D
100
AcDbEntity
  8
0
100
AcDbLine
 10
52.507000000001
 20
75.732000000001
 30
0.0
 11
55.392
 21
77.4898
 31
0.0
  0
LINE
  5
30
330
1D
100
AcDbEntity
  8
0
100
AcDbLine
 10
58.097
 20
79.5139
 30
0.0
 11
60.597
 21
81.7854
 31
0.0
  0
LINE
  5
31
330
1D
100
AcDbEntity
  8
0
100
AcDbLine
 10
60.597
 20
81.7854
 30
0.0
 11
62.87
 21
84.2851
 31
0.0
  0
LINE
  5
32
330
1D
100
AcDbEntity
  8
0
100
AcDbLine
 10
62.87
 20
84.2851
 30
0.0
 11
64.895
 21
86.9887
 31
0.0
  0
LINE
  5
33
330
1D
100
AcDbEntity
  8
0
100
AcDbLine
 10
55.392
 20
77.4898
 30
0.0
 11
56.744499999963
 21
78.501949999972
 31
0.0
  0
LINE
  5
34
330
1D
100
AcDbEntity
  8
0
100
AcDbLine
 10
55.392
 20
77.4898
 30
0.0
 11
56.744499999963
 21
78.501949999972
 31
0.0
  0
LINE
  5
35
330
1D
100
AcDbEntity
  8
0
100
AcDbLine
 10
52.507
 20
75.732
 30
0.0
 11
55.392
 21
77.4898
 31
0.0
  0
LINE
  5
36
330
1D
100
AcDbEntity
  8
0
100
AcDbLine
 10
19.982
 20
74.9644
 30
0.0
 11
23.087
 21
73.6336
 31
0.0
  0
LINE
  5
37
330
1D
100
AcDbEntity
  8
0
100
AcDbLine
 10
17.018
 20
76.5844
 30
0.0
 11
19.982
 21
74.9644
 31
0.0
  0
LINE
  5
38
330
1D
100
AcDbEntity
  8
0
100
AcDbLine
 10
3.565
 20
91.3876
 30
0.0
 11
5.183
 21
88.4222
 31
0.0
  0
LINE
  5
39
330
1D
100
AcDbEntity
  8
0
100
AcDbLine
 10
2.236
 20
94.494
 30
0.0
 11
3.563042366973
 21
91.392575175456
 31
0.0
  0
LINE
  5
3A
330
1D
100
AcDbEntity
  8
0
100
AcDbLine
 10
2.236
 20
94.494
 30
0.0
 11
3.563042366973
 21
91.392575175456
 31
0.0
  0
LINE
  5
3B
330
1D
100
AcDbEntity
  8
0
100
AcDbLine
 10
34.0
 20
89.8927
 30
0.0
 11
98.975124608
 21
89.8927
 31
0.0
  0
LINE
  5
3C
330
1D
100
AcDbEntity
  8
0
100
AcDbLine
 10
34.0
 20
89.8927
 30
0.0
 11
98.975124608
 21
89.8927
 31
0.0
  0
LINE
  5
3D
330
1D
100
AcDbEntity
  8
0
100
AcDbLine
 10
24.0183
 20
93.1324
 30
0.0
 11
25.0811
 21
92.421
 31
0.0
  0
LINE
  5
3E
330
1D
100
AcDbEntity
  8
0
100
AcDbLine
 10
22.5404
 20
94.3363
 30
0.0
 11
24.0183
 21
93.1324
 31
0.0
  0
LINE
  5
3F
330
1D
100
AcDbEntity
  8
0
100
AcDbLine
 10
20.5592
 20
96.4826
 30
0.0
 11
20.9395
 21
96.0094
 31
0.0
  0
LINE
  5
40
330
1D
100
AcDbEntity
  8
0
100
AcDbLine
 10
20.9395
 20
96.0094
 30
0.0
 11
21.9308
 21
94.9203
 31
0.0
  0
LINE
  5
41
330
1D
100
AcDbEntity
  8
0
100
AcDbLine
 10
21.9308
 20
94.9203
 30
0.0
 11
22.5404
 21
94.3363
 31
0.0
  0
LINE
  5
42
330
1D
100
AcDbEntity
  8
0
100
AcDbLine
 10
27.7236
 20
91.0943
 30
0.0
 11
28.5132
 21
90.8032
 31
0.0
  0
LINE
  5
43
330
1D
100
AcDbEntity
  8
0
100
AcDbLine
 10
26.3575
 20
91.708
 30
0.0
 11
27.7236
 21
91.0943
 31
0.0
  0
LINE
  5
44
330
1D
100
AcDbEntity
  8
0
100
AcDbLine
 10
28.5132
 20
90.8032
 30
0.0
 11
29.8791
 21
90.4001
 31
0.0
  0
LINE
  5
45
330
1D
100
AcDbEntity
  8
0
100
AcDbLine
 10
29.8791
 20
90.4001
 30
0.0
 11
30.706
 21
90.2154
 31
0.0
  0
LINE
  5
46
330
1D
100
AcDbEntity
  8
0
100
AcDbLine
 10
30.706
 20
90.2154
 30
0.0
 11
31.8279
 21
90.0518
 31
0.0
  0
LINE
  5
47
330
1D
100
AcDbEntity
  8
0
100
AcDbLine
 10
31.8279
 20
90.0518
 30
0.0
 11
34.0
 21
89.8927
 31
0.0
  0
LINE
  5
49
330
1D
100
AcDbEntity
  8
0
100
AcDbLine
 10
25.0811
 20
92.421
 30
0.0
 11
26.3575
 21
91.708
 31
0.0
  0
LINE
  5
4B
330
1D
100
AcDbEntity
  8
0
100
AcDbLine
 10
33.8321
 20
89.8937
 30
0.0
 11
34.0
 21
89.8927
 31
0.0
  0
LINE
  5
4C
330
1D
100
AcDbEntity
  8
0
100
AcDbLine
 10
5.183
 20
88.4222
 30
0.0
 11
7.076
 21
85.6238
 31
0.0
  0
LINE
  5
4D
330
1D
100
AcDbEntity
  8
0
100
AcDbLine
 10
64.895
 20
86.9887
 30
0.0
 11
66.655
 21
89.8734
 31
0.0
  0
LINE
  5
4E
330
1D
100
AcDbEntity
  8
0
100
AcDbLine
 10
99.964
 20
60.2383
 30
0.0
 11
100.364
 21
60.2383
 31
0.0
  0
LINE
  5
4F
330
1D
100
AcDbEntity
  8
0
100
AcDbLine
 10
103.327
 20
0.265
 30
0.0
 11
104.002
 21
0.34
 31
0.0
  0
LINE
  5
50
330
1D
100
AcDbEntity
  8
0
100
AcDbLine
 10
104.002
 20
0.34
 30
0.0
 11
105.24
 21
0.714
 31
0.0
  0
LINE
  5
51
330
1D
100
AcDbEntity
  8
0
100
AcDbLine
 10
105.24
 20
0.714
 30
0.0
 11
106.741
 21
1.389
 31
0.0
  0
LINE
  5
52
330
1D
100
AcDbEntity
  8
0
100
AcDbLine
 10
106.741
 20
1.389
 30
0.0
 11
108.541
 21
2.514
 31
0.0
  0
LINE
  5
53
330
1D
100
AcDbEntity
  8
0
100
AcDbLine
 10
108.541
 20
2.514
 30
0.0
 11
110.492
 21
4.5
 31
0.0
  0
LINE
  5
54
330
1D
100
AcDbEntity
  8
0
100
AcDbLine
 10
103.064
 20
60.2383
 30
0.0
 11
105.264
 21
60.2383
 31
0.0
  0
LINE
  5
55
330
1D
100
AcDbEntity
  8
0
100
AcDbLine
 10
102.964
 20
60.2383
 30
0.0
 11
102.964
 21
0.238
 31
0.0
  0
LINE
  5
56
330
1D
100
AcDbEntity
  8
0
100
AcDbLine
 10
102.964
 20
60.2383
 30
0.0
 11
103.264
 21
60.2383
 31
0.0
  0
LINE
  5
57
330
1D
100
AcDbEntity
  8
0
100
AcDbLine
 10
103.264
 20
60.2383
 30
0.0
 11
103.964
 21
60.2383
 31
0.0
  0
LINE
  5
58
330
1D
100
AcDbEntity
  8
0
100
AcDbLine
 10
105.264
 20
60.2383
 30
0.0
 11
107.764
 21
60.2383
 31
0.0
  0
LINE
  5
59
330
1D
100
AcDbEntity
  8
0
100
AcDbLine
 10
103.964
 20
60.2383
 30
0.0
 11
105.164
 21
60.2383
 31
0.0
  0
LINE
  5
5A
330
1D
100
AcDbEntity
  8
0
100
AcDbLine
 10
105.164
 20
60.2383
 30
0.0
 11
106.764
 21
60.2383
 31
0.0
  0
LINE
  5
5B
330
1D
100
AcDbEntity
  8
0
100
AcDbLine
 10
107.764
 20
60.2383
 30
0.0
 11
110.464
 21
60.2383
 31
0.0
  0
LINE
  5
5C
330
1D
100
AcDbEntity
  8
0
100
AcDbLine
 10
106.764
 20
60.2383
 30
0.0
 11
108.564
 21
60.2383
 31
0.0
  0
LINE
  5
5D
330
1D
100
AcDbEntity
  8
0
100
AcDbLine
 10
108.564
 20
60.2383
 30
0.0
 11
110.464
 21
60.2383
 31
0.0
  0
LINE
  5
5E
330
1D
100
AcDbEntity
  8
0
100
AcDbLine
 10
112.364
 20
60.2383
 30
0.0
 11
114.164
 21
60.2383
 31
0.0
  0
LINE
  5
5F
330
1D
100
AcDbEntity
  8
0
100
AcDbLine
 10
112.255
 20
5.85
 30
0.0
 11
114.093
 21
7.0489
 31
0.0
  0
LINE
  5
60
330
1D
100
AcDbEntity
  8
0
100
AcDbLine
 10
110.492
 20
4.5
 30
0.0
 11
112.255
 21
5.85
 31
0.0
  0
LINE
  5
61
330
1D
100
AcDbEntity
  8
0
100
AcDbLine
 10
117.664
 20
60.2383
 30
0.0
 11
117.964
 21
60.2383
 31
0.0
  0
LINE
  5
62
330
1D
100
AcDbEntity
  8
0
100
AcDbLine
 10
117.695
 20
10.01
 30
0.0
 11
117.964
 21
10.2383
 31
0.0
  0
LINE
  5
63
330
1D
100
AcDbEntity
  8
0
100
AcDbLine
 10
116.964
 20
60.2383
 30
0.0
 11
117.664
 21
60.2383
 31
0.0
  0
LINE
  5
64
330
1D
100
AcDbEntity
  8
0
100
AcDbLine
 10
116.982
 20
9.2978
 30
0.0
 11
117.695
 21
10.01
 31
0.0
  0
LINE
  5
65
330
1D
100
AcDbEntity
  8
0
100
AcDbLine
 10
115.764
 20
60.2383
 30
0.0
 11
116.964
 21
60.2383
 31
0.0
  0
LINE
  5
66
330
1D
100
AcDbEntity
  8
0
100
AcDbLine
 10
115.894
 20
8.2483
 30
0.0
 11
116.982
 21
9.2978
 31
0.0
  0
LINE
  5
67
330
1D
100
AcDbEntity
  8
0
100
AcDbLine
 10
114.164
 20
60.2383
 30
0.0
 11
115.764
 21
60.2383
 31
0.0
  0
LINE
  5
68
330
1D
100
AcDbEntity
  8
0
100
AcDbLine
 10
114.093
 20
7.0489
 30
0.0
 11
115.894
 21
8.2483
 31
0.0
  0
LINE
  5
69
330
1D
100
AcDbEntity
  8
0
100
AcDbLine
 10
117.964
 20
10.2383
 30
0.0
 11
117.964
 21
60.2383
 31
0.0
  0
LINE
  5
6A
330
1D
100
AcDbEntity
  8
0
100
AcDbLine
 10
117.864
 20
60.2383
 30
0.0
 11
119.564
 21
60.2383
 31
0.0
  0
LINE
  5
6B
330
1D
100
AcDbEntity
  8
0
100
AcDbLine
 10
115.664
 20
60.2383
 30
0.0
 11
117.864
 21
60.2383
 31
0.0
  0
LINE
  5
6C
330
1D
100
AcDbEntity
  8
0
100
AcDbLine
 10
113.164
 20
60.2383
 30
0.0
 11
115.664
 21
60.2383
 31
0.0
  0
LINE
  5
6D
330
1D
100
AcDbEntity
  8
0
100
AcDbLine
 10
110.464
 20
60.2383
 30
0.0
 11
113.164
 21
60.2383
 31
0.0
  0
LINE
  5
6E
330
1D
100
AcDbEntity
  8
0
100
AcDbLine
 10
110.464
 20
60.2383
 30
0.0
 11
112.364
 21
60.2383
 31
0.0
  0
LINE
  5
6F
330
1D
100
AcDbEntity
  8
0
100
AcDbLine
 10
100.364
 20
60.2383
 30
0.0
 11
101.364
 21
60.2383
 31
0.0
  0
LINE
  5
70
330
1D
100
AcDbEntity
  8
0
100
AcDbLine
 10
101.364
 20
60.2383
 30
0.0
 11
102.964
 21
60.2383
 31
0.0
  0
LINE
  5
71
330
1D
100
AcDbEntity
  8
0
100
AcDbLine
 10
101.364
 20
60.2383
 30
0.0
 11
103.064
 21
60.2383
 31
0.0
  0
LINE
  5
73
330
1D
100
AcDbEntity
  8
0
100
AcDbLine
 10
120.564
 20
60.2383
 30
0.0
 11
120.964
 21
60.2383
 31
0.0
  0
LINE
  5
74
330
1D
100
AcDbEntity
  8
0
100
AcDbLine
 10
119.564
 20
60.2383
 30
0.0
 11
120.564
 21
60.2383
 31
0.0
  0
LINE
  5
75
330
1D
100
AcDbEntity
  8
0
100
AcDbLine
 10
117.964
 20
60.2383
 30
0.0
 11
117.964
 21
10.2383
 31
0.0
  0
LINE
  5
76
330
1D
100
AcDbEntity
  8
0
100
AcDbLine
 10
117.964
 20
60.2383
 30
0.0
 11
119.564
 21
60.2383
 31
0.0
  0
LINE
  5
77
330
1D
100
AcDbEntity
  8
0
100
AcDbLine
 10
102.964
 20
0.238
 30
0.0
 11
102.964
 21
60.2383
 31
0.0
  0
LINE
  5
78
330
1D
100
AcDbEntity
  8
0
100
AcDbLine
 10
102.964
 20
0.238
 30
0.0
 11
103.327
 21
0.265
 31
0.0
  0
LINE
  5
88
330
1D
100
AcDbEntity
  8
0
100
AcDbLine
 10
95.6775
 20
89.8927
 30
0.0
 11
98.7906
 21
89.8927
 31
0.0
  0
LINE
  5
91
330
1D
100
AcDbEntity
  8
0
100
AcDbLine
 10
98.9636
 20
90.2383
 30
0.0
 11
99.3636
 21
90.2383
 31
0.0
  0
LINE
  5
92
330
1D
100
AcDbEntity
  8
0
100
AcDbLine
 10
98.9636
 20
90.2383
 30
0.0
 11
99.964
 21
60.2383
 31
0.0
  0
LINE
  5
93
330
1D
100
AcDbEntity
  8
0
100
AcDbLine
 10
99.3636
 20
90.2383
 30
0.0
 11
100.464
 21
90.2383
 31
0.0
  0
LINE
  5
94
330
1D
100
AcDbEntity
  8
0
100
AcDbLine
 10
100.464
 20
90.2383
 30
0.0
 11
102.364
 21
90.2383
 31
0.0
  0
LINE
  5
95
330
1D
100
AcDbEntity
  8
0
100
AcDbLine
 10
102.364
 20
90.2383
 30
0.0
 11
104.764
 21
90.2383
 31
0.0
  0
LINE
  5
96
330
1D
100
AcDbEntity
  8
0
100
AcDbLine
 10
104.764
 20
90.2383
 30
0.0
 11
107.464
 21
90.2383
 31
0.0
  0
LINE
  5
97
330
1D
100
AcDbEntity
  8
0
100
AcDbLine
 10
107.464
 20
90.2383
 30
0.0
 11
110.464
 21
90.2383
 31
0.0
  0
LINE
  5
98
330
1D
100
AcDbEntity
  8
0
100
AcDbLine
 10
99.4636
 20
90.5983
 30
0.0
 11
99.728
 21
90.2383
 31
0.0
  0
LINE
  5
99
330
1D
100
AcDbEntity
  8
0
100
AcDbLine
 10
99.4636
 20
90.5983
 30
0.0
 11
99.86
 21
90.5983
 31
0.0
  0
LINE
  5
9A
330
1D
100
AcDbEntity
  8
0
100
AcDbLine
 10
99.4636
 20
90.5983
 30
0.0
 11
99.4636
 21
97.117042707796
 31
0.0
  0
LINE
  5
9B
330
1D
100
AcDbEntity
  8
0
100
AcDbLine
 10
99.86
 20
90.5983
 30
0.0
 11
100.916
 21
90.5983
 31
0.0
  0
LINE
  5
9C
330
1D
100
AcDbEntity
  8
0
100
AcDbLine
 10
100.916
 20
90.5983
 30
0.0
 11
102.676
 21
90.5983
 31
0.0
  0
LINE
  5
9D
330
1D
100
AcDbEntity
  8
0
100
AcDbLine
 10
102.676
 20
90.5983
 30
0.0
 11
105.008
 21
90.5983
 31
0.0
  0
LINE
  5
9E
330
1D
100
AcDbEntity
  8
0
100
AcDbLine
 10
105.008
 20
90.5983
 30
0.0
 11
107.648
 21
90.5983
 31
0.0
  0
LINE
  5
A0
330
1D
100
AcDbEntity
  8
0
100
AcDbLine
 10
107.648
 20
90.5983
 30
0.0
 11
110.464
 21
90.5983
 31
0.0
  0
LINE
  5
BC
330
1D
100
AcDbEntity
  8
0
100
AcDbLine
 10
88.4086
 20
89.8927
 30
0.0
 11
92.0435
 21
89.8927
 31
0.0
  0
LINE
  5
C7
330
1D
100
AcDbEntity
  8
0
100
AcDbLine
 10
108.922
 20
93.796
 30
0.0
 11
110.5
 21
93.723
 31
0.0
  0
LINE
  5
CA
330
1D
100
AcDbEntity
  8
0
100
AcDbLine
 10
107.38
 20
94.0039
 30
0.0
 11
108.922
 21
93.796
 31
0.0
  0
LINE
  5
CC
330
1D
100
AcDbEntity
  8
0
100
AcDbLine
 10
105.624
 20
94.3988
 30
0.0
 11
107.38
 21
94.0039
 31
0.0
  0
LINE
  5
CD
330
1D
100
AcDbEntity
  8
0
100
AcDbLine
 10
104.001
 20
94.9125
 30
0.0
 11
105.624
 21
94.3988
 31
0.0
  0
LINE
  5
D1
330
1D
100
AcDbEntity
  8
0
100
AcDbLine
 10
102.501
 20
95.5149
 30
0.0
 11
104.001
 21
94.9125
 31
0.0
  0
LINE
  5
D2
330
1D
100
AcDbEntity
  8
0
100
AcDbLine
 10
101.182
 20
96.1482
 30
0.0
 11
102.501
 21
95.5149
 31
0.0
  0
LINE
  5
D7
330
1D
100
AcDbEntity
  8
0
100
AcDbLine
 10
99.3641
 20
96.4164
 30
0.0
 11
99.4636
 21
96.341207502431
 31
0.0
  0
LINE
  5
DC
330
1D
100
AcDbEntity
  8
0
100
AcDbLine
 10
18.579
 20
99.73185
 30
0.0
 11
18.9813
 21
98.92357
 31
0.0
  0
LINE
  5
DD
330
1D
100
AcDbEntity
  8
0
100
AcDbLine
 10
20.45215602082
 20
96.648194234019
 30
0.0
 11
20.5592
 21
96.4826
 31
0.0
  0
LINE
  5
DE
330
1D
100
AcDbEntity
  8
0
100
AcDbLine
 10
20.45215602082
 20
96.648194234019
 30
0.0
 11
20.5592
 21
96.4826
 31
0.0
  0
LINE
  5
DF
330
1D
100
AcDbEntity
  8
0
100
AcDbLine
 10
17.8383
 20
101.60943
 30
0.0
 11
18.1087
 21
100.84543
 31
0.0
  0
LINE
  5
E0
330
1D
100
AcDbEntity
  8
0
100
AcDbLine
 10
17.3549
 20
103.41754
 30
0.0
 11
17.8383
 21
101.60943
 31
0.0
  0
LINE
  5
E1
330
1D
100
AcDbEntity
  8
0
100
AcDbLine
 10
18.1087
 20
100.84543
 30
0.0
 11
18.579
 21
99.73185
 31
0.0
  0
LINE
  5
E2
330
1D
100
AcDbEntity
  8
0
100
AcDbLine
 10
98.0515
 20
97.912
 30
0.0
 11
98.2943
 21
97.81377
 31
0.0
  0
LINE
  5
E3
330
1D
100
AcDbEntity
  8
0
100
AcDbLine
 10
99.4636
 20
97.117042707796
 30
0.0
 11
99.4636
 21
90.5983
 31
0.0
  0
LINE
  5
E6
330
1D
100
AcDbEntity
  8
0
100
AcDbLine
 10
99.731
 20
96.95504
 30
0.0
 11
101.182
 21
96.1482
 31
0.0
  0
LINE
  5
EC
330
1D
100
AcDbEntity
  8
0
100
AcDbLine
 10
98.8395
 20
97.49515
 30
0.0
 11
99.731
 21
96.95504
 31
0.0
  0
LINE
  5
ED
330
1D
100
AcDbEntity
  8
0
100
AcDbLine
 10
98.2943
 20
97.81377
 30
0.0
 11
98.8395
 21
97.49515
 31
0.0
  0
LINE
  5
EE
330
1D
100
AcDbEntity
  8
0
100
AcDbLine
 10
98.5159
 20
97.20178
 30
0.0
 11
99.3641
 21
96.4164
 31
0.0
  0
LINE
  5
EF
330
1D
100
AcDbEntity
  8
0
100
AcDbLine
 10
98.1662
 20
97.59423
 30
0.0
 11
98.5159
 21
97.20178
 31
0.0
  0
LINE
  5
F0
330
1D
100
AcDbEntity
  8
0
100
AcDbLine
 10
109.171
 20
99.0807
 30
0.0
 11
110.291
 21
99.03397
 31
0.0
  0
LINE
  5
F1
330
1D
100
AcDbEntity
  8
0
100
AcDbLine
 10
108.063
 20
99.18946
 30
0.0
 11
109.171
 21
99.0807
 31
0.0
  0
LINE
  5
F2
330
1D
100
AcDbEntity
  8
0
100
AcDbLine
 10
106.978
 20
99.3573
 30
0.0
 11
108.063
 21
99.18946
 31
0.0
  0
LINE
  5
F3
330
1D
100
AcDbEntity
  8
0
100
AcDbLine
 10
105.925
 20
99.58527
 30
0.0
 11
106.978
 21
99.3573
 31
0.0
  0
LINE
  5
F4
330
1D
100
AcDbEntity
  8
0
100
AcDbLine
 10
104.915
 20
99.87049
 30
0.0
 11
105.925
 21
99.58527
 31
0.0
  0
LINE
  5
F5
330
1D
100
AcDbEntity
  8
0
100
AcDbLine
 10
108.58
 20
100.00752
 30
0.0
 11
109.607
 21
99.92075
 31
0.0
  0
LINE
  5
F8
330
1D
100
AcDbEntity
  8
0
100
AcDbLine
 10
103.956
 20
100.20908
 30
0.0
 11
104.915
 21
99.87049
 31
0.0
  0
LINE
  5
F9
330
1D
100
AcDbEntity
  8
0
100
AcDbLine
 10
106.599
 20
100.35949
 30
0.0
 11
107.575
 21
100.15441
 31
0.0
  0
LINE
  5
FA
330
1D
100
AcDbEntity
  8
0
100
AcDbLine
 10
107.575
 20
100.15441
 30
0.0
 11
108.58
 21
100.00752
 31
0.0
  0
LINE
  5
FB
330
1D
100
AcDbEntity
  8
0
100
AcDbLine
 10
107.607
 20
100.18974
 30
0.0
 11
108.63
 21
100.04384
 31
0.0
  0
LINE
  5
FC
330
1D
100
AcDbEntity
  8
0
100
AcDbLine
 10
108.63
 20
100.04384
 30
0.0
 11
109.676
 21
99.95898
 31
0.0
  0
LINE
  5
115
330
1D
100
AcDbEntity
  8
0
100
AcDbLine
 10
102.226
 20
101.03696
 30
0.0
 11
103.057
 21
100.59916
 31
0.0
  0
LINE
  5
116
330
1D
100
AcDbEntity
  8
0
100
AcDbLine
 10
102.122
 20
101.09796
 30
0.0
 11
102.226
 21
101.03696
 31
0.0
  0
LINE
  5
117
330
1D
100
AcDbEntity
  8
0
100
AcDbLine
 10
101.357
 20
101.58634
 30
0.0
 11
102.122
 21
101.09796
 31
0.0
  0
LINE
  5
118
330
1D
100
AcDbEntity
  8
0
100
AcDbLine
 10
100.675
 20
102.11475
 30
0.0
 11
101.357
 21
101.58634
 31
0.0
  0
LINE
  5
119
330
1D
100
AcDbEntity
  8
0
100
AcDbLine
 10
100.083
 20
102.67649
 30
0.0
 11
100.675
 21
102.11475
 31
0.0
  0
LINE
  5
11A
330
1D
100
AcDbEntity
  8
0
100
AcDbLine
 10
101.92
 20
102.6562
 30
0.0
 11
102.519
 21
102.165
 31
0.0
  0
LINE
  5
11B
330
1D
100
AcDbEntity
  8
0
100
AcDbLine
 10
102.519
 20
102.165
 30
0.0
 11
103.199
 21
101.71098
 31
0.0
  0
LINE
  5
11C
330
1D
100
AcDbEntity
  8
0
100
AcDbLine
 10
102.393
 20
102.30149
 30
0.0
 11
103.093
 21
101.8179
 31
0.0
  0
LINE
  5
11D
330
1D
100
AcDbEntity
  8
0
100
AcDbLine
 10
101.41
 20
103.17885
 30
0.0
 11
101.92
 21
102.6562
 31
0.0
  0
LINE
  5
11E
330
1D
100
AcDbEntity
  8
0
100
AcDbLine
 10
101.786
 20
102.82411
 30
0.0
 11
102.393
 21
102.30149
 31
0.0
  0
LINE
  5
11F
330
1D
100
AcDbEntity
  8
0
100
AcDbLine
 10
103.057
 20
100.59916
 30
0.0
 11
103.956
 21
100.20908
 31
0.0
  0
LINE
  5
120
330
1D
100
AcDbEntity
  8
0
100
AcDbLine
 10
105.665
 20
100.62083
 30
0.0
 11
106.599
 21
100.35949
 31
0.0
  0
LINE
  5
121
330
1D
100
AcDbEntity
  8
0
100
AcDbLine
 10
105.665
 20
100.66287
 30
0.0
 11
106.616
 21
100.39771
 31
0.0
  0
LINE
  5
122
330
1D
100
AcDbEntity
  8
0
100
AcDbLine
 10
106.616
 20
100.39771
 30
0.0
 11
107.607
 21
100.18974
 31
0.0
  0
LINE
  5
123
330
1D
100
AcDbEntity
  8
0
100
AcDbLine
 10
104.781
 20
100.93457
 30
0.0
 11
105.665
 21
100.62083
 31
0.0
  0
LINE
  5
124
330
1D
100
AcDbEntity
  8
0
100
AcDbLine
 10
104.739
 20
100.99382
 30
0.0
 11
105.665
 21
100.66287
 31
0.0
  0
LINE
  5
125
330
1D
100
AcDbEntity
  8
0
100
AcDbLine
 10
103.956
 20
101.29991
 30
0.0
 11
104.781
 21
100.93457
 31
0.0
  0
LINE
  5
126
330
1D
100
AcDbEntity
  8
0
100
AcDbLine
 10
103.878
 20
101.38008
 30
0.0
 11
104.739
 21
100.99382
 31
0.0
  0
LINE
  5
127
330
1D
100
AcDbEntity
  8
0
100
AcDbLine
 10
103.199
 20
101.71098
 30
0.0
 11
103.956
 21
101.29991
 31
0.0
  0
LINE
  5
128
330
1D
100
AcDbEntity
  8
0
100
AcDbLine
 10
103.093
 20
101.8179
 30
0.0
 11
103.878
 21
101.38008
 31
0.0
  0
LINE
  5
129
330
1D
100
AcDbEntity
  8
0
100
AcDbLine
 10
103.565
 20
102.76023
 30
0.0
 11
104.162
 21
102.35393
 31
0.0
  0
LINE
  5
12A
330
1D
100
AcDbEntity
  8
0
100
AcDbLine
 10
104.162
 20
102.35393
 30
0.0
 11
104.829
 21
101.98573
 31
0.0
  0
LINE
  5
12B
330
1D
100
AcDbEntity
  8
0
100
AcDbLine
 10
104.829
 20
101.98573
 30
0.0
 11
105.558
 21
101.66053
 31
0.0
  0
LINE
  5
12C
330
1D
100
AcDbEntity
  8
0
100
AcDbLine
 10
105.558
 20
101.66053
 30
0.0
 11
106.342
 21
101.38008
 31
0.0
  0
LINE
  5
12D
330
1D
100
AcDbEntity
  8
0
100
AcDbLine
 10
106.342
 20
101.38008
 30
0.0
 11
107.251
 21
101.1302
 31
0.0
  0
LINE
  5
12E
330
1D
100
AcDbEntity
  8
0
100
AcDbLine
 10
107.251
 20
101.1302
 30
0.0
 11
108.204
 21
100.94232
 31
0.0
  0
LINE
  5
12F
330
1D
100
AcDbEntity
  8
0
100
AcDbLine
 10
108.204
 20
100.94232
 30
0.0
 11
109.187
 21
100.81833
 31
0.0
  0
LINE
  5
131
330
1D
100
AcDbEntity
  8
0
100
AcDbLine
 10
109.187
 20
100.81833
 30
0.0
 11
110.188
 21
100.7592
 31
0.0
  0
LINE
  5
132
330
1D
100
AcDbEntity
  8
0
100
AcDbLine
 10
103.045
 20
103.1999
 30
0.0
 11
103.565
 21
102.76023
 31
0.0
  0
LINE
  5
133
330
1D
100
AcDbEntity
  8
0
100
AcDbLine
 10
99.586
 20
103.26874
 30
0.0
 11
100.083
 21
102.67649
 31
0.0
  0
LINE
  5
134
330
1D
100
AcDbEntity
  8
0
100
AcDbLine
 10
101.277
 20
103.38209
 30
0.0
 11
101.786
 21
102.82411
 31
0.0
  0
LINE
  5
135
330
1D
100
AcDbEntity
  8
0
100
AcDbLine
 10
107.236
 20
103.5433
 30
0.0
 11
108.172
 21
103.35636
 31
0.0
  0
LINE
  5
136
330
1D
100
AcDbEntity
  8
0
100
AcDbLine
 10
108.172
 20
103.35636
 30
0.0
 11
109.139
 21
103.2314
 31
0.0
  0
LINE
  5
137
330
1D
100
AcDbEntity
  8
0
100
AcDbLine
 10
109.139
 20
103.2314
 30
0.0
 11
110.123
 21
103.16938
 31
0.0
  0
LINE
  5
164
330
1D
100
AcDbEntity
  8
0
100
AcDbLine
 10
98.0081
 20
97.83952
 30
0.0
 11
98.0515
 21
97.912
 31
0.0
  0
LINE
  5
165
330
1D
100
AcDbEntity
  8
0
100
AcDbLine
 10
98.0081
 20
97.83952
 30
0.0
 11
98.1662
 21
97.59423
 31
0.0
  0
LINE
  5
16A
330
1D
100
AcDbEntity
  8
0
100
AcDbLine
 10
99.1887
 20
103.88685
 30
0.0
 11
99.586
 21
103.26874
 31
0.0
  0
LINE
  5
16B
330
1D
100
AcDbEntity
  8
0
100
AcDbLine
 10
100.996
 20
103.73117
 30
0.0
 11
101.41
 21
103.17885
 31
0.0
  0
LINE
  5
16C
330
1D
100
AcDbEntity
  8
0
100
AcDbLine
 10
100.874
 20
103.96771
 30
0.0
 11
101.277
 21
103.38209
 31
0.0
  0
LINE
  5
174
330
1D
100
AcDbEntity
  8
0
100
AcDbLine
 10
105.502
 20
104.09166
 30
0.0
 11
106.342
 21
103.78935
 31
0.0
  0
LINE
  5
175
330
1D
100
AcDbEntity
  8
0
100
AcDbLine
 10
106.342
 20
103.78935
 30
0.0
 11
107.236
 21
103.5433
 31
0.0
  0
LINE
  5
176
330
1D
100
AcDbEntity
  8
0
100
AcDbLine
 10
102.605
 20
103.66921
 30
0.0
 11
103.045
 21
103.1999
 31
0.0
  0
LINE
  5
178
330
1D
100
AcDbEntity
  8
0
100
AcDbLine
 10
100.678
 20
104.3024
 30
0.0
 11
100.996
 21
103.73117
 31
0.0
  0
LINE
  5
179
330
1D
100
AcDbEntity
  8
0
100
AcDbLine
 10
102.253
 20
104.16232
 30
0.0
 11
102.605
 21
103.66921
 31
0.0
  0
LINE
  5
17C
330
1D
100
AcDbEntity
  8
0
100
AcDbLine
 10
1.604686837305
 20
96.585455241974
 30
0.0
 11
2.236
 21
94.494
 31
0.0
  0
LINE
  5
17D
330
1D
100
AcDbEntity
  8
0
100
AcDbLine
 10
0.09
 20
104.36779
 30
0.0
 11
0.325
 21
102.29621
 31
0.0
  0
LINE
  5
17E
330
1D
100
AcDbEntity
  8
0
100
AcDbLine
 10
17.0154
 20
106.072409
 30
0.0
 11
17.173
 21
104.44419
 31
0.0
  0
LINE
  5
17F
330
1D
100
AcDbEntity
  8
0
100
AcDbLine
 10
17.173
 20
104.44419
 30
0.0
 11
17.3549
 21
103.41754
 31
0.0
  0
LINE
  5
180
330
1D
100
AcDbEntity
  8
0
100
AcDbLine
 10
17.0015
 20
107.347436
 30
0.0
 11
17.0243
 21
107.879731
 31
0.0
  0
LINE
  5
181
330
1D
100
AcDbEntity
  8
0
100
AcDbLine
 10
17.3031
 20
110.10989
 30
0.0
 11
17.8749
 21
112.28648
 31
0.0
  0
LINE
  5
182
330
1D
100
AcDbEntity
  8
0
100
AcDbLine
 10
17.0243
 20
107.879731
 30
0.0
 11
17.3031
 21
110.10989
 31
0.0
  0
LINE
  5
183
330
1D
100
AcDbEntity
  8
0
100
AcDbLine
 10
16.9955
 20
106.893998
 30
0.0
 11
17.0154
 21
106.072409
 31
0.0
  0
LINE
  5
184
330
1D
100
AcDbEntity
  8
0
100
AcDbLine
 10
16.9955
 20
106.893998
 30
0.0
 11
17.0015
 21
107.347436
 31
0.0
  0
LINE
  5
185
330
1D
100
AcDbEntity
  8
0
100
AcDbLine
 10
17.8749
 20
112.28648
 30
0.0
 11
18.1437
 21
113.03096
 31
0.0
  0
LINE
  5
186
330
1D
100
AcDbEntity
  8
0
100
AcDbLine
 10
18.1437
 20
113.03096
 30
0.0
 11
18.6029
 21
114.10489
 31
0.0
  0
LINE
  5
187
330
1D
100
AcDbEntity
  8
0
100
AcDbLine
 10
18.6029
 20
114.10489
 30
0.0
 11
19.5355
 21
115.82769
 31
0.0
  0
LINE
  5
188
330
1D
100
AcDbEntity
  8
0
100
AcDbLine
 10
98.1407
 20
107.130102
 30
0.0
 11
98.549
 21
106.099524
 31
0.0
  0
LINE
  5
189
330
1D
100
AcDbEntity
  8
0
100
AcDbLine
 10
98.2138
 20
109.40745
 30
0.0
 11
98.7243
 21
110.42354
 31
0.0
  0
LINE
  5
18A
330
1D
100
AcDbEntity
  8
0
100
AcDbLine
 10
98.0008
 20
108.24294
 30
0.0
 11
98.2138
 21
109.40745
 31
0.0
  0
LINE
  5
18B
330
1D
100
AcDbEntity
  8
0
100
AcDbLine
 10
98.0008
 20
108.24294
 30
0.0
 11
98.1407
 21
107.130102
 31
0.0
  0
LINE
  5
18D
330
1D
100
AcDbEntity
  8
0
100
AcDbLine
 10
98.6529
 20
105.33688
 30
0.0
 11
98.8416
 21
104.68355
 31
0.0
  0
LINE
  5
18E
330
1D
100
AcDbEntity
  8
0
100
AcDbLine
 10
98.5712
 20
105.997894
 30
0.0
 11
98.6529
 21
105.33688
 31
0.0
  0
LINE
  5
18F
330
1D
100
AcDbEntity
  8
0
100
AcDbLine
 10
98.5712
 20
105.997894
 30
0.0
 11
98.5712
 21
110.118812519099
 31
0.0
  0
LINE
  5
190
330
1D
100
AcDbEntity
  8
0
100
AcDbLine
 10
98.8951
 20
104.52298
 30
0.0
 11
99.1887
 21
103.88685
 31
0.0
  0
LINE
  5
191
330
1D
100
AcDbEntity
  8
0
100
AcDbLine
 10
98.8416
 20
104.68355
 30
0.0
 11
98.8951
 21
104.52298
 31
0.0
  0
LINE
  5
196
330
1D
100
AcDbEntity
  8
0
100
AcDbLine
 10
98.5712
 20
110.118812519099
 30
0.0
 11
98.5712
 21
106.324966
 31
0.0
  0
LINE
  5
197
330
1D
100
AcDbEntity
  8
0
100
AcDbLine
 10
98.5712
 20
110.118812519099
 30
0.0
 11
98.5712
 21
105.997894
 31
0.0
  0
LINE
  5
198
330
1D
100
AcDbEntity
  8
0
100
AcDbLine
 10
98.5712
 20
106.324966
 30
0.0
 11
98.578
 21
106.160923
 31
0.0
  0
LINE
  5
199
330
1D
100
AcDbEntity
  8
0
100
AcDbLine
 10
98.5712
 20
106.324966
 30
0.0
 11
98.5712
 21
110.118812519099
 31
0.0
  0
LINE
  5
19F
330
1D
100
AcDbEntity
  8
0
100
AcDbLine
 10
98.7243
 20
110.42354
 30
0.0
 11
99.635
 21
111.53707
 31
0.0
  0
LINE
  5
1A0
330
1D
100
AcDbEntity
  8
0
100
AcDbLine
 10
100.581
 20
104.57624
 30
0.0
 11
100.874
 21
103.96771
 31
0.0
  0
LINE
  5
1A1
330
1D
100
AcDbEntity
  8
0
100
AcDbLine
 10
101.992
 20
104.67354
 30
0.0
 11
102.253
 21
104.16232
 31
0.0
  0
LINE
  5
1A2
330
1D
100
AcDbEntity
  8
0
100
AcDbLine
 10
100.463
 20
104.89093
 30
0.0
 11
100.678
 21
104.3024
 31
0.0
  0
LINE
  5
1A3
330
1D
100
AcDbEntity
  8
0
100
AcDbLine
 10
100.399
 20
105.233244285714
 30
0.0
 11
100.399
 21
106.425868857143
 31
0.0
  0
LINE
  5
1A4
330
1D
100
AcDbEntity
  8
0
100
AcDbLine
 10
100.351
 20
105.48998
 30
0.0
 11
100.463
 21
104.89093
 31
0.0
  0
LINE
  5
1A5
330
1D
100
AcDbEntity
  8
0
100
AcDbLine
 10
100.40556319172
 20
105.19814
 30
0.0
 11
101.823
 21
105.19814
 31
0.0
  0
LINE
  5
1A6
330
1D
100
AcDbEntity
  8
0
100
AcDbLine
 10
100.41717342175
 20
105.136040818757
 30
0.0
 11
100.581
 21
104.57624
 31
0.0
  0
LINE
  5
1A7
330
1D
100
AcDbEntity
  8
0
100
AcDbLine
 10
101.823
 20
105.19814
 30
0.0
 11
101.823
 21
106.542951
 31
0.0
  0
LINE
  5
1A8
330
1D
100
AcDbEntity
  8
0
100
AcDbLine
 10
101.823
 20
105.19814
 30
0.0
 11
101.992
 21
104.67354
 31
0.0
  0
LINE
  5
1A9
330
1D
100
AcDbEntity
  8
0
100
AcDbLine
 10
102.869
 20
105.78379
 30
0.0
 11
103.4
 21
105.29927
 31
0.0
  0
LINE
  5
1AA
330
1D
100
AcDbEntity
  8
0
100
AcDbLine
 10
103.4
 20
105.29927
 30
0.0
 11
104.021
 21
104.85192
 31
0.0
  0
LINE
  5
1AB
330
1D
100
AcDbEntity
  8
0
100
AcDbLine
 10
104.021
 20
104.85192
 30
0.0
 11
104.724
 21
104.44845
 31
0.0
  0
LINE
  5
1AC
330
1D
100
AcDbEntity
  8
0
100
AcDbLine
 10
104.724
 20
104.44845
 30
0.0
 11
105.502
 21
104.09166
 31
0.0
  0
LINE
  5
1CA
330
1D
100
AcDbEntity
  8
0
100
AcDbLine
 10
102.436
 20
106.298799
 30
0.0
 11
102.869
 21
105.78379
 31
0.0
  0
LINE
  5
1CB
330
1D
100
AcDbEntity
  8
0
100
AcDbLine
 10
100.351
 20
106.169995
 30
0.0
 11
100.463
 21
106.767034
 31
0.0
  0
LINE
  5
1CC
330
1D
100
AcDbEntity
  8
0
100
AcDbLine
 10
100.347
 20
105.82848
 30
0.0
 11
100.351
 21
106.169995
 31
0.0
  0
LINE
  5
1CD
330
1D
100
AcDbEntity
  8
0
100
AcDbLine
 10
100.347
 20
105.82848
 30
0.0
 11
100.351
 21
105.48998
 31
0.0
  0
LINE
  5
1CE
330
1D
100
AcDbEntity
  8
0
100
AcDbLine
 10
100.399
 20
106.425868857143
 30
0.0
 11
100.399
 21
105.233244285714
 31
0.0
  0
LINE
  5
1CF
330
1D
100
AcDbEntity
  8
0
100
AcDbLine
 10
100.420963724313
 20
106.542951
 30
0.0
 11
101.823
 21
106.542951
 31
0.0
  0
LINE
  5
1D0
330
1D
100
AcDbEntity
  8
0
100
AcDbLine
 10
100.463
 20
106.767034
 30
0.0
 11
100.678
 21
107.354547
 31
0.0
  0
LINE
  5
1D1
330
1D
100
AcDbEntity
  8
0
100
AcDbLine
 10
100.678
 20
107.354547
 30
0.0
 11
100.996
 21
107.92881
 31
0.0
  0
LINE
  5
1D2
330
1D
100
AcDbEntity
  8
0
100
AcDbLine
 10
101.41
 20
108.4791
 30
0.0
 11
101.92
 21
109.00177
 31
0.0
  0
LINE
  5
1D3
330
1D
100
AcDbEntity
  8
0
100
AcDbLine
 10
100.996
 20
107.92881
 30
0.0
 11
101.41
 21
108.4791
 31
0.0
  0
LINE
  5
1DB
330
1D
100
AcDbEntity
  8
0
100
AcDbLine
 10
102.104
 20
106.839625
 30
0.0
 11
102.436
 21
106.298799
 31
0.0
  0
LINE
  5
1DC
330
1D
100
AcDbEntity
  8
0
100
AcDbLine
 10
102.003311146429
 20
107.089741929848
 30
0.0
 11
102.104
 21
106.839625
 31
0.0
  0
LINE
  5
1DD
330
1D
100
AcDbEntity
  8
0
100
AcDbLine
 10
101.92
 20
109.00177
 30
0.0
 11
102.519
 21
109.49396
 31
0.0
  0
LINE
  5
1E7
330
1D
100
AcDbEntity
  8
0
100
AcDbLine
 10
103.565
 20
108.98083
 30
0.0
 11
104.162
 21
109.38816
 31
0.0
  0
LINE
  5
1E8
330
1D
100
AcDbEntity
  8
0
100
AcDbLine
 10
104.162
 20
109.38816
 30
0.0
 11
104.829
 21
109.75532
 31
0.0
  0
LINE
  5
1E9
330
1D
100
AcDbEntity
  8
0
100
AcDbLine
 10
103.045
 20
108.54116
 30
0.0
 11
103.565
 21
108.98083
 31
0.0
  0
LINE
  5
1EA
330
1D
100
AcDbEntity
  8
0
100
AcDbLine
 10
102.605
 20
108.07288
 30
0.0
 11
103.045
 21
108.54116
 31
0.0
  0
LINE
  5
1EB
330
1D
100
AcDbEntity
  8
0
100
AcDbLine
 10
102.253
 20
107.579752
 30
0.0
 11
102.605
 21
108.07288
 31
0.0
  0
LINE
  5
1EC
330
1D
100
AcDbEntity
  8
0
100
AcDbLine
 10
101.992
 20
107.067544
 30
0.0
 11
102.253
 21
107.579752
 31
0.0
  0
LINE
  5
1ED
330
1D
100
AcDbEntity
  8
0
100
AcDbLine
 10
101.823
 20
106.542951
 30
0.0
 11
101.992
 21
107.067544
 31
0.0
  0
LINE
  5
1EE
330
1D
100
AcDbEntity
  8
0
100
AcDbLine
 10
101.823
 20
106.542951
 30
0.0
 11
101.823
 21
105.19814
 31
0.0
  0
LINE
  5
1F1
330
1D
100
AcDbEntity
  8
0
100
AcDbLine
 10
102.519
 20
109.49396
 30
0.0
 11
103.199
 21
109.94696
 31
0.0
  0
LINE
  5
1F2
330
1D
100
AcDbEntity
  8
0
100
AcDbLine
 10
103.199
 20
109.94696
 30
0.0
 11
103.956
 21
110.35805
 31
0.0
  0
LINE
  5
1F3
330
1D
100
AcDbEntity
  8
0
100
AcDbLine
 10
104.829
 20
109.75532
 30
0.0
 11
105.558
 21
110.08155
 31
0.0
  0
LINE
  5
1F4
330
1D
100
AcDbEntity
  8
0
100
AcDbLine
 10
103.956
 20
110.35805
 30
0.0
 11
104.781
 21
110.72237
 31
0.0
  0
LINE
  5
1F5
330
1D
100
AcDbEntity
  8
0
100
AcDbLine
 10
105.558
 20
110.08155
 30
0.0
 11
106.342
 21
110.36099
 31
0.0
  0
LINE
  5
1F6
330
1D
100
AcDbEntity
  8
0
100
AcDbLine
 10
106.342
 20
110.36099
 30
0.0
 11
107.251
 21
110.61187
 31
0.0
  0
LINE
  5
1F7
330
1D
100
AcDbEntity
  8
0
100
AcDbLine
 10
104.781
 20
110.72237
 30
0.0
 11
105.665
 21
111.03814
 31
0.0
  0
LINE
  5
1F8
330
1D
100
AcDbEntity
  8
0
100
AcDbLine
 10
107.251
 20
110.61187
 30
0.0
 11
108.204
 21
110.79977
 31
0.0
  0
LINE
  5
1F9
330
1D
100
AcDbEntity
  8
0
100
AcDbLine
 10
108.204
 20
110.79977
 30
0.0
 11
109.187
 21
110.92375
 31
0.0
  0
LINE
  5
1FA
330
1D
100
AcDbEntity
  8
0
100
AcDbLine
 10
106.599
 20
111.29847
 30
0.0
 11
107.575
 21
111.50356
 31
0.0
  0
LINE
  5
1FB
330
1D
100
AcDbEntity
  8
0
100
AcDbLine
 10
107.575
 20
111.50356
 30
0.0
 11
108.58
 21
111.65144
 31
0.0
  0
LINE
  5
1FC
330
1D
100
AcDbEntity
  8
0
100
AcDbLine
 10
108.58
 20
111.65144
 30
0.0
 11
109.607
 21
111.73821
 31
0.0
  0
LINE
  5
1FF
330
1D
100
AcDbEntity
  8
0
100
AcDbLine
 10
105.665
 20
111.03814
 30
0.0
 11
106.599
 21
111.29847
 31
0.0
  0
LINE
  5
200
330
1D
100
AcDbEntity
  8
0
100
AcDbLine
 10
109.187
 20
110.92375
 30
0.0
 11
110.188
 21
110.98289
 31
0.0
  0
LINE
  5
222
330
1D
100
AcDbEntity
  8
0
100
AcDbLine
 10
99.635
 20
111.53707
 30
0.0
 11
100.982
 21
112.67801
 31
0.0
  0
LINE
  5
224
330
1D
100
AcDbEntity
  8
0
100
AcDbLine
 10
100.982
 20
112.67801
 30
0.0
 11
102.924
 21
113.84779
 31
0.0
  0
LINE
  5
225
330
1D
100
AcDbEntity
  8
0
100
AcDbLine
 10
102.924
 20
113.84779
 30
0.0
 11
104.726
 21
114.60793
 31
0.0
  0
LINE
  5
22B
330
1D
100
AcDbEntity
  8
0
100
AcDbLine
 10
1.688
 20
117.7093
 30
0.0
 11
2.869
 21
120.8743
 31
0.0
  0
LINE
  5
22C
330
1D
100
AcDbEntity
  8
0
100
AcDbLine
 10
4.345
 20
123.9126
 30
0.0
 11
6.105
 21
126.7973
 31
0.0
  0
LINE
  5
22D
330
1D
100
AcDbEntity
  8
0
100
AcDbLine
 10
5.954596035654
 20
126.55078277503
 30
0.0
 11
6.105
 21
126.7975
 31
0.0
  0
LINE
  5
22E
330
1D
100
AcDbEntity
  8
0
100
AcDbLine
 10
5.954596035655
 20
126.55078277503
 30
0.0
 11
6.105
 21
126.7975
 31
0.0
  0
LINE
  5
22F
330
1D
100
AcDbEntity
  8
0
100
AcDbLine
 10
2.869
 20
120.8743
 30
0.0
 11
4.345
 21
123.9126
 31
0.0
  0
LINE
  5
230
330
1D
100
AcDbEntity
  8
0
100
AcDbLine
 10
6.105
 20
126.7975
 30
0.0
 11
8.13
 21
129.5009
 31
0.0
  0
LINE
  5
231
330
1D
100
AcDbEntity
  8
0
100
AcDbLine
 10
20.66
 20
117.4315
 30
0.0
 11
21.9994
 21
118.9109
 31
0.0
  0
LINE
  5
232
330
1D
100
AcDbEntity
  8
0
100
AcDbLine
 10
19.5355
 20
115.82769
 30
0.0
 11
20.66
 21
117.4315
 31
0.0
  0
LINE
  5
233
330
1D
100
AcDbEntity
  8
0
100
AcDbLine
 10
21.9994
 20
118.9109
 30
0.0
 11
23.2122
 21
120.0307
 31
0.0
  0
LINE
  5
234
330
1D
100
AcDbEntity
  8
0
100
AcDbLine
 10
23.227
 20
120.0432
 30
0.0
 11
24.5629
 21
121.032
 31
0.0
  0
LINE
  5
235
330
1D
100
AcDbEntity
  8
0
100
AcDbLine
 10
24.5629
 20
121.032
 30
0.0
 11
25.8194
 21
121.7941
 31
0.0
  0
LINE
  5
236
330
1D
100
AcDbEntity
  8
0
100
AcDbLine
 10
27.4632
 20
122.5633
 30
0.0
 11
28.2807
 21
122.9013
 31
0.0
  0
LINE
  5
237
330
1D
100
AcDbEntity
  8
0
100
AcDbLine
 10
28.2807
 20
122.9013
 30
0.0
 11
29.7153
 21
123.3217
 31
0.0
  0
LINE
  5
238
330
1D
100
AcDbEntity
  8
0
100
AcDbLine
 10
31.083
 20
123.6406
 30
0.0
 11
31.725
 21
123.7188
 31
0.0
  0
LINE
  5
239
330
1D
100
AcDbEntity
  8
0
100
AcDbLine
 10
29.7153
 20
123.3217
 30
0.0
 11
31.083
 21
123.6406
 31
0.0
  0
LINE
  5
23A
330
1D
100
AcDbEntity
  8
0
100
AcDbLine
 10
25.8194
 20
121.7941
 30
0.0
 11
27.4632
 21
122.5633
 31
0.0
  0
LINE
  5
23B
330
1D
100
AcDbEntity
  8
0
100
AcDbLine
 10
34.0
 20
123.8927
 30
0.0
 11
66.8586
 21
123.8927
 31
0.0
  0
LINE
  5
23C
330
1D
100
AcDbEntity
  8
0
100
AcDbLine
 10
31.725
 20
123.7188
 30
0.0
 11
34.0
 21
123.8927
 31
0.0
  0
LINE
  5
23D
330
1D
100
AcDbEntity
  8
0
100
AcDbLine
 10
63.924
 20
128.1622
 30
0.0
 11
65.556171977304
 21
125.749120384109
 31
0.0
  0
LINE
  5
23E
330
1D
100
AcDbEntity
  8
0
100
AcDbLine
 10
63.924
 20
128.1622
 30
0.0
 11
65.556171977304
 21
125.74912038411
 31
0.0
  0
LINE
  5
242
330
1D
100
AcDbEntity
  8
0
100
AcDbLine
 10
107.667
 20
115.33754
 30
0.0
 11
110.5
 21
115.56068
 31
0.0
  0
LINE
  5
243
330
1D
100
AcDbEntity
  8
0
100
AcDbLine
 10
104.726
 20
114.60793
 30
0.0
 11
107.667
 21
115.33754
 31
0.0
  0
LINE
  5
255
330
1D
100
AcDbEntity
  8
0
100
AcDbLine
 10
89.0009
 20
124.041858759913
 30
0.0
 11
89.0009
 21
150.093
 31
0.0
  0
LINE
  5
256
330
1D
100
AcDbEntity
  8
0
100
AcDbLine
 10
88.8666
 20
124.0406
 30
0.0
 11
89.0053
 21
124.0419
 31
0.0
  0
LINE
  5
257
330
1D
100
AcDbEntity
  8
0
100
AcDbLine
 10
84.396
 20
123.9249
 30
0.0
 11
88.8666
 21
124.0406
 31
0.0
  0
LINE
  5
258
330
1D
100
AcDbEntity
  8
0
100
AcDbLine
 10
77.3454
 20
123.902
 30
0.0
 11
84.396
 21
123.9249
 31
0.0
  0
LINE
  5
259
330
1D
100
AcDbEntity
  8
0
100
AcDbLine
 10
77.3454
 20
123.902
 30
0.0
 11
80.5208
 21
123.9055
 31
0.0
  0
LINE
  5
25A
330
1D
100
AcDbEntity
  8
0
100
AcDbLine
 10
66.8585
 20
123.8927
 30
0.0
 11
78.194978291021
 21
123.909910186929
 31
0.0
  0
LINE
  5
25B
330
1D
100
AcDbEntity
  8
0
100
AcDbLine
 10
89.2489
 20
123.8379
 30
0.0
 11
89.6439
 21
123.9402
 31
0.0
  0
LINE
  5
25C
330
1D
100
AcDbEntity
  8
0
100
AcDbLine
 10
89.2489
 20
123.8379
 30
0.0
 11
89.594752410864
 21
123.90980295043
 31
0.0
  0
LINE
  5
25D
330
1D
100
AcDbEntity
  8
0
100
AcDbLine
 10
89.696330546309
 20
123.930921113578
 30
0.0
 11
89.755758388923
 21
123.943276202302
 31
0.0
  0
LINE
  5
25E
330
1D
100
AcDbEntity
  8
0
100
AcDbLine
 10
90.0968
 20
124.0054
 30
0.0
 11
90.5809
 21
124.1275
 31
0.0
  0
LINE
  5
261
330
1D
100
AcDbEntity
  8
0
100
AcDbLine
 10
89.91988007052
 20
123.977397211049
 30
0.0
 11
90.1349
 21
124.0221
 31
0.0
  0
LINE
  5
262
330
1D
100
AcDbEntity
  8
0
100
AcDbLine
 10
89.6439
 20
123.9402
 30
0.0
 11
90.1349
 21
124.0221
 31
0.0
  0
LINE
  5
264
330
1D
100
AcDbEntity
  8
0
100
AcDbLine
 10
90.1349
 20
124.0221
 30
0.0
 11
90.189700335397
 21
124.028831379781
 31
0.0
  0
LINE
  5
265
330
1D
100
AcDbEntity
  8
0
100
AcDbLine
 10
89.2833
 20
124.0437
 30
0.0
 11
89.8509
 21
124.0538
 31
0.0
  0
LINE
  5
26A
330
1D
100
AcDbEntity
  8
0
100
AcDbLine
 10
89.8509
 20
124.0538
 30
0.0
 11
90.367386605527
 21
124.073647520212
 31
0.0
  0
LINE
  5
276
330
1D
100
AcDbEntity
  8
0
100
AcDbLine
 10
95.7026
 20
125.1391
 30
0.0
 11
96.3751
 21
125.25
 31
0.0
  0
LINE
  5
279
330
1D
100
AcDbEntity
  8
0
100
AcDbLine
 10
96.3751
 20
125.25
 30
0.0
 11
98.0023
 21
125.5017
 31
0.0
  0
LINE
  5
27A
330
1D
100
AcDbEntity
  8
0
100
AcDbLine
 10
98.0023
 20
125.5017
 30
0.0
 11
100.126
 21
125.7743
 31
0.0
  0
LINE
  5
27B
330
1D
100
AcDbEntity
  8
0
100
AcDbLine
 10
100.126
 20
125.7743
 30
0.0
 11
102.28690319487
 21
125.96948864694
 31
0.0
  0
LINE
  5
27D
330
1D
100
AcDbEntity
  8
0
100
AcDbLine
 10
104.3
 20
126.147005660377
 30
0.0
 11
104.3
 21
132.193
 31
0.0
  0
LINE
  5
282
330
1D
100
AcDbEntity
  8
0
100
AcDbLine
 10
106.15
 20
126.2421
 30
0.0
 11
108.318
 21
126.3106
 31
0.0
  0
LINE
  5
283
330
1D
100
AcDbEntity
  8
0
100
AcDbLine
 10
104.189
 20
126.1413
 30
0.0
 11
106.15
 21
126.2421
 31
0.0
  0
LINE
  5
28A
330
1D
100
AcDbEntity
  8
0
100
AcDbLine
 10
93.4531
 20
124.7208
 30
0.0
 11
95.7026
 21
125.1391
 31
0.0
  0
LINE
  5
28B
330
1D
100
AcDbEntity
  8
0
100
AcDbLine
 10
90.5809
 20
124.1275
 30
0.0
 11
93.4531
 21
124.7208
 31
0.0
  0
LINE
  5
28C
330
1D
100
AcDbEntity
  8
0
100
AcDbLine
 10
89.0053
 20
124.0419
 30
0.0
 11
89.2833
 21
124.0437
 31
0.0
  0
LINE
  5
298
330
1D
100
AcDbEntity
  8
0
100
AcDbLine
 10
65.822144940172
 20
125.35407025953
 30
0.0
 11
66.619479986512
 21
123.8927
 31
0.0
  0
LINE
  5
299
330
1D
100
AcDbEntity
  8
0
100
AcDbLine
 10
10.402
 20
132.0006
 30
0.0
 11
12.903
 21
134.2721
 31
0.0
  0
LINE
  5
29A
330
1D
100
AcDbEntity
  8
0
100
AcDbLine
 10
59.385
 20
133.1568
 30
0.0
 11
61.773
 21
130.7674
 31
0.0
  0
LINE
  5
29B
330
1D
100
AcDbEntity
  8
0
100
AcDbLine
 10
56.78
 20
135.3081
 30
0.0
 11
59.385
 21
133.1568
 31
0.0
  0
LINE
  5
29D
330
1D
100
AcDbEntity
  8
0
100
AcDbLine
 10
103.066
 20
132.193
 30
0.0
 11
103.186
 21
132.193
 31
0.0
  0
LINE
  5
29E
330
1D
100
AcDbEntity
  8
0
100
AcDbLine
 10
103.063
 20
132.193
 30
0.0
 11
103.178
 21
132.193
 31
0.0
  0
LINE
  5
29F
330
1D
100
AcDbEntity
  8
0
100
AcDbLine
 10
103.186
 20
132.193
 30
0.0
 11
103.421
 21
132.193
 31
0.0
  0
LINE
  5
2A0
330
1D
100
AcDbEntity
  8
0
100
AcDbLine
 10
103.178
 20
132.193
 30
0.0
 11
103.409
 21
132.193
 31
0.0
  0
LINE
  5
2A1
330
1D
100
AcDbEntity
  8
0
100
AcDbLine
 10
103.409
 20
132.193
 30
0.0
 11
103.751
 21
132.193
 31
0.0
  0
LINE
  5
2A2
330
1D
100
AcDbEntity
  8
0
100
AcDbLine
 10
103.768
 20
132.193
 30
0.0
 11
104.22
 21
132.193
 31
0.0
  0
LINE
  5
2A3
330
1D
100
AcDbEntity
  8
0
100
AcDbLine
 10
103.751
 20
132.193
 30
0.0
 11
104.199
 21
132.193
 31
0.0
  0
LINE
  5
2A4
330
1D
100
AcDbEntity
  8
0
100
AcDbLine
 10
104.3
 20
132.193
 30
0.0
 11
104.3
 21
126.147005660377
 31
0.0
  0
LINE
  5
2A5
330
1D
100
AcDbEntity
  8
0
100
AcDbLine
 10
104.199
 20
132.193
 30
0.0
 11
104.3
 21
132.193
 31
0.0
  0
LINE
  5
2A6
330
1D
100
AcDbEntity
  8
0
100
AcDbLine
 10
104.22
 20
132.193
 30
0.0
 11
104.772
 21
132.193
 31
0.0
  0
LINE
  5
2A7
330
1D
100
AcDbEntity
  8
0
100
AcDbLine
 10
106.137
 20
132.193
 30
0.0
 11
106.928
 21
132.193
 31
0.0
  0
LINE
  5
2A8
330
1D
100
AcDbEntity
  8
0
100
AcDbLine
 10
105.415
 20
132.193
 30
0.0
 11
106.137
 21
132.193
 31
0.0
  0
LINE
  5
2B4
330
1D
100
AcDbEntity
  8
0
100
AcDbLine
 10
108.666
 20
132.193
 30
0.0
 11
109.586
 21
132.193
 31
0.0
  0
LINE
  5
2B5
330
1D
100
AcDbEntity
  8
0
100
AcDbLine
 10
107.776
 20
132.193
 30
0.0
 11
108.666
 21
132.193
 31
0.0
  0
LINE
  5
2B6
330
1D
100
AcDbEntity
  8
0
100
AcDbLine
 10
106.928
 20
132.193
 30
0.0
 11
107.776
 21
132.193
 31
0.0
  0
LINE
  5
2B9
330
1D
100
AcDbEntity
  8
0
100
AcDbLine
 10
103.421
 20
132.193
 30
0.0
 11
103.768
 21
132.193
 31
0.0
  0
LINE
  5
2BA
330
1D
100
AcDbEntity
  8
0
100
AcDbLine
 10
102.914
 20
132.2332
 30
0.0
 11
103.063
 21
132.193
 31
0.0
  0
LINE
  5
2BB
330
1D
100
AcDbEntity
  8
0
100
AcDbLine
 10
104.772
 20
132.193
 30
0.0
 11
105.415
 21
132.193
 31
0.0
  0
LINE
  5
2C3
330
1D
100
AcDbEntity
  8
0
100
AcDbLine
 10
102.764
 20
132.493
 30
0.0
 11
102.804
 21
132.343
 31
0.0
  0
LINE
  5
2C4
330
1D
100
AcDbEntity
  8
0
100
AcDbLine
 10
102.764
 20
132.493
 30
0.0
 11
102.764
 21
141.7248
 31
0.0
  0
LINE
  5
2C5
330
1D
100
AcDbEntity
  8
0
100
AcDbLine
 10
102.804
 20
132.343
 30
0.0
 11
102.914
 21
132.2332
 31
0.0
  0
LINE
  5
2CE
330
1D
100
AcDbEntity
  8
0
100
AcDbLine
 10
61.773
 20
130.7674
 30
0.0
 11
63.924
 21
128.1622
 31
0.0
  0
LINE
  5
2D1
330
1D
100
AcDbEntity
  8
0
100
AcDbLine
 10
53.983
 20
137.2023
 30
0.0
 11
56.78
 21
135.3081
 31
0.0
  0
LINE
  5
2D2
330
1D
100
AcDbEntity
  8
0
100
AcDbLine
 10
15.608
 20
136.2962
 30
0.0
 11
18.493
 21
138.054
 31
0.0
  0
LINE
  5
2D3
330
1D
100
AcDbEntity
  8
0
100
AcDbLine
 10
21.532
 20
139.5299
 30
0.0
 11
24.697
 21
140.7093
 31
0.0
  0
LINE
  5
2D8
330
1D
100
AcDbEntity
  8
0
100
AcDbLine
 10
51.018
 20
138.8216
 30
0.0
 11
53.983
 21
137.2023
 31
0.0
  0
LINE
  5
2D9
330
1D
100
AcDbEntity
  8
0
100
AcDbLine
 10
47.913
 20
140.1524
 30
0.0
 11
51.018
 21
138.8216
 31
0.0
  0
LINE
  5
2DC
330
1D
100
AcDbEntity
  8
0
100
AcDbLine
 10
24.697
 20
140.7093
 30
0.0
 11
27.961
 21
141.5835
 31
0.0
  0
LINE
  5
2DD
330
1D
100
AcDbEntity
  8
0
100
AcDbLine
 10
24.578901959025
 20
140.665292154968
 30
0.0
 11
24.698
 21
140.7097
 31
0.0
  0
LINE
  5
2DE
330
1D
100
AcDbEntity
  8
0
100
AcDbLine
 10
40.555250000047
 20
142.000549999994
 30
0.0
 11
41.394
 21
141.9001
 31
0.0
  0
LINE
  5
2DF
330
1D
100
AcDbEntity
  8
0
100
AcDbLine
 10
38.039
 20
142.3022
 30
0.0
 11
41.394
 21
141.9
 31
0.0
  0
LINE
  5
2E0
330
1D
100
AcDbEntity
  8
0
100
AcDbLine
 10
34.662
 20
142.3831
 30
0.0
 11
38.039
 21
142.3022
 31
0.0
  0
LINE
  5
2E1
330
1D
100
AcDbEntity
  8
0
100
AcDbLine
 10
31.292
 20
142.1427
 30
0.0
 11
34.662
 21
142.3831
 31
0.0
  0
LINE
  5
2E2
330
1D
100
AcDbEntity
  8
0
100
AcDbLine
 10
27.961
 20
141.5835
 30
0.0
 11
31.292
 21
142.1427
 31
0.0
  0
LINE
  5
2E4
330
1D
100
AcDbEntity
  8
0
100
AcDbLine
 10
102.764
 20
141.7248
 30
0.0
 11
102.764
 21
132.493
 31
0.0
  0
LINE
  5
2ED
330
1D
100
AcDbEntity
  8
0
100
AcDbLine
 10
44.695
 20
141.1812
 30
0.0
 11
47.913
 21
140.1524
 31
0.0
  0
LINE
  5
2EE
330
1D
100
AcDbEntity
  8
0
100
AcDbLine
 10
88.7385
 20
152.9514
 30
0.0
 11
89.0083
 21
152.8503
 31
0.0
  0
LINE
  5
2EF
330
1D
100
AcDbEntity
  8
0
100
AcDbLine
 10
89.8697
 20
150.093
 30
0.0
 11
90.5624
 21
150.093
 31
0.0
  0
LINE
  5
2F0
330
1D
100
AcDbEntity
  8
0
100
AcDbLine
 10
89.0854
 20
150.093
 30
0.0
 11
89.3756
 21
150.093
 31
0.0
  0
LINE
  5
2F1
330
1D
100
AcDbEntity
  8
0
100
AcDbLine
 10
90.1471
 20
152.893
 30
0.0
 11
90.8866
 21
152.893
 31
0.0
  0
LINE
  5
2F2
330
1D
100
AcDbEntity
  8
0
100
AcDbLine
 10
89.4882
 20
152.893
 30
0.0
 11
90.1471
 21
152.893
 31
0.0
  0
LINE
  5
2F3
330
1D
100
AcDbEntity
  8
0
100
AcDbLine
 10
89.0083
 20
152.8503
 30
0.0
 11
89.4882
 21
152.893
 31
0.0
  0
LINE
  5
2F4
330
1D
100
AcDbEntity
  8
0
100
AcDbLine
 10
89.3756
 20
150.093
 30
0.0
 11
89.8697
 21
150.093
 31
0.0
  0
LINE
  5
2F5
330
1D
100
AcDbEntity
  8
0
100
AcDbLine
 10
89.0009
 20
150.093
 30
0.0
 11
89.0854
 21
150.093
 31
0.0
  0
LINE
  5
2F6
330
1D
100
AcDbEntity
  8
0
100
AcDbLine
 10
89.0009
 20
150.093
 30
0.0
 11
89.0009
 21
124.041858759913
 31
0.0
  0
LINE
  5
2F7
330
1D
100
AcDbEntity
  8
0
100
AcDbLine
 10
88.1869
 20
156.5442
 30
0.0
 11
88.2561
 21
170.658
 31
0.0
  0
LINE
  5
2F8
330
1D
100
AcDbEntity
  8
0
100
AcDbLine
 10
88.1869
 20
156.5442
 30
0.0
 11
88.342
 21
154.2181
 31
0.0
  0
LINE
  5
2F9
330
1D
100
AcDbEntity
  8
0
100
AcDbLine
 10
88.5291
 20
153.2032
 30
0.0
 11
88.5521
 21
153.158
 31
0.0
  0
LINE
  5
2FA
330
1D
100
AcDbEntity
  8
0
100
AcDbLine
 10
88.4918
 20
153.3953
 30
0.0
 11
88.5291
 21
153.2032
 31
0.0
  0
LINE
  5
2FB
330
1D
100
AcDbEntity
  8
0
100
AcDbLine
 10
88.342
 20
154.2181
 30
0.0
 11
88.4918
 21
153.3953
 31
0.0
  0
LINE
  5
2FC
330
1D
100
AcDbEntity
  8
0
100
AcDbLine
 10
88.5521
 20
153.158
 30
0.0
 11
88.7385
 21
152.9514
 31
0.0
  0
LINE
  5
2FD
330
1D
100
AcDbEntity
  8
0
100
AcDbLine
 10
90.5624
 20
150.093
 30
0.0
 11
91.447
 21
150.093
 31
0.0
  0
LINE
  5
2FE
330
1D
100
AcDbEntity
  8
0
100
AcDbLine
 10
90.8866
 20
152.893
 30
0.0
 11
91.845
 21
152.893
 31
0.0
  0
LINE
  5
2FF
330
1D
100
AcDbEntity
  8
0
100
AcDbLine
 10
91.447
 20
150.093
 30
0.0
 11
92.5152
 21
150.093
 31
0.0
  0
LINE
  5
300
330
1D
100
AcDbEntity
  8
0
100
AcDbLine
 10
92.5152
 20
150.093
 30
0.0
 11
93.7564
 21
150.093
 31
0.0
  0
LINE
  5
302
330
1D
100
AcDbEntity
  8
0
100
AcDbLine
 10
93.7564
 20
150.093
 30
0.0
 11
95.1591
 21
150.093
 31
0.0
  0
LINE
  5
304
330
1D
100
AcDbEntity
  8
0
100
AcDbLine
 10
95.1591
 20
150.093
 30
0.0
 11
96.7095
 21
150.093
 31
0.0
  0
LINE
  5
305
330
1D
100
AcDbEntity
  8
0
100
AcDbLine
 10
98.3925
 20
150.093
 30
0.0
 11
100.192
 21
150.093
 31
0.0
  0
LINE
  5
306
330
1D
100
AcDbEntity
  8
0
100
AcDbLine
 10
102.001
 20
148.1527
 30
0.0
 11
102.001
 21
142.693
 31
0.0
  0
LINE
  5
307
330
1D
100
AcDbEntity
  8
0
100
AcDbLine
 10
102.001
 20
148.1527
 30
0.0
 11
102.057
 21
148.383
 31
0.0
  0
LINE
  5
308
330
1D
100
AcDbEntity
  8
0
100
AcDbLine
 10
102.057
 20
148.383
 30
0.0
 11
102.213
 21
148.5616
 31
0.0
  0
LINE
  5
309
330
1D
100
AcDbEntity
  8
0
100
AcDbLine
 10
102.001
 20
142.693
 30
0.0
 11
102.049
 21
142.4803
 31
0.0
  0
LINE
  5
30A
330
1D
100
AcDbEntity
  8
0
100
AcDbLine
 10
102.001
 20
142.693
 30
0.0
 11
102.001
 21
148.1527
 31
0.0
  0
LINE
  5
30B
330
1D
100
AcDbEntity
  8
0
100
AcDbLine
 10
102.049
 20
142.4803
 30
0.0
 11
102.182
 21
142.308
 31
0.0
  0
LINE
  5
30C
330
1D
100
AcDbEntity
  8
0
100
AcDbLine
 10
100.192
 20
150.093
 30
0.0
 11
102.092
 21
150.093
 31
0.0
  0
LINE
  5
30D
330
1D
100
AcDbEntity
  8
0
100
AcDbLine
 10
96.7095
 20
150.093
 30
0.0
 11
98.3925
 21
150.093
 31
0.0
  0
LINE
  5
30E
330
1D
100
AcDbEntity
  8
0
100
AcDbLine
 10
102.213
 20
148.5616
 30
0.0
 11
102.434
 21
148.6482
 31
0.0
  0
LINE
  5
30F
330
1D
100
AcDbEntity
  8
0
100
AcDbLine
 10
102.182
 20
142.308
 30
0.0
 11
102.376
 21
142.2089
 31
0.0
  0
LINE
  5
310
330
1D
100
AcDbEntity
  8
0
100
AcDbLine
 10
102.571
 20
142.1097
 30
0.0
 11
102.705
 21
141.9374
 31
0.0
  0
LINE
  5
311
330
1D
100
AcDbEntity
  8
0
100
AcDbLine
 10
102.434
 20
148.6482
 30
0.0
 11
105.114
 21
148.9507
 31
0.0
  0
LINE
  5
312
330
1D
100
AcDbEntity
  8
0
100
AcDbLine
 10
102.376
 20
142.2089
 30
0.0
 11
102.571
 21
142.1097
 31
0.0
  0
LINE
  5
313
330
1D
100
AcDbEntity
  8
0
100
AcDbLine
 10
102.705
 20
141.9374
 30
0.0
 11
102.764
 21
141.7248
 31
0.0
  0
LINE
  5
314
330
1D
100
AcDbEntity
  8
0
100
AcDbLine
 10
102.092
 20
150.093
 30
0.0
 11
104.071
 21
150.093
 31
0.0
  0
LINE
  5
315
330
1D
100
AcDbEntity
  8
0
100
AcDbLine
 10
104.071
 20
150.093
 30
0.0
 11
106.114
 21
150.093
 31
0.0
  0
LINE
  5
316
330
1D
100
AcDbEntity
  8
0
100
AcDbLine
 10
106.114
 20
150.093
 30
0.0
 11
108.198
 21
150.093
 31
0.0
  0
LINE
  5
317
330
1D
100
AcDbEntity
  8
0
100
AcDbLine
 10
108.198
 20
150.093
 30
0.0
 11
110.303
 21
150.093
 31
0.0
  0
LINE
  5
319
330
1D
100
AcDbEntity
  8
0
100
AcDbLine
 10
103.532
 20
152.893
 30
0.0
 11
105.654
 21
152.893
 31
0.0
  0
LINE
  5
31A
330
1D
100
AcDbEntity
  8
0
100
AcDbLine
 10
91.845
 20
152.893
 30
0.0
 11
103.532
 21
152.893
 31
0.0
  0
LINE
  5
31C
330
1D
100
AcDbEntity
  8
0
100
AcDbLine
 10
105.654
 20
152.893
 30
0.0
 11
107.816
 21
152.893
 31
0.0
  0
LINE
  5
31E
330
1D
100
AcDbEntity
  8
0
100
AcDbLine
 10
107.816
 20
152.893
 30
0.0
 11
110.5
 21
152.893
 31
0.0
  0
LINE
  5
323
330
1D
100
AcDbEntity
  8
0
100
AcDbLine
 10
109.927
 20
159.4896
 30
0.0
 11
110.5
 21
159.416
 31
0.0
  0
LINE
  5
325
330
1D
100
AcDbEntity
  8
0
100
AcDbLine
 10
109.391
 20
159.7018
 30
0.0
 11
109.927
 21
159.4896
 31
0.0
  0
LINE
  5
334
330
1D
100
AcDbEntity
  8
0
100
AcDbLine
 10
90.147626432532
 20
150.093
 30
0.0
 11
90.41416987061
 21
152.893
 31
0.0
  0
LINE
  5
335
330
1D
100
AcDbEntity
  8
0
100
AcDbLine
 10
88.1605
 20
179.3971
 30
0.0
 11
88.2432
 21
175.1909
 31
0.0
  0
LINE
  5
336
330
1D
100
AcDbEntity
  8
0
100
AcDbLine
 10
88.1605
 20
179.3971
 30
0.0
 11
88.1772
 21
179.9218
 31
0.0
  0
LINE
  5
337
330
1D
100
AcDbEntity
  8
0
100
AcDbLine
 10
88.2059
 20
180.3612
 30
0.0
 11
88.3031
 21
181.5393
 31
0.0
  0
LINE
  5
338
330
1D
100
AcDbEntity
  8
0
100
AcDbLine
 10
88.3031
 20
181.5393
 30
0.0
 11
88.3948
 21
182.2881
 31
0.0
  0
LINE
  5
339
330
1D
100
AcDbEntity
  8
0
100
AcDbLine
 10
88.3948
 20
182.2881
 30
0.0
 11
88.6468
 21
184.1037
 31
0.0
  0
LINE
  5
33A
330
1D
100
AcDbEntity
  8
0
100
AcDbLine
 10
88.6468
 20
184.1037
 30
0.0
 11
89.1215
 21
187.8267
 31
0.0
  0
LINE
  5
33B
330
1D
100
AcDbEntity
  8
0
100
AcDbLine
 10
89.3717
 20
189.8537
 30
0.0
 11
89.6296
 21
191.7414
 31
0.0
  0
LINE
  5
33C
330
1D
100
AcDbEntity
  8
0
100
AcDbLine
 10
89.6296
 20
191.7414
 30
0.0
 11
89.9669
 21
193.7763
 31
0.0
  0
LINE
  5
33D
330
1D
100
AcDbEntity
  8
0
100
AcDbLine
 10
89.1215
 20
187.8267
 30
0.0
 11
89.3717
 21
189.8537
 31
0.0
  0
LINE
  5
33E
330
1D
100
AcDbEntity
  8
0
100
AcDbLine
 10
90.2979
 20
195.4584
 30
0.0
 11
90.5369
 21
196.3684
 31
0.0
  0
LINE
  5
33F
330
1D
100
AcDbEntity
  8
0
100
AcDbLine
 10
89.9669
 20
193.7763
 30
0.0
 11
90.2979
 21
195.4584
 31
0.0
  0
LINE
  5
340
330
1D
100
AcDbEntity
  8
0
100
AcDbLine
 10
88.2432
 20
175.1909
 30
0.0
 11
88.2561
 21
170.658
 31
0.0
  0
LINE
  5
341
330
1D
100
AcDbEntity
  8
0
100
AcDbLine
 10
88.1772
 20
179.9218
 30
0.0
 11
88.2059
 21
180.3612
 31
0.0
  0
LINE
  5
342
330
1D
100
AcDbEntity
  8
0
100
AcDbLine
 10
90.5369
 20
196.3684
 30
0.0
 11
90.6715
 21
196.666
 31
0.0
  0
LINE
  5
343
330
1D
100
AcDbEntity
  8
0
100
AcDbLine
 10
90.6715
 20
196.666
 30
0.0
 11
90.8874
 21
197.0678
 31
0.0
  0
LINE
  5
345
330
1D
100
AcDbEntity
  8
0
100
AcDbLine
 10
107.940951675442
 20
162.044526204908
 30
0.0
 11
107.95
 21
161.7886
 31
0.0
  0
LINE
  5
346
330
1D
100
AcDbEntity
  8
0
100
AcDbLine
 10
108.099778823696
 20
161.33011340441
 30
0.0
 11
108.225
 21
160.9468
 31
0.0
  0
LINE
  5
347
330
1D
100
AcDbEntity
  8
0
100
AcDbLine
 10
108.225
 20
160.9468
 30
0.0
 11
108.727
 21
160.2176
 31
0.0
  0
LINE
  5
348
330
1D
100
AcDbEntity
  8
0
100
AcDbLine
 10
108.727
 20
160.2176
 30
0.0
 11
109.391
 21
159.7018
 31
0.0
  0
LINE
  5
34B
330
1D
100
AcDbEntity
  8
0
100
AcDbLine
 10
107.929228945016
 20
162.736757538719
 30
0.0
 11
108.139515095974
 21
163.54310257598
 31
0.0
  0
LINE
  5
34C
330
1D
100
AcDbEntity
  8
0
100
AcDbLine
 10
108.608
 20
164.2996
 30
0.0
 11
109.254
 21
164.8318
 31
0.0
  0
LINE
  5
34D
330
1D
100
AcDbEntity
  8
0
100
AcDbLine
 10
108.266717014665
 20
163.755827346858
 30
0.0
 11
108.608
 21
164.2996
 31
0.0
  0
LINE
  5
34E
330
1D
100
AcDbEntity
  8
0
100
AcDbLine
 10
109.254
 20
164.8318
 30
0.0
 11
109.854
 21
165.0835
 31
0.0
  0
LINE
  5
350
330
1D
100
AcDbEntity
  8
0
100
AcDbLine
 10
109.854
 20
165.0835
 30
0.0
 11
110.5
 21
165.1696
 31
0.0
  0
LINE
  5
355
330
1D
100
AcDbEntity
  8
0
100
AcDbLine
 10
91.3884
 20
197.6685
 30
0.0
 11
91.5442
 21
197.8195
 31
0.0
  0
LINE
  5
356
330
1D
100
AcDbEntity
  8
0
100
AcDbLine
 10
91.5442
 20
197.8195
 30
0.0
 11
91.8305
 21
198.0298
 31
0.0
  0
LINE
  5
357
330
1D
100
AcDbEntity
  8
0
100
AcDbLine
 10
91.8305
 20
198.0298
 30
0.0
 11
92.1678
 21
198.248
 31
0.0
  0
LINE
  5
358
330
1D
100
AcDbEntity
  8
0
100
AcDbLine
 10
92.1678
 20
198.248
 30
0.0
 11
92.3442
 21
198.3547
 31
0.0
  0
LINE
  5
360
330
1D
100
AcDbEntity
  8
0
100
AcDbLine
 10
93.1524
 20
198.7041
 30
0.0
 11
93.736
 21
198.887
 31
0.0
  0
LINE
  5
361
330
1D
100
AcDbEntity
  8
0
100
AcDbLine
 10
94.2663
 20
199.0025
 30
0.0
 11
94.7176
 21
199.1198
 31
0.0
  0
LINE
  5
362
330
1D
100
AcDbEntity
  8
0
100
AcDbLine
 10
94.7176
 20
199.1198
 30
0.0
 11
95.7214
 21
199.2822
 31
0.0
  0
LINE
  5
363
330
1D
100
AcDbEntity
  8
0
100
AcDbLine
 10
93.736
 20
198.887
 30
0.0
 11
94.2663
 21
199.0025
 31
0.0
  0
LINE
  5
364
330
1D
100
AcDbEntity
  8
0
100
AcDbLine
 10
92.3442
 20
198.3547
 30
0.0
 11
93.1524
 21
198.7041
 31
0.0
  0
LINE
  5
365
330
1D
100
AcDbEntity
  8
0
100
AcDbLine
 10
95.7214
 20
199.2822
 30
0.0
 11
97.5468
 21
199.4785
 31
0.0
  0
LINE
  5
367
330
1D
100
AcDbEntity
  8
0
100
AcDbLine
 10
100.003
 20
199.6314
 30
0.0
 11
108.464
 21
199.762
 31
0.0
  0
LINE
  5
368
330
1D
100
AcDbEntity
  8
0
100
AcDbLine
 10
97.5468
 20
199.4785
 30
0.0
 11
100.003
 21
199.6314
 31
0.0
  0
LINE
  5
369
330
1D
100
AcDbEntity
  8
0
100
AcDbLine
 10
91.1203
 20
197.356
 30
0.0
 11
91.3884
 21
197.6685
 31
0.0
  0
LINE
  5
36A
330
1D
100
AcDbEntity
  8
0
100
AcDbLine
 10
90.8874
 20
197.0678
 30
0.0
 11
91.1203
 21
197.356
 31
0.0
  0
LINE
  5
3E6
330
1D
100
AcDbEntity
  8
0
100
AcDbLine
 10
41.394
 20
141.9001
 30
0.0
 11
44.695
 21
141.1812
 31
0.0
  0
LINE
  5
3E7
330
1D
100
AcDbEntity
  8
0
100
AcDbLine
 10
41.394
 20
141.9001
 30
0.0
 11
44.695
 21
141.1812
 31
0.0
  0
LINE
  5
3E8
330
1D
100
AcDbEntity
  8
0
100
AcDbLine
 10
40.555250000047
 20
142.000549999994
 30
0.0
 11
41.394
 21
141.9001
 31
0.0
  0
LINE
  5
3E9
330
1D
100
AcDbEntity
  8
0
100
AcDbLine
 10
24.698
 20
140.7097
 30
0.0
 11
25.160649773246
 21
140.833479727871
 31
0.0
  0
LINE
  5
3EA
330
1D
100
AcDbEntity
  8
0
100
AcDbLine
 10
24.698
 20
140.7097
 30
0.0
 11
25.160649773246
 21
140.833479727871
 31
0.0
  0
LINE
  5
3EB
330
1D
100
AcDbEntity
  8
0
100
AcDbLine
 10
24.578901959025
 20
140.665292154968
 30
0.0
 11
24.698
 21
140.7097
 31
0.0
  0
LINE
  5
3EC
330
1D
100
AcDbEntity
  8
0
100
AcDbLine
 10
18.493
 20
138.054
 30
0.0
 11
21.532
 21
139.5299
 31
0.0
  0
LINE
  5
3ED
330
1D
100
AcDbEntity
  8
0
100
AcDbLine
 10
12.903
 20
134.2721
 30
0.0
 11
15.608
 21
136.2962
 31
0.0
  0
LINE
  5
3EE
330
1D
100
AcDbEntity
  8
0
100
AcDbLine
 10
8.13
 20
129.5009
 30
0.0
 11
10.402
 21
132.0006
 31
0.0
  0
LINE
  5
3EF
330
1D
100
AcDbEntity
  8
0
100
AcDbLine
 10
0.813
 20
114.44587
 30
0.0
 11
1.688
 21
117.7093
 31
0.0
  0
LINE
  5
3F0
330
1D
100
AcDbEntity
  8
0
100
AcDbLine
 10
0.252
 20
111.11429
 30
0.0
 11
0.813
 21
114.44587
 31
0.0
  0
LINE
  5
3F1
330
1D
100
AcDbEntity
  8
0
100
AcDbLine
 10
0.01
 20
107.744851
 30
0.0
 11
0.09
 21
104.36778
 31
0.0
  0
LINE
  5
419
330
1D
100
AcDbEntity
  8
0
100
AcDbLine
 10
23.087
 20
73.6336
 30
0.0
 11
24.159666666647
 21
73.290666666673
 31
0.0
  0
LINE
  5
41A
330
1D
100
AcDbEntity
  8
0
100
AcDbLine
 10
43.039
 20
72.2025
 30
0.0
 11
46.303
 21
73.0767
 31
0.0
  0
LINE
  5
41B
330
1D
100
AcDbEntity
  8
0
100
AcDbLine
 10
56.744499999963
 20
78.501949999972
 30
0.0
 11
58.097
 21
79.5139
 31
0.0
  0
LINE
  5
41C
330
1D
100
AcDbEntity
  8
0
100
AcDbLine
 10
1.604686837305
 20
96.585455241974
 30
0.0
 11
0.77
 21
99.35066
 31
0.0
  0
LINE
  5
41D
330
1D
100
AcDbEntity
  8
0
100
AcDbLine
 10
18.9813
 20
98.92357
 30
0.0
 11
20.45215602082
 21
96.648194234019
 31
0.0
  0
LINE
  5
41E
330
1D
100
AcDbEntity
  8
0
100
AcDbLine
 10
0.01
 20
107.744851
 30
0.0
 11
0.252
 21
111.11429
 31
0.0
  0
LINE
  5
41F
330
1D
100
AcDbEntity
  8
0
100
AcDbLine
 10
108.139515095974
 20
163.54310257598
 30
0.0
 11
108.266717014665
 21
163.755827346858
 31
0.0
  0
LINE
  5
420
330
1D
100
AcDbEntity
  8
0
100
AcDbLine
 10
107.929228945016
 20
162.736757538719
 30
0.0
 11
107.940951675442
 21
162.044526204908
 31
0.0
  0
LINE
  5
421
330
1D
100
AcDbEntity
  8
0
100
AcDbLine
 10
107.95
 20
161.7886
 30
0.0
 11
108.099778823696
 21
161.33011340441
 31
0.0
  0
LINE
  5
422
330
1D
100
AcDbEntity
  8
0
100
AcDbLine
 10
112.078
 20
93.796
 30
0.0
 11
110.5
 21
93.723
 31
0.0
  0
LINE
  5
423
330
1D
100
AcDbEntity
  8
0
100
AcDbLine
 10
113.333
 20
115.33754
 30
0.0
 11
110.5
 21
115.56068
 31
0.0
  0
LINE
  5
424
330
1D
100
AcDbEntity
  8
0
100
AcDbLine
 10
113.184
 20
152.893
 30
0.0
 11
110.5
 21
152.893
 31
0.0
  0
LINE
  5
425
330
1D
100
AcDbEntity
  8
0
100
AcDbLine
 10
111.073
 20
159.4896
 30
0.0
 11
110.5
 21
159.416
 31
0.0
  0
LINE
  5
426
330
1D
100
AcDbEntity
  8
0
100
AcDbLine
 10
111.146
 20
165.0835
 30
0.0
 11
110.5
 21
165.1696
 31
0.0
  0
LINE
  5
427
330
1D
100
AcDbEntity
  8
0
100
AcDbLine
 10
203.6969
 20
110.10989
 30
0.0
 11
203.1251
 21
112.28648
 31
0.0
  0
LINE
  5
428
330
1D
100
AcDbEntity
  8
0
100
AcDbLine
 10
122.2757
 20
110.42354
 30
0.0
 11
121.365
 21
111.53707
 31
0.0
  0
LINE
  5
429
330
1D
100
AcDbEntity
  8
0
100
AcDbLine
 10
116.219
 20
110.72237
 30
0.0
 11
115.335
 21
111.03814
 31
0.0
  0
LINE
  5
42A
330
1D
100
AcDbEntity
  8
0
100
AcDbLine
 10
113.749
 20
110.61187
 30
0.0
 11
112.796
 21
110.79977
 31
0.0
  0
LINE
  5
42B
330
1D
100
AcDbEntity
  8
0
100
AcDbLine
 10
220.99
 20
107.744851
 30
0.0
 11
220.748
 21
111.11429
 31
0.0
  0
LINE
  5
42C
330
1D
100
AcDbEntity
  8
0
100
AcDbLine
 10
168.492999999999
 20
75.732000000001
 30
0.0
 11
165.608
 21
77.4898
 31
0.0
  0
LINE
  5
42D
330
1D
100
AcDbEntity
  8
0
100
AcDbLine
 10
168.493
 20
75.732
 30
0.0
 11
165.608
 21
77.4898
 31
0.0
  0
LINE
  5
42E
330
1D
100
AcDbEntity
  8
0
100
AcDbLine
 10
187.0
 20
89.8927
 30
0.0
 11
122.024875392
 21
89.8927
 31
0.0
  0
LINE
  5
42F
330
1D
100
AcDbEntity
  8
0
100
AcDbLine
 10
187.0
 20
89.8927
 30
0.0
 11
122.024875392
 21
89.8927
 31
0.0
  0
LINE
  5
430
330
1D
100
AcDbEntity
  8
0
100
AcDbLine
 10
194.695
 20
72.604
 30
0.0
 11
191.394
 21
71.886
 31
0.0
  0
LINE
  5
431
330
1D
100
AcDbEntity
  8
0
100
AcDbLine
 10
194.6425
 20
91.708
 30
0.0
 11
193.2764
 21
91.0943
 31
0.0
  0
LINE
  5
432
330
1D
100
AcDbEntity
  8
0
100
AcDbLine
 10
213.924
 20
85.6238
 30
0.0
 11
211.773
 21
83.0186
 31
0.0
  0
LINE
  5
433
330
1D
100
AcDbEntity
  8
0
100
AcDbLine
 10
209.385
 20
80.6292
 30
0.0
 11
206.78
 21
78.4779
 31
0.0
  0
LINE
  5
434
330
1D
100
AcDbEntity
  8
0
100
AcDbLine
 10
211.773
 20
83.0186
 30
0.0
 11
209.385
 21
80.6292
 31
0.0
  0
LINE
  5
435
330
1D
100
AcDbEntity
  8
0
100
AcDbLine
 10
206.78
 20
78.4779
 30
0.0
 11
203.982
 21
76.5844
 31
0.0
  0
LINE
  5
436
330
1D
100
AcDbEntity
  8
0
100
AcDbLine
 10
196.840333333353
 20
73.290666666673
 30
0.0
 11
194.695
 21
72.604
 31
0.0
  0
LINE
  5
437
330
1D
100
AcDbEntity
  8
0
100
AcDbLine
 10
196.840333333353
 20
73.290666666673
 30
0.0
 11
194.695
 21
72.604
 31
0.0
  0
LINE
  5
438
330
1D
100
AcDbEntity
  8
0
100
AcDbLine
 10
201.018
 20
74.9644
 30
0.0
 11
197.913
 21
73.6336
 31
0.0
  0
LINE
  5
439
330
1D
100
AcDbEntity
  8
0
100
AcDbLine
 10
203.982
 20
76.5844
 30
0.0
 11
201.018
 21
74.9644
 31
0.0
  0
LINE
  5
43A
330
1D
100
AcDbEntity
  8
0
100
AcDbLine
 10
197.913
 20
73.6336
 30
0.0
 11
196.840333333353
 21
73.290666666673
 31
0.0
  0
LINE
  5
43B
330
1D
100
AcDbEntity
  8
0
100
AcDbLine
 10
220.675
 20
102.29621
 30
0.0
 11
220.23
 21
99.35066
 31
0.0
  0
LINE
  5
43C
330
1D
100
AcDbEntity
  8
0
100
AcDbLine
 10
217.435
 20
91.3876
 30
0.0
 11
215.817
 21
88.4222
 31
0.0
  0
LINE
  5
43D
330
1D
100
AcDbEntity
  8
0
100
AcDbLine
 10
218.764
 20
94.494
 30
0.0
 11
217.436957633027
 21
91.392575175456
 31
0.0
  0
LINE
  5
43E
330
1D
100
AcDbEntity
  8
0
100
AcDbLine
 10
218.764
 20
94.494
 30
0.0
 11
217.436957633027
 21
91.392575175456
 31
0.0
  0
LINE
  5
43F
330
1D
100
AcDbEntity
  8
0
100
AcDbLine
 10
215.817
 20
88.4222
 30
0.0
 11
213.924
 21
85.6238
 31
0.0
  0
LINE
  5
440
330
1D
100
AcDbEntity
  8
0
100
AcDbLine
 10
219.395313162695
 20
96.585455241974
 30
0.0
 11
218.764
 21
94.494
 31
0.0
  0
LINE
  5
441
330
1D
100
AcDbEntity
  8
0
100
AcDbLine
 10
220.91
 20
104.36779
 30
0.0
 11
220.675
 21
102.29621
 31
0.0
  0
LINE
  5
442
330
1D
100
AcDbEntity
  8
0
100
AcDbLine
 10
220.99
 20
107.744851
 30
0.0
 11
220.91
 21
104.36778
 31
0.0
  0
LINE
  5
443
330
1D
100
AcDbEntity
  8
0
100
AcDbLine
 10
219.395313162695
 20
96.585455241974
 30
0.0
 11
220.23
 21
99.35066
 31
0.0
  0
LINE
  5
444
330
1D
100
AcDbEntity
  8
0
100
AcDbLine
 10
196.9817
 20
93.1324
 30
0.0
 11
195.9189
 21
92.421
 31
0.0
  0
LINE
  5
445
330
1D
100
AcDbEntity
  8
0
100
AcDbLine
 10
198.4596
 20
94.3363
 30
0.0
 11
196.9817
 21
93.1324
 31
0.0
  0
LINE
  5
446
330
1D
100
AcDbEntity
  8
0
100
AcDbLine
 10
200.4408
 20
96.4826
 30
0.0
 11
200.0605
 21
96.0094
 31
0.0
  0
LINE
  5
447
330
1D
100
AcDbEntity
  8
0
100
AcDbLine
 10
200.0605
 20
96.0094
 30
0.0
 11
199.0692
 21
94.9203
 31
0.0
  0
LINE
  5
448
330
1D
100
AcDbEntity
  8
0
100
AcDbLine
 10
199.0692
 20
94.9203
 30
0.0
 11
198.4596
 21
94.3363
 31
0.0
  0
LINE
  5
449
330
1D
100
AcDbEntity
  8
0
100
AcDbLine
 10
202.421
 20
99.73185
 30
0.0
 11
202.0187
 21
98.92357
 31
0.0
  0
LINE
  5
44A
330
1D
100
AcDbEntity
  8
0
100
AcDbLine
 10
200.54784397918
 20
96.648194234019
 30
0.0
 11
200.4408
 21
96.4826
 31
0.0
  0
LINE
  5
44B
330
1D
100
AcDbEntity
  8
0
100
AcDbLine
 10
200.54784397918
 20
96.648194234019
 30
0.0
 11
200.4408
 21
96.4826
 31
0.0
  0
LINE
  5
44C
330
1D
100
AcDbEntity
  8
0
100
AcDbLine
 10
203.1617
 20
101.60943
 30
0.0
 11
202.8913
 21
100.84543
 31
0.0
  0
LINE
  5
44D
330
1D
100
AcDbEntity
  8
0
100
AcDbLine
 10
203.6451
 20
103.41754
 30
0.0
 11
203.1617
 21
101.60943
 31
0.0
  0
LINE
  5
44E
330
1D
100
AcDbEntity
  8
0
100
AcDbLine
 10
202.8913
 20
100.84543
 30
0.0
 11
202.421
 21
99.73185
 31
0.0
  0
LINE
  5
44F
330
1D
100
AcDbEntity
  8
0
100
AcDbLine
 10
203.9846
 20
106.072409
 30
0.0
 11
203.827
 21
104.44419
 31
0.0
  0
LINE
  5
450
330
1D
100
AcDbEntity
  8
0
100
AcDbLine
 10
203.827
 20
104.44419
 30
0.0
 11
203.6451
 21
103.41754
 31
0.0
  0
LINE
  5
451
330
1D
100
AcDbEntity
  8
0
100
AcDbLine
 10
203.9985
 20
107.347436
 30
0.0
 11
203.9757
 21
107.879731
 31
0.0
  0
LINE
  5
452
330
1D
100
AcDbEntity
  8
0
100
AcDbLine
 10
203.9757
 20
107.879731
 30
0.0
 11
203.6969
 21
110.10989
 31
0.0
  0
LINE
  5
453
330
1D
100
AcDbEntity
  8
0
100
AcDbLine
 10
204.0045
 20
106.893998
 30
0.0
 11
203.9846
 21
106.072409
 31
0.0
  0
LINE
  5
454
330
1D
100
AcDbEntity
  8
0
100
AcDbLine
 10
204.0045
 20
106.893998
 30
0.0
 11
203.9985
 21
107.347436
 31
0.0
  0
LINE
  5
455
330
1D
100
AcDbEntity
  8
0
100
AcDbLine
 10
202.0187
 20
98.92357
 30
0.0
 11
200.54784397918
 21
96.648194234019
 31
0.0
  0
LINE
  5
456
330
1D
100
AcDbEntity
  8
0
100
AcDbLine
 10
195.9189
 20
92.421
 30
0.0
 11
194.6425
 21
91.708
 31
0.0
  0
LINE
  5
457
330
1D
100
AcDbEntity
  8
0
100
AcDbLine
 10
191.394
 20
71.886
 30
0.0
 11
188.039
 21
71.4838
 31
0.0
  0
LINE
  5
458
330
1D
100
AcDbEntity
  8
0
100
AcDbLine
 10
188.039
 20
71.4838
 30
0.0
 11
184.662
 21
71.4029
 31
0.0
  0
LINE
  5
459
330
1D
100
AcDbEntity
  8
0
100
AcDbLine
 10
181.292
 20
71.6433
 30
0.0
 11
177.961
 21
72.2025
 31
0.0
  0
LINE
  5
45A
330
1D
100
AcDbEntity
  8
0
100
AcDbLine
 10
184.662
 20
71.4029
 30
0.0
 11
181.292
 21
71.6433
 31
0.0
  0
LINE
  5
45B
330
1D
100
AcDbEntity
  8
0
100
AcDbLine
 10
174.697
 20
73.0767
 30
0.0
 11
171.532
 21
74.2561
 31
0.0
  0
LINE
  5
45C
330
1D
100
AcDbEntity
  8
0
100
AcDbLine
 10
171.532
 20
74.2561
 30
0.0
 11
168.493
 21
75.732
 31
0.0
  0
LINE
  5
45D
330
1D
100
AcDbEntity
  8
0
100
AcDbLine
 10
193.2764
 20
91.0943
 30
0.0
 11
192.4868
 21
90.8032
 31
0.0
  0
LINE
  5
45E
330
1D
100
AcDbEntity
  8
0
100
AcDbLine
 10
192.4868
 20
90.8032
 30
0.0
 11
191.1209
 21
90.4001
 31
0.0
  0
LINE
  5
45F
330
1D
100
AcDbEntity
  8
0
100
AcDbLine
 10
191.1209
 20
90.4001
 30
0.0
 11
190.294
 21
90.2154
 31
0.0
  0
LINE
  5
460
330
1D
100
AcDbEntity
  8
0
100
AcDbLine
 10
190.294
 20
90.2154
 30
0.0
 11
189.1721
 21
90.0518
 31
0.0
  0
LINE
  5
461
330
1D
100
AcDbEntity
  8
0
100
AcDbLine
 10
189.1721
 20
90.0518
 30
0.0
 11
187.0
 21
89.8927
 31
0.0
  0
LINE
  5
462
330
1D
100
AcDbEntity
  8
0
100
AcDbLine
 10
187.1679
 20
89.8937
 30
0.0
 11
187.0
 21
89.8927
 31
0.0
  0
LINE
  5
463
330
1D
100
AcDbEntity
  8
0
100
AcDbLine
 10
177.961
 20
72.2025
 30
0.0
 11
174.697
 21
73.0767
 31
0.0
  0
LINE
  5
464
330
1D
100
AcDbEntity
  8
0
100
AcDbLine
 10
162.903
 20
79.5139
 30
0.0
 11
160.403
 21
81.7854
 31
0.0
  0
LINE
  5
465
330
1D
100
AcDbEntity
  8
0
100
AcDbLine
 10
160.403
 20
81.7854
 30
0.0
 11
158.13
 21
84.2851
 31
0.0
  0
LINE
  5
466
330
1D
100
AcDbEntity
  8
0
100
AcDbLine
 10
158.13
 20
84.2851
 30
0.0
 11
156.105
 21
86.9887
 31
0.0
  0
LINE
  5
467
330
1D
100
AcDbEntity
  8
0
100
AcDbLine
 10
165.608
 20
77.4898
 30
0.0
 11
164.255500000037
 21
78.501949999972
 31
0.0
  0
LINE
  5
468
330
1D
100
AcDbEntity
  8
0
100
AcDbLine
 10
165.608
 20
77.4898
 30
0.0
 11
164.255500000037
 21
78.501949999972
 31
0.0
  0
LINE
  5
469
330
1D
100
AcDbEntity
  8
0
100
AcDbLine
 10
156.105
 20
86.9887
 30
0.0
 11
154.345
 21
89.8734
 31
0.0
  0
LINE
  5
46A
330
1D
100
AcDbEntity
  8
0
100
AcDbLine
 10
164.255500000037
 20
78.501949999972
 30
0.0
 11
162.903
 21
79.5139
 31
0.0
  0
LINE
  5
46B
330
1D
100
AcDbEntity
  8
0
100
AcDbLine
 10
122.0364
 20
90.2383
 30
0.0
 11
121.036
 21
60.2383
 31
0.0
  0
LINE
  5
46C
330
1D
100
AcDbEntity
  8
0
100
AcDbLine
 10
125.3225
 20
89.8927
 30
0.0
 11
122.2094
 21
89.8927
 31
0.0
  0
LINE
  5
46D
330
1D
100
AcDbEntity
  8
0
100
AcDbLine
 10
132.5914
 20
89.8927
 30
0.0
 11
128.9565
 21
89.8927
 31
0.0
  0
LINE
  5
46E
330
1D
100
AcDbEntity
  8
0
100
AcDbLine
 10
121.5364
 20
90.5983
 30
0.0
 11
121.5364
 21
97.117042707796
 31
0.0
  0
LINE
  5
46F
330
1D
100
AcDbEntity
  8
0
100
AcDbLine
 10
121.5364
 20
97.117042707796
 30
0.0
 11
121.5364
 21
90.5983
 31
0.0
  0
LINE
  5
470
330
1D
100
AcDbEntity
  8
0
100
AcDbLine
 10
121.269
 20
96.95504
 30
0.0
 11
119.818
 21
96.1482
 31
0.0
  0
LINE
  5
471
330
1D
100
AcDbEntity
  8
0
100
AcDbLine
 10
122.4841
 20
97.20178
 30
0.0
 11
121.6359
 21
96.4164
 31
0.0
  0
LINE
  5
472
330
1D
100
AcDbEntity
  8
0
100
AcDbLine
 10
122.0364
 20
90.2383
 30
0.0
 11
121.6364
 21
90.2383
 31
0.0
  0
LINE
  5
473
330
1D
100
AcDbEntity
  8
0
100
AcDbLine
 10
121.6364
 20
90.2383
 30
0.0
 11
120.536
 21
90.2383
 31
0.0
  0
LINE
  5
474
330
1D
100
AcDbEntity
  8
0
100
AcDbLine
 10
120.536
 20
90.2383
 30
0.0
 11
118.636
 21
90.2383
 31
0.0
  0
LINE
  5
475
330
1D
100
AcDbEntity
  8
0
100
AcDbLine
 10
118.636
 20
90.2383
 30
0.0
 11
116.236
 21
90.2383
 31
0.0
  0
LINE
  5
476
330
1D
100
AcDbEntity
  8
0
100
AcDbLine
 10
116.236
 20
90.2383
 30
0.0
 11
113.536
 21
90.2383
 31
0.0
  0
LINE
  5
477
330
1D
100
AcDbEntity
  8
0
100
AcDbLine
 10
113.536
 20
90.2383
 30
0.0
 11
110.536
 21
90.2383
 31
0.0
  0
LINE
  5
478
330
1D
100
AcDbEntity
  8
0
100
AcDbLine
 10
121.5364
 20
90.5983
 30
0.0
 11
121.272
 21
90.2383
 31
0.0
  0
LINE
  5
479
330
1D
100
AcDbEntity
  8
0
100
AcDbLine
 10
121.5364
 20
90.5983
 30
0.0
 11
121.14
 21
90.5983
 31
0.0
  0
LINE
  5
47A
330
1D
100
AcDbEntity
  8
0
100
AcDbLine
 10
121.14
 20
90.5983
 30
0.0
 11
120.084
 21
90.5983
 31
0.0
  0
LINE
  5
47B
330
1D
100
AcDbEntity
  8
0
100
AcDbLine
 10
120.084
 20
90.5983
 30
0.0
 11
118.324
 21
90.5983
 31
0.0
  0
LINE
  5
47C
330
1D
100
AcDbEntity
  8
0
100
AcDbLine
 10
118.324
 20
90.5983
 30
0.0
 11
115.992
 21
90.5983
 31
0.0
  0
LINE
  5
47D
330
1D
100
AcDbEntity
  8
0
100
AcDbLine
 10
115.992
 20
90.5983
 30
0.0
 11
113.352
 21
90.5983
 31
0.0
  0
LINE
  5
47E
330
1D
100
AcDbEntity
  8
0
100
AcDbLine
 10
113.352
 20
90.5983
 30
0.0
 11
110.536
 21
90.5983
 31
0.0
  0
LINE
  5
47F
330
1D
100
AcDbEntity
  8
0
100
AcDbLine
 10
113.62
 20
94.0039
 30
0.0
 11
112.078
 21
93.796
 31
0.0
  0
LINE
  5
480
330
1D
100
AcDbEntity
  8
0
100
AcDbLine
 10
115.376
 20
94.3988
 30
0.0
 11
113.62
 21
94.0039
 31
0.0
  0
LINE
  5
481
330
1D
100
AcDbEntity
  8
0
100
AcDbLine
 10
116.999
 20
94.9125
 30
0.0
 11
115.376
 21
94.3988
 31
0.0
  0
LINE
  5
482
330
1D
100
AcDbEntity
  8
0
100
AcDbLine
 10
118.499
 20
95.5149
 30
0.0
 11
116.999
 21
94.9125
 31
0.0
  0
LINE
  5
483
330
1D
100
AcDbEntity
  8
0
100
AcDbLine
 10
119.818
 20
96.1482
 30
0.0
 11
118.499
 21
95.5149
 31
0.0
  0
LINE
  5
484
330
1D
100
AcDbEntity
  8
0
100
AcDbLine
 10
121.6359
 20
96.4164
 30
0.0
 11
121.5364
 21
96.341207502431
 31
0.0
  0
LINE
  5
485
330
1D
100
AcDbEntity
  8
0
100
AcDbLine
 10
117.943
 20
100.59916
 30
0.0
 11
117.044
 21
100.20908
 31
0.0
  0
LINE
  5
486
330
1D
100
AcDbEntity
  8
0
100
AcDbLine
 10
117.801
 20
101.71098
 30
0.0
 11
117.044
 21
101.29991
 31
0.0
  0
LINE
  5
487
330
1D
100
AcDbEntity
  8
0
100
AcDbLine
 10
117.907
 20
101.8179
 30
0.0
 11
117.122
 21
101.38008
 31
0.0
  0
LINE
  5
488
330
1D
100
AcDbEntity
  8
0
100
AcDbLine
 10
117.435
 20
102.76023
 30
0.0
 11
116.838
 21
102.35393
 31
0.0
  0
LINE
  5
489
330
1D
100
AcDbEntity
  8
0
100
AcDbLine
 10
117.6
 20
105.29927
 30
0.0
 11
116.979
 21
104.85192
 31
0.0
  0
LINE
  5
48A
330
1D
100
AcDbEntity
  8
0
100
AcDbLine
 10
117.435
 20
108.98083
 30
0.0
 11
116.838
 21
109.38816
 31
0.0
  0
LINE
  5
48B
330
1D
100
AcDbEntity
  8
0
100
AcDbLine
 10
117.801
 20
109.94696
 30
0.0
 11
117.044
 21
110.35805
 31
0.0
  0
LINE
  5
48C
330
1D
100
AcDbEntity
  8
0
100
AcDbLine
 10
121.8113
 20
103.88685
 30
0.0
 11
121.414
 21
103.26874
 31
0.0
  0
LINE
  5
48D
330
1D
100
AcDbEntity
  8
0
100
AcDbLine
 10
120.126
 20
103.96771
 30
0.0
 11
119.723
 21
103.38209
 31
0.0
  0
LINE
  5
48E
330
1D
100
AcDbEntity
  8
0
100
AcDbLine
 10
120.322
 20
104.3024
 30
0.0
 11
120.004
 21
103.73117
 31
0.0
  0
LINE
  5
48F
330
1D
100
AcDbEntity
  8
0
100
AcDbLine
 10
118.747
 20
104.16232
 30
0.0
 11
118.395
 21
103.66921
 31
0.0
  0
LINE
  5
490
330
1D
100
AcDbEntity
  8
0
100
AcDbLine
 10
120.917
 20
102.67649
 30
0.0
 11
120.325
 21
102.11475
 31
0.0
  0
LINE
  5
491
330
1D
100
AcDbEntity
  8
0
100
AcDbLine
 10
122.9485
 20
97.912
 30
0.0
 11
122.7057
 21
97.81377
 31
0.0
  0
LINE
  5
492
330
1D
100
AcDbEntity
  8
0
100
AcDbLine
 10
122.1605
 20
97.49515
 30
0.0
 11
121.269
 21
96.95504
 31
0.0
  0
LINE
  5
493
330
1D
100
AcDbEntity
  8
0
100
AcDbLine
 10
122.7057
 20
97.81377
 30
0.0
 11
122.1605
 21
97.49515
 31
0.0
  0
LINE
  5
494
330
1D
100
AcDbEntity
  8
0
100
AcDbLine
 10
122.8338
 20
97.59423
 30
0.0
 11
122.4841
 21
97.20178
 31
0.0
  0
LINE
  5
495
330
1D
100
AcDbEntity
  8
0
100
AcDbLine
 10
121.414
 20
103.26874
 30
0.0
 11
120.917
 21
102.67649
 31
0.0
  0
LINE
  5
496
330
1D
100
AcDbEntity
  8
0
100
AcDbLine
 10
122.9919
 20
97.83952
 30
0.0
 11
122.9485
 21
97.912
 31
0.0
  0
LINE
  5
497
330
1D
100
AcDbEntity
  8
0
100
AcDbLine
 10
122.9919
 20
97.83952
 30
0.0
 11
122.8338
 21
97.59423
 31
0.0
  0
LINE
  5
498
330
1D
100
AcDbEntity
  8
0
100
AcDbLine
 10
118.774
 20
101.03696
 30
0.0
 11
117.943
 21
100.59916
 31
0.0
  0
LINE
  5
499
330
1D
100
AcDbEntity
  8
0
100
AcDbLine
 10
118.878
 20
101.09796
 30
0.0
 11
118.774
 21
101.03696
 31
0.0
  0
LINE
  5
49A
330
1D
100
AcDbEntity
  8
0
100
AcDbLine
 10
119.643
 20
101.58634
 30
0.0
 11
118.878
 21
101.09796
 31
0.0
  0
LINE
  5
49B
330
1D
100
AcDbEntity
  8
0
100
AcDbLine
 10
120.325
 20
102.11475
 30
0.0
 11
119.643
 21
101.58634
 31
0.0
  0
LINE
  5
49C
330
1D
100
AcDbEntity
  8
0
100
AcDbLine
 10
119.08
 20
102.6562
 30
0.0
 11
118.481
 21
102.165
 31
0.0
  0
LINE
  5
49D
330
1D
100
AcDbEntity
  8
0
100
AcDbLine
 10
118.481
 20
102.165
 30
0.0
 11
117.801
 21
101.71098
 31
0.0
  0
LINE
  5
49E
330
1D
100
AcDbEntity
  8
0
100
AcDbLine
 10
118.607
 20
102.30149
 30
0.0
 11
117.907
 21
101.8179
 31
0.0
  0
LINE
  5
49F
330
1D
100
AcDbEntity
  8
0
100
AcDbLine
 10
119.59
 20
103.17885
 30
0.0
 11
119.08
 21
102.6562
 31
0.0
  0
LINE
  5
4A0
330
1D
100
AcDbEntity
  8
0
100
AcDbLine
 10
119.214
 20
102.82411
 30
0.0
 11
118.607
 21
102.30149
 31
0.0
  0
LINE
  5
4A1
330
1D
100
AcDbEntity
  8
0
100
AcDbLine
 10
117.955
 20
103.1999
 30
0.0
 11
117.435
 21
102.76023
 31
0.0
  0
LINE
  5
4A2
330
1D
100
AcDbEntity
  8
0
100
AcDbLine
 10
119.723
 20
103.38209
 30
0.0
 11
119.214
 21
102.82411
 31
0.0
  0
LINE
  5
4A3
330
1D
100
AcDbEntity
  8
0
100
AcDbLine
 10
120.004
 20
103.73117
 30
0.0
 11
119.59
 21
103.17885
 31
0.0
  0
LINE
  5
4A4
330
1D
100
AcDbEntity
  8
0
100
AcDbLine
 10
118.395
 20
103.66921
 30
0.0
 11
117.955
 21
103.1999
 31
0.0
  0
LINE
  5
4A5
330
1D
100
AcDbEntity
  8
0
100
AcDbLine
 10
122.9992
 20
108.24294
 30
0.0
 11
122.8593
 21
107.130102
 31
0.0
  0
LINE
  5
4A6
330
1D
100
AcDbEntity
  8
0
100
AcDbLine
 10
122.4288
 20
105.997894
 30
0.0
 11
122.4288
 21
110.118812519099
 31
0.0
  0
LINE
  5
4A7
330
1D
100
AcDbEntity
  8
0
100
AcDbLine
 10
122.4288
 20
110.118812519099
 30
0.0
 11
122.4288
 21
106.324966
 31
0.0
  0
LINE
  5
4A8
330
1D
100
AcDbEntity
  8
0
100
AcDbLine
 10
122.4288
 20
110.118812519099
 30
0.0
 11
122.4288
 21
105.997894
 31
0.0
  0
LINE
  5
4A9
330
1D
100
AcDbEntity
  8
0
100
AcDbLine
 10
122.4288
 20
106.324966
 30
0.0
 11
122.4288
 21
110.118812519099
 31
0.0
  0
LINE
  5
4AA
330
1D
100
AcDbEntity
  8
0
100
AcDbLine
 10
122.8593
 20
107.130102
 30
0.0
 11
122.451
 21
106.099524
 31
0.0
  0
LINE
  5
4AB
330
1D
100
AcDbEntity
  8
0
100
AcDbLine
 10
122.3471
 20
105.33688
 30
0.0
 11
122.1584
 21
104.68355
 31
0.0
  0
LINE
  5
4AC
330
1D
100
AcDbEntity
  8
0
100
AcDbLine
 10
122.4288
 20
105.997894
 30
0.0
 11
122.3471
 21
105.33688
 31
0.0
  0
LINE
  5
4AD
330
1D
100
AcDbEntity
  8
0
100
AcDbLine
 10
122.1049
 20
104.52298
 30
0.0
 11
121.8113
 21
103.88685
 31
0.0
  0
LINE
  5
4AE
330
1D
100
AcDbEntity
  8
0
100
AcDbLine
 10
122.1584
 20
104.68355
 30
0.0
 11
122.1049
 21
104.52298
 31
0.0
  0
LINE
  5
4AF
330
1D
100
AcDbEntity
  8
0
100
AcDbLine
 10
122.4288
 20
106.324966
 30
0.0
 11
122.422
 21
106.160923
 31
0.0
  0
LINE
  5
4B0
330
1D
100
AcDbEntity
  8
0
100
AcDbLine
 10
122.7862
 20
109.40745
 30
0.0
 11
122.2757
 21
110.42354
 31
0.0
  0
LINE
  5
4B1
330
1D
100
AcDbEntity
  8
0
100
AcDbLine
 10
122.9992
 20
108.24294
 30
0.0
 11
122.7862
 21
109.40745
 31
0.0
  0
LINE
  5
4B2
330
1D
100
AcDbEntity
  8
0
100
AcDbLine
 10
120.537
 20
106.767034
 30
0.0
 11
120.322
 21
107.354547
 31
0.0
  0
LINE
  5
4B3
330
1D
100
AcDbEntity
  8
0
100
AcDbLine
 10
119.008
 20
107.067544
 30
0.0
 11
118.747
 21
107.579752
 31
0.0
  0
LINE
  5
4B4
330
1D
100
AcDbEntity
  8
0
100
AcDbLine
 10
120.419
 20
104.57624
 30
0.0
 11
120.126
 21
103.96771
 31
0.0
  0
LINE
  5
4B5
330
1D
100
AcDbEntity
  8
0
100
AcDbLine
 10
119.008
 20
104.67354
 30
0.0
 11
118.747
 21
104.16232
 31
0.0
  0
LINE
  5
4B6
330
1D
100
AcDbEntity
  8
0
100
AcDbLine
 10
120.537
 20
104.89093
 30
0.0
 11
120.322
 21
104.3024
 31
0.0
  0
LINE
  5
4B7
330
1D
100
AcDbEntity
  8
0
100
AcDbLine
 10
120.601
 20
105.233244285714
 30
0.0
 11
120.601
 21
106.425868857143
 31
0.0
  0
LINE
  5
4B8
330
1D
100
AcDbEntity
  8
0
100
AcDbLine
 10
120.649
 20
105.48998
 30
0.0
 11
120.537
 21
104.89093
 31
0.0
  0
LINE
  5
4B9
330
1D
100
AcDbEntity
  8
0
100
AcDbLine
 10
120.59443680828
 20
105.19814
 30
0.0
 11
119.177
 21
105.19814
 31
0.0
  0
LINE
  5
4BA
330
1D
100
AcDbEntity
  8
0
100
AcDbLine
 10
120.58282657825
 20
105.136040818757
 30
0.0
 11
120.419
 21
104.57624
 31
0.0
  0
LINE
  5
4BB
330
1D
100
AcDbEntity
  8
0
100
AcDbLine
 10
119.177
 20
105.19814
 30
0.0
 11
119.177
 21
106.542951
 31
0.0
  0
LINE
  5
4BC
330
1D
100
AcDbEntity
  8
0
100
AcDbLine
 10
119.177
 20
105.19814
 30
0.0
 11
119.008
 21
104.67354
 31
0.0
  0
LINE
  5
4BD
330
1D
100
AcDbEntity
  8
0
100
AcDbLine
 10
118.131
 20
105.78379
 30
0.0
 11
117.6
 21
105.29927
 31
0.0
  0
LINE
  5
4BE
330
1D
100
AcDbEntity
  8
0
100
AcDbLine
 10
118.564
 20
106.298799
 30
0.0
 11
118.131
 21
105.78379
 31
0.0
  0
LINE
  5
4BF
330
1D
100
AcDbEntity
  8
0
100
AcDbLine
 10
120.649
 20
106.169995
 30
0.0
 11
120.537
 21
106.767034
 31
0.0
  0
LINE
  5
4C0
330
1D
100
AcDbEntity
  8
0
100
AcDbLine
 10
120.653
 20
105.82848
 30
0.0
 11
120.649
 21
106.169995
 31
0.0
  0
LINE
  5
4C1
330
1D
100
AcDbEntity
  8
0
100
AcDbLine
 10
120.653
 20
105.82848
 30
0.0
 11
120.649
 21
105.48998
 31
0.0
  0
LINE
  5
4C2
330
1D
100
AcDbEntity
  8
0
100
AcDbLine
 10
120.601
 20
106.425868857143
 30
0.0
 11
120.601
 21
105.233244285714
 31
0.0
  0
LINE
  5
4C3
330
1D
100
AcDbEntity
  8
0
100
AcDbLine
 10
120.579036275687
 20
106.542951
 30
0.0
 11
119.177
 21
106.542951
 31
0.0
  0
LINE
  5
4C4
330
1D
100
AcDbEntity
  8
0
100
AcDbLine
 10
118.896
 20
106.839625
 30
0.0
 11
118.564
 21
106.298799
 31
0.0
  0
LINE
  5
4C5
330
1D
100
AcDbEntity
  8
0
100
AcDbLine
 10
118.996688853571
 20
107.089741929848
 30
0.0
 11
118.896
 21
106.839625
 31
0.0
  0
LINE
  5
4C6
330
1D
100
AcDbEntity
  8
0
100
AcDbLine
 10
119.177
 20
106.542951
 30
0.0
 11
119.008
 21
107.067544
 31
0.0
  0
LINE
  5
4C7
330
1D
100
AcDbEntity
  8
0
100
AcDbLine
 10
119.177
 20
106.542951
 30
0.0
 11
119.177
 21
105.19814
 31
0.0
  0
LINE
  5
4C8
330
1D
100
AcDbEntity
  8
0
100
AcDbLine
 10
120.322
 20
107.354547
 30
0.0
 11
120.004
 21
107.92881
 31
0.0
  0
LINE
  5
4C9
330
1D
100
AcDbEntity
  8
0
100
AcDbLine
 10
119.59
 20
108.4791
 30
0.0
 11
119.08
 21
109.00177
 31
0.0
  0
LINE
  5
4CA
330
1D
100
AcDbEntity
  8
0
100
AcDbLine
 10
120.004
 20
107.92881
 30
0.0
 11
119.59
 21
108.4791
 31
0.0
  0
LINE
  5
4CB
330
1D
100
AcDbEntity
  8
0
100
AcDbLine
 10
119.08
 20
109.00177
 30
0.0
 11
118.481
 21
109.49396
 31
0.0
  0
LINE
  5
4CC
330
1D
100
AcDbEntity
  8
0
100
AcDbLine
 10
117.955
 20
108.54116
 30
0.0
 11
117.435
 21
108.98083
 31
0.0
  0
LINE
  5
4CD
330
1D
100
AcDbEntity
  8
0
100
AcDbLine
 10
118.395
 20
108.07288
 30
0.0
 11
117.955
 21
108.54116
 31
0.0
  0
LINE
  5
4CE
330
1D
100
AcDbEntity
  8
0
100
AcDbLine
 10
118.747
 20
107.579752
 30
0.0
 11
118.395
 21
108.07288
 31
0.0
  0
LINE
  5
4CF
330
1D
100
AcDbEntity
  8
0
100
AcDbLine
 10
118.481
 20
109.49396
 30
0.0
 11
117.801
 21
109.94696
 31
0.0
  0
LINE
  5
4D0
330
1D
100
AcDbEntity
  8
0
100
AcDbLine
 10
115.498
 20
104.09166
 30
0.0
 11
114.658
 21
103.78935
 31
0.0
  0
LINE
  5
4D1
330
1D
100
AcDbEntity
  8
0
100
AcDbLine
 10
114.022
 20
99.3573
 30
0.0
 11
112.937
 21
99.18946
 31
0.0
  0
LINE
  5
4D2
330
1D
100
AcDbEntity
  8
0
100
AcDbLine
 10
114.401
 20
100.35949
 30
0.0
 11
113.425
 21
100.15441
 31
0.0
  0
LINE
  5
4D3
330
1D
100
AcDbEntity
  8
0
100
AcDbLine
 10
114.384
 20
100.39771
 30
0.0
 11
113.393
 21
100.18974
 31
0.0
  0
LINE
  5
4D4
330
1D
100
AcDbEntity
  8
0
100
AcDbLine
 10
114.658
 20
101.38008
 30
0.0
 11
113.749
 21
101.1302
 31
0.0
  0
LINE
  5
4D5
330
1D
100
AcDbEntity
  8
0
100
AcDbLine
 10
114.658
 20
103.78935
 30
0.0
 11
113.764
 21
103.5433
 31
0.0
  0
LINE
  5
4D6
330
1D
100
AcDbEntity
  8
0
100
AcDbLine
 10
115.075
 20
99.58527
 30
0.0
 11
114.022
 21
99.3573
 31
0.0
  0
LINE
  5
4D7
330
1D
100
AcDbEntity
  8
0
100
AcDbLine
 10
116.085
 20
99.87049
 30
0.0
 11
115.075
 21
99.58527
 31
0.0
  0
LINE
  5
4D8
330
1D
100
AcDbEntity
  8
0
100
AcDbLine
 10
117.044
 20
100.20908
 30
0.0
 11
116.085
 21
99.87049
 31
0.0
  0
LINE
  5
4D9
330
1D
100
AcDbEntity
  8
0
100
AcDbLine
 10
115.335
 20
100.62083
 30
0.0
 11
114.401
 21
100.35949
 31
0.0
  0
LINE
  5
4DA
330
1D
100
AcDbEntity
  8
0
100
AcDbLine
 10
115.335
 20
100.66287
 30
0.0
 11
114.384
 21
100.39771
 31
0.0
  0
LINE
  5
4DB
330
1D
100
AcDbEntity
  8
0
100
AcDbLine
 10
116.219
 20
100.93457
 30
0.0
 11
115.335
 21
100.62083
 31
0.0
  0
LINE
  5
4DC
330
1D
100
AcDbEntity
  8
0
100
AcDbLine
 10
116.261
 20
100.99382
 30
0.0
 11
115.335
 21
100.66287
 31
0.0
  0
LINE
  5
4DD
330
1D
100
AcDbEntity
  8
0
100
AcDbLine
 10
117.044
 20
101.29991
 30
0.0
 11
116.219
 21
100.93457
 31
0.0
  0
LINE
  5
4DE
330
1D
100
AcDbEntity
  8
0
100
AcDbLine
 10
117.122
 20
101.38008
 30
0.0
 11
116.261
 21
100.99382
 31
0.0
  0
LINE
  5
4DF
330
1D
100
AcDbEntity
  8
0
100
AcDbLine
 10
116.838
 20
102.35393
 30
0.0
 11
116.171
 21
101.98573
 31
0.0
  0
LINE
  5
4E0
330
1D
100
AcDbEntity
  8
0
100
AcDbLine
 10
116.171
 20
101.98573
 30
0.0
 11
115.442
 21
101.66053
 31
0.0
  0
LINE
  5
4E1
330
1D
100
AcDbEntity
  8
0
100
AcDbLine
 10
115.442
 20
101.66053
 30
0.0
 11
114.658
 21
101.38008
 31
0.0
  0
LINE
  5
4E2
330
1D
100
AcDbEntity
  8
0
100
AcDbLine
 10
111.829
 20
99.0807
 30
0.0
 11
110.709
 21
99.03397
 31
0.0
  0
LINE
  5
4E3
330
1D
100
AcDbEntity
  8
0
100
AcDbLine
 10
112.937
 20
99.18946
 30
0.0
 11
111.829
 21
99.0807
 31
0.0
  0
LINE
  5
4E4
330
1D
100
AcDbEntity
  8
0
100
AcDbLine
 10
112.42
 20
100.00752
 30
0.0
 11
111.393
 21
99.92075
 31
0.0
  0
LINE
  5
4E5
330
1D
100
AcDbEntity
  8
0
100
AcDbLine
 10
113.425
 20
100.15441
 30
0.0
 11
112.42
 21
100.00752
 31
0.0
  0
LINE
  5
4E6
330
1D
100
AcDbEntity
  8
0
100
AcDbLine
 10
113.393
 20
100.18974
 30
0.0
 11
112.37
 21
100.04384
 31
0.0
  0
LINE
  5
4E7
330
1D
100
AcDbEntity
  8
0
100
AcDbLine
 10
112.37
 20
100.04384
 30
0.0
 11
111.324
 21
99.95898
 31
0.0
  0
LINE
  5
4E8
330
1D
100
AcDbEntity
  8
0
100
AcDbLine
 10
113.749
 20
101.1302
 30
0.0
 11
112.796
 21
100.94232
 31
0.0
  0
LINE
  5
4E9
330
1D
100
AcDbEntity
  8
0
100
AcDbLine
 10
112.796
 20
100.94232
 30
0.0
 11
111.813
 21
100.81833
 31
0.0
  0
LINE
  5
4EA
330
1D
100
AcDbEntity
  8
0
100
AcDbLine
 10
111.813
 20
100.81833
 30
0.0
 11
110.812
 21
100.7592
 31
0.0
  0
LINE
  5
4EB
330
1D
100
AcDbEntity
  8
0
100
AcDbLine
 10
113.764
 20
103.5433
 30
0.0
 11
112.828
 21
103.35636
 31
0.0
  0
LINE
  5
4EC
330
1D
100
AcDbEntity
  8
0
100
AcDbLine
 10
112.828
 20
103.35636
 30
0.0
 11
111.861
 21
103.2314
 31
0.0
  0
LINE
  5
4ED
330
1D
100
AcDbEntity
  8
0
100
AcDbLine
 10
111.861
 20
103.2314
 30
0.0
 11
110.877
 21
103.16938
 31
0.0
  0
LINE
  5
4EE
330
1D
100
AcDbEntity
  8
0
100
AcDbLine
 10
116.979
 20
104.85192
 30
0.0
 11
116.276
 21
104.44845
 31
0.0
  0
LINE
  5
4EF
330
1D
100
AcDbEntity
  8
0
100
AcDbLine
 10
116.276
 20
104.44845
 30
0.0
 11
115.498
 21
104.09166
 31
0.0
  0
LINE
  5
4F0
330
1D
100
AcDbEntity
  8
0
100
AcDbLine
 10
116.838
 20
109.38816
 30
0.0
 11
116.171
 21
109.75532
 31
0.0
  0
LINE
  5
4F1
330
1D
100
AcDbEntity
  8
0
100
AcDbLine
 10
116.171
 20
109.75532
 30
0.0
 11
115.442
 21
110.08155
 31
0.0
  0
LINE
  5
4F2
330
1D
100
AcDbEntity
  8
0
100
AcDbLine
 10
117.044
 20
110.35805
 30
0.0
 11
116.219
 21
110.72237
 31
0.0
  0
LINE
  5
4F3
330
1D
100
AcDbEntity
  8
0
100
AcDbLine
 10
115.442
 20
110.08155
 30
0.0
 11
114.658
 21
110.36099
 31
0.0
  0
LINE
  5
4F4
330
1D
100
AcDbEntity
  8
0
100
AcDbLine
 10
114.658
 20
110.36099
 30
0.0
 11
113.749
 21
110.61187
 31
0.0
  0
LINE
  5
4F5
330
1D
100
AcDbEntity
  8
0
100
AcDbLine
 10
187.0
 20
123.8927
 30
0.0
 11
154.1414
 21
123.8927
 31
0.0
  0
LINE
  5
4F6
330
1D
100
AcDbEntity
  8
0
100
AcDbLine
 10
167.017
 20
137.2023
 30
0.0
 11
164.22
 21
135.3081
 31
0.0
  0
LINE
  5
4F7
330
1D
100
AcDbEntity
  8
0
100
AcDbLine
 10
193.5368
 20
122.5633
 30
0.0
 11
192.7193
 21
122.9013
 31
0.0
  0
LINE
  5
4F8
330
1D
100
AcDbEntity
  8
0
100
AcDbLine
 10
196.303
 20
140.7093
 30
0.0
 11
193.039
 21
141.5835
 31
0.0
  0
LINE
  5
4F9
330
1D
100
AcDbEntity
  8
0
100
AcDbLine
 10
202.507
 20
138.054
 30
0.0
 11
199.468
 21
139.5299
 31
0.0
  0
LINE
  5
4FA
330
1D
100
AcDbEntity
  8
0
100
AcDbLine
 10
208.097
 20
134.2721
 30
0.0
 11
205.392
 21
136.2962
 31
0.0
  0
LINE
  5
4FB
330
1D
100
AcDbEntity
  8
0
100
AcDbLine
 10
219.312
 20
117.7093
 30
0.0
 11
218.131
 21
120.8743
 31
0.0
  0
LINE
  5
4FC
330
1D
100
AcDbEntity
  8
0
100
AcDbLine
 10
216.655
 20
123.9126
 30
0.0
 11
214.895
 21
126.7973
 31
0.0
  0
LINE
  5
4FD
330
1D
100
AcDbEntity
  8
0
100
AcDbLine
 10
215.045403964345
 20
126.55078277503
 30
0.0
 11
214.895
 21
126.7975
 31
0.0
  0
LINE
  5
4FE
330
1D
100
AcDbEntity
  8
0
100
AcDbLine
 10
215.045403964345
 20
126.55078277503
 30
0.0
 11
214.895
 21
126.7975
 31
0.0
  0
LINE
  5
4FF
330
1D
100
AcDbEntity
  8
0
100
AcDbLine
 10
218.131
 20
120.8743
 30
0.0
 11
216.655
 21
123.9126
 31
0.0
  0
LINE
  5
500
330
1D
100
AcDbEntity
  8
0
100
AcDbLine
 10
214.895
 20
126.7975
 30
0.0
 11
212.87
 21
129.5009
 31
0.0
  0
LINE
  5
501
330
1D
100
AcDbEntity
  8
0
100
AcDbLine
 10
210.598
 20
132.0006
 30
0.0
 11
208.097
 21
134.2721
 31
0.0
  0
LINE
  5
502
330
1D
100
AcDbEntity
  8
0
100
AcDbLine
 10
212.87
 20
129.5009
 30
0.0
 11
210.598
 21
132.0006
 31
0.0
  0
LINE
  5
503
330
1D
100
AcDbEntity
  8
0
100
AcDbLine
 10
220.187
 20
114.44587
 30
0.0
 11
219.312
 21
117.7093
 31
0.0
  0
LINE
  5
504
330
1D
100
AcDbEntity
  8
0
100
AcDbLine
 10
220.748
 20
111.11429
 30
0.0
 11
220.187
 21
114.44587
 31
0.0
  0
LINE
  5
505
330
1D
100
AcDbEntity
  8
0
100
AcDbLine
 10
203.1251
 20
112.28648
 30
0.0
 11
202.8563
 21
113.03096
 31
0.0
  0
LINE
  5
506
330
1D
100
AcDbEntity
  8
0
100
AcDbLine
 10
202.8563
 20
113.03096
 30
0.0
 11
202.3971
 21
114.10489
 31
0.0
  0
LINE
  5
507
330
1D
100
AcDbEntity
  8
0
100
AcDbLine
 10
202.3971
 20
114.10489
 30
0.0
 11
201.4645
 21
115.82769
 31
0.0
  0
LINE
  5
508
330
1D
100
AcDbEntity
  8
0
100
AcDbLine
 10
200.34
 20
117.4315
 30
0.0
 11
199.0006
 21
118.9109
 31
0.0
  0
LINE
  5
509
330
1D
100
AcDbEntity
  8
0
100
AcDbLine
 10
201.4645
 20
115.82769
 30
0.0
 11
200.34
 21
117.4315
 31
0.0
  0
LINE
  5
50A
330
1D
100
AcDbEntity
  8
0
100
AcDbLine
 10
199.0006
 20
118.9109
 30
0.0
 11
197.7878
 21
120.0307
 31
0.0
  0
LINE
  5
50B
330
1D
100
AcDbEntity
  8
0
100
AcDbLine
 10
197.773
 20
120.0432
 30
0.0
 11
196.4371
 21
121.032
 31
0.0
  0
LINE
  5
50C
330
1D
100
AcDbEntity
  8
0
100
AcDbLine
 10
196.4371
 20
121.032
 30
0.0
 11
195.1806
 21
121.7941
 31
0.0
  0
LINE
  5
50D
330
1D
100
AcDbEntity
  8
0
100
AcDbLine
 10
195.1806
 20
121.7941
 30
0.0
 11
193.5368
 21
122.5633
 31
0.0
  0
LINE
  5
50E
330
1D
100
AcDbEntity
  8
0
100
AcDbLine
 10
205.392
 20
136.2962
 30
0.0
 11
202.507
 21
138.054
 31
0.0
  0
LINE
  5
50F
330
1D
100
AcDbEntity
  8
0
100
AcDbLine
 10
199.468
 20
139.5299
 30
0.0
 11
196.303
 21
140.7093
 31
0.0
  0
LINE
  5
510
330
1D
100
AcDbEntity
  8
0
100
AcDbLine
 10
196.421098040975
 20
140.665292154968
 30
0.0
 11
196.302
 21
140.7097
 31
0.0
  0
LINE
  5
511
330
1D
100
AcDbEntity
  8
0
100
AcDbLine
 10
196.302
 20
140.7097
 30
0.0
 11
195.839350226754
 21
140.833479727871
 31
0.0
  0
LINE
  5
512
330
1D
100
AcDbEntity
  8
0
100
AcDbLine
 10
196.302
 20
140.7097
 30
0.0
 11
195.839350226754
 21
140.833479727871
 31
0.0
  0
LINE
  5
513
330
1D
100
AcDbEntity
  8
0
100
AcDbLine
 10
196.421098040975
 20
140.665292154968
 30
0.0
 11
196.302
 21
140.7097
 31
0.0
  0
LINE
  5
514
330
1D
100
AcDbEntity
  8
0
100
AcDbLine
 10
192.7193
 20
122.9013
 30
0.0
 11
191.2847
 21
123.3217
 31
0.0
  0
LINE
  5
515
330
1D
100
AcDbEntity
  8
0
100
AcDbLine
 10
189.917
 20
123.6406
 30
0.0
 11
189.275
 21
123.7188
 31
0.0
  0
LINE
  5
516
330
1D
100
AcDbEntity
  8
0
100
AcDbLine
 10
191.2847
 20
123.3217
 30
0.0
 11
189.917
 21
123.6406
 31
0.0
  0
LINE
  5
517
330
1D
100
AcDbEntity
  8
0
100
AcDbLine
 10
189.275
 20
123.7188
 30
0.0
 11
187.0
 21
123.8927
 31
0.0
  0
LINE
  5
518
330
1D
100
AcDbEntity
  8
0
100
AcDbLine
 10
169.982
 20
138.8216
 30
0.0
 11
167.017
 21
137.2023
 31
0.0
  0
LINE
  5
519
330
1D
100
AcDbEntity
  8
0
100
AcDbLine
 10
173.087
 20
140.1524
 30
0.0
 11
169.982
 21
138.8216
 31
0.0
  0
LINE
  5
51A
330
1D
100
AcDbEntity
  8
0
100
AcDbLine
 10
180.444749999953
 20
142.000549999994
 30
0.0
 11
179.606
 21
141.9001
 31
0.0
  0
LINE
  5
51B
330
1D
100
AcDbEntity
  8
0
100
AcDbLine
 10
182.961
 20
142.3022
 30
0.0
 11
179.606
 21
141.9
 31
0.0
  0
LINE
  5
51C
330
1D
100
AcDbEntity
  8
0
100
AcDbLine
 10
186.338
 20
142.3831
 30
0.0
 11
182.961
 21
142.3022
 31
0.0
  0
LINE
  5
51D
330
1D
100
AcDbEntity
  8
0
100
AcDbLine
 10
189.708
 20
142.1427
 30
0.0
 11
186.338
 21
142.3831
 31
0.0
  0
LINE
  5
51E
330
1D
100
AcDbEntity
  8
0
100
AcDbLine
 10
193.039
 20
141.5835
 30
0.0
 11
189.708
 21
142.1427
 31
0.0
  0
LINE
  5
51F
330
1D
100
AcDbEntity
  8
0
100
AcDbLine
 10
176.305
 20
141.1812
 30
0.0
 11
173.087
 21
140.1524
 31
0.0
  0
LINE
  5
520
330
1D
100
AcDbEntity
  8
0
100
AcDbLine
 10
179.606
 20
141.9001
 30
0.0
 11
176.305
 21
141.1812
 31
0.0
  0
LINE
  5
521
330
1D
100
AcDbEntity
  8
0
100
AcDbLine
 10
179.606
 20
141.9001
 30
0.0
 11
176.305
 21
141.1812
 31
0.0
  0
LINE
  5
522
330
1D
100
AcDbEntity
  8
0
100
AcDbLine
 10
180.444749999953
 20
142.000549999994
 30
0.0
 11
179.606
 21
141.9001
 31
0.0
  0
LINE
  5
523
330
1D
100
AcDbEntity
  8
0
100
AcDbLine
 10
132.8131
 20
156.5442
 30
0.0
 11
132.7439
 21
170.658
 31
0.0
  0
LINE
  5
524
330
1D
100
AcDbEntity
  8
0
100
AcDbLine
 10
143.6546
 20
123.902
 30
0.0
 11
136.604
 21
123.9249
 31
0.0
  0
LINE
  5
525
330
1D
100
AcDbEntity
  8
0
100
AcDbLine
 10
157.076
 20
128.1622
 30
0.0
 11
155.443828022696
 21
125.749120384109
 31
0.0
  0
LINE
  5
526
330
1D
100
AcDbEntity
  8
0
100
AcDbLine
 10
157.076
 20
128.1622
 30
0.0
 11
155.443828022696
 21
125.74912038411
 31
0.0
  0
LINE
  5
527
330
1D
100
AcDbEntity
  8
0
100
AcDbLine
 10
143.6546
 20
123.902
 30
0.0
 11
140.4792
 21
123.9055
 31
0.0
  0
LINE
  5
528
330
1D
100
AcDbEntity
  8
0
100
AcDbLine
 10
154.1415
 20
123.8927
 30
0.0
 11
142.805021708979
 21
123.909910186929
 31
0.0
  0
LINE
  5
529
330
1D
100
AcDbEntity
  8
0
100
AcDbLine
 10
155.177855059828
 20
125.35407025953
 30
0.0
 11
154.380520013488
 21
123.8927
 31
0.0
  0
LINE
  5
52A
330
1D
100
AcDbEntity
  8
0
100
AcDbLine
 10
161.615
 20
133.1568
 30
0.0
 11
159.227
 21
130.7674
 31
0.0
  0
LINE
  5
52B
330
1D
100
AcDbEntity
  8
0
100
AcDbLine
 10
164.22
 20
135.3081
 30
0.0
 11
161.615
 21
133.1568
 31
0.0
  0
LINE
  5
52C
330
1D
100
AcDbEntity
  8
0
100
AcDbLine
 10
159.227
 20
130.7674
 30
0.0
 11
157.076
 21
128.1622
 31
0.0
  0
LINE
  5
52D
330
1D
100
AcDbEntity
  8
0
100
AcDbLine
 10
131.9991
 20
124.041858759913
 30
0.0
 11
131.9991
 21
150.093
 31
0.0
  0
LINE
  5
52E
330
1D
100
AcDbEntity
  8
0
100
AcDbLine
 10
118.236
 20
132.493
 30
0.0
 11
118.236
 21
141.7248
 31
0.0
  0
LINE
  5
52F
330
1D
100
AcDbEntity
  8
0
100
AcDbLine
 10
118.236
 20
141.7248
 30
0.0
 11
118.236
 21
132.493
 31
0.0
  0
LINE
  5
530
330
1D
100
AcDbEntity
  8
0
100
AcDbLine
 10
131.9991
 20
150.093
 30
0.0
 11
131.9991
 21
124.041858759913
 31
0.0
  0
LINE
  5
531
330
1D
100
AcDbEntity
  8
0
100
AcDbLine
 10
124.6249
 20
125.25
 30
0.0
 11
122.9977
 21
125.5017
 31
0.0
  0
LINE
  5
532
330
1D
100
AcDbEntity
  8
0
100
AcDbLine
 10
132.1334
 20
124.0406
 30
0.0
 11
131.9947
 21
124.0419
 31
0.0
  0
LINE
  5
533
330
1D
100
AcDbEntity
  8
0
100
AcDbLine
 10
136.604
 20
123.9249
 30
0.0
 11
132.1334
 21
124.0406
 31
0.0
  0
LINE
  5
534
330
1D
100
AcDbEntity
  8
0
100
AcDbLine
 10
131.7511
 20
123.8379
 30
0.0
 11
131.3561
 21
123.9402
 31
0.0
  0
LINE
  5
535
330
1D
100
AcDbEntity
  8
0
100
AcDbLine
 10
131.7511
 20
123.8379
 30
0.0
 11
131.405247589136
 21
123.90980295043
 31
0.0
  0
LINE
  5
536
330
1D
100
AcDbEntity
  8
0
100
AcDbLine
 10
131.303669453691
 20
123.930921113578
 30
0.0
 11
131.244241611077
 21
123.943276202302
 31
0.0
  0
LINE
  5
537
330
1D
100
AcDbEntity
  8
0
100
AcDbLine
 10
130.9032
 20
124.0054
 30
0.0
 11
130.4191
 21
124.1275
 31
0.0
  0
LINE
  5
538
330
1D
100
AcDbEntity
  8
0
100
AcDbLine
 10
131.08011992948
 20
123.977397211049
 30
0.0
 11
130.8651
 21
124.0221
 31
0.0
  0
LINE
  5
539
330
1D
100
AcDbEntity
  8
0
100
AcDbLine
 10
131.3561
 20
123.9402
 30
0.0
 11
130.8651
 21
124.0221
 31
0.0
  0
LINE
  5
53A
330
1D
100
AcDbEntity
  8
0
100
AcDbLine
 10
130.8651
 20
124.0221
 30
0.0
 11
130.810299664603
 21
124.028831379781
 31
0.0
  0
LINE
  5
53B
330
1D
100
AcDbEntity
  8
0
100
AcDbLine
 10
131.7167
 20
124.0437
 30
0.0
 11
131.1491
 21
124.0538
 31
0.0
  0
LINE
  5
53C
330
1D
100
AcDbEntity
  8
0
100
AcDbLine
 10
131.1491
 20
124.0538
 30
0.0
 11
130.632613394473
 21
124.073647520212
 31
0.0
  0
LINE
  5
53D
330
1D
100
AcDbEntity
  8
0
100
AcDbLine
 10
125.2974
 20
125.1391
 30
0.0
 11
124.6249
 21
125.25
 31
0.0
  0
LINE
  5
53E
330
1D
100
AcDbEntity
  8
0
100
AcDbLine
 10
127.5469
 20
124.7208
 30
0.0
 11
125.2974
 21
125.1391
 31
0.0
  0
LINE
  5
53F
330
1D
100
AcDbEntity
  8
0
100
AcDbLine
 10
130.4191
 20
124.1275
 30
0.0
 11
127.5469
 21
124.7208
 31
0.0
  0
LINE
  5
540
330
1D
100
AcDbEntity
  8
0
100
AcDbLine
 10
131.9947
 20
124.0419
 30
0.0
 11
131.7167
 21
124.0437
 31
0.0
  0
LINE
  5
541
330
1D
100
AcDbEntity
  8
0
100
AcDbLine
 10
112.796
 20
110.79977
 30
0.0
 11
111.813
 21
110.92375
 31
0.0
  0
LINE
  5
542
330
1D
100
AcDbEntity
  8
0
100
AcDbLine
 10
114.401
 20
111.29847
 30
0.0
 11
113.425
 21
111.50356
 31
0.0
  0
LINE
  5
543
330
1D
100
AcDbEntity
  8
0
100
AcDbLine
 10
113.425
 20
111.50356
 30
0.0
 11
112.42
 21
111.65144
 31
0.0
  0
LINE
  5
544
330
1D
100
AcDbEntity
  8
0
100
AcDbLine
 10
112.42
 20
111.65144
 30
0.0
 11
111.393
 21
111.73821
 31
0.0
  0
LINE
  5
545
330
1D
100
AcDbEntity
  8
0
100
AcDbLine
 10
115.335
 20
111.03814
 30
0.0
 11
114.401
 21
111.29847
 31
0.0
  0
LINE
  5
546
330
1D
100
AcDbEntity
  8
0
100
AcDbLine
 10
111.813
 20
110.92375
 30
0.0
 11
110.812
 21
110.98289
 31
0.0
  0
LINE
  5
547
330
1D
100
AcDbEntity
  8
0
100
AcDbLine
 10
121.365
 20
111.53707
 30
0.0
 11
120.018
 21
112.67801
 31
0.0
  0
LINE
  5
548
330
1D
100
AcDbEntity
  8
0
100
AcDbLine
 10
120.018
 20
112.67801
 30
0.0
 11
118.076
 21
113.84779
 31
0.0
  0
LINE
  5
549
330
1D
100
AcDbEntity
  8
0
100
AcDbLine
 10
118.076
 20
113.84779
 30
0.0
 11
116.274
 21
114.60793
 31
0.0
  0
LINE
  5
54A
330
1D
100
AcDbEntity
  8
0
100
AcDbLine
 10
116.274
 20
114.60793
 30
0.0
 11
113.333
 21
115.33754
 31
0.0
  0
LINE
  5
54B
330
1D
100
AcDbEntity
  8
0
100
AcDbLine
 10
117.591
 20
132.193
 30
0.0
 11
117.249
 21
132.193
 31
0.0
  0
LINE
  5
54C
330
1D
100
AcDbEntity
  8
0
100
AcDbLine
 10
117.579
 20
132.193
 30
0.0
 11
117.232
 21
132.193
 31
0.0
  0
LINE
  5
54D
330
1D
100
AcDbEntity
  8
0
100
AcDbLine
 10
122.9977
 20
125.5017
 30
0.0
 11
120.874
 21
125.7743
 31
0.0
  0
LINE
  5
54E
330
1D
100
AcDbEntity
  8
0
100
AcDbLine
 10
120.874
 20
125.7743
 30
0.0
 11
118.71309680513
 21
125.96948864694
 31
0.0
  0
LINE
  5
54F
330
1D
100
AcDbEntity
  8
0
100
AcDbLine
 10
117.934
 20
132.193
 30
0.0
 11
117.814
 21
132.193
 31
0.0
  0
LINE
  5
550
330
1D
100
AcDbEntity
  8
0
100
AcDbLine
 10
117.937
 20
132.193
 30
0.0
 11
117.822
 21
132.193
 31
0.0
  0
LINE
  5
551
330
1D
100
AcDbEntity
  8
0
100
AcDbLine
 10
117.814
 20
132.193
 30
0.0
 11
117.579
 21
132.193
 31
0.0
  0
LINE
  5
552
330
1D
100
AcDbEntity
  8
0
100
AcDbLine
 10
117.822
 20
132.193
 30
0.0
 11
117.591
 21
132.193
 31
0.0
  0
LINE
  5
553
330
1D
100
AcDbEntity
  8
0
100
AcDbLine
 10
118.086
 20
132.2332
 30
0.0
 11
117.937
 21
132.193
 31
0.0
  0
LINE
  5
554
330
1D
100
AcDbEntity
  8
0
100
AcDbLine
 10
118.236
 20
132.493
 30
0.0
 11
118.196
 21
132.343
 31
0.0
  0
LINE
  5
555
330
1D
100
AcDbEntity
  8
0
100
AcDbLine
 10
118.196
 20
132.343
 30
0.0
 11
118.086
 21
132.2332
 31
0.0
  0
LINE
  5
556
330
1D
100
AcDbEntity
  8
0
100
AcDbLine
 10
116.7
 20
126.147005660377
 30
0.0
 11
116.7
 21
132.193
 31
0.0
  0
LINE
  5
557
330
1D
100
AcDbEntity
  8
0
100
AcDbLine
 10
114.85
 20
126.2421
 30
0.0
 11
112.682
 21
126.3106
 31
0.0
  0
LINE
  5
558
330
1D
100
AcDbEntity
  8
0
100
AcDbLine
 10
116.811
 20
126.1413
 30
0.0
 11
114.85
 21
126.2421
 31
0.0
  0
LINE
  5
559
330
1D
100
AcDbEntity
  8
0
100
AcDbLine
 10
117.232
 20
132.193
 30
0.0
 11
116.78
 21
132.193
 31
0.0
  0
LINE
  5
55A
330
1D
100
AcDbEntity
  8
0
100
AcDbLine
 10
117.249
 20
132.193
 30
0.0
 11
116.801
 21
132.193
 31
0.0
  0
LINE
  5
55B
330
1D
100
AcDbEntity
  8
0
100
AcDbLine
 10
116.7
 20
132.193
 30
0.0
 11
116.7
 21
126.147005660377
 31
0.0
  0
LINE
  5
55C
330
1D
100
AcDbEntity
  8
0
100
AcDbLine
 10
116.801
 20
132.193
 30
0.0
 11
116.7
 21
132.193
 31
0.0
  0
LINE
  5
55D
330
1D
100
AcDbEntity
  8
0
100
AcDbLine
 10
116.78
 20
132.193
 30
0.0
 11
116.228
 21
132.193
 31
0.0
  0
LINE
  5
55E
330
1D
100
AcDbEntity
  8
0
100
AcDbLine
 10
114.863
 20
132.193
 30
0.0
 11
114.072
 21
132.193
 31
0.0
  0
LINE
  5
55F
330
1D
100
AcDbEntity
  8
0
100
AcDbLine
 10
115.585
 20
132.193
 30
0.0
 11
114.863
 21
132.193
 31
0.0
  0
LINE
  5
560
330
1D
100
AcDbEntity
  8
0
100
AcDbLine
 10
112.334
 20
132.193
 30
0.0
 11
111.414
 21
132.193
 31
0.0
  0
LINE
  5
561
330
1D
100
AcDbEntity
  8
0
100
AcDbLine
 10
113.224
 20
132.193
 30
0.0
 11
112.334
 21
132.193
 31
0.0
  0
LINE
  5
562
330
1D
100
AcDbEntity
  8
0
100
AcDbLine
 10
114.072
 20
132.193
 30
0.0
 11
113.224
 21
132.193
 31
0.0
  0
LINE
  5
563
330
1D
100
AcDbEntity
  8
0
100
AcDbLine
 10
116.228
 20
132.193
 30
0.0
 11
115.585
 21
132.193
 31
0.0
  0
LINE
  5
564
330
1D
100
AcDbEntity
  8
0
100
AcDbLine
 10
125.8409
 20
150.093
 30
0.0
 11
124.2905
 21
150.093
 31
0.0
  0
LINE
  5
565
330
1D
100
AcDbEntity
  8
0
100
AcDbLine
 10
129.155
 20
152.893
 30
0.0
 11
117.468
 21
152.893
 31
0.0
  0
LINE
  5
566
330
1D
100
AcDbEntity
  8
0
100
AcDbLine
 10
130.852373567468
 20
150.093
 30
0.0
 11
130.58583012939
 21
152.893
 31
0.0
  0
LINE
  5
567
330
1D
100
AcDbEntity
  8
0
100
AcDbLine
 10
131.1303
 20
150.093
 30
0.0
 11
130.4376
 21
150.093
 31
0.0
  0
LINE
  5
568
330
1D
100
AcDbEntity
  8
0
100
AcDbLine
 10
131.9146
 20
150.093
 30
0.0
 11
131.6244
 21
150.093
 31
0.0
  0
LINE
  5
569
330
1D
100
AcDbEntity
  8
0
100
AcDbLine
 10
131.6244
 20
150.093
 30
0.0
 11
131.1303
 21
150.093
 31
0.0
  0
LINE
  5
56A
330
1D
100
AcDbEntity
  8
0
100
AcDbLine
 10
131.9991
 20
150.093
 30
0.0
 11
131.9146
 21
150.093
 31
0.0
  0
LINE
  5
56B
330
1D
100
AcDbEntity
  8
0
100
AcDbLine
 10
130.4376
 20
150.093
 30
0.0
 11
129.553
 21
150.093
 31
0.0
  0
LINE
  5
56C
330
1D
100
AcDbEntity
  8
0
100
AcDbLine
 10
129.553
 20
150.093
 30
0.0
 11
128.4848
 21
150.093
 31
0.0
  0
LINE
  5
56D
330
1D
100
AcDbEntity
  8
0
100
AcDbLine
 10
128.4848
 20
150.093
 30
0.0
 11
127.2436
 21
150.093
 31
0.0
  0
LINE
  5
56E
330
1D
100
AcDbEntity
  8
0
100
AcDbLine
 10
127.2436
 20
150.093
 30
0.0
 11
125.8409
 21
150.093
 31
0.0
  0
LINE
  5
56F
330
1D
100
AcDbEntity
  8
0
100
AcDbLine
 10
132.2615
 20
152.9514
 30
0.0
 11
131.9917
 21
152.8503
 31
0.0
  0
LINE
  5
570
330
1D
100
AcDbEntity
  8
0
100
AcDbLine
 10
130.8529
 20
152.893
 30
0.0
 11
130.1134
 21
152.893
 31
0.0
  0
LINE
  5
571
330
1D
100
AcDbEntity
  8
0
100
AcDbLine
 10
131.5118
 20
152.893
 30
0.0
 11
130.8529
 21
152.893
 31
0.0
  0
LINE
  5
572
330
1D
100
AcDbEntity
  8
0
100
AcDbLine
 10
131.9917
 20
152.8503
 30
0.0
 11
131.5118
 21
152.893
 31
0.0
  0
LINE
  5
573
330
1D
100
AcDbEntity
  8
0
100
AcDbLine
 10
132.8131
 20
156.5442
 30
0.0
 11
132.658
 21
154.2181
 31
0.0
  0
LINE
  5
574
330
1D
100
AcDbEntity
  8
0
100
AcDbLine
 10
132.4709
 20
153.2032
 30
0.0
 11
132.4479
 21
153.158
 31
0.0
  0
LINE
  5
575
330
1D
100
AcDbEntity
  8
0
100
AcDbLine
 10
132.5082
 20
153.3953
 30
0.0
 11
132.4709
 21
153.2032
 31
0.0
  0
LINE
  5
576
330
1D
100
AcDbEntity
  8
0
100
AcDbLine
 10
132.658
 20
154.2181
 30
0.0
 11
132.5082
 21
153.3953
 31
0.0
  0
LINE
  5
577
330
1D
100
AcDbEntity
  8
0
100
AcDbLine
 10
132.4479
 20
153.158
 30
0.0
 11
132.2615
 21
152.9514
 31
0.0
  0
LINE
  5
578
330
1D
100
AcDbEntity
  8
0
100
AcDbLine
 10
130.1134
 20
152.893
 30
0.0
 11
129.155
 21
152.893
 31
0.0
  0
LINE
  5
579
330
1D
100
AcDbEntity
  8
0
100
AcDbLine
 10
122.6075
 20
150.093
 30
0.0
 11
120.808
 21
150.093
 31
0.0
  0
LINE
  5
57A
330
1D
100
AcDbEntity
  8
0
100
AcDbLine
 10
118.999
 20
148.1527
 30
0.0
 11
118.999
 21
142.693
 31
0.0
  0
LINE
  5
57B
330
1D
100
AcDbEntity
  8
0
100
AcDbLine
 10
118.999
 20
148.1527
 30
0.0
 11
118.943
 21
148.383
 31
0.0
  0
LINE
  5
57C
330
1D
100
AcDbEntity
  8
0
100
AcDbLine
 10
118.943
 20
148.383
 30
0.0
 11
118.787
 21
148.5616
 31
0.0
  0
LINE
  5
57D
330
1D
100
AcDbEntity
  8
0
100
AcDbLine
 10
118.999
 20
142.693
 30
0.0
 11
118.951
 21
142.4803
 31
0.0
  0
LINE
  5
57E
330
1D
100
AcDbEntity
  8
0
100
AcDbLine
 10
118.999
 20
142.693
 30
0.0
 11
118.999
 21
148.1527
 31
0.0
  0
LINE
  5
57F
330
1D
100
AcDbEntity
  8
0
100
AcDbLine
 10
118.951
 20
142.4803
 30
0.0
 11
118.818
 21
142.308
 31
0.0
  0
LINE
  5
580
330
1D
100
AcDbEntity
  8
0
100
AcDbLine
 10
120.808
 20
150.093
 30
0.0
 11
118.908
 21
150.093
 31
0.0
  0
LINE
  5
581
330
1D
100
AcDbEntity
  8
0
100
AcDbLine
 10
124.2905
 20
150.093
 30
0.0
 11
122.6075
 21
150.093
 31
0.0
  0
LINE
  5
582
330
1D
100
AcDbEntity
  8
0
100
AcDbLine
 10
118.787
 20
148.5616
 30
0.0
 11
118.566
 21
148.6482
 31
0.0
  0
LINE
  5
583
330
1D
100
AcDbEntity
  8
0
100
AcDbLine
 10
118.818
 20
142.308
 30
0.0
 11
118.624
 21
142.2089
 31
0.0
  0
LINE
  5
584
330
1D
100
AcDbEntity
  8
0
100
AcDbLine
 10
118.429
 20
142.1097
 30
0.0
 11
118.295
 21
141.9374
 31
0.0
  0
LINE
  5
585
330
1D
100
AcDbEntity
  8
0
100
AcDbLine
 10
118.566
 20
148.6482
 30
0.0
 11
115.886
 21
148.9507
 31
0.0
  0
LINE
  5
586
330
1D
100
AcDbEntity
  8
0
100
AcDbLine
 10
118.624
 20
142.2089
 30
0.0
 11
118.429
 21
142.1097
 31
0.0
  0
LINE
  5
587
330
1D
100
AcDbEntity
  8
0
100
AcDbLine
 10
118.295
 20
141.9374
 30
0.0
 11
118.236
 21
141.7248
 31
0.0
  0
LINE
  5
588
330
1D
100
AcDbEntity
  8
0
100
AcDbLine
 10
118.908
 20
150.093
 30
0.0
 11
116.929
 21
150.093
 31
0.0
  0
LINE
  5
589
330
1D
100
AcDbEntity
  8
0
100
AcDbLine
 10
116.929
 20
150.093
 30
0.0
 11
114.886
 21
150.093
 31
0.0
  0
LINE
  5
58A
330
1D
100
AcDbEntity
  8
0
100
AcDbLine
 10
114.886
 20
150.093
 30
0.0
 11
112.802
 21
150.093
 31
0.0
  0
LINE
  5
58B
330
1D
100
AcDbEntity
  8
0
100
AcDbLine
 10
112.802
 20
150.093
 30
0.0
 11
110.697
 21
150.093
 31
0.0
  0
LINE
  5
58C
330
1D
100
AcDbEntity
  8
0
100
AcDbLine
 10
117.468
 20
152.893
 30
0.0
 11
115.346
 21
152.893
 31
0.0
  0
LINE
  5
58D
330
1D
100
AcDbEntity
  8
0
100
AcDbLine
 10
115.346
 20
152.893
 30
0.0
 11
113.184
 21
152.893
 31
0.0
  0
LINE
  5
58E
330
1D
100
AcDbEntity
  8
0
100
AcDbLine
 10
111.609
 20
159.7018
 30
0.0
 11
111.073
 21
159.4896
 31
0.0
  0
LINE
  5
58F
330
1D
100
AcDbEntity
  8
0
100
AcDbLine
 10
113.059048324558
 20
162.044526204908
 30
0.0
 11
113.05
 21
161.7886
 31
0.0
  0
LINE
  5
590
330
1D
100
AcDbEntity
  8
0
100
AcDbLine
 10
112.900221176304
 20
161.33011340441
 30
0.0
 11
112.775
 21
160.9468
 31
0.0
  0
LINE
  5
591
330
1D
100
AcDbEntity
  8
0
100
AcDbLine
 10
112.775
 20
160.9468
 30
0.0
 11
112.273
 21
160.2176
 31
0.0
  0
LINE
  5
592
330
1D
100
AcDbEntity
  8
0
100
AcDbLine
 10
112.273
 20
160.2176
 30
0.0
 11
111.609
 21
159.7018
 31
0.0
  0
LINE
  5
593
330
1D
100
AcDbEntity
  8
0
100
AcDbLine
 10
113.070771054984
 20
162.736757538719
 30
0.0
 11
112.860484904026
 21
163.54310257598
 31
0.0
  0
LINE
  5
594
330
1D
100
AcDbEntity
  8
0
100
AcDbLine
 10
112.392
 20
164.2996
 30
0.0
 11
111.746
 21
164.8318
 31
0.0
  0
LINE
  5
595
330
1D
100
AcDbEntity
  8
0
100
AcDbLine
 10
112.733282985335
 20
163.755827346858
 30
0.0
 11
112.392
 21
164.2996
 31
0.0
  0
LINE
  5
596
330
1D
100
AcDbEntity
  8
0
100
AcDbLine
 10
111.746
 20
164.8318
 30
0.0
 11
111.146
 21
165.0835
 31
0.0
  0
LINE
  5
597
330
1D
100
AcDbEntity
  8
0
100
AcDbLine
 10
112.860484904026
 20
163.54310257598
 30
0.0
 11
112.733282985335
 21
163.755827346858
 31
0.0
  0
LINE
  5
598
330
1D
100
AcDbEntity
  8
0
100
AcDbLine
 10
113.070771054984
 20
162.736757538719
 30
0.0
 11
113.059048324558
 21
162.044526204908
 31
0.0
  0
LINE
  5
599
330
1D
100
AcDbEntity
  8
0
100
AcDbLine
 10
113.05
 20
161.7886
 30
0.0
 11
112.900221176304
 21
161.33011340441
 31
0.0
  0
LINE
  5
59A
330
1D
100
AcDbEntity
  8
0
100
AcDbLine
 10
131.3704
 20
191.7414
 30
0.0
 11
131.0331
 21
193.7763
 31
0.0
  0
LINE
  5
59B
330
1D
100
AcDbEntity
  8
0
100
AcDbLine
 10
132.8395
 20
179.3971
 30
0.0
 11
132.7568
 21
175.1909
 31
0.0
  0
LINE
  5
59C
330
1D
100
AcDbEntity
  8
0
100
AcDbLine
 10
132.8395
 20
179.3971
 30
0.0
 11
132.8228
 21
179.9218
 31
0.0
  0
LINE
  5
59D
330
1D
100
AcDbEntity
  8
0
100
AcDbLine
 10
132.7941
 20
180.3612
 30
0.0
 11
132.6969
 21
181.5393
 31
0.0
  0
LINE
  5
59E
330
1D
100
AcDbEntity
  8
0
100
AcDbLine
 10
132.6969
 20
181.5393
 30
0.0
 11
132.6052
 21
182.2881
 31
0.0
  0
LINE
  5
59F
330
1D
100
AcDbEntity
  8
0
100
AcDbLine
 10
132.6052
 20
182.2881
 30
0.0
 11
132.3532
 21
184.1037
 31
0.0
  0
LINE
  5
5A0
330
1D
100
AcDbEntity
  8
0
100
AcDbLine
 10
132.3532
 20
184.1037
 30
0.0
 11
131.8785
 21
187.8267
 31
0.0
  0
LINE
  5
5A1
330
1D
100
AcDbEntity
  8
0
100
AcDbLine
 10
131.6283
 20
189.8537
 30
0.0
 11
131.3704
 21
191.7414
 31
0.0
  0
LINE
  5
5A2
330
1D
100
AcDbEntity
  8
0
100
AcDbLine
 10
131.8785
 20
187.8267
 30
0.0
 11
131.6283
 21
189.8537
 31
0.0
  0
LINE
  5
5A3
330
1D
100
AcDbEntity
  8
0
100
AcDbLine
 10
132.7568
 20
175.1909
 30
0.0
 11
132.7439
 21
170.658
 31
0.0
  0
LINE
  5
5A4
330
1D
100
AcDbEntity
  8
0
100
AcDbLine
 10
132.8228
 20
179.9218
 30
0.0
 11
132.7941
 21
180.3612
 31
0.0
  0
LINE
  5
5A5
330
1D
100
AcDbEntity
  8
0
100
AcDbLine
 10
125.2786
 20
199.2822
 30
0.0
 11
123.4532
 21
199.4785
 31
0.0
  0
LINE
  5
5A6
330
1D
100
AcDbEntity
  8
0
100
AcDbLine
 10
127.8476
 20
198.7041
 30
0.0
 11
127.264
 21
198.887
 31
0.0
  0
LINE
  5
5A7
330
1D
100
AcDbEntity
  8
0
100
AcDbLine
 10
130.7021
 20
195.4584
 30
0.0
 11
130.4631
 21
196.3684
 31
0.0
  0
LINE
  5
5A8
330
1D
100
AcDbEntity
  8
0
100
AcDbLine
 10
131.0331
 20
193.7763
 30
0.0
 11
130.7021
 21
195.4584
 31
0.0
  0
LINE
  5
5A9
330
1D
100
AcDbEntity
  8
0
100
AcDbLine
 10
130.4631
 20
196.3684
 30
0.0
 11
130.3285
 21
196.666
 31
0.0
  0
LINE
  5
5AA
330
1D
100
AcDbEntity
  8
0
100
AcDbLine
 10
130.3285
 20
196.666
 30
0.0
 11
130.1126
 21
197.0678
 31
0.0
  0
LINE
  5
5AB
330
1D
100
AcDbEntity
  8
0
100
AcDbLine
 10
129.6116
 20
197.6685
 30
0.0
 11
129.4558
 21
197.8195
 31
0.0
  0
LINE
  5
5AC
330
1D
100
AcDbEntity
  8
0
100
AcDbLine
 10
129.4558
 20
197.8195
 30
0.0
 11
129.1695
 21
198.0298
 31
0.0
  0
LINE
  5
5AD
330
1D
100
AcDbEntity
  8
0
100
AcDbLine
 10
129.1695
 20
198.0298
 30
0.0
 11
128.8322
 21
198.248
 31
0.0
  0
LINE
  5
5AE
330
1D
100
AcDbEntity
  8
0
100
AcDbLine
 10
128.8322
 20
198.248
 30
0.0
 11
128.6558
 21
198.3547
 31
0.0
  0
LINE
  5
5AF
330
1D
100
AcDbEntity
  8
0
100
AcDbLine
 10
128.6558
 20
198.3547
 30
0.0
 11
127.8476
 21
198.7041
 31
0.0
  0
LINE
  5
5B0
330
1D
100
AcDbEntity
  8
0
100
AcDbLine
 10
129.8797
 20
197.356
 30
0.0
 11
129.6116
 21
197.6685
 31
0.0
  0
LINE
  5
5B1
330
1D
100
AcDbEntity
  8
0
100
AcDbLine
 10
130.1126
 20
197.0678
 30
0.0
 11
129.8797
 21
197.356
 31
0.0
  0
LINE
  5
5B2
330
1D
100
AcDbEntity
  8
0
100
AcDbLine
 10
126.7337
 20
199.0025
 30
0.0
 11
126.2824
 21
199.1198
 31
0.0
  0
LINE
  5
5B3
330
1D
100
AcDbEntity
  8
0
100
AcDbLine
 10
126.2824
 20
199.1198
 30
0.0
 11
125.2786
 21
199.2822
 31
0.0
  0
LINE
  5
5B4
330
1D
100
AcDbEntity
  8
0
100
AcDbLine
 10
127.264
 20
198.887
 30
0.0
 11
126.7337
 21
199.0025
 31
0.0
  0
LINE
  5
5B5
330
1D
100
AcDbEntity
  8
0
100
AcDbLine
 10
120.997
 20
199.6314
 30
0.0
 11
112.536
 21
199.762
 31
0.0
  0
LINE
  5
5B6
330
1D
100
AcDbEntity
  8
0
100
AcDbLine
 10
123.4532
 20
199.4785
 30
0.0
 11
120.997
 21
199.6314
 31
0.0
  0
LINE
  5
5B7
330
1D
100
AcDbEntity
  8
0
100
AcDbLine
 10
105.114
 20
148.9507
 30
0.0
 11
115.886
 21
148.9507
 31
0.0
  0
LINE
  5
5B8
330
1D
100
AcDbEntity
  8
0
100
AcDbLine
 10
109.586
 20
132.193
 30
0.0
 11
111.414
 21
132.193
 31
0.0
  0
LINE
  5
5B9
330
1D
100
AcDbEntity
  8
0
100
AcDbLine
 10
108.318
 20
126.3106
 30
0.0
 11
112.682
 21
126.3106
 31
0.0
  0
LINE
  5
5BA
330
1D
100
AcDbEntity
  8
0
100
AcDbLine
 10
104.189
 20
126.1413
 30
0.0
 11
102.28690319487
 21
125.96948864694
 31
0.0
  0
LINE
  5
5BB
330
1D
100
AcDbEntity
  8
0
100
AcDbLine
 10
116.811
 20
126.1413
 30
0.0
 11
118.71309680513
 21
125.96948864694
 31
0.0
  0
LINE
  5
5BC
330
1D
100
AcDbEntity
  8
0
100
AcDbLine
 10
109.607
 20
111.73821
 30
0.0
 11
111.393
 21
111.73821
 31
0.0
  0
LINE
  5
5BD
330
1D
100
AcDbEntity
  8
0
100
AcDbLine
 10
110.188
 20
110.98289
 30
0.0
 11
110.812
 21
110.98289
 31
0.0
  0
LINE
  5
5BE
330
1D
100
AcDbEntity
  8
0
100
AcDbLine
 10
110.291
 20
99.03397
 30
0.0
 11
110.709
 21
99.03397
 31
0.0
  0
LINE
  5
5BF
330
1D
100
AcDbEntity
  8
0
100
AcDbLine
 10
110.188
 20
100.7592
 30
0.0
 11
110.812
 21
100.7592
 31
0.0
  0
LINE
  5
5C0
330
1D
100
AcDbEntity
  8
0
100
AcDbLine
 10
110.123
 20
103.16938
 30
0.0
 11
110.877
 21
103.16938
 31
0.0
  0
LINE
  5
5C1
330
1D
100
AcDbEntity
  8
0
100
AcDbLine
 10
109.676
 20
99.95898
 30
0.0
 11
111.324
 21
99.95898
 31
0.0
  0
LINE
  5
5C2
330
1D
100
AcDbEntity
  8
0
100
AcDbLine
 10
109.607
 20
99.92075
 30
0.0
 11
111.393
 21
99.92075
 31
0.0
  0
LINE
  5
5C3
330
1D
100
AcDbEntity
  8
0
100
AcDbLine
 10
108.464
 20
199.762
 30
0.0
 11
112.536
 21
199.762
 31
0.0
  0
ENDSEC
  0
SECTION
  2
OBJECTS
  0
DICTIONARY
  5
C
330
0
100
AcDbDictionary
281
     1
  3
ACAD_GROUP
350
D
  3
ACAD_LAYOUT
350
1A
  3
ACAD_MLEADERSTYLE
350
5C6
  3
ACAD_MLINESTYLE
350
17
  3
ACAD_PLOTSETTINGS
350
19
  3
ACAD_PLOTSTYLENAME
350
E
  3
ACAD_SCALELIST
350
3F7
  3
AcDbVariableDictionary
350
5C4
  3
DWGPROPS
350
5C9
  0
DICTIONARY
  5
D
102
{ACAD_REACTORS
330
C
102
}
330
C
100
AcDbDictionary
281
     1
  0
DICTIONARY
  5
1A
102
{ACAD_REACTORS
330
C
102
}
330
C
100
AcDbDictionary
281
     1
  3
Layout1
350
1C
  3
Model
350
1E
  0
DICTIONARY
  5
5C6
102
{ACAD_REACTORS
330
C
102
}
330
C
100
AcDbDictionary
281
     1
  0
DICTIONARY
  5
17
102
{ACAD_REACTORS
330
C
102
}
330
C
100
AcDbDictionary
281
     1
  3
Standard
350
18
  0
DICTIONARY
  5
19
102
{ACAD_REACTORS
330
C
102
}
330
C
100
AcDbDictionary
281
     1
  0
ACDBDICTIONARYWDFLT
  5
E
102
{ACAD_REACTORS
330
C
102
}
330
C
100
AcDbDictionary
281
     1
  3
Normal
350
F
100
AcDbDictionaryWithDefault
340
F
  0
DICTIONARY
  5
3F7
102
{ACAD_REACTORS
330
C
102
}
330
C
100
AcDbDictionary
281
     1
  3
A0
350
3F8
  3
A1
350
3F9
  3
A2
350
3FA
  3
A3
350
3FB
  3
A4
350
3FC
  3
A5
350
3FD
  3
A6
350
3FE
  3
A7
350
3FF
  3
A8
350
400
  3
A9
350
401
  3
B0
350
402
  3
B1
350
403
  3
B2
350
404
  3
B3
350
405
  3
B4
350
406
  3
B5
350
407
  3
B6
350
408
  3
B7
350
409
  3
B8
350
40A
  3
B9
350
40B
  3
C0
350
40C
  3
C1
350
40D
  3
C2
350
40E
  3
C3
350
40F
  3
C4
350
410
  3
C5
350
411
  3
C6
350
412
  3
C7
350
413
  3
C8
350
414
  3
C9
350
415
  3
D0
350
416
  3
D1
350
417
  3
D2
350
418
  0
DICTIONARY
  5
5C4
102
{ACAD_REACTORS
330
C
102
}
330
C
100
AcDbDictionary
281
     1
  3
CANNOSCALE
350
5C7
  0
XRECORD
  5
5C9
102
{ACAD_REACTORS
330
C
102
}
330
C
100
AcDbXrecord
280
     1
  1
DWGPROPS COOKIE
  2

  3

  4

  6

  7

  8
MARTIN
  9

300
=
301
=
302
=
303
=
304
=
305
=
306
=
307
=
308
=
309
=
 40
0.0
 41
2456646.375708727
 42
2456646.383896655
  1

 90
        0
  0
LAYOUT
  5
1C
102
{ACAD_REACTORS
330
1A
102
}
330
1A
100
AcDbPlotSettings
  1

  2
none_device
  4

  6

 40
0.0
 41
0.0
 42
0.0
 43
0.0
 44
0.0
 45
0.0
 46
0.0
 47
0.0
 48
0.0
 49
0.0
140
0.0
141
0.0
142
1.0
143
1.0
 70
   688
 72
     0
 73
     0
 74
     5
  7

 75
    16
147
1.0
148
0.0
149
0.0
100
AcDbLayout
  1
Layout1
 70
     1
 71
     1
 10
0.0
 20
0.0
 11
12.0
 21
9.0
 12
0.0
 22
0.0
 32
0.0
 14
1.000000000000E+20
 24
1.000000000000E+20
 34
1.000000000000E+20
 15
-1.000000000000E+20
 25
-1.000000000000E+20
 35
-1.000000000000E+20
146
0.0
 13
0.0
 23
0.0
 33
0.0
 16
1.0
 26
0.0
 36
0.0
 17
0.0
 27
1.0
 37
0.0
 76
     0
330
1B
  0
LAYOUT
  5
1E
102
{ACAD_REACTORS
330
1A
102
}
330
1A
100
AcDbPlotSettings
  1

  2
none_device
  4

  6

 40
0.0
 41
0.0
 42
0.0
 43
0.0
 44
0.0
 45
0.0
 46
0.0
 47
0.0
 48
0.0
 49
0.0
140
0.0
141
0.0
142
1.0
143
1.0
 70
  1712
 72
     0
 73
     0
 74
     0
  7

 75
     0
147
1.0
148
0.0
149
0.0
100
AcDbLayout
  1
Model
 70
     1
 71
     0
 10
0.0
 20
0.0
 11
12.0
 21
9.0
 12
0.0
 22
0.0
 32
0.0
 14
0.01
 24
0.238
 34
0.0
 15
220.99
 25
199.762
 35
0.0
146
0.0
 13
0.0
 23
0.0
 33
0.0
 16
1.0
 26
0.0
 36
0.0
 17
0.0
 27
1.0
 37
0.0
 76
     0
330
1D
331
3F2
  0
MLINESTYLE
  5
18
102
{ACAD_REACTORS
330
17
102
}
330
17
100
AcDbMlineStyle
  2
Standard
 70
     0
  3

 62
   256
 51
90.0
 52
90.0
 71
     2
 49
0.5
 62
   256
  6
BYLAYER
 49
-0.5
 62
   256
  6
BYLAYER
  0
ACDBPLACEHOLDER
  5
F
102
{ACAD_REACTORS
330
E
102
}
330
E
  0
SCALE
  5
3F8
102
{ACAD_REACTORS
330
3F7
102
}
330
3F7
100
AcDbScale
 70
     0
300
1:1
140
1.0
141
1.0
290
     1
  0
SCALE
  5
3F9
102
{ACAD_REACTORS
330
3F7
102
}
330
3F7
100
AcDbScale
 70
     0
300
1:2
140
1.0
141
2.0
290
     0
  0
SCALE
  5
3FA
102
{ACAD_REACTORS
330
3F7
102
}
330
3F7
100
AcDbScale
 70
     0
300
1:4
140
1.0
141
4.0
290
     0
  0
SCALE
  5
3FB
102
{ACAD_REACTORS
330
3F7
102
}
330
3F7
100
AcDbScale
 70
     0
300
1:5
140
1.0
141
5.0
290
     0
  0
SCALE
  5
3FC
102
{ACAD_REACTORS
330
3F7
102
}
330
3F7
100
AcDbScale
 70
     0
300
1:8
140
1.0
141
8.0
290
     0
  0
SCALE
  5
3FD
102
{ACAD_REACTORS
330
3F7
102
}
330
3F7
100
AcDbScale
 70
     0
300
1:10
140
1.0
141
10.0
290
     0
  0
SCALE
  5
3FE
102
{ACAD_REACTORS
330
3F7
102
}
330
3F7
100
AcDbScale
 70
     0
300
1:16
140
1.0
141
16.0
290
     0
  0
SCALE
  5
3FF
102
{ACAD_REACTORS
330
3F7
102
}
330
3F7
100
AcDbScale
 70
     0
300
1:20
140
1.0
141
20.0
290
     0
  0
SCALE
  5
400
102
{ACAD_REACTORS
330
3F7
102
}
330
3F7
100
AcDbScale
 70
     0
300
1:30
140
1.0
141
30.0
290
     0
  0
SCALE
  5
401
102
{ACAD_REACTORS
330
3F7
102
}
330
3F7
100
AcDbScale
 70
     0
300
1:40
140
1.0
141
40.0
290
     0
  0
SCALE
  5
402
102
{ACAD_REACTORS
330
3F7
102
}
330
3F7
100
AcDbScale
 70
     0
300
1:50
140
1.0
141
50.0
290
     0
  0
SCALE
  5
403
102
{ACAD_REACTORS
330
3F7
102
}
330
3F7
100
AcDbScale
 70
     0
300
1:100
140
1.0
141
100.0
290
     0
  0
SCALE
  5
404
102
{ACAD_REACTORS
330
3F7
102
}
330
3F7
100
AcDbScale
 70
     0
300
2:1
140
2.0
141
1.0
290
     0
  0
SCALE
  5
405
102
{ACAD_REACTORS
330
3F7
102
}
330
3F7
100
AcDbScale
 70
     0
300
4:1
140
4.0
141
1.0
290
     0
  0
SCALE
  5
406
102
{ACAD_REACTORS
330
3F7
102
}
330
3F7
100
AcDbScale
 70
     0
300
8:1
140
8.0
141
1.0
290
     0
  0
SCALE
  5
407
102
{ACAD_REACTORS
330
3F7
102
}
330
3F7
100
AcDbScale
 70
     0
300
10:1
140
10.0
141
1.0
290
     0
  0
SCALE
  5
408
102
{ACAD_REACTORS
330
3F7
102
}
330
3F7
100
AcDbScale
 70
     0
300
100:1
140
100.0
141
1.0
290
     0
  0
SCALE
  5
409
102
{ACAD_REACTORS
330
3F7
102
}
330
3F7
100
AcDbScale
 70
     0
300
1/128" = 1'-0"
140
0.0078125
141
12.0
290
     0
  0
SCALE
  5
40A
102
{ACAD_REACTORS
330
3F7
102
}
330
3F7
100
AcDbScale
 70
     0
300
1/64" = 1'-0"
140
0.015625
141
12.0
290
     0
  0
SCALE
  5
40B
102
{ACAD_REACTORS
330
3F7
102
}
330
3F7
100
AcDbScale
 70
     0
300
1/32" = 1'-0"
140
0.03125
141
12.0
290
     0
  0
SCALE
  5
40C
102
{ACAD_REACTORS
330
3F7
102
}
330
3F7
100
AcDbScale
 70
     0
300
1/16" = 1'-0"
140
0.0625
141
12.0
290
     0
  0
SCALE
  5
40D
102
{ACAD_REACTORS
330
3F7
102
}
330
3F7
100
AcDbScale
 70
     0
300
3/32" = 1'-0"
140
0.09375
141
12.0
290
     0
  0
SCALE
  5
40E
102
{ACAD_REACTORS
330
3F7
102
}
330
3F7
100
AcDbScale
 70
     0
300
1/8" = 1'-0"
140
0.125
141
12.0
290
     0
  0
SCALE
  5
40F
102
{ACAD_REACTORS
330
3F7
102
}
330
3F7
100
AcDbScale
 70
     0
300
3/16" = 1'-0"
140
0.1875
141
12.0
290
     0
  0
SCALE
  5
410
102
{ACAD_REACTORS
330
3F7
102
}
330
3F7
100
AcDbScale
 70
     0
300
1/4" = 1'-0"
140
0.25
141
12.0
290
     0
  0
SCALE
  5
411
102
{ACAD_REACTORS
330
3F7
102
}
330
3F7
100
AcDbScale
 70
     0
300
3/8" = 1'-0"
140
0.375
141
12.0
290
     0
  0
SCALE
  5
412
102
{ACAD_REACTORS
330
3F7
102
}
330
3F7
100
AcDbScale
 70
     0
300
1/2" = 1'-0"
140
0.5
141
12.0
290
     0
  0
SCALE
  5
413
102
{ACAD_REACTORS
330
3F7
102
}
330
3F7
100
AcDbScale
 70
     0
300
3/4" = 1'-0"
140
0.75
141
12.0
290
     0
  0
SCALE
  5
414
102
{ACAD_REACTORS
330
3F7
102
}
330
3F7
100
AcDbScale
 70
     0
300
1" = 1'-0"
140
1.0
141
12.0
290
     0
  0
SCALE
  5
415
102
{ACAD_REACTORS
330
3F7
102
}
330
3F7
100
AcDbScale
 70
     0
300
1-1/2" = 1'-0"
140
1.5
141
12.0
290
     0
  0
SCALE
  5
416
102
{ACAD_REACTORS
330
3F7
102
}
330
3F7
100
AcDbScale
 70
     0
300
3" = 1'-0"
140
3.0
141
12.0
290
     0
  0
SCALE
  5
417
102
{ACAD_REACTORS
330
3F7
102
}
330
3F7
100
AcDbScale
 70
     0
300
6" = 1'-0"
140
6.0
141
12.0
290
     0
  0
SCALE
  5
418
102
{ACAD_REACTORS
330
3F7
102
}
330
3F7
100
AcDbScale
 70
     0
300
1'-0" = 1'-0"
140
12.0
141
12.0
290
     0
  0
DICTIONARYVAR
  5
5C7
102
{ACAD_REACTORS
330
5C4
102
}
330
5C4
100
DictionaryVariables
280
     0
  1
1:1
  0
ENDSEC
  0
SECTION
  2
THUMBNAILIMAGE
 90
    16364
310
28000000B40000005500000001000800000000000000000000000000000000000000000000000000FFFFFF000000FF0000FFFF0000FF0000FFFF0000FF000000FF00FF000000000080808000C0C0C0000000FF007F7FFF000000A5005252A50000007F003F3F7F0000004C0026264C000000260013132600003FFF007F9FFF
310
000029A5005267A500001F7F003F4F7F0000134C00262F4C000009260013172600007FFF007FBFFF000052A500527CA500003F7F003F5F7F0000264C0026394C0000132600131C260000BFFF007FDFFF00007CA5005291A500005F7F003F6F7F0000394C0026424C00001C26001321260000FFFF007FFFFF0000A5A50052A5
310
A500007F7F003F7F7F00004C4C00264C4C00002626001326260000FFBF007FFFDF0000A57C0052A59100007F5F003F7F6F00004C3900264C420000261C001326210000FF7F007FFFBF0000A5520052A57C00007F3F003F7F5F00004C2600264C39000026130013261C0000FF3F007FFF9F0000A5290052A56700007F1F003F
310
7F4F00004C1300264C2F00002609001326170000FF00007FFF7F0000A5000052A55200007F00003F7F3F00004C0000264C260000260000132613003FFF00009FFF7F0029A5000067A552001F7F00004F7F3F00134C00002F4C260009260000172613007FFF0000BFFF7F0052A500007CA552003F7F00005F7F3F00264C0000
310
394C2600132600001C261300BFFF0000DFFF7F007CA5000091A552005F7F00006F7F3F00394C0000424C26001C26000021261300FFFF0000FFFF7F00A5A50000A5A552007F7F00007F7F3F004C4C00004C4C26002626000026261300FFBF0000FFDF7F00A57C0000A59152007F5F00007F6F3F004C3900004C422600261C00
310
0026211300FF7F0000FFBF7F00A5520000A57C52007F3F00007F5F3F004C2600004C39260026130000261C1300FF3F0000FF9F7F00A5290000A56752007F1F00007F4F3F004C1300004C2F26002609000026171300FF000000FF7F7F00A5000000A55252007F0000007F3F3F004C0000004C2626002600000026131300FF00
310
3F00FF7F9F00A5002900A55267007F001F007F3F4F004C0013004C262F002600090026131700FF007F00FF7FBF00A5005200A5527C007F003F007F3F5F004C0026004C2639002600130026131C00FF00BF00FF7FDF00A5007C00A55291007F005F007F3F6F004C0039004C26420026001C0026132100FF00FF00FF7FFF00A5
310
00A500A552A5007F007F007F3F7F004C004C004C264C002600260026132600BF00FF00DF7FFF007C00A5009152A5005F007F006F3F7F0039004C0042264C001C002600211326007F00FF00BF7FFF005200A5007C52A5003F007F005F3F7F0026004C0039264C00130026001C1326003F00FF009F7FFF002900A5006752A500
310
1F007F004F3F7F0013004C002F264C000900260017132600000000002D2D2D005B5B5B0089898900B7B7B700B3B3B30000000000000000000000000000000000000000000000000000000000000000000000000000000000000000000000000000000000000000000000000000000000000000000000000000000000000000
310
00000000000000000707000000000000000000000000000000000000000000000000000000000000000000000000000000000000000000000000000000000000000000000000000000000000000000000000000000000000000000000000000000000000000000000000000000000000000000000000000000000000000000
310
00000000000000000000000000000000000000000000000000000000000000000000000000000000000000000000000000000000000000000000000000070007000000000000000000000000000000000000000000000000000000000000000000000000000000000000000000000000000000000000000000000000000000
310
00000000000000000000000000000000000000000000000000000000000000000000000000000000000000000000000000000000000000000000000000000000000000000000000000000000000000000000000000000000000000000000000000000000000000000000000000000000000007000007070000000000000000
310
00000000000000000000000000000000000000000000000000000000000000000000000000000000000000000000000000000000000000000000000000000000000000000000000000000000000000000000000000000000000000000000000000000000000000000000000000000000000000000000000000000000000000
310
00000000000000000000000000000000000000000000000000000000000000000000000000000000070000000007000000000000000000000000000000000000000000000000000000000000000000000000000000000000000000000000000000000000000000000000000000000000000000000000000000000000000000
310
00000000000000000000000000000000000000000000000000000000000000000000000000000000000000000000000000000000000000000000000000000000000000000000000000000000000000000000000000000000000000000007000000000007000000000000000000000000000000000000000000000000000000
310
00000000000000000000000000000000000000000000000000000000000000000000000000000000000000000000000000000000000000000000000000000000000000000000000000000000000000000000000000000000000000000000000000000000000000000000000000000000000000000000000000000000000000
310
00000000000000000000000000000000000000070000000000070000000000000000000000000000000000000000000000000000000000000000000000000000000000000000000000000000000000000000000000000000000000000000000000000000000000000000000000000000000000000000000000000000000000
310
00000000000000000000000000000000000000000000000000000000000000000000000000000000000000000000000000000000000000000000000000000000000000000000000007000000000007000000000000000000000000000000000000000000000000000000000000000000000000000000000000000000000000
310
00000000000000000000000000000000000000000000000000000000000000000000000000000000000000000000000000000000000000000000000000000000000000000000000000000000000000000000000000000000000000000000000000000000000000000000000000000000000000000000000000000000000700
310
00000000070000000000000000000000000000000000000000000000000000000000000000000000000000000000000000000000000000000000000000000000000000000000000000000000000000000000000000000000000000000000000000000000000000000000000000000000000000000000000000000000000000
310
00000000000000000000000000000000000000000000000000000000000000000000000000000000000000000000000000000007000000000007000000000000000000000000000000000000000000000000000000000000000000000000000000000000000000000000000000000000000000000000000000000000000000
310
00000000000000000000000000000000000000000000000000000000000000000000000000000000000000000000000000000000000000000000000000000000000000000000000000000000000000000000000000000000000000000000000000000000000000000700000000000700000000000000000000000000000000
310
00000000000000000000000000000000000000000000000000000000000000000000000000000000000000000000000000000000000000000000000000000000000000000000000000000000000000000000000000000000000000000000000000000000000000000000000000000000000000000000000000000000000000
310
00000000000000000000000000000000000000000000000000000000000007000000000007000000000000000000000000000000000000000000000000000000000000000000000000000000000000000000000000000000000000000000000000000000000000000000000000000000000000000000000000000000000000
310
00000000000000000000000000000000000000000000000000000000000000000000000000000000000000000000000000000000000000000000000000000000000000000000000000000000000000000000000700000000000700000000000000000000000000000000000000000000000000000000000000000000000000
310
00000000000000000000000000000000000000000000000000000000000000000000000000000000000000000000000000000000000000000000000000000000000000000000000000000000000000000000000000000000000000000000000000000000000000000000000000000000000000000000000000000000000000
310
00000000000000000007000000000007000000000000000000000000000000000000000000000000000000000000000000000000000000000000000000000000000000000000000000000000000000000000000000000000000000000000000000000000000000000000000000000000000000000000000000000000000000
310
00000000000000000000000000000000000000000000000000000000000000000000000000000000000000000000000000000000000000000000000000000700000000000700000000000000000000000000000000000000000000000000000000000000000000000000000000000000000000000000000000000000000000
310
00000000000000000000000000000000000000000000000000000000000000000000000000000000000000000000000000000000000000000000000000000000000000000000000000000000000000000000000000000000000000000000000000000000000000000000000000000000000000070000000000070000000000
310
00000000000000000000000000000000000000000000000000000000000000000000000000000000000000000000000000000000000000000000000000000000000000000000000000000000000000000000000000000000000000000000000000000000000000000000000000000000000000000000000000000000000000
310
00000000000000000000000000000000000000000000000000000000000000000000000000000000000700000000000700000000000000000000000000000000000000000000000000000000000000000000000000000000000000000000000000000000000000000000000000000000000000000000000000000000000000
310
00000000000000000000000000000000000000000000000000000000000000000000000000000000000000000000000000000000000000000000000000000000000000000000000000000000000000000000000000000000000000000000070000000000070000000000000000000000000000000000000000000000000000
310
00000000000000000000000000000000000000000000000000000000000000000000000000000000000000000000000000000000000000000000000000000000000000000000000000000000000000000000000000000000000000000000000000000000000000000000000000000000000000000000000000000000000000
310
00000000000000000000000000000000000000000700000000000700000000000000000000000000000000000000000000000000000000000000000000000000000000000000000000000000000000000000000000000000000000000000000000000000000000000000000000000000000000000000000000000000000000
310
00000000000000000000000000000000000000000000000000000000000000000000000000000000000000000000000000000000000000000000000000000000000000000000000000070000000000070000000000000000000000000000000000000000000000000000000000000000000000000000000000000000000000
310
00000000000000000000000000000000000000000000000000000000000000000000000000000000000000000000000000000000000000000000000000000000000000000000000000000000000000000000000000000000000000000000000000000000000000000000000000000000000000000000000000000000000007
310
00000000000700000000000000000000000000000000000000000000000000000000000000000000000000000000000000000000000000000000000000000000000000000000000000000000000000000000000000000000000000000000000000000000000000000000000000000000000000000000000000000000000000
310
00000000000000000000000000000000000000000000000000000000000000000000000000000000000000000000000000000000070000000000070000000000000000000000000000000000000000000000000000000000000000000000000000000000000000000000000000000000000000000000000000000000000000
310
00000000000000000000000000000000000000000000000000000000000000000000000000000000000000000000000000000000000000000000000000000000000000000000000000000000000000000000000000000000000000000000000000000000000000000007000000000007000000000000000000000000000000
310
00000000000000000000000000000000000000000000000000000000000000000000000000000000000000000000000000000000000000000000000000000000000000000000000000000000000000000000000000000000000000000000000000000000000000000000000000000000000000000000000000000000000000
310
00000000000000000000000000000000000000000000000000000000000000070000000000070000000000000000000000000000000000000000000000000000000000000000000000000000000000000000000000000000000000000000000000000000000000000000000000000000000000000000000000000000000000
310
00000000000000000000000000000000000000000000000000000000000000000000000000000000000000000000000000000000000000000000000000000000000000000000000000000000000000000000000007000000000007000000000000000000000000000000000000000000000000000000000000000000000000
310
00000000000000000000000000000000000000000000000000000000000000000000000000000000000000000000000000000000000000000000000000000000000000000000000000000000000000000000000000000000000000000000000000000000000000000000000000000000000000000000000000000000000000
310
00000000000000000000070000000000070000000000000000000000000000000000000000000000000000000000000000000000000000000000000000000000000000000000000000000000000000000000000000000000000000000000000000000000000000000000000000000000000000000000000000000000000000
310
00000000000000000000000000000000000000000000000000000000000000000000000000000000000000000000000000000000000000000000000000000707070707070707070000000000000000000000000000000000000000000000000000000000000000000000000000000000000000000000000000000000000000
310
00000000000000000000000000000000000000000000000000000000000000000000000000000000000000000000000000000000000000000000000000000000000000000000000000000000000000000000000000000000000000000000000000000000000000000000000000000000000000070000000000000007000000
310
00000000000000000000000000000000000000000000000000000000000000000000000000000000000000000000000000000000000000000000000000000000000000000000000000000000000000000000000000000000000000000000000000000000000000000000000000000000000000000000000000000000000000
310
00000000000000000000000000000000000000000000000000000000000000000000000000000000000700000000000000070000000000000000000000000000000000000000000000000000000000000000000000000000000000000000000000000000000000000000000000000000000000000000000000000000000000
310
00000000000000000000000000000000000000000000000000000000000000000000000000000000000000000000000000000000000000000000000000000000000000000000000000000000000000000000000000000000000000000000070000000000000007000000000000000000000000000000000000000000000000
310
00000000000000000000000000000000000000000000000000000000000000000000000000000000000000000000000000000000000000000000000000000000000000000000000000000000000000000000000000000000000000000000000000000000000000000000000000000000000000000000000000000000000000
310
00000000000000000000000000000000000000000700000000000000070000000000000000000000000000000000000000000000000000000000000000000000000000000000000000000000000000000000000000000000000000000000000000000000000000000000000000000000000000000000000000000000000000
310
00000000000000000000000000000000000000000000000000000000000000000000000000000000000707070707070707070700000000000000000000000000000000000000000000070000000000000007000000000000000000000000000000000000000000000707070707070707070700000000000000000000000000
310
00000000000000000000000000000000000000000000000000000000000000000000000000000000000000000000000000000000000000000000000000000000000000000000000000000000000000000000000000000000000000000707070000000000000000000707070000000000000000000000000000000000000700
310
00000000000000070000000000000000000000000000000000000007070700000000000000000007070700000000000000000000000000000000000000000000000000000000000000000000000000000000000000000000000000000000000000000000000000000000000000000000000000000000000000000000000000
310
00000000000000000000000000000000000700000000000000000000000000000007000000000000000000000000000000000007000000000000000000070000000000000000000000000000000000070000000000000000000000000000000700000000000000000000000000000000000000000000000000000000000000
310
00000000000000000000000000000000000000000000000000000000000000000000000000000000000000000000000000000000000000000000000000000000000000000707000000000000000000000000000000000007000000000000000000000000000000000700000000000000000007000000000000000000000000
310
00000000070000000000000000000000000000000000070700000000000000000000000000000000000000000000000000000000000000000000000000000000000000000000000000000000000000000000000000000000000000000000000000000000000000000000000000000000000000000000000007000000000000
310
00000000000000000000000000000700000000000000000000000000000007000000000000000000070000000000000000000000000000000700000000000000000000000000000000000000000700000000000000000000000000000000000000000000000000000000000000000000000000000000000000000000000000
310
00000000000000000000000000000000000000000000000000000000000000000000000000000000000000000007000000000000000000000000000000000000000000000700000000000000000000000000000700000000000000000007000000000000000000000000000007000000000000000000000000000000000000
310
00000007000000000000000000000000000000000000000000000000000000000000000000000000000000000000000000000000000000000000000000000000000000000000000000000000000000000000000000000000000000000000000000000700000000000000000000000000000000000000000000000700000000
310
00000000000000000007000000000000000000070000000000000000000000000007000000000000000000000000000000000000000000000007000000000000000000000000000000000000000000000000000000000000000000000000000000000000000000000000000000000000000000000000000000000000000000
310
00000000000000000000000000000000000000000000000700000000000000000000070707070707070707070707070707070707070707070707070707070707070707000707070707070707070707070707070707070707070707070707070707070707070000000000000000000007000000000000000000000000000000
310
00000000000000000000000000000000000000000000000000000000000000000000000000000000000000000000000000000000000000000000000000000000000000000000000000000007000000000000000007070700000000000000000000000000000000000000000000000000000000070707070700070707070700
310
00000000000000000000000000000000000000000000000000000007070700000000000000000700000000000000000000000000000000000000000000000000000000000000000000000000000000000000000000000000000000000000000000000000000000000000000000000000000000000000000000000000000000
310
00070000000000000007070000000000000000000000000000000000000000000000000000000000000700070707000707070007000000000000000000000000000000000000000000000000000000000000070700000000000000070000000000000000000000000000000000000000000000000000000000000000000000
310
00000000000000000000000000000000000000000000000000000000000000000000000000000000000000000000000000000000000007000000000000070700000000000000000000000000000000000000000000000000000000000000070707000000000007070700000000000000000000000000000000000000000000
310
00000000000000000007070000000000000700000000000000000000000000000000000000000000000000000000000000000000000000000000000000000000000000000000000000000000000000000000000000000000000000000000000000000000000000000000000000000000000007000000000000000000000000
310
00000000000000000000000000000000000000000700000707070707000007000000000000000000000000000000000000000000000000000000000000000007000000000000000000000000000000000000000000000000000000000000000000000000000000000000000000000000000000000000000000000000000000
310
00000000000000000000000000000000000000000000000000000000000000000700000000000007000000000000000000000000000000000000000000000000000000000000000000000707070707070707070000000000000000000000000000000000000000000000000000000000000000000007000000000000070000
310
00000000000000000000000000000000000000000000000000000000000000000000000000000000000000000000000000000000000000000000000000000000000000000000000000000000000000000000000000070000000000000700000000000000000000000000000000000000000000000000000000000000000007
310
07070707070707070707000000000000000000000000000000000000000000000000000000000000000000070000000000000700000000000000000000000000000000000000000000000000000000000000000000000000000000000000000000000000000000000000000000000000000000000000000000000000000000
310
00000000000000000000000700000000000007000000000000000000000000000000000000000000000000000000000000000000070707000000000007070700000000000000000000000000000000000000000000000000000000000000000007000000000000070000000000000000000000000000000000000000000000
310
00000000000000000000000000000000000000000000000000000000000000000000000000000000000000000000000000000000000000000000000000000000070000000000000700000000000000000000000000000000000000000000000000000000000000000007070700000000000707070000000000000000000000
310
00000000000000000000000000000000000000000000070000000000000700000000000000000000000000000000000000000000000000000000000000000000000000000000000000000000000000000000000000000000000000000000000000000000000000000000000000000000000000000007000000000000070000
310
00000000000000000000000000000000000000000000000000000000000000070007070707070707000700000000000000000000000000000000000000000000000000000000000000000007000000000000070000000000000000000000000000000000000000000000000000000000000000000000000000000000000000
310
00000000000000000000000000000000000000000000000000000000000000000000000000000000000000070000000000000707000000000000000000000000000000000000000000000000000000000000000000070700000000000707000000000000000000000000000000000000000000000000000000000000000000
310
07070000000000000700000000000000000000000000000000000000000000000000000000000000000000000000000000000000000000000000000000000000000000000000000000000000000000000000000000000000000000000000000007000000000000000700000000000000000000000000000000000000000000
310
00000000000000000000000000070700070700000000000000000000000000000000000000000000000000000000000000000000000700000000000000070000000000000000000000000000000000000000000000000000000000000000000000000000000000000000000000000000000000000000000000000000000000
310
00000000000000000000000000000000000000000000000700000000000000070000000000000000000000000000000000000000000000000000000000000000000000000000000000000000000000000000000000000000000000000000000000000000000000000007000000000000000700000000000000000000000000
310
00000000000000000000000000000000000000000000000000000000000000000000000000000000000000000000000000000000000000000000000000000000000000000000000000000000070000000000000000070000000000000000000000000000000000000000000000000000000000000000000000000000000000
310
00000000000000000000000000000000000000000000000000000000000007000000000000000007000000000000000000000000000000000000000000000000000000000000000000000000000000000000000000000000000000000000000000000000000000000000000000000000000000000000000000000000000000
310
00000700000000000000000007070700000000000000000000000000000000000000000000000700000000000000000000000000000000000700000000000000000000000000000000000000000000000707070000000000000000070000000000000000000000000000000000000000000000000000000000000000000000
310
00000000000000000000000000000000000000000000000000000000000000000000000000000000000000000000000000000000000000000700000000000000000000000707070707070707070707070707070707070707070707070707070707070700000007070707070707070707070707070707070707070707070707
310
07070707070700000000000000000000000700000000000000000000000000000000000000000000000000000000000000000000000000000000000000000000000000000000000000000000000000000000000000000000000000000000000000000000000000000000000000070000000000000000000000000000000000
310
00000000000000070000000000000000000700000000000700070700000700000000000700000000000000000007000000000000000000000000000000000000000000000000070000000000000000000000000000000000000000000000000000000000000000000000000000000000000000000000000000000000000000
310
00000000000000000000000000000000000000000000000000000000000000000000000007000000000000000000000000000000000000000000000700000000000000000000070000000000070000000000070000000000070000000000000000000007000000000000000000000000000000000000000000000700000000
310
00000000000000000000000000000000000000000000000000000000000000000000000000000000000000000000000000000000000000000000000000000000000000000000000000000000000000000000000000000000000007000000000000000000000000000000000000000007000000000000000000000007000000
310
00000707070707070700000000000700000000000000000000000700000000000000000000000000000000000000000700000000000000000000000000000000000000000000000000000000000000000000000000000000000000000000000000000000000000000000000000000000000000000000000000000000000000
310
00000000000000000000000000000000000700000000000000000000000000000000000007000000000000000000000000070000000000070000000000070000000000070000000000000000000000000700000000000000000000000000000000000007000000000000000000000000000000000000000000000000000000
310
00000000000000000000000000000000000000000000000000000000000000000000000000000000000000000000000000000000000000000000000000000000000000000000000707070000000000000000000000000007070000000000000000000000000007000000000007000000000007000000000007000000000000
310
00000000000000070700000000000000000000000000070707000000000000000000000000000000000000000000000000000000000000000000000000000000000000000000000000000000000000000000000000000000000000000000000000000000000000000000000000000000000000000000000000000000000000
310
07000000000000000000000707000000000000000000000000000000070000000000070000000000070000000000070000000000000000000000000000000707000000000000000000000700000000000000000000000000000000000000000000000000000000000000000000000000000000000000000000000000000000
310
00000000000000000000000000000000000000000000000000000000000000000000000000000000000000000000000000000000000007070707070707070707000000000000000000000000000000000007000000000707000000000007070000000007000000000000000000000000000000000007070707070707070707
310
00000000000000000000000000000000000000000000000000000000000000000000000000000000000000000000000000000000000000000000000000000000000000000000000000000000000000000000000000000000000000000000000000000000000000000000000000000000000000000000000000000000000000
310
00000000000000070000000007000000000000000700000000070000000000000000000000000000000000000000000000000000000000000000000000000000000000000000000000000000000000000000000000000000000000000000000000000000000000000000000000000000000000000000000000000000000000
310
00000000000000000000000000000000000000000000000000000000000000000000000000000000000000000000000000000000000000000000000007000000000700000000000000070000000007000000000000000000000000000000000000000000000000000000000000000000000000000000000000000000000000
310
00000000000000000000000000000000000000000000000000000000000000000000000000000000000000000000000000000000000000000000000000000000000000000000000000000000000000000000000000000000000000000000000000000000000000000000000000000000000707070707070707070707070707
310
07070707070000000000000000000000000000000000000000000000000000000000000000000000000000000000000000000000000000000000000000000000000000000000000000000000000000000000000000000000000000000000000000000000000000000000000000000000000000000000000000000000000000
310
00000000000000000000000000000000000000000000000000000000000000000000000000000000070000000000000000000000000000000700000000000000000000000000000000000000000000000000000000000000000000000000000000000000000000000000000000000000000000000000000000000000000000
310
00000000000000000000000000000000000000000000000000000000000000000000000000000000000000000000000000000000000000000000000000000000000000000000000000000000000000000000000000000000000000000707070707070707070007070707070707070700000000000000000000000000000000
310
00000000000000000000000000000000000000000000000000000000000000000000000000000000000000000000000000000000000000000000000000000000000000000000000000000000000000000000000000000000000000000000000000000000000000000000000000000000000000000000000000000000000000
310
00000000000000000000000000000000000007000000000000000000000000000000000007000000000000000000000000000000000000000000000000000000000000000000000000000000000000000000000000000000000000000000000000000000000000000000000000000000000000000000000000000000000000
310
00000000000000000000000000000000000000000000000000000000000000000000000000000000000000000000000000000000000000000000000000000000000000000000000700000000000000000700000000000000000700000000000000000000000000000000000000000000000000000000000000000000000000
310
00000000000000000000000000000000000000000000000000000000000000000000000000000000000000000000000000000000000000000000000000000000000000000000000000000000000000000000000000000000000000000000000000000000000000000000000000000000000000000000000000000000070000
310
00000000000700070000000000000007000000000000000000000000000000000000000000000000000000000000000000000000000000000000000000000000000000000000000000000000000000000000000000000000000000000000000000000000000000000000000000000000000000000000000000000000000000
310
00000000000000000000000000000000000000000000000000000000000000000000000000000000000000000000000000000700000000000000070007000000000000000700000000000000000000000000000000000000000000000000000000000000000000000000000000000000000000000000000000000000000000
310
00000000000000000000000000000000000000000000000000000000000000000000000000000000000000000000000000000000000000000000000000000000000000000000000000000000000000000000000000000000000000000000000000000000000000070000000000000007070700000000000000070000000000
310
00000000000000000000000000000000000000000000000000000000000000000000000000000000000000000000000000000000000000000000000000000000000000000000000000000000000000000000000000000000000000000000000000000000000000000000000000000000000000000000000000000000000000
310
00000000000000000000000000000000000000000000000000000000000700000000000000000000000000000000000700000000000000000000000000000000000000000000000000000000000000000000000000000000000000000000000000000000000000000000000000000000000000000000000000000000000000
310
00000000000000000000000000000000000000000000000000000000000000000000000000000000000000000000000000000000000000000000000000000000000000000000000000000000000000000000000000000000000000000000000000000000000000000000000000000000000000000000000000000000000000
310
00000000000000000000000000000000000000000000000000000000000000000000000000000000000000000000000000000000000000000000000000000000000000000000000000000000000000000000000000000000000000000000000000000000000000000000000000000000000000000000000000000000000000
310
00000000000000000700000000000000000000000000000000000700000000000000000000000000000000000000000000000000000000000000000000000000000000000000000000000000000000000000000000000000000000000000000000000000000000000000000000000000000000000000000000000000000000
310
00000000000000000000000000000000000000000000000000000000000000000000000000000000000000000000000000000000000000000000000000070000000000000000000000000000000000070000000000000000000000000000000000000000000000000000000000000000000000000000000000000000000000
310
00000000000000000000000000000000000000000000000000000000000000000000000000000000000000000000000000000000000000000000000000000000000000000000000000000000000000000000000000000000000000000000000000000000000000000000000000000000000007000000000000000000000000
310
00000000000700000000000000000000000000000000000000000000000000000000000000000000000000000000000000000000000000000000000000000000000000000000000000000000000000000000000000000000000000000000000000000000000000000000000000000000000000000000000000000000000000
310
00000000000000000000000000000000000000000000000000000000000000000000000000000000070000000000000000000000000000000000070000000000000000000000000000000000000000000000000000000000000000000000000000000000000000000000000000000000000000000000000000000000000000
310
00000000000000000000000000000000000000000000000000000000000000000000000000000000000000000000000000000000000000000000000000000000000000000000000000000000000000000000000000000000000000000007000000000000000000000000000000000007000000000000000000000000000000
310
00000000000000000000000000000000000000000000000000000000000000000000000000000000000000000000000000000000000000000000000000000000000000000000000000000000000000000000000000000000000000000000000000000000000000000000000000000000000000000000000000000000000000
310
00000000000000000000000000000000000000070000000000000000000000000000000000070000000000000000000000000000000000000000000000000000000000000000000000000000000000000000000000000000000000000000000000000000000000000000000000000000000000000000000000000000000000
310
00000000000000000000000000000000000000000000000000000000000000000000000000000000000000000000000000000000000000000000000000000000000000000000000007000000000000000000000000000000000007000000000000000000000000000000000000000000000000000000000000000000000000
310
00000000000000000000000000000000000000000000000000000000000000000000000000000000000000000000000000000000000000000000000000000000000000000000000000000000000000000000000000000000000000000000000000000000000000000000000000000000000000000000000000000000000700
310
00000000000000000000000000000000070000000000000000000000000000000000000000000000000000000000000000000000000000000000000000000000000000000000000000000000000000000000000000000000000000000000000000000000000000000000000000000000000000000000000000000000000000
310
00000000000000000000000000000000000000000000000000000000000000000000000000000000000000000000000000000007000000000000000000000000000000000007000000000000000000000000000000000000000000000000000000000000000000000000000000000000000000000000000000000000000000
310
00000000000000000000000000000000000000000000000000000000000000000000000000000000000000000000000000000000000000000000000000000000000000000000000000000000000000000000000000000000000000000000000000000000000000000707000000000000000000000000000000070700000000
310
00000000000000000000000000000000000000000000000000000000000000000000000000000000000000000000000000000000000000000000000000000000000000000000000000000000000000000000000000000000000000000000000000000000000000000000000000000000000000000000000000000000000000
310
00000000000000000000000000000000000000000000000000000000000000070000000000000000000000000000000700000000000000000000000000000000000000000000000000000000000000000000000000000000000000000000000000000000000000000000000000000000000000000000000000000000000000
310
00000000000000000000000000000000000000000000000000000000000000000000000000000000000000000000000000000000000000000000000000000000000000000000000000000000000000000000000007070707070707070700070707070707070000000000000000000000000000000000000000000000000000
310
00000000000000000000000000000000000000000000000000000000000000000000000000000000000000000000000000000000000000000000000000000000000000000000000000000000000000000000000000000000000000000000000000000000000000000000000000000000000000000000000000000000000000
310
000000000000000000000000000000000000000000000000000000000000000000000000000000000000000000000000000000000000000000000000000000000000000000000000000000000000000000000000000000000000000000000000000000000000000000000000
  0
ENDSEC
  0
EOF
