  0
SECTION
  2
HEADER
  9
$ACADVER
  1
AC1015
  9
$ACADMAINTVER
 70
     6
  9
$DWGCODEPAGE
  3
ANSI_1252
  9
$INSBASE
 10
0.0
 20
0.0
 30
0.0
  9
$EXTMIN
 10
-0.135
 20
-0.235611
 30
0.0
  9
$EXTMAX
 10
167.135
 20
163.235611
 30
0.0
  9
$LIMMIN
 10
0.0
 20
0.0
  9
$LIMMAX
 10
12.0
 20
9.0
  9
$ORTHOMODE
 70
     0
  9
$REGENMODE
 70
     1
  9
$FILLMODE
 70
     1
  9
$QTEXTMODE
 70
     0
  9
$MIRRTEXT
 70
     1
  9
$LTSCALE
 40
1.0
  9
$ATTMODE
 70
     1
  9
$TEXTSIZE
 40
0.2
  9
$TRACEWID
 40
0.05
  9
$TEXTSTYLE
  7
Standard
  9
$CLAYER
  8
0
  9
$CELTYPE
  6
ByBlock
  9
$CECOLOR
 62
   256
  9
$CELTSCALE
 40
1.0
  9
$DISPSILH
 70
     0
  9
$DIMSCALE
 40
1.0
  9
$DIMASZ
 40
0.18
  9
$DIMEXO
 40
0.0625
  9
$DIMDLI
 40
0.38
  9
$DIMRND
 40
0.0
  9
$DIMDLE
 40
0.0
  9
$DIMEXE
 40
0.18
  9
$DIMTP
 40
0.0
  9
$DIMTM
 40
0.0
  9
$DIMTXT
 40
0.18
  9
$DIMCEN
 40
0.09
  9
$DIMTSZ
 40
0.0
  9
$DIMTOL
 70
     0
  9
$DIMLIM
 70
     0
  9
$DIMTIH
 70
     1
  9
$DIMTOH
 70
     1
  9
$DIMSE1
 70
     0
  9
$DIMSE2
 70
     0
  9
$DIMTAD
 70
     0
  9
$DIMZIN
 70
     0
  9
$DIMBLK
  1

  9
$DIMASO
 70
     1
  9
$DIMSHO
 70
     1
  9
$DIMPOST
  1

  9
$DIMAPOST
  1

  9
$DIMALT
 70
     0
  9
$DIMALTD
 70
     2
  9
$DIMALTF
 40
25.4
  9
$DIMLFAC
 40
1.0
  9
$DIMTOFL
 70
     0
  9
$DIMTVP
 40
0.0
  9
$DIMTIX
 70
     0
  9
$DIMSOXD
 70
     0
  9
$DIMSAH
 70
     0
  9
$DIMBLK1
  1

  9
$DIMBLK2
  1

  9
$DIMSTYLE
  2
Standard
  9
$DIMCLRD
 70
     0
  9
$DIMCLRE
 70
     0
  9
$DIMCLRT
 70
     0
  9
$DIMTFAC
 40
1.0
  9
$DIMGAP
 40
0.09
  9
$DIMJUST
 70
     0
  9
$DIMSD1
 70
     0
  9
$DIMSD2
 70
     0
  9
$DIMTOLJ
 70
     1
  9
$DIMTZIN
 70
     0
  9
$DIMALTZ
 70
     0
  9
$DIMALTTZ
 70
     0
  9
$DIMUPT
 70
     0
  9
$DIMDEC
 70
     4
  9
$DIMTDEC
 70
     4
  9
$DIMALTU
 70
     2
  9
$DIMALTTD
 70
     2
  9
$DIMTXSTY
  7
Standard
  9
$DIMAUNIT
 70
     0
  9
$DIMADEC
 70
     0
  9
$DIMALTRND
 40
0.0
  9
$DIMAZIN
 70
     0
  9
$DIMDSEP
 70
    46
  9
$DIMATFIT
 70
     3
  9
$DIMFRAC
 70
     0
  9
$DIMLDRBLK
  1

  9
$DIMLUNIT
 70
     2
  9
$DIMLWD
 70
    -2
  9
$DIMLWE
 70
    -2
  9
$DIMTMOVE
 70
     2
  9
$LUNITS
 70
     2
  9
$LUPREC
 70
     4
  9
$SKETCHINC
 40
0.1
  9
$FILLETRAD
 40
0.5
  9
$AUNITS
 70
     0
  9
$AUPREC
 70
     0
  9
$MENU
  1
.
  9
$ELEVATION
 40
0.0
  9
$PELEVATION
 40
0.0
  9
$THICKNESS
 40
0.0
  9
$LIMCHECK
 70
     0
  9
$CHAMFERA
 40
0.5
  9
$CHAMFERB
 40
0.5
  9
$CHAMFERC
 40
1.0
  9
$CHAMFERD
 40
0.0
  9
$SKPOLY
 70
     0
  9
$TDCREATE
 40
2456645.941444039
  9
$TDUCREATE
 40
2456645.899777373
  9
$TDUPDATE
 40
2456645.943836979
  9
$TDUUPDATE
 40
2456645.902170313
  9
$TDINDWG
 40
0.0023927662
  9
$TDUSRTIMER
 40
0.0023927662
  9
$USRTIMER
 70
     1
  9
$ANGBASE
 50
0.0
  9
$ANGDIR
 70
     0
  9
$PDMODE
 70
     0
  9
$PDSIZE
 40
0.0
  9
$PLINEWID
 40
0.0
  9
$SPLFRAME
 70
     0
  9
$SPLINETYPE
 70
     6
  9
$SPLINESEGS
 70
     8
  9
$HANDSEED
  5
5A2
  9
$SURFTAB1
 70
     6
  9
$SURFTAB2
 70
     6
  9
$SURFTYPE
 70
     6
  9
$SURFU
 70
     6
  9
$SURFV
 70
     6
  9
$UCSBASE
  2

  9
$UCSNAME
  2

  9
$UCSORG
 10
0.0
 20
0.0
 30
0.0
  9
$UCSXDIR
 10
1.0
 20
0.0
 30
0.0
  9
$UCSYDIR
 10
0.0
 20
1.0
 30
0.0
  9
$UCSORTHOREF
  2

  9
$UCSORTHOVIEW
 70
     0
  9
$UCSORGTOP
 10
0.0
 20
0.0
 30
0.0
  9
$UCSORGBOTTOM
 10
0.0
 20
0.0
 30
0.0
  9
$UCSORGLEFT
 10
0.0
 20
0.0
 30
0.0
  9
$UCSORGRIGHT
 10
0.0
 20
0.0
 30
0.0
  9
$UCSORGFRONT
 10
0.0
 20
0.0
 30
0.0
  9
$UCSORGBACK
 10
0.0
 20
0.0
 30
0.0
  9
$PUCSBASE
  2

  9
$PUCSNAME
  2

  9
$PUCSORG
 10
0.0
 20
0.0
 30
0.0
  9
$PUCSXDIR
 10
1.0
 20
0.0
 30
0.0
  9
$PUCSYDIR
 10
0.0
 20
1.0
 30
0.0
  9
$PUCSORTHOREF
  2

  9
$PUCSORTHOVIEW
 70
     0
  9
$PUCSORGTOP
 10
0.0
 20
0.0
 30
0.0
  9
$PUCSORGBOTTOM
 10
0.0
 20
0.0
 30
0.0
  9
$PUCSORGLEFT
 10
0.0
 20
0.0
 30
0.0
  9
$PUCSORGRIGHT
 10
0.0
 20
0.0
 30
0.0
  9
$PUCSORGFRONT
 10
0.0
 20
0.0
 30
0.0
  9
$PUCSORGBACK
 10
0.0
 20
0.0
 30
0.0
  9
$USERI1
 70
     0
  9
$USERI2
 70
     0
  9
$USERI3
 70
     0
  9
$USERI4
 70
     0
  9
$USERI5
 70
     0
  9
$USERR1
 40
0.0
  9
$USERR2
 40
0.0
  9
$USERR3
 40
0.0
  9
$USERR4
 40
0.0
  9
$USERR5
 40
0.0
  9
$WORLDVIEW
 70
     1
  9
$SHADEDGE
 70
     3
  9
$SHADEDIF
 70
    70
  9
$TILEMODE
 70
     1
  9
$MAXACTVP
 70
    64
  9
$PINSBASE
 10
0.0
 20
0.0
 30
0.0
  9
$PLIMCHECK
 70
     0
  9
$PEXTMIN
 10
1.000000000000E+20
 20
1.000000000000E+20
 30
1.000000000000E+20
  9
$PEXTMAX
 10
-1.000000000000E+20
 20
-1.000000000000E+20
 30
-1.000000000000E+20
  9
$PLIMMIN
 10
0.0
 20
0.0
  9
$PLIMMAX
 10
12.0
 20
9.0
  9
$UNITMODE
 70
     0
  9
$VISRETAIN
 70
     1
  9
$PLINEGEN
 70
     0
  9
$PSLTSCALE
 70
     1
  9
$TREEDEPTH
 70
  3020
  9
$CMLSTYLE
  2
Standard
  9
$CMLJUST
 70
     0
  9
$CMLSCALE
 40
1.0
  9
$PROXYGRAPHICS
 70
     1
  9
$MEASUREMENT
 70
     0
  9
$CELWEIGHT
370
    -1
  9
$ENDCAPS
280
     0
  9
$JOINSTYLE
280
     0
  9
$LWDISPLAY
290
     0
  9
$INSUNITS
 70
     0
  9
$HYPERLINKBASE
  1

  9
$STYLESHEET
  1

  9
$XEDIT
290
     1
  9
$CEPSNTYPE
380
     0
  9
$PSTYLEMODE
290
     1
  9
$FINGERPRINTGUID
  2
{4F545E58-D2DE-411B-B90D-5E9168534024}
  9
$VERSIONGUID
  2
{FAEB1C32-E019-11D5-929B-00C0DF256EC4}
  9
$EXTNAMES
290
     1
  9
$PSVPSCALE
 40
0.0
  9
$OLESTARTUP
290
     0
  0
ENDSEC
  0
SECTION
  2
CLASSES
  0
CLASS
  1
ACDBDICTIONARYWDFLT
  2
AcDbDictionaryWithDefault
  3
ObjectDBX Classes
 90
        0
280
     0
281
     0
  0
CLASS
  1
SCALE
  2
AcDbScale
  3
ObjectDBX Classes
 90
     1153
280
     0
281
     0
  0
CLASS
  1
DICTIONARYVAR
  2
AcDbDictionaryVar
  3
ObjectDBX Classes
 90
        0
280
     0
281
     0
  0
CLASS
  1
ACDBPLACEHOLDER
  2
AcDbPlaceHolder
  3
ObjectDBX Classes
 90
        0
280
     0
281
     0
  0
CLASS
  1
LAYOUT
  2
AcDbLayout
  3
ObjectDBX Classes
 90
        0
280
     0
281
     0
  0
ENDSEC
  0
SECTION
  2
TABLES
  0
TABLE
  2
VPORT
  5
8
330
0
100
AcDbSymbolTable
 70
     1
  0
VPORT
  5
56E
330
8
100
AcDbSymbolTableRecord
100
AcDbViewportTableRecord
  2
*Active
 70
     0
 10
0.0
 20
0.0
 11
1.0
 21
1.0
 12
83.5
 22
81.5
 13
0.0
 23
0.0
 14
0.5
 24
0.5
 15
0.5
 25
0.5
 16
0.0
 26
0.0
 36
1.0
 17
0.0
 27
0.0
 37
0.0
 40
166.74064644
 41
1.729542302358
 42
50.0
 43
0.0
 44
0.0
 50
0.0
 51
0.0
 71
    16
 72
   100
 73
     1
 74
     3
 75
     0
 76
     0
 77
     0
 78
     0
281
     0
 65
     1
110
0.0
120
0.0
130
0.0
111
1.0
121
0.0
131
0.0
112
0.0
122
1.0
132
0.0
 79
     0
146
0.0
  0
ENDTAB
  0
TABLE
  2
LTYPE
  5
5
330
0
100
AcDbSymbolTable
 70
     1
  0
LTYPE
  5
14
330
5
100
AcDbSymbolTableRecord
100
AcDbLinetypeTableRecord
  2
ByBlock
 70
     0
  3

 72
    65
 73
     0
 40
0.0
  0
LTYPE
  5
15
330
5
100
AcDbSymbolTableRecord
100
AcDbLinetypeTableRecord
  2
ByLayer
 70
     0
  3

 72
    65
 73
     0
 40
0.0
  0
LTYPE
  5
16
330
5
100
AcDbSymbolTableRecord
100
AcDbLinetypeTableRecord
  2
Continuous
 70
     0
  3
Solid line
 72
    65
 73
     0
 40
0.0
  0
ENDTAB
  0
TABLE
  2
LAYER
  5
2
330
0
100
AcDbSymbolTable
 70
     1
  0
LAYER
  5
10
330
2
100
AcDbSymbolTableRecord
100
AcDbLayerTableRecord
  2
0
 70
     0
 62
     7
  6
Continuous
370
    -3
390
F
  0
ENDTAB
  0
TABLE
  2
STYLE
  5
3
330
0
100
AcDbSymbolTable
 70
     1
  0
STYLE
  5
11
330
3
100
AcDbSymbolTableRecord
100
AcDbTextStyleTableRecord
  2
Standard
 70
     0
 40
0.0
 41
1.0
 50
0.0
 71
     0
 42
0.2
  3
txt
  4

  0
ENDTAB
  0
TABLE
  2
VIEW
  5
6
330
0
100
AcDbSymbolTable
 70
     0
  0
ENDTAB
  0
TABLE
  2
UCS
  5
7
330
0
100
AcDbSymbolTable
 70
     0
  0
ENDTAB
  0
TABLE
  2
APPID
  5
9
330
0
100
AcDbSymbolTable
 70
     1
  0
APPID
  5
12
330
9
100
AcDbSymbolTableRecord
100
AcDbRegAppTableRecord
  2
ACAD
 70
     0
  0
ENDTAB
  0
TABLE
  2
DIMSTYLE
  5
A
330
0
100
AcDbSymbolTable
 70
     1
100
AcDbDimStyleTable
  0
DIMSTYLE
105
20
330
A
100
AcDbSymbolTableRecord
100
AcDbDimStyleTableRecord
  2
Standard
 70
     0
340
11
  0
ENDTAB
  0
TABLE
  2
BLOCK_RECORD
  5
1
330
0
100
AcDbSymbolTable
 70
     0
  0
BLOCK_RECORD
  5
1D
330
1
100
AcDbSymbolTableRecord
100
AcDbBlockTableRecord
  2
*Model_Space
340
1E
  0
BLOCK_RECORD
  5
1B
330
1
100
AcDbSymbolTableRecord
100
AcDbBlockTableRecord
  2
*Paper_Space
340
1C
  0
ENDTAB
  0
ENDSEC
  0
SECTION
  2
BLOCKS
  0
BLOCK
  5
571
330
1D
100
AcDbEntity
  8
0
100
AcDbBlockBegin
  2
*Model_Space
 70
     0
 10
0.0
 20
0.0
 30
0.0
  3
*Model_Space
  1
*Model_Space
  0
ENDBLK
  5
572
330
1D
100
AcDbEntity
  8
0
100
AcDbBlockEnd
  0
BLOCK
  5
56F
330
1B
100
AcDbEntity
 67
     1
  8
0
100
AcDbBlockBegin
  2
*Paper_Space
 70
     0
 10
0.0
 20
0.0
 30
0.0
  3
*Paper_Space
  1
*Paper_Space
  0
ENDBLK
  5
570
330
1B
100
AcDbEntity
 67
     1
  8
0
100
AcDbBlockEnd
  0
ENDSEC
  0
SECTION
  2
ENTITIES
  0
LINE
  5
21
330
1D
100
AcDbEntity
  8
0
100
AcDbLine
 10
114.334
 20
-0.235389
 30
0.0
 11
116.499
 21
-0.235389
 31
0.0
  0
LINE
  5
22
330
1D
100
AcDbEntity
  8
0
100
AcDbLine
 10
116.499
 20
-0.235389
 30
0.0
 11
118.691
 21
-0.235389
 31
0.0
  0
LINE
  5
23
330
1D
100
AcDbEntity
  8
0
100
AcDbLine
 10
120.522
 20
-0.235389
 30
0.0
 11
124.424
 21
-0.235389
 31
0.0
  0
LINE
  5
24
330
1D
100
AcDbEntity
  8
0
100
AcDbLine
 10
118.691
 20
-0.235389
 30
0.0
 11
120.522
 21
-0.235389
 31
0.0
  0
LINE
  5
25
330
1D
100
AcDbEntity
  8
0
100
AcDbLine
 10
118.691
 20
-0.235389
 30
0.0
 11
121.295
 21
-0.235389
 31
0.0
  0
LINE
  5
26
330
1D
100
AcDbEntity
  8
0
100
AcDbLine
 10
99.249
 20
-0.235389
 30
0.0
 11
100.345
 21
-0.235389
 31
0.0
  0
LINE
  5
27
330
1D
100
AcDbEntity
  8
0
100
AcDbLine
 10
99.249
 20
-0.235389
 30
0.0
 11
100.488
 21
-0.235389
 31
0.0
  0
LINE
  5
28
330
1D
100
AcDbEntity
  8
0
100
AcDbLine
 10
101.885
 20
-0.235389
 30
0.0
 11
103.346
 21
-0.235389
 31
0.0
  0
LINE
  5
29
330
1D
100
AcDbEntity
  8
0
100
AcDbLine
 10
100.488
 20
-0.235389
 30
0.0
 11
101.885
 21
-0.235389
 31
0.0
  0
LINE
  5
2A
330
1D
100
AcDbEntity
  8
0
100
AcDbLine
 10
100.345
 20
-0.235389
 30
0.0
 11
101.885
 21
-0.235389
 31
0.0
  0
LINE
  5
2B
330
1D
100
AcDbEntity
  8
0
100
AcDbLine
 10
97.6813
 20
-0.235389
 30
0.0
 11
98.4109
 21
-0.235389
 31
0.0
  0
LINE
  5
2C
330
1D
100
AcDbEntity
  8
0
100
AcDbLine
 10
97.6911
 20
-0.235389
 30
0.0
 11
98.8883
 21
-0.235389
 31
0.0
  0
LINE
  5
2D
330
1D
100
AcDbEntity
  8
0
100
AcDbLine
 10
98.4109
 20
-0.235389
 30
0.0
 11
99.249
 21
-0.235389
 31
0.0
  0
LINE
  5
2E
330
1D
100
AcDbEntity
  8
0
100
AcDbLine
 10
97.0651
 20
-0.235389
 30
0.0
 11
97.6813
 21
-0.235389
 31
0.0
  0
LINE
  5
2F
330
1D
100
AcDbEntity
  8
0
100
AcDbLine
 10
95.9807
 20
-0.235389
 30
0.0
 11
96.1771
 21
-0.235389
 31
0.0
  0
LINE
  5
30
330
1D
100
AcDbEntity
  8
0
100
AcDbLine
 10
95.9113
 20
-0.235389
 30
0.0
 11
96.1771
 21
-0.235389
 31
0.0
  0
LINE
  5
31
330
1D
100
AcDbEntity
  8
0
100
AcDbLine
 10
96.1771
 20
-0.235389
 30
0.0
 11
96.5647
 21
-0.235389
 31
0.0
  0
LINE
  5
32
330
1D
100
AcDbEntity
  8
0
100
AcDbLine
 10
96.5647
 20
-0.235389
 30
0.0
 11
97.0651
 21
-0.235389
 31
0.0
  0
LINE
  5
33
330
1D
100
AcDbEntity
  8
0
100
AcDbLine
 10
104.92
 20
-0.235389
 30
0.0
 11
106.453
 21
-0.235389
 31
0.0
  0
LINE
  5
34
330
1D
100
AcDbEntity
  8
0
100
AcDbLine
 10
106.747
 20
-0.235389
 30
0.0
 11
108.058
 21
-0.235389
 31
0.0
  0
LINE
  5
35
330
1D
100
AcDbEntity
  8
0
100
AcDbLine
 10
108.058
 20
-0.235389
 30
0.0
 11
109.724
 21
-0.235389
 31
0.0
  0
LINE
  5
36
330
1D
100
AcDbEntity
  8
0
100
AcDbLine
 10
109.724
 20
-0.235389
 30
0.0
 11
111.44
 21
-0.235389
 31
0.0
  0
LINE
  5
37
330
1D
100
AcDbEntity
  8
0
100
AcDbLine
 10
106.453
 20
-0.235389
 30
0.0
 11
108.058
 21
-0.235389
 31
0.0
  0
LINE
  5
38
330
1D
100
AcDbEntity
  8
0
100
AcDbLine
 10
104.467
 20
-0.235389
 30
0.0
 11
106.747
 21
-0.235389
 31
0.0
  0
LINE
  5
39
330
1D
100
AcDbEntity
  8
0
100
AcDbLine
 10
103.346
 20
-0.235389
 30
0.0
 11
104.467
 21
-0.235389
 31
0.0
  0
LINE
  5
3A
330
1D
100
AcDbEntity
  8
0
100
AcDbLine
 10
103.346
 20
-0.235389
 30
0.0
 11
104.92
 21
-0.235389
 31
0.0
  0
LINE
  5
3B
330
1D
100
AcDbEntity
  8
0
100
AcDbLine
 10
111.44
 20
-0.235389
 30
0.0
 11
114.334
 21
-0.235389
 31
0.0
  0
LINE
  5
3C
330
1D
100
AcDbEntity
  8
0
100
AcDbLine
 10
127.553
 20
-0.235389
 30
0.0
 11
130.243
 21
-0.235391
 31
0.0
  0
LINE
  5
3D
330
1D
100
AcDbEntity
  8
0
100
AcDbLine
 10
130.243
 20
-0.235391
 30
0.0
 11
131.844
 21
-0.235391
 31
0.0
  0
LINE
  5
3E
330
1D
100
AcDbEntity
  8
0
100
AcDbLine
 10
124.424
 20
-0.235389
 30
0.0
 11
127.553
 21
-0.235389
 31
0.0
  0
LINE
  5
3F
330
1D
100
AcDbEntity
  8
0
100
AcDbLine
 10
123.91
 20
-0.235389
 30
0.0
 11
127.553
 21
-0.235389
 31
0.0
  0
LINE
  5
40
330
1D
100
AcDbEntity
  8
0
100
AcDbLine
 10
121.295
 20
-0.235389
 30
0.0
 11
123.91
 21
-0.235389
 31
0.0
  0
LINE
  5
41
330
1D
100
AcDbEntity
  8
0
100
AcDbLine
 10
95.7764
 20
-0.235389
 30
0.0
 11
95.9113
 21
-0.235389
 31
0.0
  0
LINE
  5
42
330
1D
100
AcDbEntity
  8
0
100
AcDbLine
 10
95.7324
 20
-0.235389
 30
0.0
 11
95.8043
 21
-0.235389
 31
0.0
  0
LINE
  5
43
330
1D
100
AcDbEntity
  8
0
100
AcDbLine
 10
95.8043
 20
-0.235389
 30
0.0
 11
95.9807
 21
-0.235389
 31
0.0
  0
LINE
  5
44
330
1D
100
AcDbEntity
  8
0
100
AcDbLine
 10
141.214
 20
-0.235611
 30
0.0
 11
141.636
 21
-0.235611
 31
0.0
  0
LINE
  5
45
330
1D
100
AcDbEntity
  8
0
100
AcDbLine
 10
141.143
 20
-0.235607
 30
0.0
 11
141.204
 21
-0.235607
 31
0.0
  0
LINE
  5
46
330
1D
100
AcDbEntity
  8
0
100
AcDbLine
 10
140.659
 20
-0.235607
 30
0.0
 11
141.143
 21
-0.235607
 31
0.0
  0
LINE
  5
47
330
1D
100
AcDbEntity
  8
0
100
AcDbLine
 10
141.636
 20
-0.235611
 30
0.0
 11
142.028
 21
-0.235611
 31
0.0
  0
LINE
  5
48
330
1D
100
AcDbEntity
  8
0
100
AcDbLine
 10
131.844
 20
-0.235391
 30
0.0
 11
133.411
 21
-0.235391
 31
0.0
  0
LINE
  5
49
330
1D
100
AcDbEntity
  8
0
100
AcDbLine
 10
138.131
 20
-0.235389
 30
0.0
 11
138.85
 21
-0.235389
 31
0.0
  0
LINE
  5
4A
330
1D
100
AcDbEntity
  8
0
100
AcDbLine
 10
137.299
 20
-0.235389
 30
0.0
 11
138.131
 21
-0.235389
 31
0.0
  0
LINE
  5
4B
330
1D
100
AcDbEntity
  8
0
100
AcDbLine
 10
136.329
 20
-0.235389
 30
0.0
 11
137.299
 21
-0.235389
 31
0.0
  0
LINE
  5
4C
330
1D
100
AcDbEntity
  8
0
100
AcDbLine
 10
135.556
 20
-0.235389
 30
0.0
 11
136.329
 21
-0.235389
 31
0.0
  0
LINE
  5
4D
330
1D
100
AcDbEntity
  8
0
100
AcDbLine
 10
134.519
 20
-0.235389
 30
0.0
 11
134.975
 21
-0.235389
 31
0.0
  0
LINE
  5
4E
330
1D
100
AcDbEntity
  8
0
100
AcDbLine
 10
134.519
 20
-0.235389
 30
0.0
 11
135.556
 21
-0.235389
 31
0.0
  0
LINE
  5
4F
330
1D
100
AcDbEntity
  8
0
100
AcDbLine
 10
137.618
 20
-0.235389
 30
0.0
 11
138.484
 21
-0.235389
 31
0.0
  0
LINE
  5
50
330
1D
100
AcDbEntity
  8
0
100
AcDbLine
 10
140.017
 20
-0.235389
 30
0.0
 11
140.659
 21
-0.235607
 31
0.0
  0
LINE
  5
51
330
1D
100
AcDbEntity
  8
0
100
AcDbLine
 10
140.659
 20
-0.235389
 30
0.0
 11
141.214
 21
-0.235611
 31
0.0
  0
LINE
  5
52
330
1D
100
AcDbEntity
  8
0
100
AcDbLine
 10
138.85
 20
-0.235389
 30
0.0
 11
139.457
 21
-0.235389
 31
0.0
  0
LINE
  5
53
330
1D
100
AcDbEntity
  8
0
100
AcDbLine
 10
139.457
 20
-0.235389
 30
0.0
 11
140.067
 21
-0.235389
 31
0.0
  0
LINE
  5
54
330
1D
100
AcDbEntity
  8
0
100
AcDbLine
 10
139.204
 20
-0.235389
 30
0.0
 11
140.017
 21
-0.235389
 31
0.0
  0
LINE
  5
55
330
1D
100
AcDbEntity
  8
0
100
AcDbLine
 10
140.067
 20
-0.235389
 30
0.0
 11
140.659
 21
-0.235389
 31
0.0
  0
LINE
  5
56
330
1D
100
AcDbEntity
  8
0
100
AcDbLine
 10
138.484
 20
-0.235389
 30
0.0
 11
139.204
 21
-0.235389
 31
0.0
  0
LINE
  5
57
330
1D
100
AcDbEntity
  8
0
100
AcDbLine
 10
133.411
 20
-0.235391
 30
0.0
 11
134.519
 21
-0.235389
 31
0.0
  0
LINE
  5
59
330
1D
100
AcDbEntity
  8
0
100
AcDbLine
 10
142.028
 20
-0.235611
 30
0.0
 11
142.232
 21
-0.235611
 31
0.0
  0
LINE
  5
5A
330
1D
100
AcDbEntity
  8
0
100
AcDbLine
 10
142.232
 20
-0.235611
 30
0.0
 11
142.29
 21
-0.235611
 31
0.0
  0
LINE
  5
5B
330
1D
100
AcDbEntity
  8
0
100
AcDbLine
 10
141.931
 20
27.951211
 30
0.0
 11
142.29
 21
-0.235611
 31
0.0
  0
LINE
  5
5C
330
1D
100
AcDbEntity
  8
0
100
AcDbLine
 10
141.931
 20
27.951211
 30
0.0
 11
142.29
 21
-0.235611
 31
0.0
  0
LINE
  5
5D
330
1D
100
AcDbEntity
  8
0
100
AcDbLine
 10
141.929
 20
28.011111
 30
0.0
 11
141.931
 21
27.951211
 31
0.0
  0
LINE
  5
5E
330
1D
100
AcDbEntity
  8
0
100
AcDbLine
 10
141.922
 20
28.289911
 30
0.0
 11
141.929
 21
28.011111
 31
0.0
  0
LINE
  5
5F
330
1D
100
AcDbEntity
  8
0
100
AcDbLine
 10
141.911
 20
28.791811
 30
0.0
 11
141.922
 21
28.289911
 31
0.0
  0
LINE
  5
60
330
1D
100
AcDbEntity
  8
0
100
AcDbLine
 10
141.898024428437
 20
29.352442195349
 30
0.0
 11
148.085
 21
46.323211
 31
0.0
  0
LINE
  5
61
330
1D
100
AcDbEntity
  8
0
100
AcDbLine
 10
141.773
 20
37.604511
 30
0.0
 11
141.797
 21
35.237011
 31
0.0
  0
LINE
  5
62
330
1D
100
AcDbEntity
  8
0
100
AcDbLine
 10
141.797
 20
35.237011
 30
0.0
 11
141.824
 21
33.273311
 31
0.0
  0
LINE
  5
63
330
1D
100
AcDbEntity
  8
0
100
AcDbLine
 10
141.761
 20
39.349511
 30
0.0
 11
141.773
 21
37.604511
 31
0.0
  0
LINE
  5
64
330
1D
100
AcDbEntity
  8
0
100
AcDbLine
 10
141.755
 20
40.508111
 30
0.0
 11
141.761
 21
39.349511
 31
0.0
  0
LINE
  5
65
330
1D
100
AcDbEntity
  8
0
100
AcDbLine
 10
141.896
 20
29.439911
 30
0.0
 11
141.911
 21
28.791811
 31
0.0
  0
LINE
  5
66
330
1D
100
AcDbEntity
  8
0
100
AcDbLine
 10
141.873
 20
30.551311
 30
0.0
 11
141.896
 21
29.439911
 31
0.0
  0
LINE
  5
67
330
1D
100
AcDbEntity
  8
0
100
AcDbLine
 10
141.848
 20
31.851511
 30
0.0
 11
141.873
 21
30.551311
 31
0.0
  0
LINE
  5
68
330
1D
100
AcDbEntity
  8
0
100
AcDbLine
 10
141.824
 20
33.273311
 30
0.0
 11
141.848
 21
31.851511
 31
0.0
  0
LINE
  5
69
330
1D
100
AcDbEntity
  8
0
100
AcDbLine
 10
141.898024428437
 20
29.352442195349
 30
0.0
 11
148.085
 21
46.323211
 31
0.0
  0
LINE
  5
6B
330
1D
100
AcDbEntity
  8
0
100
AcDbLine
 10
9.815
 20
85.685611
 30
0.0
 11
9.815
 21
85.824311
 31
0.0
  0
LINE
  5
6C
330
1D
100
AcDbEntity
  8
0
100
AcDbLine
 10
9.815
 20
85.677011
 30
0.0
 11
17.915
 21
85.671511
 31
0.0
  0
LINE
  5
6D
330
1D
100
AcDbEntity
  8
0
100
AcDbLine
 10
9.815
 20
85.677011
 30
0.0
 11
9.815
 21
85.798511
 31
0.0
  0
LINE
  5
6E
330
1D
100
AcDbEntity
  8
0
100
AcDbLine
 10
9.815
 20
86.091611
 30
0.0
 11
9.815
 21
86.485011
 31
0.0
  0
LINE
  5
6F
330
1D
100
AcDbEntity
  8
0
100
AcDbLine
 10
9.815
 20
86.091611
 30
0.0
 11
9.815
 21
85.824311
 31
0.0
  0
LINE
  5
70
330
1D
100
AcDbEntity
  8
0
100
AcDbLine
 10
9.815
 20
85.824311
 30
0.0
 11
9.815
 21
86.091611
 31
0.0
  0
LINE
  5
71
330
1D
100
AcDbEntity
  8
0
100
AcDbLine
 10
9.815
 20
85.824311
 30
0.0
 11
9.815
 21
85.685611
 31
0.0
  0
LINE
  5
72
330
1D
100
AcDbEntity
  8
0
100
AcDbLine
 10
9.815
 20
85.798511
 30
0.0
 11
9.815
 21
85.677011
 31
0.0
  0
LINE
  5
73
330
1D
100
AcDbEntity
  8
0
100
AcDbLine
 10
9.815
 20
85.798511
 30
0.0
 11
9.815
 21
86.049011
 31
0.0
  0
LINE
  5
74
330
1D
100
AcDbEntity
  8
0
100
AcDbLine
 10
9.815
 20
86.049011
 30
0.0
 11
9.815
 21
85.798511
 31
0.0
  0
LINE
  5
75
330
1D
100
AcDbEntity
  8
0
100
AcDbLine
 10
9.815
 20
86.049011
 30
0.0
 11
9.815
 21
86.365120916946
 31
0.0
  0
LINE
  5
76
330
1D
100
AcDbEntity
  8
0
100
AcDbLine
 10
9.815
 20
86.167811
 30
0.0
 11
9.815
 21
86.265011
 31
0.0
  0
LINE
  5
77
330
1D
100
AcDbEntity
  8
0
100
AcDbLine
 10
2.148
 20
86.365311
 30
0.0
 11
9.815
 21
86.365120916946
 31
0.0
  0
LINE
  5
78
330
1D
100
AcDbEntity
  8
0
100
AcDbLine
 10
2.148
 20
86.621211
 30
0.0
 11
2.148
 21
86.917411
 31
0.0
  0
LINE
  5
79
330
1D
100
AcDbEntity
  8
0
100
AcDbLine
 10
2.148
 20
86.621211
 30
0.0
 11
2.148
 21
86.436311
 31
0.0
  0
LINE
  5
7A
330
1D
100
AcDbEntity
  8
0
100
AcDbLine
 10
2.148
 20
86.436311
 30
0.0
 11
2.148
 21
86.621211
 31
0.0
  0
LINE
  5
7B
330
1D
100
AcDbEntity
  8
0
100
AcDbLine
 10
2.148
 20
86.436311
 30
0.0
 11
2.148
 21
86.365311
 31
0.0
  0
LINE
  5
7C
330
1D
100
AcDbEntity
  8
0
100
AcDbLine
 10
2.148
 20
86.365311
 30
0.0
 11
2.148
 21
86.436311
 31
0.0
  0
LINE
  5
7D
330
1D
100
AcDbEntity
  8
0
100
AcDbLine
 10
2.148
 20
86.365311
 30
0.0
 11
9.815
 21
86.365120916946
 31
0.0
  0
LINE
  5
7E
330
1D
100
AcDbEntity
  8
0
100
AcDbLine
 10
9.815
 20
86.485011
 30
0.0
 11
9.815
 21
87.000311
 31
0.0
  0
LINE
  5
7F
330
1D
100
AcDbEntity
  8
0
100
AcDbLine
 10
9.815
 20
86.485011
 30
0.0
 11
9.815
 21
86.091611
 31
0.0
  0
LINE
  5
80
330
1D
100
AcDbEntity
  8
0
100
AcDbLine
 10
2.148
 20
86.917411
 30
0.0
 11
2.148
 21
87.322911
 31
0.0
  0
LINE
  5
81
330
1D
100
AcDbEntity
  8
0
100
AcDbLine
 10
2.148
 20
86.917411
 30
0.0
 11
2.148
 21
86.621211
 31
0.0
  0
LINE
  5
82
330
1D
100
AcDbEntity
  8
0
100
AcDbLine
 10
9.815
 20
87.000311
 30
0.0
 11
9.815
 21
87.632111
 31
0.0
  0
LINE
  5
83
330
1D
100
AcDbEntity
  8
0
100
AcDbLine
 10
9.815
 20
87.000311
 30
0.0
 11
9.815
 21
86.485011
 31
0.0
  0
LINE
  5
84
330
1D
100
AcDbEntity
  8
0
100
AcDbLine
 10
9.815
 20
86.675911
 30
0.0
 11
9.815
 21
86.374611
 31
0.0
  0
LINE
  5
85
330
1D
100
AcDbEntity
  8
0
100
AcDbLine
 10
9.815
 20
86.374611
 30
0.0
 11
9.815
 21
86.204611
 31
0.0
  0
LINE
  5
86
330
1D
100
AcDbEntity
  8
0
100
AcDbLine
 10
9.815
 20
86.265011
 30
0.0
 11
9.815
 21
86.365120916946
 31
0.0
  0
LINE
  5
87
330
1D
100
AcDbEntity
  8
0
100
AcDbLine
 10
9.815
 20
86.365120916946
 30
0.0
 11
9.815
 21
86.049011
 31
0.0
  0
LINE
  5
88
330
1D
100
AcDbEntity
  8
0
100
AcDbLine
 10
2.148
 20
87.322911
 30
0.0
 11
2.148
 21
87.833411
 31
0.0
  0
LINE
  5
89
330
1D
100
AcDbEntity
  8
0
100
AcDbLine
 10
2.148
 20
87.322911
 30
0.0
 11
2.148
 21
86.917411
 31
0.0
  0
LINE
  5
8A
330
1D
100
AcDbEntity
  8
0
100
AcDbLine
 10
1.715
 20
87.115111
 30
0.0
 11
2.148
 21
86.365311
 31
0.0
  0
LINE
  5
8B
330
1D
100
AcDbEntity
  8
0
100
AcDbLine
 10
1.715
 20
87.631211
 30
0.0
 11
1.715
 21
88.011911
 31
0.0
  0
LINE
  5
8C
330
1D
100
AcDbEntity
  8
0
100
AcDbLine
 10
1.715
 20
87.631211
 30
0.0
 11
1.715
 21
87.353511
 31
0.0
  0
LINE
  5
8D
330
1D
100
AcDbEntity
  8
0
100
AcDbLine
 10
1.715
 20
87.353511
 30
0.0
 11
1.715
 21
87.631211
 31
0.0
  0
LINE
  5
8E
330
1D
100
AcDbEntity
  8
0
100
AcDbLine
 10
9.815
 20
87.632111
 30
0.0
 11
9.815
 21
88.374111
 31
0.0
  0
LINE
  5
8F
330
1D
100
AcDbEntity
  8
0
100
AcDbLine
 10
9.815
 20
87.632111
 30
0.0
 11
9.815
 21
87.000311
 31
0.0
  0
LINE
  5
90
330
1D
100
AcDbEntity
  8
0
100
AcDbLine
 10
1.715
 20
88.317511
 30
0.0
 11
1.715
 21
88.397211
 31
0.0
  0
LINE
  5
91
330
1D
100
AcDbEntity
  8
0
100
AcDbLine
 10
2.148
 20
87.833411
 30
0.0
 11
2.148
 21
88.421911
 31
0.0
  0
LINE
  5
92
330
1D
100
AcDbEntity
  8
0
100
AcDbLine
 10
2.148
 20
87.833411
 30
0.0
 11
2.148
 21
87.322911
 31
0.0
  0
LINE
  5
93
330
1D
100
AcDbEntity
  8
0
100
AcDbLine
 10
1.715
 20
88.011911
 30
0.0
 11
1.715
 21
88.491611
 31
0.0
  0
LINE
  5
94
330
1D
100
AcDbEntity
  8
0
100
AcDbLine
 10
1.715
 20
88.011911
 30
0.0
 11
1.715
 21
87.631211
 31
0.0
  0
LINE
  5
95
330
1D
100
AcDbEntity
  8
0
100
AcDbLine
 10
1.715
 20
88.397211
 30
0.0
 11
1.715
 21
88.586311
 31
0.0
  0
LINE
  5
96
330
1D
100
AcDbEntity
  8
0
100
AcDbLine
 10
9.815
 20
88.374111
 30
0.0
 11
9.815
 21
89.218611
 31
0.0
  0
LINE
  5
97
330
1D
100
AcDbEntity
  8
0
100
AcDbLine
 10
9.815
 20
88.374111
 30
0.0
 11
9.815
 21
87.632111
 31
0.0
  0
LINE
  5
98
330
1D
100
AcDbEntity
  8
0
100
AcDbLine
 10
9.815
 20
88.328111
 30
0.0
 11
9.815
 21
87.658211
 31
0.0
  0
LINE
  5
99
330
1D
100
AcDbEntity
  8
0
100
AcDbLine
 10
9.815
 20
87.658211
 30
0.0
 11
9.815
 21
87.105311
 31
0.0
  0
LINE
  5
9A
330
1D
100
AcDbEntity
  8
0
100
AcDbLine
 10
9.815
 20
87.105311
 30
0.0
 11
9.815
 21
86.675911
 31
0.0
  0
LINE
  5
9B
330
1D
100
AcDbEntity
  8
0
100
AcDbLine
 10
1.365
 20
89.376111
 30
0.0
 11
1.365
 21
89.199311
 31
0.0
  0
LINE
  5
9D
330
1D
100
AcDbEntity
  8
0
100
AcDbLine
 10
1.365
 20
89.199311
 30
0.0
 11
1.365
 21
89.509011
 31
0.0
  0
LINE
  5
9F
330
1D
100
AcDbEntity
  8
0
100
AcDbLine
 10
1.365
 20
89.199311
 30
0.0
 11
1.365
 21
89.124011
 31
0.0
  0
LINE
  5
A0
330
1D
100
AcDbEntity
  8
0
100
AcDbLine
 10
1.365
 20
89.124011
 30
0.0
 11
1.365
 21
89.199311
 31
0.0
  0
LINE
  5
A1
330
1D
100
AcDbEntity
  8
0
100
AcDbLine
 10
1.365
 20
89.124011
 30
0.0
 11
1.378
 21
89.074111
 31
0.0
  0
LINE
  5
A2
330
1D
100
AcDbEntity
  8
0
100
AcDbLine
 10
1.365
 20
89.549611
 30
0.0
 11
1.365
 21
89.814611
 31
0.0
  0
LINE
  5
A3
330
1D
100
AcDbEntity
  8
0
100
AcDbLine
 10
1.378
 20
89.074111
 30
0.0
 11
1.415
 21
89.037511
 31
0.0
  0
LINE
  5
A6
330
1D
100
AcDbEntity
  8
0
100
AcDbLine
 10
1.415
 20
89.037511
 30
0.0
 11
1.465
 21
89.023911
 31
0.0
  0
LINE
  5
A7
330
1D
100
AcDbEntity
  8
0
100
AcDbLine
 10
1.715
 20
88.586311
 30
0.0
 11
1.715
 21
88.882611
 31
0.0
  0
LINE
  5
A8
330
1D
100
AcDbEntity
  8
0
100
AcDbLine
 10
1.715
 20
88.487811
 30
0.0
 11
1.715
 21
88.347711
 31
0.0
  0
LINE
  5
A9
330
1D
100
AcDbEntity
  8
0
100
AcDbLine
 10
1.465
 20
89.023911
 30
0.0
 11
1.715
 21
89.023911
 31
0.0
  0
LINE
  5
AA
330
1D
100
AcDbEntity
  8
0
100
AcDbLine
 10
1.465
 20
89.023911
 30
0.0
 11
1.715
 21
89.023911
 31
0.0
  0
LINE
  5
AB
330
1D
100
AcDbEntity
  8
0
100
AcDbLine
 10
1.715
 20
88.882611
 30
0.0
 11
1.715
 21
89.023911
 31
0.0
  0
LINE
  5
AC
330
1D
100
AcDbEntity
  8
0
100
AcDbLine
 10
1.715
 20
88.736011
 30
0.0
 11
1.715
 21
88.487811
 31
0.0
  0
LINE
  5
AD
330
1D
100
AcDbEntity
  8
0
100
AcDbLine
 10
2.148
 20
88.421911
 30
0.0
 11
2.148
 21
89.098111
 31
0.0
  0
LINE
  5
AE
330
1D
100
AcDbEntity
  8
0
100
AcDbLine
 10
2.148
 20
88.421911
 30
0.0
 11
2.148
 21
87.833411
 31
0.0
  0
LINE
  5
AF
330
1D
100
AcDbEntity
  8
0
100
AcDbLine
 10
1.715
 20
88.491611
 30
0.0
 11
1.715
 21
89.051211
 31
0.0
  0
LINE
  5
B0
330
1D
100
AcDbEntity
  8
0
100
AcDbLine
 10
1.715
 20
88.491611
 30
0.0
 11
1.715
 21
88.011911
 31
0.0
  0
LINE
  5
B1
330
1D
100
AcDbEntity
  8
0
100
AcDbLine
 10
2.148
 20
89.098111
 30
0.0
 11
2.148
 21
89.856511
 31
0.0
  0
LINE
  5
B2
330
1D
100
AcDbEntity
  8
0
100
AcDbLine
 10
2.148
 20
89.098111
 30
0.0
 11
2.148
 21
88.421911
 31
0.0
  0
LINE
  5
B3
330
1D
100
AcDbEntity
  8
0
100
AcDbLine
 10
1.715
 20
89.089611
 30
0.0
 11
1.715
 21
88.736011
 31
0.0
  0
LINE
  5
B4
330
1D
100
AcDbEntity
  8
0
100
AcDbLine
 10
1.715
 20
89.051211
 30
0.0
 11
1.715
 21
89.695511
 31
0.0
  0
LINE
  5
B5
330
1D
100
AcDbEntity
  8
0
100
AcDbLine
 10
1.715
 20
89.051211
 30
0.0
 11
1.715
 21
88.491611
 31
0.0
  0
LINE
  5
BB
330
1D
100
AcDbEntity
  8
0
100
AcDbLine
 10
1.715
 20
89.544811
 30
0.0
 11
1.715
 21
90.096911
 31
0.0
  0
LINE
  5
BC
330
1D
100
AcDbEntity
  8
0
100
AcDbLine
 10
1.715
 20
89.544811
 30
0.0
 11
1.715
 21
89.089611
 31
0.0
  0
LINE
  5
BD
330
1D
100
AcDbEntity
  8
0
100
AcDbLine
 10
1.365
 20
89.509011
 30
0.0
 11
1.365
 21
89.642111
 31
0.0
  0
LINE
  5
BE
330
1D
100
AcDbEntity
  8
0
100
AcDbLine
 10
-0.135
 20
89.980211
 30
0.0
 11
-0.135
 21
90.090311
 31
0.0
  0
LINE
  5
BF
330
1D
100
AcDbEntity
  8
0
100
AcDbLine
 10
1.365
 20
89.814611
 30
0.0
 11
1.365
 21
89.549611
 31
0.0
  0
LINE
  5
C0
330
1D
100
AcDbEntity
  8
0
100
AcDbLine
 10
1.715
 20
89.695511
 30
0.0
 11
1.715
 21
90.418511
 31
0.0
  0
LINE
  5
C1
330
1D
100
AcDbEntity
  8
0
100
AcDbLine
 10
2.148
 20
89.856511
 30
0.0
 11
2.148
 21
90.690711
 31
0.0
  0
LINE
  5
C2
330
1D
100
AcDbEntity
  8
0
100
AcDbLine
 10
1.365
 20
89.862111
 30
0.0
 11
1.365
 21
89.642111
 31
0.0
  0
LINE
  5
C3
330
1D
100
AcDbEntity
  8
0
100
AcDbLine
 10
1.365
 20
89.862111
 30
0.0
 11
1.365
 21
90.167211
 31
0.0
  0
LINE
  5
C4
330
1D
100
AcDbEntity
  8
0
100
AcDbLine
 10
-0.135
 20
89.975611
 30
0.0
 11
1.365
 21
89.464711
 31
0.0
  0
LINE
  5
C5
330
1D
100
AcDbEntity
  8
0
100
AcDbLine
 10
-0.135
 20
89.975611
 30
0.0
 11
-0.135
 21
90.076611
 31
0.0
  0
LINE
  5
C6
330
1D
100
AcDbEntity
  8
0
100
AcDbLine
 10
1.365
 20
89.642111
 30
0.0
 11
1.365
 21
89.862111
 31
0.0
  0
LINE
  5
C7
330
1D
100
AcDbEntity
  8
0
100
AcDbLine
 10
1.365
 20
89.642111
 30
0.0
 11
1.365
 21
89.509011
 31
0.0
  0
LINE
  5
C8
330
1D
100
AcDbEntity
  8
0
100
AcDbLine
 10
9.815
 20
89.218611
 30
0.0
 11
9.815
 21
90.156811
 31
0.0
  0
LINE
  5
C9
330
1D
100
AcDbEntity
  8
0
100
AcDbLine
 10
9.815
 20
89.218611
 30
0.0
 11
9.815
 21
88.374111
 31
0.0
  0
LINE
  5
CA
330
1D
100
AcDbEntity
  8
0
100
AcDbLine
 10
-0.135
 20
90.076611
 30
0.0
 11
-0.135
 21
90.281611
 31
0.0
  0
LINE
  5
CB
330
1D
100
AcDbEntity
  8
0
100
AcDbLine
 10
-0.135
 20
90.076611
 30
0.0
 11
-0.135
 21
89.975611
 31
0.0
  0
LINE
  5
CC
330
1D
100
AcDbEntity
  8
0
100
AcDbLine
 10
1.365
 20
90.167211
 30
0.0
 11
1.365
 21
89.862111
 31
0.0
  0
LINE
  5
CD
330
1D
100
AcDbEntity
  8
0
100
AcDbLine
 10
1.365
 20
90.167211
 30
0.0
 11
1.365
 21
90.554111
 31
0.0
  0
LINE
  5
CE
330
1D
100
AcDbEntity
  8
0
100
AcDbLine
 10
1.365
 20
90.168011
 30
0.0
 11
1.365
 21
90.606311
 31
0.0
  0
LINE
  5
CF
330
1D
100
AcDbEntity
  8
0
100
AcDbLine
 10
-0.135
 20
90.090311
 30
0.0
 11
-0.135
 21
89.980211
 31
0.0
  0
LINE
  5
D0
330
1D
100
AcDbEntity
  8
0
100
AcDbLine
 10
-0.135
 20
90.090311
 30
0.0
 11
-0.135
 21
90.304311
 31
0.0
  0
LINE
  5
D1
330
1D
100
AcDbEntity
  8
0
100
AcDbLine
 10
9.815
 20
90.156811
 30
0.0
 11
9.815
 21
91.179511
 31
0.0
  0
LINE
  5
D2
330
1D
100
AcDbEntity
  8
0
100
AcDbLine
 10
9.815
 20
90.156811
 30
0.0
 11
9.815
 21
89.218611
 31
0.0
  0
LINE
  5
D3
330
1D
100
AcDbEntity
  8
0
100
AcDbLine
 10
9.815
 20
89.989611
 30
0.0
 11
9.815
 21
89.108311
 31
0.0
  0
LINE
  5
D4
330
1D
100
AcDbEntity
  8
0
100
AcDbLine
 10
9.815
 20
89.108311
 30
0.0
 11
9.815
 21
88.328111
 31
0.0
  0
LINE
  5
D5
330
1D
100
AcDbEntity
  8
0
100
AcDbLine
 10
-0.135
 20
90.619711
 30
0.0
 11
-0.135
 21
91.032711
 31
0.0
  0
LINE
  5
D6
330
1D
100
AcDbEntity
  8
0
100
AcDbLine
 10
-0.135
 20
90.619711
 30
0.0
 11
-0.135
 21
90.304311
 31
0.0
  0
LINE
  5
D7
330
1D
100
AcDbEntity
  8
0
100
AcDbLine
 10
-0.135
 20
90.643611
 30
0.0
 11
-0.135
 21
90.515811
 31
0.0
  0
LINE
  5
D8
330
1D
100
AcDbEntity
  8
0
100
AcDbLine
 10
-0.135
 20
90.515811
 30
0.0
 11
-0.135
 21
90.643611
 31
0.0
  0
LINE
  5
D9
330
1D
100
AcDbEntity
  8
0
100
AcDbLine
 10
-0.135
 20
90.494311
 30
0.0
 11
-0.135
 21
90.579111
 31
0.0
  0
LINE
  5
DA
330
1D
100
AcDbEntity
  8
0
100
AcDbLine
 10
-0.135
 20
90.579111
 30
0.0
 11
-0.135
 21
90.769311
 31
0.0
  0
LINE
  5
DB
330
1D
100
AcDbEntity
  8
0
100
AcDbLine
 10
-0.135
 20
90.579111
 30
0.0
 11
-0.135
 21
90.494311
 31
0.0
  0
LINE
  5
DC
330
1D
100
AcDbEntity
  8
0
100
AcDbLine
 10
-0.135
 20
90.769311
 30
0.0
 11
-0.135
 21
91.062111
 31
0.0
  0
LINE
  5
DD
330
1D
100
AcDbEntity
  8
0
100
AcDbLine
 10
-0.135
 20
90.769311
 30
0.0
 11
-0.135
 21
90.579111
 31
0.0
  0
LINE
  5
DE
330
1D
100
AcDbEntity
  8
0
100
AcDbLine
 10
-0.135
 20
90.588311
 30
0.0
 11
-0.135
 21
90.281611
 31
0.0
  0
LINE
  5
DF
330
1D
100
AcDbEntity
  8
0
100
AcDbLine
 10
-0.135
 20
90.281611
 30
0.0
 11
-0.135
 21
90.588311
 31
0.0
  0
LINE
  5
E0
330
1D
100
AcDbEntity
  8
0
100
AcDbLine
 10
-0.135
 20
90.281611
 30
0.0
 11
-0.135
 21
90.076611
 31
0.0
  0
LINE
  5
E1
330
1D
100
AcDbEntity
  8
0
100
AcDbLine
 10
1.365
 20
90.606311
 30
0.0
 11
1.365
 21
91.124911
 31
0.0
  0
LINE
  5
E2
330
1D
100
AcDbEntity
  8
0
100
AcDbLine
 10
1.365
 20
90.606311
 30
0.0
 11
1.365
 21
90.168011
 31
0.0
  0
LINE
  5
E3
330
1D
100
AcDbEntity
  8
0
100
AcDbLine
 10
1.365
 20
90.554111
 30
0.0
 11
1.365
 21
91.054911
 31
0.0
  0
LINE
  5
E4
330
1D
100
AcDbEntity
  8
0
100
AcDbLine
 10
1.365
 20
90.554111
 30
0.0
 11
1.365
 21
90.167211
 31
0.0
  0
LINE
  5
E5
330
1D
100
AcDbEntity
  8
0
100
AcDbLine
 10
-0.135
 20
90.304311
 30
0.0
 11
-0.135
 21
90.090311
 31
0.0
  0
LINE
  5
E6
330
1D
100
AcDbEntity
  8
0
100
AcDbLine
 10
-0.135
 20
90.304311
 30
0.0
 11
-0.135
 21
90.619711
 31
0.0
  0
LINE
  5
E8
330
1D
100
AcDbEntity
  8
0
100
AcDbLine
 10
1.715
 20
90.418511
 30
0.0
 11
1.715
 21
91.214511
 31
0.0
  0
LINE
  5
E9
330
1D
100
AcDbEntity
  8
0
100
AcDbLine
 10
1.715
 20
90.418511
 30
0.0
 11
1.715
 21
89.695511
 31
0.0
  0
LINE
  5
EA
330
1D
100
AcDbEntity
  8
0
100
AcDbLine
 10
1.715
 20
90.739511
 30
0.0
 11
1.715
 21
90.096911
 31
0.0
  0
LINE
  5
EB
330
1D
100
AcDbEntity
  8
0
100
AcDbLine
 10
2.148
 20
90.690711
 30
0.0
 11
2.148
 21
91.592811
 31
0.0
  0
LINE
  5
EC
330
1D
100
AcDbEntity
  8
0
100
AcDbLine
 10
2.148
 20
90.690711
 30
0.0
 11
2.148
 21
89.856511
 31
0.0
  0
LINE
  5
EE
330
1D
100
AcDbEntity
  8
0
100
AcDbLine
 10
-0.135
 20
91.032711
 30
0.0
 11
-0.135
 21
91.537811
 31
0.0
  0
LINE
  5
EF
330
1D
100
AcDbEntity
  8
0
100
AcDbLine
 10
-0.135
 20
91.032711
 30
0.0
 11
-0.135
 21
91.209311
 31
0.0
  0
LINE
  5
F0
330
1D
100
AcDbEntity
  8
0
100
AcDbLine
 10
-0.135
 20
91.062111
 30
0.0
 11
-0.135
 21
91.490211
 31
0.0
  0
LINE
  5
F1
330
1D
100
AcDbEntity
  8
0
100
AcDbLine
 10
-0.135
 20
91.062111
 30
0.0
 11
-0.135
 21
91.453711
 31
0.0
  0
LINE
  5
F2
330
1D
100
AcDbEntity
  8
0
100
AcDbLine
 10
1.365
 20
91.124911
 30
0.0
 11
1.365
 21
91.000011
 31
0.0
  0
LINE
  5
F3
330
1D
100
AcDbEntity
  8
0
100
AcDbLine
 10
1.365
 20
91.124911
 30
0.0
 11
1.365
 21
90.606311
 31
0.0
  0
LINE
  5
F4
330
1D
100
AcDbEntity
  8
0
100
AcDbLine
 10
1.365
 20
91.054911
 30
0.0
 11
1.365
 21
91.639411
 31
0.0
  0
LINE
  5
F5
330
1D
100
AcDbEntity
  8
0
100
AcDbLine
 10
1.365
 20
91.054911
 30
0.0
 11
1.365
 21
90.554111
 31
0.0
  0
LINE
  5
F6
330
1D
100
AcDbEntity
  8
0
100
AcDbLine
 10
1.365
 20
91.000011
 30
0.0
 11
1.365
 21
91.124911
 31
0.0
  0
LINE
  5
F7
330
1D
100
AcDbEntity
  8
0
100
AcDbLine
 10
-0.135
 20
91.453711
 30
0.0
 11
-0.135
 21
91.938711
 31
0.0
  0
LINE
  5
F8
330
1D
100
AcDbEntity
  8
0
100
AcDbLine
 10
-0.135
 20
91.453711
 30
0.0
 11
-0.135
 21
91.062111
 31
0.0
  0
LINE
  5
F9
330
1D
100
AcDbEntity
  8
0
100
AcDbLine
 10
-0.135
 20
91.490211
 30
0.0
 11
-0.135
 21
92.073911
 31
0.0
  0
LINE
  5
FA
330
1D
100
AcDbEntity
  8
0
100
AcDbLine
 10
-0.135
 20
91.490211
 30
0.0
 11
-0.135
 21
91.062111
 31
0.0
  0
LINE
  5
FB
330
1D
100
AcDbEntity
  8
0
100
AcDbLine
 10
-0.135
 20
91.209311
 30
0.0
 11
-0.135
 21
91.032711
 31
0.0
  0
LINE
  5
FC
330
1D
100
AcDbEntity
  8
0
100
AcDbLine
 10
-0.135
 20
91.209311
 30
0.0
 11
-0.135
 21
91.639411
 31
0.0
  0
LINE
  5
FD
330
1D
100
AcDbEntity
  8
0
100
AcDbLine
 10
-0.135
 20
91.639411
 30
0.0
 11
-0.135
 21
91.209311
 31
0.0
  0
LINE
  5
FE
330
1D
100
AcDbEntity
  8
0
100
AcDbLine
 10
-0.135
 20
91.639411
 30
0.0
 11
-0.135
 21
92.160611
 31
0.0
  0
LINE
  5
FF
330
1D
100
AcDbEntity
  8
0
100
AcDbLine
 10
-0.135
 20
92.099211
 30
0.0
 11
-0.135
 21
92.150711
 31
0.0
  0
LINE
  5
100
330
1D
100
AcDbEntity
  8
0
100
AcDbLine
 10
-0.135
 20
92.150711
 30
0.0
 11
-0.135
 21
92.099211
 31
0.0
  0
LINE
  5
101
330
1D
100
AcDbEntity
  8
0
100
AcDbLine
 10
-0.135
 20
92.150711
 30
0.0
 11
-0.135
 21
92.300311
 31
0.0
  0
LINE
  5
102
330
1D
100
AcDbEntity
  8
0
100
AcDbLine
 10
-0.135
 20
92.146511
 30
0.0
 11
-0.135
 21
92.292011
 31
0.0
  0
LINE
  5
103
330
1D
100
AcDbEntity
  8
0
100
AcDbLine
 10
-0.135
 20
92.160611
 30
0.0
 11
-0.135
 21
91.639411
 31
0.0
  0
LINE
  5
104
330
1D
100
AcDbEntity
  8
0
100
AcDbLine
 10
-0.135
 20
92.160611
 30
0.0
 11
-0.135
 21
92.765611
 31
0.0
  0
LINE
  5
105
330
1D
100
AcDbEntity
  8
0
100
AcDbLine
 10
-0.135
 20
91.938711
 30
0.0
 11
-0.135
 21
92.510611
 31
0.0
  0
LINE
  5
106
330
1D
100
AcDbEntity
  8
0
100
AcDbLine
 10
-0.135
 20
91.938711
 30
0.0
 11
-0.135
 21
91.453711
 31
0.0
  0
LINE
  5
107
330
1D
100
AcDbEntity
  8
0
100
AcDbLine
 10
-0.135
 20
92.128711
 30
0.0
 11
-0.135
 21
91.537811
 31
0.0
  0
LINE
  5
108
330
1D
100
AcDbEntity
  8
0
100
AcDbLine
 10
-0.135
 20
92.128711
 30
0.0
 11
-0.135
 21
92.798011
 31
0.0
  0
LINE
  5
109
330
1D
100
AcDbEntity
  8
0
100
AcDbLine
 10
-0.135
 20
91.537811
 30
0.0
 11
-0.135
 21
91.032711
 31
0.0
  0
LINE
  5
10A
330
1D
100
AcDbEntity
  8
0
100
AcDbLine
 10
-0.135
 20
91.537811
 30
0.0
 11
-0.135
 21
92.128711
 31
0.0
  0
LINE
  5
10B
330
1D
100
AcDbEntity
  8
0
100
AcDbLine
 10
1.365
 20
91.639411
 30
0.0
 11
1.365
 21
92.300811
 31
0.0
  0
LINE
  5
10C
330
1D
100
AcDbEntity
  8
0
100
AcDbLine
 10
1.365
 20
91.639411
 30
0.0
 11
1.365
 21
91.054911
 31
0.0
  0
LINE
  5
10D
330
1D
100
AcDbEntity
  8
0
100
AcDbLine
 10
1.365
 20
91.639411
 30
0.0
 11
1.365
 21
91.717484616601
 31
0.0
  0
LINE
  5
10E
330
1D
100
AcDbEntity
  8
0
100
AcDbLine
 10
1.715
 20
91.465611
 30
0.0
 11
1.715
 21
90.739511
 31
0.0
  0
LINE
  5
10F
330
1D
100
AcDbEntity
  8
0
100
AcDbLine
 10
1.715
 20
91.214511
 30
0.0
 11
1.715
 21
90.418511
 31
0.0
  0
LINE
  5
110
330
1D
100
AcDbEntity
  8
0
100
AcDbLine
 10
1.715
 20
91.214511
 30
0.0
 11
1.715
 21
92.075411
 31
0.0
  0
LINE
  5
111
330
1D
100
AcDbEntity
  8
0
100
AcDbLine
 10
2.148
 20
91.592811
 30
0.0
 11
2.148
 21
92.554911
 31
0.0
  0
LINE
  5
112
330
1D
100
AcDbEntity
  8
0
100
AcDbLine
 10
2.148
 20
91.592811
 30
0.0
 11
2.148
 21
90.690711
 31
0.0
  0
LINE
  5
113
330
1D
100
AcDbEntity
  8
0
100
AcDbLine
 10
1.365
 20
91.717484616601
 30
0.0
 11
1.365
 21
91.639411
 31
0.0
  0
LINE
  5
114
330
1D
100
AcDbEntity
  8
0
100
AcDbLine
 10
1.715
 20
92.267311
 30
0.0
 11
1.715
 21
91.465611
 31
0.0
  0
LINE
  5
115
330
1D
100
AcDbEntity
  8
0
100
AcDbLine
 10
1.715
 20
92.075411
 30
0.0
 11
1.715
 21
91.214511
 31
0.0
  0
LINE
  5
116
330
1D
100
AcDbEntity
  8
0
100
AcDbLine
 10
1.715
 20
92.075411
 30
0.0
 11
1.715
 21
92.993411
 31
0.0
  0
LINE
  5
119
330
1D
100
AcDbEntity
  8
0
100
AcDbLine
 10
1.365
 20
91.889462581028
 30
0.0
 11
1.365
 21
91.998463865613
 31
0.0
  0
LINE
  5
11A
330
1D
100
AcDbEntity
  8
0
100
AcDbLine
 10
-0.135
 20
92.073911
 30
0.0
 11
-0.135
 21
92.736811
 31
0.0
  0
LINE
  5
11B
330
1D
100
AcDbEntity
  8
0
100
AcDbLine
 10
-0.135
 20
92.073911
 30
0.0
 11
-0.135
 21
91.490211
 31
0.0
  0
LINE
  5
11C
330
1D
100
AcDbEntity
  8
0
100
AcDbLine
 10
-0.135
 20
92.533111
 30
0.0
 11
-0.135
 21
92.292011
 31
0.0
  0
LINE
  5
11D
330
1D
100
AcDbEntity
  8
0
100
AcDbLine
 10
-0.135
 20
92.545311
 30
0.0
 11
-0.135
 21
92.300311
 31
0.0
  0
LINE
  5
11E
330
1D
100
AcDbEntity
  8
0
100
AcDbLine
 10
-0.135
 20
92.545311
 30
0.0
 11
-0.135
 21
92.882411
 31
0.0
  0
LINE
  5
11F
330
1D
100
AcDbEntity
  8
0
100
AcDbLine
 10
-0.135
 20
92.300311
 30
0.0
 11
-0.135
 21
92.150711
 31
0.0
  0
LINE
  5
120
330
1D
100
AcDbEntity
  8
0
100
AcDbLine
 10
-0.135
 20
92.300311
 30
0.0
 11
-0.135
 21
92.545311
 31
0.0
  0
LINE
  5
121
330
1D
100
AcDbEntity
  8
0
100
AcDbLine
 10
-0.135
 20
92.292011
 30
0.0
 11
-0.135
 21
92.533111
 31
0.0
  0
LINE
  5
122
330
1D
100
AcDbEntity
  8
0
100
AcDbLine
 10
-0.135
 20
92.292011
 30
0.0
 11
-0.135
 21
92.146511
 31
0.0
  0
LINE
  5
123
330
1D
100
AcDbEntity
  8
0
100
AcDbLine
 10
-0.135
 20
92.736811
 30
0.0
 11
-0.135
 21
92.073911
 31
0.0
  0
LINE
  5
124
330
1D
100
AcDbEntity
  8
0
100
AcDbLine
 10
-0.135
 20
92.765611
 30
0.0
 11
-0.135
 21
92.160611
 31
0.0
  0
LINE
  5
125
330
1D
100
AcDbEntity
  8
0
100
AcDbLine
 10
-0.135
 20
92.765611
 30
0.0
 11
-0.135
 21
93.446411
 31
0.0
  0
LINE
  5
126
330
1D
100
AcDbEntity
  8
0
100
AcDbLine
 10
-0.135
 20
92.510611
 30
0.0
 11
-0.135
 21
93.161711
 31
0.0
  0
LINE
  5
127
330
1D
100
AcDbEntity
  8
0
100
AcDbLine
 10
-0.135
 20
92.510611
 30
0.0
 11
-0.135
 21
91.938711
 31
0.0
  0
LINE
  5
128
330
1D
100
AcDbEntity
  8
0
100
AcDbLine
 10
-0.135
 20
92.882411
 30
0.0
 11
-0.135
 21
92.545311
 31
0.0
  0
LINE
  5
129
330
1D
100
AcDbEntity
  8
0
100
AcDbLine
 10
-0.135
 20
93.161711
 30
0.0
 11
-0.135
 21
93.883211
 31
0.0
  0
LINE
  5
12A
330
1D
100
AcDbEntity
  8
0
100
AcDbLine
 10
-0.135
 20
93.161711
 30
0.0
 11
-0.135
 21
92.510611
 31
0.0
  0
LINE
  5
12B
330
1D
100
AcDbEntity
  8
0
100
AcDbLine
 10
-0.135
 20
92.798011
 30
0.0
 11
-0.135
 21
92.128711
 31
0.0
  0
LINE
  5
12C
330
1D
100
AcDbEntity
  8
0
100
AcDbLine
 10
-0.135
 20
92.798011
 30
0.0
 11
-0.135
 21
93.537311
 31
0.0
  0
LINE
  5
12D
330
1D
100
AcDbEntity
  8
0
100
AcDbLine
 10
1.365
 20
92.892711
 30
0.0
 11
1.365
 21
93.656811
 31
0.0
  0
LINE
  5
12E
330
1D
100
AcDbEntity
  8
0
100
AcDbLine
 10
1.365
 20
92.892711
 30
0.0
 11
1.365
 21
92.767811
 31
0.0
  0
LINE
  5
12F
330
1D
100
AcDbEntity
  8
0
100
AcDbLine
 10
1.365
 20
92.767811
 30
0.0
 11
1.365
 21
92.892711
 31
0.0
  0
LINE
  5
130
330
1D
100
AcDbEntity
  8
0
100
AcDbLine
 10
2.148
 20
92.554911
 30
0.0
 11
2.148
 21
93.568811
 31
0.0
  0
LINE
  5
131
330
1D
100
AcDbEntity
  8
0
100
AcDbLine
 10
2.148
 20
92.554911
 30
0.0
 11
2.148
 21
91.592811
 31
0.0
  0
LINE
  5
135
330
1D
100
AcDbEntity
  8
0
100
AcDbLine
 10
1.715
 20
93.135511
 30
0.0
 11
1.715
 21
92.267311
 31
0.0
  0
LINE
  5
136
330
1D
100
AcDbEntity
  8
0
100
AcDbLine
 10
1.715
 20
92.993411
 30
0.0
 11
1.715
 21
92.075411
 31
0.0
  0
LINE
  5
137
330
1D
100
AcDbEntity
  8
0
100
AcDbLine
 10
1.715
 20
92.993411
 30
0.0
 11
1.715
 21
93.960511
 31
0.0
  0
LINE
  5
138
330
1D
100
AcDbEntity
  8
0
100
AcDbLine
 10
1.365
 20
93.031911
 30
0.0
 11
1.365
 21
93.823911
 31
0.0
  0
LINE
  5
139
330
1D
100
AcDbEntity
  8
0
100
AcDbLine
 10
1.365
 20
93.031911
 30
0.0
 11
1.365
 21
92.300811
 31
0.0
  0
LINE
  5
13A
330
1D
100
AcDbEntity
  8
0
100
AcDbLine
 10
1.365
 20
92.300811
 30
0.0
 11
1.365
 21
93.031911
 31
0.0
  0
LINE
  5
13B
330
1D
100
AcDbEntity
  8
0
100
AcDbLine
 10
9.815
 20
92.276011
 30
0.0
 11
9.815
 21
93.434511
 31
0.0
  0
LINE
  5
13C
330
1D
100
AcDbEntity
  8
0
100
AcDbLine
 10
9.815
 20
92.276011
 30
0.0
 11
9.815
 21
91.179511
 31
0.0
  0
LINE
  5
13D
330
1D
100
AcDbEntity
  8
0
100
AcDbLine
 10
9.815
 20
93.140611
 30
0.0
 11
9.815
 21
92.017011
 31
0.0
  0
LINE
  5
13E
330
1D
100
AcDbEntity
  8
0
100
AcDbLine
 10
9.815
 20
91.179511
 30
0.0
 11
9.815
 21
92.276011
 31
0.0
  0
LINE
  5
13F
330
1D
100
AcDbEntity
  8
0
100
AcDbLine
 10
9.815
 20
91.179511
 30
0.0
 11
9.815
 21
90.156811
 31
0.0
  0
LINE
  5
140
330
1D
100
AcDbEntity
  8
0
100
AcDbLine
 10
17.915
 20
92.276011
 30
0.0
 11
17.915
 21
93.223411
 31
0.0
  0
LINE
  5
141
330
1D
100
AcDbEntity
  8
0
100
AcDbLine
 10
17.915
 20
92.276011
 30
0.0
 11
17.915
 21
91.189911
 31
0.0
  0
LINE
  5
142
330
1D
100
AcDbEntity
  8
0
100
AcDbLine
 10
9.815
 20
92.017011
 30
0.0
 11
9.815
 21
90.962611
 31
0.0
  0
LINE
  5
143
330
1D
100
AcDbEntity
  8
0
100
AcDbLine
 10
9.815
 20
90.962611
 30
0.0
 11
9.815
 21
89.989611
 31
0.0
  0
LINE
  5
144
330
1D
100
AcDbEntity
  8
0
100
AcDbLine
 10
17.915
 20
91.189911
 30
0.0
 11
17.915
 21
90.176211
 31
0.0
  0
LINE
  5
145
330
1D
100
AcDbEntity
  8
0
100
AcDbLine
 10
17.915
 20
91.189911
 30
0.0
 11
17.915
 21
92.276011
 31
0.0
  0
LINE
  5
146
330
1D
100
AcDbEntity
  8
0
100
AcDbLine
 10
17.915
 20
90.176211
 30
0.0
 11
17.915
 21
89.245111
 31
0.0
  0
LINE
  5
147
330
1D
100
AcDbEntity
  8
0
100
AcDbLine
 10
17.915
 20
90.176211
 30
0.0
 11
17.915
 21
91.189911
 31
0.0
  0
LINE
  5
148
330
1D
100
AcDbEntity
  8
0
100
AcDbLine
 10
17.915
 20
89.245111
 30
0.0
 11
17.915
 21
88.405311
 31
0.0
  0
LINE
  5
149
330
1D
100
AcDbEntity
  8
0
100
AcDbLine
 10
17.915
 20
89.245111
 30
0.0
 11
17.915
 21
90.176211
 31
0.0
  0
LINE
  5
14A
330
1D
100
AcDbEntity
  8
0
100
AcDbLine
 10
17.915
 20
88.405311
 30
0.0
 11
17.915
 21
87.665911
 31
0.0
  0
LINE
  5
14B
330
1D
100
AcDbEntity
  8
0
100
AcDbLine
 10
17.915
 20
88.405311
 30
0.0
 11
17.915
 21
89.245111
 31
0.0
  0
LINE
  5
14C
330
1D
100
AcDbEntity
  8
0
100
AcDbLine
 10
17.915
 20
87.665911
 30
0.0
 11
17.915
 21
87.034311
 31
0.0
  0
LINE
  5
14D
330
1D
100
AcDbEntity
  8
0
100
AcDbLine
 10
17.915
 20
87.665911
 30
0.0
 11
17.915
 21
88.405311
 31
0.0
  0
LINE
  5
14E
330
1D
100
AcDbEntity
  8
0
100
AcDbLine
 10
17.915
 20
87.034311
 30
0.0
 11
17.915
 21
86.516411
 31
0.0
  0
LINE
  5
14F
330
1D
100
AcDbEntity
  8
0
100
AcDbLine
 10
17.915
 20
87.034311
 30
0.0
 11
17.915
 21
87.665911
 31
0.0
  0
LINE
  5
150
330
1D
100
AcDbEntity
  8
0
100
AcDbLine
 10
17.915
 20
86.516411
 30
0.0
 11
17.915
 21
86.118011
 31
0.0
  0
LINE
  5
151
330
1D
100
AcDbEntity
  8
0
100
AcDbLine
 10
17.915
 20
86.516411
 30
0.0
 11
17.915
 21
87.034311
 31
0.0
  0
LINE
  5
152
330
1D
100
AcDbEntity
  8
0
100
AcDbLine
 10
17.915
 20
86.118011
 30
0.0
 11
17.915
 21
85.842611
 31
0.0
  0
LINE
  5
153
330
1D
100
AcDbEntity
  8
0
100
AcDbLine
 10
17.915
 20
86.118011
 30
0.0
 11
17.915
 21
86.516411
 31
0.0
  0
LINE
  5
154
330
1D
100
AcDbEntity
  8
0
100
AcDbLine
 10
17.915
 20
85.842611
 30
0.0
 11
17.915
 21
85.693311
 31
0.0
  0
LINE
  5
155
330
1D
100
AcDbEntity
  8
0
100
AcDbLine
 10
17.915
 20
85.842611
 30
0.0
 11
17.915
 21
86.118011
 31
0.0
  0
LINE
  5
156
330
1D
100
AcDbEntity
  8
0
100
AcDbLine
 10
17.915
 20
85.693311
 30
0.0
 11
17.915
 21
85.842611
 31
0.0
  0
LINE
  5
157
330
1D
100
AcDbEntity
  8
0
100
AcDbLine
 10
17.915
 20
85.671511
 30
0.0
 11
19.3147
 21
87.065511
 31
0.0
  0
LINE
  5
158
330
1D
100
AcDbEntity
  8
0
100
AcDbLine
 10
-0.135
 20
93.857111
 30
0.0
 11
-0.135
 21
93.973811
 31
0.0
  0
LINE
  5
159
330
1D
100
AcDbEntity
  8
0
100
AcDbLine
 10
-0.135
 20
93.841111
 30
0.0
 11
-0.135
 21
93.926211
 31
0.0
  0
LINE
  5
15A
330
1D
100
AcDbEntity
  8
0
100
AcDbLine
 10
-0.135
 20
93.786011
 30
0.0
 11
-0.135
 21
93.537311
 31
0.0
  0
LINE
  5
15B
330
1D
100
AcDbEntity
  8
0
100
AcDbLine
 10
-0.135
 20
93.786011
 30
0.0
 11
-0.135
 21
94.358211
 31
0.0
  0
LINE
  5
15C
330
1D
100
AcDbEntity
  8
0
100
AcDbLine
 10
-0.135
 20
93.808811
 30
0.0
 11
-0.135
 21
93.537311
 31
0.0
  0
LINE
  5
15D
330
1D
100
AcDbEntity
  8
0
100
AcDbLine
 10
-0.135
 20
93.808811
 30
0.0
 11
-0.135
 21
94.383811
 31
0.0
  0
LINE
  5
15E
330
1D
100
AcDbEntity
  8
0
100
AcDbLine
 10
-0.135
 20
93.446411
 30
0.0
 11
-0.135
 21
94.193711
 31
0.0
  0
LINE
  5
15F
330
1D
100
AcDbEntity
  8
0
100
AcDbLine
 10
-0.135
 20
93.537311
 30
0.0
 11
-0.135
 21
94.337411
 31
0.0
  0
LINE
  5
160
330
1D
100
AcDbEntity
  8
0
100
AcDbLine
 10
-0.135
 20
93.537311
 30
0.0
 11
-0.135
 21
93.808811
 31
0.0
  0
LINE
  5
161
330
1D
100
AcDbEntity
  8
0
100
AcDbLine
 10
-0.135
 20
93.537311
 30
0.0
 11
-0.135
 21
93.786011
 31
0.0
  0
LINE
  5
162
330
1D
100
AcDbEntity
  8
0
100
AcDbLine
 10
-0.135
 20
94.110411
 30
0.0
 11
-0.135
 21
93.926211
 31
0.0
  0
LINE
  5
163
330
1D
100
AcDbEntity
  8
0
100
AcDbLine
 10
-0.135
 20
94.188411
 30
0.0
 11
-0.135
 21
93.973811
 31
0.0
  0
LINE
  5
164
330
1D
100
AcDbEntity
  8
0
100
AcDbLine
 10
-0.135
 20
94.188411
 30
0.0
 11
-0.135
 21
94.496511
 31
0.0
  0
LINE
  5
165
330
1D
100
AcDbEntity
  8
0
100
AcDbLine
 10
-0.135
 20
93.973811
 30
0.0
 11
-0.135
 21
93.857111
 31
0.0
  0
LINE
  5
166
330
1D
100
AcDbEntity
  8
0
100
AcDbLine
 10
-0.135
 20
93.973811
 30
0.0
 11
-0.135
 21
94.188411
 31
0.0
  0
LINE
  5
167
330
1D
100
AcDbEntity
  8
0
100
AcDbLine
 10
-0.135
 20
93.926211
 30
0.0
 11
-0.135
 21
94.110411
 31
0.0
  0
LINE
  5
168
330
1D
100
AcDbEntity
  8
0
100
AcDbLine
 10
-0.135
 20
93.926211
 30
0.0
 11
-0.135
 21
93.841111
 31
0.0
  0
LINE
  5
169
330
1D
100
AcDbEntity
  8
0
100
AcDbLine
 10
-0.135
 20
94.358211
 30
0.0
 11
-0.135
 21
93.786011
 31
0.0
  0
LINE
  5
16A
330
1D
100
AcDbEntity
  8
0
100
AcDbLine
 10
-0.135
 20
94.358211
 30
0.0
 11
-0.135
 21
94.993511
 31
0.0
  0
LINE
  5
16B
330
1D
100
AcDbEntity
  8
0
100
AcDbLine
 10
-0.135
 20
94.757711
 30
0.0
 11
-0.135
 21
95.206411
 31
0.0
  0
LINE
  5
16C
330
1D
100
AcDbEntity
  8
0
100
AcDbLine
 10
-0.135
 20
94.891011
 30
0.0
 11
-0.135
 21
94.496511
 31
0.0
  0
LINE
  5
16D
330
1D
100
AcDbEntity
  8
0
100
AcDbLine
 10
-0.135
 20
94.891011
 30
0.0
 11
-0.135
 21
95.363011
 31
0.0
  0
LINE
  5
16E
330
1D
100
AcDbEntity
  8
0
100
AcDbLine
 10
-0.135
 20
94.496511
 30
0.0
 11
-0.135
 21
94.188411
 31
0.0
  0
LINE
  5
16F
330
1D
100
AcDbEntity
  8
0
100
AcDbLine
 10
-0.135
 20
94.496511
 30
0.0
 11
-0.135
 21
94.891011
 31
0.0
  0
LINE
  5
170
330
1D
100
AcDbEntity
  8
0
100
AcDbLine
 10
-0.135
 20
94.993511
 30
0.0
 11
-0.135
 21
94.358211
 31
0.0
  0
LINE
  5
171
330
1D
100
AcDbEntity
  8
0
100
AcDbLine
 10
-0.135
 20
94.383811
 30
0.0
 11
-0.135
 21
93.808811
 31
0.0
  0
LINE
  5
172
330
1D
100
AcDbEntity
  8
0
100
AcDbLine
 10
-0.135
 20
94.383811
 30
0.0
 11
-0.135
 21
95.021611
 31
0.0
  0
LINE
  5
173
330
1D
100
AcDbEntity
  8
0
100
AcDbLine
 10
-0.135
 20
94.665211
 30
0.0
 11
-0.135
 21
95.497411
 31
0.0
  0
LINE
  5
174
330
1D
100
AcDbEntity
  8
0
100
AcDbLine
 10
-0.135
 20
94.665211
 30
0.0
 11
-0.135
 21
93.883211
 31
0.0
  0
LINE
  5
175
330
1D
100
AcDbEntity
  8
0
100
AcDbLine
 10
-0.135
 20
95.021611
 30
0.0
 11
-0.135
 21
94.383811
 31
0.0
  0
LINE
  5
176
330
1D
100
AcDbEntity
  8
0
100
AcDbLine
 10
-0.135
 20
95.112111
 30
0.0
 11
-0.135
 21
94.265411
 31
0.0
  0
LINE
  5
177
330
1D
100
AcDbEntity
  8
0
100
AcDbLine
 10
-0.135
 20
94.997411
 30
0.0
 11
-0.135
 21
94.193711
 31
0.0
  0
LINE
  5
178
330
1D
100
AcDbEntity
  8
0
100
AcDbLine
 10
-0.135
 20
94.997411
 30
0.0
 11
-0.135
 21
95.188111
 31
0.0
  0
LINE
  5
179
330
1D
100
AcDbEntity
  8
0
100
AcDbLine
 10
-0.135
 20
94.193711
 30
0.0
 11
-0.135
 21
93.446411
 31
0.0
  0
LINE
  5
17A
330
1D
100
AcDbEntity
  8
0
100
AcDbLine
 10
-0.135
 20
94.193711
 30
0.0
 11
-0.135
 21
94.997411
 31
0.0
  0
LINE
  5
17B
330
1D
100
AcDbEntity
  8
0
100
AcDbLine
 10
-0.135
 20
95.206411
 30
0.0
 11
-0.135
 21
94.757711
 31
0.0
  0
LINE
  5
17C
330
1D
100
AcDbEntity
  8
0
100
AcDbLine
 10
-0.135
 20
95.363011
 30
0.0
 11
-0.135
 21
94.891011
 31
0.0
  0
LINE
  5
17D
330
1D
100
AcDbEntity
  8
0
100
AcDbLine
 10
-0.135
 20
95.363011
 30
0.0
 11
-0.135
 21
95.902011
 31
0.0
  0
LINE
  5
17E
330
1D
100
AcDbEntity
  8
0
100
AcDbLine
 10
-0.135
 20
95.497411
 30
0.0
 11
-0.135
 21
96.368311
 31
0.0
  0
LINE
  5
17F
330
1D
100
AcDbEntity
  8
0
100
AcDbLine
 10
-0.135
 20
95.497411
 30
0.0
 11
-0.135
 21
94.665211
 31
0.0
  0
LINE
  5
180
330
1D
100
AcDbEntity
  8
0
100
AcDbLine
 10
-0.135
 20
95.188111
 30
0.0
 11
-0.135
 21
94.337411
 31
0.0
  0
LINE
  5
181
330
1D
100
AcDbEntity
  8
0
100
AcDbLine
 10
-0.135
 20
95.188111
 30
0.0
 11
-0.135
 21
96.078811
 31
0.0
  0
LINE
  5
182
330
1D
100
AcDbEntity
  8
0
100
AcDbLine
 10
-0.135
 20
94.337411
 30
0.0
 11
-0.135
 21
93.537311
 31
0.0
  0
LINE
  5
183
330
1D
100
AcDbEntity
  8
0
100
AcDbLine
 10
-0.135
 20
94.337411
 30
0.0
 11
-0.135
 21
95.188111
 31
0.0
  0
LINE
  5
184
330
1D
100
AcDbEntity
  8
0
100
AcDbLine
 10
-0.135
 20
93.883211
 30
0.0
 11
-0.135
 21
94.265411
 31
0.0
  0
LINE
  5
185
330
1D
100
AcDbEntity
  8
0
100
AcDbLine
 10
-0.135
 20
93.883211
 30
0.0
 11
-0.135
 21
94.665211
 31
0.0
  0
LINE
  5
186
330
1D
100
AcDbEntity
  8
0
100
AcDbLine
 10
-0.135
 20
94.265411
 30
0.0
 11
-0.135
 21
95.112111
 31
0.0
  0
LINE
  5
187
330
1D
100
AcDbEntity
  8
0
100
AcDbLine
 10
-0.135
 20
94.265411
 30
0.0
 11
-0.135
 21
93.883211
 31
0.0
  0
LINE
  5
188
330
1D
100
AcDbEntity
  8
0
100
AcDbLine
 10
-0.135
 20
96.232411
 30
0.0
 11
-0.135
 21
96.588611
 31
0.0
  0
LINE
  5
189
330
1D
100
AcDbEntity
  8
0
100
AcDbLine
 10
-0.135
 20
96.106511
 30
0.0
 11
-0.135
 21
96.434211
 31
0.0
  0
LINE
  5
18A
330
1D
100
AcDbEntity
  8
0
100
AcDbLine
 10
-0.135
 20
96.303611
 30
0.0
 11
-0.135
 21
96.927811
 31
0.0
  0
LINE
  5
18B
330
1D
100
AcDbEntity
  8
0
100
AcDbLine
 10
-0.135
 20
96.303611
 30
0.0
 11
-0.135
 21
96.078811
 31
0.0
  0
LINE
  5
18C
330
1D
100
AcDbEntity
  8
0
100
AcDbLine
 10
-0.135
 20
96.588611
 30
0.0
 11
-0.135
 21
97.005411
 31
0.0
  0
LINE
  5
18D
330
1D
100
AcDbEntity
  8
0
100
AcDbLine
 10
-0.135
 20
96.588611
 30
0.0
 11
-0.135
 21
96.232411
 31
0.0
  0
LINE
  5
18E
330
1D
100
AcDbEntity
  8
0
100
AcDbLine
 10
-0.135
 20
96.434211
 30
0.0
 11
-0.135
 21
96.106511
 31
0.0
  0
LINE
  5
18F
330
1D
100
AcDbEntity
  8
0
100
AcDbLine
 10
-0.135
 20
96.434211
 30
0.0
 11
-0.135
 21
96.827711
 31
0.0
  0
LINE
  5
190
330
1D
100
AcDbEntity
  8
0
100
AcDbLine
 10
-0.135
 20
96.496211
 30
0.0
 11
-0.135
 21
96.078811
 31
0.0
  0
LINE
  5
191
330
1D
100
AcDbEntity
  8
0
100
AcDbLine
 10
-0.135
 20
96.496211
 30
0.0
 11
-0.135
 21
97.132111
 31
0.0
  0
LINE
  5
192
330
1D
100
AcDbEntity
  8
0
100
AcDbLine
 10
-0.135
 20
96.412711
 30
0.0
 11
-0.135
 21
97.174311
 31
0.0
  0
LINE
  5
193
330
1D
100
AcDbEntity
  8
0
100
AcDbLine
 10
-0.135
 20
96.412711
 30
0.0
 11
-0.135
 21
96.078811
 31
0.0
  0
LINE
  5
194
330
1D
100
AcDbEntity
  8
0
100
AcDbLine
 10
-0.135
 20
96.444311
 30
0.0
 11
-0.135
 21
96.078811
 31
0.0
  0
LINE
  5
195
330
1D
100
AcDbEntity
  8
0
100
AcDbLine
 10
-0.135
 20
96.444311
 30
0.0
 11
-0.135
 21
97.207011
 31
0.0
  0
LINE
  5
196
330
1D
100
AcDbEntity
  8
0
100
AcDbLine
 10
-0.135
 20
96.827711
 30
0.0
 11
-0.135
 21
96.434211
 31
0.0
  0
LINE
  5
197
330
1D
100
AcDbEntity
  8
0
100
AcDbLine
 10
-0.135
 20
96.827711
 30
0.0
 11
-0.135
 21
97.273411
 31
0.0
  0
LINE
  5
198
330
1D
100
AcDbEntity
  8
0
100
AcDbLine
 10
-0.135
 20
96.729811
 30
0.0
 11
-0.135
 21
96.078811
 31
0.0
  0
LINE
  5
199
330
1D
100
AcDbEntity
  8
0
100
AcDbLine
 10
-0.135
 20
96.729811
 30
0.0
 11
-0.135
 21
97.635111
 31
0.0
  0
LINE
  5
19A
330
1D
100
AcDbEntity
  8
0
100
AcDbLine
 10
-0.135
 20
96.078811
 30
0.0
 11
-0.135
 21
96.998211
 31
0.0
  0
LINE
  5
19B
330
1D
100
AcDbEntity
  8
0
100
AcDbLine
 10
-0.135
 20
96.078811
 30
0.0
 11
-0.135
 21
96.729811
 31
0.0
  0
LINE
  5
19C
330
1D
100
AcDbEntity
  8
0
100
AcDbLine
 10
-0.135
 20
96.078811
 30
0.0
 11
-0.135
 21
96.444311
 31
0.0
  0
LINE
  5
19D
330
1D
100
AcDbEntity
  8
0
100
AcDbLine
 10
-0.135
 20
96.078811
 30
0.0
 11
-0.135
 21
96.412711
 31
0.0
  0
LINE
  5
19E
330
1D
100
AcDbEntity
  8
0
100
AcDbLine
 10
-0.135
 20
96.078811
 30
0.0
 11
-0.135
 21
96.496211
 31
0.0
  0
LINE
  5
19F
330
1D
100
AcDbEntity
  8
0
100
AcDbLine
 10
-0.135
 20
96.078811
 30
0.0
 11
-0.135
 21
96.303611
 31
0.0
  0
LINE
  5
1A0
330
1D
100
AcDbEntity
  8
0
100
AcDbLine
 10
1.365
 20
93.656811
 30
0.0
 11
1.365
 21
92.892711
 31
0.0
  0
LINE
  5
1A3
330
1D
100
AcDbEntity
  8
0
100
AcDbLine
 10
2.148
 20
93.568811
 30
0.0
 11
2.148
 21
92.554911
 31
0.0
  0
LINE
  5
1A4
330
1D
100
AcDbEntity
  8
0
100
AcDbLine
 10
1.365
 20
95.322811
 30
0.0
 11
1.365
 21
96.207611
 31
0.0
  0
LINE
  5
1A5
330
1D
100
AcDbEntity
  8
0
100
AcDbLine
 10
1.365
 20
96.207611
 30
0.0
 11
1.365
 21
97.114611
 31
0.0
  0
LINE
  5
1A6
330
1D
100
AcDbEntity
  8
0
100
AcDbLine
 10
1.365
 20
96.207611
 30
0.0
 11
1.365
 21
95.322811
 31
0.0
  0
LINE
  5
1A7
330
1D
100
AcDbEntity
  8
0
100
AcDbLine
 10
1.365
 20
96.473111
 30
0.0
 11
1.365
 21
97.413511
 31
0.0
  0
LINE
  5
1A8
330
1D
100
AcDbEntity
  8
0
100
AcDbLine
 10
1.365
 20
96.473111
 30
0.0
 11
1.365
 21
95.554611
 31
0.0
  0
LINE
  5
1A9
330
1D
100
AcDbEntity
  8
0
100
AcDbLine
 10
1.365
 20
95.554611
 30
0.0
 11
1.365
 21
96.473111
 31
0.0
  0
LINE
  5
1AA
330
1D
100
AcDbEntity
  8
0
100
AcDbLine
 10
1.365
 20
95.554611
 30
0.0
 11
1.365
 21
94.668011
 31
0.0
  0
LINE
  5
1AB
330
1D
100
AcDbEntity
  8
0
100
AcDbLine
 10
1.715
 20
94.061411
 30
0.0
 11
1.715
 21
93.135511
 31
0.0
  0
LINE
  5
1AC
330
1D
100
AcDbEntity
  8
0
100
AcDbLine
 10
1.715
 20
95.034311
 30
0.0
 11
1.715
 21
94.061411
 31
0.0
  0
LINE
  5
1AD
330
1D
100
AcDbEntity
  8
0
100
AcDbLine
 10
1.715
 20
94.968011
 30
0.0
 11
1.715
 21
96.006111
 31
0.0
  0
LINE
  5
1AE
330
1D
100
AcDbEntity
  8
0
100
AcDbLine
 10
1.715
 20
96.043711
 30
0.0
 11
1.715
 21
95.034311
 31
0.0
  0
LINE
  5
1B0
330
1D
100
AcDbEntity
  8
0
100
AcDbLine
 10
1.715
 20
96.006111
 30
0.0
 11
1.715
 21
94.968011
 31
0.0
  0
LINE
  5
1B1
330
1D
100
AcDbEntity
  8
0
100
AcDbLine
 10
1.715
 20
96.006111
 30
0.0
 11
1.715
 21
100.722611
 31
0.0
  0
LINE
  5
1B7
330
1D
100
AcDbEntity
  8
0
100
AcDbLine
 10
1.715
 20
93.960511
 30
0.0
 11
1.715
 21
92.993411
 31
0.0
  0
LINE
  5
1BB
330
1D
100
AcDbEntity
  8
0
100
AcDbLine
 10
1.365
 20
94.668011
 30
0.0
 11
1.365
 21
95.554611
 31
0.0
  0
LINE
  5
1BC
330
1D
100
AcDbEntity
  8
0
100
AcDbLine
 10
1.365
 20
94.668011
 30
0.0
 11
1.365
 21
93.823911
 31
0.0
  0
LINE
  5
1BD
330
1D
100
AcDbEntity
  8
0
100
AcDbLine
 10
1.365
 20
93.823911
 30
0.0
 11
1.365
 21
94.668011
 31
0.0
  0
LINE
  5
1BE
330
1D
100
AcDbEntity
  8
0
100
AcDbLine
 10
1.365
 20
93.823911
 30
0.0
 11
1.365
 21
93.031911
 31
0.0
  0
LINE
  5
1BF
330
1D
100
AcDbEntity
  8
0
100
AcDbLine
 10
-0.135
 20
96.368311
 30
0.0
 11
-0.135
 21
96.917011
 31
0.0
  0
LINE
  5
1C0
330
1D
100
AcDbEntity
  8
0
100
AcDbLine
 10
-0.135
 20
96.368311
 30
0.0
 11
-0.135
 21
97.266211
 31
0.0
  0
LINE
  5
1C1
330
1D
100
AcDbEntity
  8
0
100
AcDbLine
 10
-0.135
 20
97.005411
 30
0.0
 11
-0.135
 21
96.588611
 31
0.0
  0
LINE
  5
1C2
330
1D
100
AcDbEntity
  8
0
100
AcDbLine
 10
-0.135
 20
97.005411
 30
0.0
 11
-0.135
 21
97.468411
 31
0.0
  0
LINE
  5
1C3
330
1D
100
AcDbEntity
  8
0
100
AcDbLine
 10
-0.135
 20
96.927811
 30
0.0
 11
-0.135
 21
97.584111
 31
0.0
  0
LINE
  5
1C4
330
1D
100
AcDbEntity
  8
0
100
AcDbLine
 10
-0.135
 20
96.927811
 30
0.0
 11
-0.135
 21
96.303611
 31
0.0
  0
LINE
  5
1C5
330
1D
100
AcDbEntity
  8
0
100
AcDbLine
 10
-0.135
 20
97.132111
 30
0.0
 11
-0.135
 21
96.496211
 31
0.0
  0
LINE
  5
1C6
330
1D
100
AcDbEntity
  8
0
100
AcDbLine
 10
-0.135
 20
97.132111
 30
0.0
 11
-0.135
 21
97.795411
 31
0.0
  0
LINE
  5
1C9
330
1D
100
AcDbEntity
  8
0
100
AcDbLine
 10
1.715
 20
97.078411
 30
0.0
 11
1.715
 21
96.043711
 31
0.0
  0
LINE
  5
1CC
330
1D
100
AcDbEntity
  8
0
100
AcDbLine
 10
1.365
 20
97.114611
 30
0.0
 11
1.365
 21
97.946811
 31
0.0
  0
LINE
  5
1CD
330
1D
100
AcDbEntity
  8
0
100
AcDbLine
 10
-0.135
 20
96.998211
 30
0.0
 11
-0.135
 21
96.078811
 31
0.0
  0
LINE
  5
1CE
330
1D
100
AcDbEntity
  8
0
100
AcDbLine
 10
-0.135
 20
96.998211
 30
0.0
 11
-0.135
 21
97.934711
 31
0.0
  0
LINE
  5
1CF
330
1D
100
AcDbEntity
  8
0
100
AcDbLine
 10
-0.135
 20
96.917011
 30
0.0
 11
-0.135
 21
97.852611
 31
0.0
  0
LINE
  5
1D0
330
1D
100
AcDbEntity
  8
0
100
AcDbLine
 10
-0.135
 20
96.917011
 30
0.0
 11
-0.135
 21
96.368311
 31
0.0
  0
LINE
  5
1D1
330
1D
100
AcDbEntity
  8
0
100
AcDbLine
 10
9.815
 20
96.803611
 30
0.0
 11
9.815
 21
95.547111
 31
0.0
  0
LINE
  5
1D2
330
1D
100
AcDbEntity
  8
0
100
AcDbLine
 10
9.815
 20
94.644011
 30
0.0
 11
9.815
 21
95.891711
 31
0.0
  0
LINE
  5
1D3
330
1D
100
AcDbEntity
  8
0
100
AcDbLine
 10
9.815
 20
94.322011
 30
0.0
 11
9.815
 21
93.140611
 31
0.0
  0
LINE
  5
1D4
330
1D
100
AcDbEntity
  8
0
100
AcDbLine
 10
9.815
 20
94.322011
 30
0.0
 11
9.815
 21
95.547111
 31
0.0
  0
LINE
  5
1D5
330
1D
100
AcDbEntity
  8
0
100
AcDbLine
 10
-0.135
 20
97.174311
 30
0.0
 11
-0.135
 21
96.412711
 31
0.0
  0
LINE
  5
1D6
330
1D
100
AcDbEntity
  8
0
100
AcDbLine
 10
-0.135
 20
97.207011
 30
0.0
 11
-0.135
 21
96.444311
 31
0.0
  0
LINE
  5
1D7
330
1D
100
AcDbEntity
  8
0
100
AcDbLine
 10
-0.135
 20
97.468411
 30
0.0
 11
-0.135
 21
97.005411
 31
0.0
  0
LINE
  5
1D8
330
1D
100
AcDbEntity
  8
0
100
AcDbLine
 10
-0.135
 20
97.273411
 30
0.0
 11
-0.135
 21
96.827711
 31
0.0
  0
LINE
  5
1D9
330
1D
100
AcDbEntity
  8
0
100
AcDbLine
 10
-0.135
 20
97.273411
 30
0.0
 11
-0.135
 21
97.756411
 31
0.0
  0
LINE
  5
1DA
330
1D
100
AcDbEntity
  8
0
100
AcDbLine
 10
-0.135
 20
97.756411
 30
0.0
 11
-0.135
 21
97.273411
 31
0.0
  0
LINE
  5
1DB
330
1D
100
AcDbEntity
  8
0
100
AcDbLine
 10
-0.135
 20
97.584111
 30
0.0
 11
-0.135
 21
96.927811
 31
0.0
  0
LINE
  5
1DC
330
1D
100
AcDbEntity
  8
0
100
AcDbLine
 10
-0.135
 20
97.795411
 30
0.0
 11
-0.135
 21
97.132111
 31
0.0
  0
LINE
  5
1DD
330
1D
100
AcDbEntity
  8
0
100
AcDbLine
 10
-0.135
 20
97.795411
 30
0.0
 11
-0.135
 21
97.934711
 31
0.0
  0
LINE
  5
1DE
330
1D
100
AcDbEntity
  8
0
100
AcDbLine
 10
-0.135
 20
97.266211
 30
0.0
 11
-0.135
 21
96.368311
 31
0.0
  0
LINE
  5
1DF
330
1D
100
AcDbEntity
  8
0
100
AcDbLine
 10
-0.135
 20
97.635111
 30
0.0
 11
-0.135
 21
97.934711
 31
0.0
  0
LINE
  5
1E0
330
1D
100
AcDbEntity
  8
0
100
AcDbLine
 10
-0.135
 20
97.635111
 30
0.0
 11
-0.135
 21
96.729811
 31
0.0
  0
LINE
  5
1E1
330
1D
100
AcDbEntity
  8
0
100
AcDbLine
 10
-0.135
 20
97.934711
 30
0.0
 11
-0.135
 21
96.998211
 31
0.0
  0
LINE
  5
1E2
330
1D
100
AcDbEntity
  8
0
100
AcDbLine
 10
-0.135
 20
97.934711
 30
0.0
 11
-0.135
 21
98.876611
 31
0.0
  0
LINE
  5
1E3
330
1D
100
AcDbEntity
  8
0
100
AcDbLine
 10
1.365
 20
97.946811
 30
0.0
 11
1.365
 21
97.114611
 31
0.0
  0
LINE
  5
1E4
330
1D
100
AcDbEntity
  8
0
100
AcDbLine
 10
-0.135
 20
98.767411
 30
0.0
 11
-0.135
 21
99.260911
 31
0.0
  0
LINE
  5
1E5
330
1D
100
AcDbEntity
  8
0
100
AcDbLine
 10
-0.135
 20
98.774511
 30
0.0
 11
-0.135
 21
99.554911
 31
0.0
  0
LINE
  5
1E6
330
1D
100
AcDbEntity
  8
0
100
AcDbLine
 10
1.715
 20
98.127511
 30
0.0
 11
1.715
 21
99.179111
 31
0.0
  0
LINE
  5
1E7
330
1D
100
AcDbEntity
  8
0
100
AcDbLine
 10
1.715
 20
98.127511
 30
0.0
 11
1.715
 21
97.078411
 31
0.0
  0
LINE
  5
1EE
330
1D
100
AcDbEntity
  8
0
100
AcDbLine
 10
1.365
 20
98.364611
 30
0.0
 11
1.365
 21
99.315711
 31
0.0
  0
LINE
  5
1EF
330
1D
100
AcDbEntity
  8
0
100
AcDbLine
 10
1.365
 20
98.364611
 30
0.0
 11
1.365
 21
97.413511
 31
0.0
  0
LINE
  5
1F0
330
1D
100
AcDbEntity
  8
0
100
AcDbLine
 10
1.365
 20
97.413511
 30
0.0
 11
1.365
 21
98.364611
 31
0.0
  0
LINE
  5
1F1
330
1D
100
AcDbEntity
  8
0
100
AcDbLine
 10
-0.135
 20
97.852611
 30
0.0
 11
-0.135
 21
98.794611
 31
0.0
  0
LINE
  5
1F2
330
1D
100
AcDbEntity
  8
0
100
AcDbLine
 10
-0.135
 20
97.852611
 30
0.0
 11
-0.135
 21
96.917011
 31
0.0
  0
LINE
  5
1F3
330
1D
100
AcDbEntity
  8
0
100
AcDbLine
 10
-0.135
 20
98.972911
 30
0.0
 11
-0.135
 21
99.455911
 31
0.0
  0
LINE
  5
1F4
330
1D
100
AcDbEntity
  8
0
100
AcDbLine
 10
-0.135
 20
98.972911
 30
0.0
 11
-0.135
 21
98.876611
 31
0.0
  0
LINE
  5
1F5
330
1D
100
AcDbEntity
  8
0
100
AcDbLine
 10
-0.135
 20
98.933811
 30
0.0
 11
-0.135
 21
99.597111
 31
0.0
  0
LINE
  5
1F6
330
1D
100
AcDbEntity
  8
0
100
AcDbLine
 10
-0.135
 20
98.933811
 30
0.0
 11
-0.135
 21
98.876611
 31
0.0
  0
LINE
  5
1F7
330
1D
100
AcDbEntity
  8
0
100
AcDbLine
 10
-0.135
 20
99.260911
 30
0.0
 11
-0.135
 21
98.767411
 31
0.0
  0
LINE
  5
1F8
330
1D
100
AcDbEntity
  8
0
100
AcDbLine
 10
-0.135
 20
99.260911
 30
0.0
 11
-0.135
 21
99.723911
 31
0.0
  0
LINE
  5
1F9
330
1D
100
AcDbEntity
  8
0
100
AcDbLine
 10
-0.135
 20
99.145111
 30
0.0
 11
-0.135
 21
98.876611
 31
0.0
  0
LINE
  5
1FA
330
1D
100
AcDbEntity
  8
0
100
AcDbLine
 10
-0.135
 20
99.145111
 30
0.0
 11
-0.135
 21
99.801611
 31
0.0
  0
LINE
  5
1FB
330
1D
100
AcDbEntity
  8
0
100
AcDbLine
 10
-0.135
 20
99.094111
 30
0.0
 11
-0.135
 21
99.999611
 31
0.0
  0
LINE
  5
1FC
330
1D
100
AcDbEntity
  8
0
100
AcDbLine
 10
-0.135
 20
99.094111
 30
0.0
 11
-0.135
 21
98.876611
 31
0.0
  0
LINE
  5
1FD
330
1D
100
AcDbEntity
  8
0
100
AcDbLine
 10
-0.135
 20
98.876611
 30
0.0
 11
-0.135
 21
99.812611
 31
0.0
  0
LINE
  5
1FE
330
1D
100
AcDbEntity
  8
0
100
AcDbLine
 10
-0.135
 20
98.876611
 30
0.0
 11
-0.135
 21
99.094111
 31
0.0
  0
LINE
  5
1FF
330
1D
100
AcDbEntity
  8
0
100
AcDbLine
 10
-0.135
 20
98.876611
 30
0.0
 11
-0.135
 21
99.463011
 31
0.0
  0
LINE
  5
200
330
1D
100
AcDbEntity
  8
0
100
AcDbLine
 10
-0.135
 20
98.876611
 30
0.0
 11
-0.135
 21
99.522311
 31
0.0
  0
LINE
  5
201
330
1D
100
AcDbEntity
  8
0
100
AcDbLine
 10
-0.135
 20
98.876611
 30
0.0
 11
-0.135
 21
99.145111
 31
0.0
  0
LINE
  5
202
330
1D
100
AcDbEntity
  8
0
100
AcDbLine
 10
-0.135
 20
98.876611
 30
0.0
 11
-0.135
 21
98.933811
 31
0.0
  0
LINE
  5
203
330
1D
100
AcDbEntity
  8
0
100
AcDbLine
 10
-0.135
 20
98.876611
 30
0.0
 11
-0.135
 21
98.972911
 31
0.0
  0
LINE
  5
206
330
1D
100
AcDbEntity
  8
0
100
AcDbLine
 10
1.365
 20
99.315711
 30
0.0
 11
1.365
 21
100.256611
 31
0.0
  0
LINE
  5
207
330
1D
100
AcDbEntity
  8
0
100
AcDbLine
 10
1.365
 20
99.315711
 30
0.0
 11
1.365
 21
98.364611
 31
0.0
  0
LINE
  5
208
330
1D
100
AcDbEntity
  8
0
100
AcDbLine
 10
-0.135
 20
98.794611
 30
0.0
 11
-0.135
 21
99.731111
 31
0.0
  0
LINE
  5
209
330
1D
100
AcDbEntity
  8
0
100
AcDbLine
 10
9.815
 20
98.449911
 30
0.0
 11
9.815
 21
99.734311
 31
0.0
  0
LINE
  5
20A
330
1D
100
AcDbEntity
  8
0
100
AcDbLine
 10
9.815
 20
98.449911
 30
0.0
 11
9.815
 21
97.164611
 31
0.0
  0
LINE
  5
20B
330
1D
100
AcDbEntity
  8
0
100
AcDbLine
 10
-0.135
 20
99.455911
 30
0.0
 11
-0.135
 21
99.901611
 31
0.0
  0
LINE
  5
20C
330
1D
100
AcDbEntity
  8
0
100
AcDbLine
 10
-0.135
 20
99.455911
 30
0.0
 11
-0.135
 21
98.972911
 31
0.0
  0
LINE
  5
20D
330
1D
100
AcDbEntity
  8
0
100
AcDbLine
 10
-0.135
 20
99.723911
 30
0.0
 11
-0.135
 21
100.140611
 31
0.0
  0
LINE
  5
20E
330
1D
100
AcDbEntity
  8
0
100
AcDbLine
 10
-0.135
 20
99.723911
 30
0.0
 11
-0.135
 21
99.260911
 31
0.0
  0
LINE
  5
20F
330
1D
100
AcDbEntity
  8
0
100
AcDbLine
 10
-0.135
 20
99.597111
 30
0.0
 11
-0.135
 21
100.232611
 31
0.0
  0
LINE
  5
210
330
1D
100
AcDbEntity
  8
0
100
AcDbLine
 10
-0.135
 20
99.597111
 30
0.0
 11
-0.135
 21
98.933811
 31
0.0
  0
LINE
  5
211
330
1D
100
AcDbEntity
  8
0
100
AcDbLine
 10
-0.135
 20
99.522311
 30
0.0
 11
-0.135
 21
100.284611
 31
0.0
  0
LINE
  5
212
330
1D
100
AcDbEntity
  8
0
100
AcDbLine
 10
-0.135
 20
99.522311
 30
0.0
 11
-0.135
 21
98.876611
 31
0.0
  0
LINE
  5
213
330
1D
100
AcDbEntity
  8
0
100
AcDbLine
 10
-0.135
 20
99.554911
 30
0.0
 11
-0.135
 21
98.774511
 31
0.0
  0
LINE
  5
214
330
1D
100
AcDbEntity
  8
0
100
AcDbLine
 10
-0.135
 20
99.554911
 30
0.0
 11
-0.135
 21
99.812611
 31
0.0
  0
LINE
  5
215
330
1D
100
AcDbEntity
  8
0
100
AcDbLine
 10
-0.135
 20
99.731111
 30
0.0
 11
-0.135
 21
98.794611
 31
0.0
  0
LINE
  5
218
330
1D
100
AcDbEntity
  8
0
100
AcDbLine
 10
1.365
 20
99.614611
 30
0.0
 11
1.365
 21
100.521611
 31
0.0
  0
LINE
  5
219
330
1D
100
AcDbEntity
  8
0
100
AcDbLine
 10
-0.135
 20
99.463011
 30
0.0
 11
-0.135
 21
98.876611
 31
0.0
  0
LINE
  5
21A
330
1D
100
AcDbEntity
  8
0
100
AcDbLine
 10
-0.135
 20
99.463011
 30
0.0
 11
-0.135
 21
99.812611
 31
0.0
  0
LINE
  5
21B
330
1D
100
AcDbEntity
  8
0
100
AcDbLine
 10
9.815
 20
99.353311
 30
0.0
 11
9.815
 21
98.076711
 31
0.0
  0
LINE
  5
21C
330
1D
100
AcDbEntity
  8
0
100
AcDbLine
 10
9.815
 20
98.076711
 30
0.0
 11
9.815
 21
96.803611
 31
0.0
  0
LINE
  5
21D
330
1D
100
AcDbEntity
  8
0
100
AcDbLine
 10
9.815
 20
97.164611
 30
0.0
 11
9.815
 21
98.449911
 31
0.0
  0
LINE
  5
21E
330
1D
100
AcDbEntity
  8
0
100
AcDbLine
 10
9.815
 20
97.164611
 30
0.0
 11
9.815
 21
95.891711
 31
0.0
  0
LINE
  5
21F
330
1D
100
AcDbEntity
  8
0
100
AcDbLine
 10
9.815
 20
95.891711
 30
0.0
 11
9.815
 21
97.164611
 31
0.0
  0
LINE
  5
220
330
1D
100
AcDbEntity
  8
0
100
AcDbLine
 10
9.815
 20
95.891711
 30
0.0
 11
9.815
 21
94.644011
 31
0.0
  0
LINE
  5
221
330
1D
100
AcDbEntity
  8
0
100
AcDbLine
 10
-0.135
 20
99.901611
 30
0.0
 11
-0.135
 21
100.294611
 31
0.0
  0
LINE
  5
222
330
1D
100
AcDbEntity
  8
0
100
AcDbLine
 10
-0.135
 20
99.901611
 30
0.0
 11
-0.135
 21
99.455911
 31
0.0
  0
LINE
  5
223
330
1D
100
AcDbEntity
  8
0
100
AcDbLine
 10
-0.135
 20
99.801611
 30
0.0
 11
-0.135
 21
99.145111
 31
0.0
  0
LINE
  5
224
330
1D
100
AcDbEntity
  8
0
100
AcDbLine
 10
-0.135
 20
100.140611
 30
0.0
 11
-0.135
 21
99.723911
 31
0.0
  0
LINE
  5
225
330
1D
100
AcDbEntity
  8
0
100
AcDbLine
 10
-0.135
 20
100.140611
 30
0.0
 11
-0.135
 21
100.496611
 31
0.0
  0
LINE
  5
226
330
1D
100
AcDbEntity
  8
0
100
AcDbLine
 10
-0.135
 20
100.294611
 30
0.0
 11
-0.135
 21
100.622611
 31
0.0
  0
LINE
  5
227
330
1D
100
AcDbEntity
  8
0
100
AcDbLine
 10
-0.135
 20
100.294611
 30
0.0
 11
-0.135
 21
99.901611
 31
0.0
  0
LINE
  5
228
330
1D
100
AcDbEntity
  8
0
100
AcDbLine
 10
-0.135
 20
100.232611
 30
0.0
 11
-0.135
 21
100.294611
 31
0.0
  0
LINE
  5
229
330
1D
100
AcDbEntity
  8
0
100
AcDbLine
 10
-0.135
 20
100.232611
 30
0.0
 11
-0.135
 21
99.597111
 31
0.0
  0
LINE
  5
22A
330
1D
100
AcDbEntity
  8
0
100
AcDbLine
 10
-0.135
 20
100.284611
 30
0.0
 11
-0.135
 21
101.017611
 31
0.0
  0
LINE
  5
22B
330
1D
100
AcDbEntity
  8
0
100
AcDbLine
 10
-0.135
 20
100.284611
 30
0.0
 11
-0.135
 21
99.522311
 31
0.0
  0
LINE
  5
22C
330
1D
100
AcDbEntity
  8
0
100
AcDbLine
 10
-0.135
 20
99.999611
 30
0.0
 11
-0.135
 21
99.094111
 31
0.0
  0
LINE
  5
22D
330
1D
100
AcDbEntity
  8
0
100
AcDbLine
 10
1.715
 20
100.221611
 30
0.0
 11
1.715
 21
99.179111
 31
0.0
  0
LINE
  5
230
330
1D
100
AcDbEntity
  8
0
100
AcDbLine
 10
-0.135
 20
100.294611
 30
0.0
 11
-0.135
 21
100.827611
 31
0.0
  0
LINE
  5
231
330
1D
100
AcDbEntity
  8
0
100
AcDbLine
 10
1.365
 20
100.521611
 30
0.0
 11
1.365
 21
101.406611
 31
0.0
  0
LINE
  5
232
330
1D
100
AcDbEntity
  8
0
100
AcDbLine
 10
1.365
 20
100.521611
 30
0.0
 11
1.365
 21
99.614611
 31
0.0
  0
LINE
  5
233
330
1D
100
AcDbEntity
  8
0
100
AcDbLine
 10
1.365
 20
100.256611
 30
0.0
 11
1.365
 21
101.174611
 31
0.0
  0
LINE
  5
234
330
1D
100
AcDbEntity
  8
0
100
AcDbLine
 10
1.365
 20
100.256611
 30
0.0
 11
1.365
 21
99.315711
 31
0.0
  0
LINE
  5
235
330
1D
100
AcDbEntity
  8
0
100
AcDbLine
 10
-0.135
 20
99.812611
 30
0.0
 11
-0.135
 21
98.876611
 31
0.0
  0
LINE
  5
236
330
1D
100
AcDbEntity
  8
0
100
AcDbLine
 10
-0.135
 20
99.812611
 30
0.0
 11
-0.135
 21
100.729611
 31
0.0
  0
LINE
  5
237
330
1D
100
AcDbEntity
  8
0
100
AcDbLine
 10
-0.135
 20
100.622611
 30
0.0
 11
-0.135
 21
100.873611
 31
0.0
  0
LINE
  5
238
330
1D
100
AcDbEntity
  8
0
100
AcDbLine
 10
-0.135
 20
100.981611
 30
0.0
 11
-0.135
 21
101.093611
 31
0.0
  0
LINE
  5
239
330
1D
100
AcDbEntity
  8
0
100
AcDbLine
 10
-0.135
 20
100.873611
 30
0.0
 11
-0.135
 21
101.038611
 31
0.0
  0
LINE
  5
23A
330
1D
100
AcDbEntity
  8
0
100
AcDbLine
 10
-0.135
 20
100.873611
 30
0.0
 11
-0.135
 21
100.622611
 31
0.0
  0
LINE
  5
23B
330
1D
100
AcDbEntity
  8
0
100
AcDbLine
 10
-0.135
 20
100.827611
 30
0.0
 11
-0.135
 21
101.366611
 31
0.0
  0
LINE
  5
23C
330
1D
100
AcDbEntity
  8
0
100
AcDbLine
 10
-0.135
 20
101.003611
 30
0.0
 11
-0.135
 21
100.729611
 31
0.0
  0
LINE
  5
23D
330
1D
100
AcDbEntity
  8
0
100
AcDbLine
 10
-0.135
 20
101.003611
 30
0.0
 11
-0.135
 21
101.522611
 31
0.0
  0
LINE
  5
23E
330
1D
100
AcDbEntity
  8
0
100
AcDbLine
 10
-0.135
 20
100.729611
 30
0.0
 11
-0.135
 21
101.617611
 31
0.0
  0
LINE
  5
23F
330
1D
100
AcDbEntity
  8
0
100
AcDbLine
 10
-0.135
 20
100.729611
 30
0.0
 11
-0.135
 21
101.231611
 31
0.0
  0
LINE
  5
240
330
1D
100
AcDbEntity
  8
0
100
AcDbLine
 10
-0.135
 20
100.729611
 30
0.0
 11
-0.135
 21
101.047611
 31
0.0
  0
LINE
  5
241
330
1D
100
AcDbEntity
  8
0
100
AcDbLine
 10
-0.135
 20
100.729611
 30
0.0
 11
-0.135
 21
101.003611
 31
0.0
  0
LINE
  5
242
330
1D
100
AcDbEntity
  8
0
100
AcDbLine
 10
-0.135
 20
101.038611
 30
0.0
 11
-0.135
 21
101.113611
 31
0.0
  0
LINE
  5
243
330
1D
100
AcDbEntity
  8
0
100
AcDbLine
 10
-0.135
 20
101.038611
 30
0.0
 11
-0.135
 21
100.873611
 31
0.0
  0
LINE
  5
244
330
1D
100
AcDbEntity
  8
0
100
AcDbLine
 10
-0.135
 20
101.113611
 30
0.0
 11
-0.135
 21
101.038611
 31
0.0
  0
LINE
  5
245
330
1D
100
AcDbEntity
  8
0
100
AcDbLine
 10
-0.135
 20
101.093611
 30
0.0
 11
-0.135
 21
100.981611
 31
0.0
  0
LINE
  5
246
330
1D
100
AcDbEntity
  8
0
100
AcDbLine
 10
-0.135
 20
101.047611
 30
0.0
 11
-0.135
 21
100.729611
 31
0.0
  0
LINE
  5
247
330
1D
100
AcDbEntity
  8
0
100
AcDbLine
 10
-0.135
 20
101.047611
 30
0.0
 11
-0.135
 21
101.735611
 31
0.0
  0
LINE
  5
248
330
1D
100
AcDbEntity
  8
0
100
AcDbLine
 10
-0.135
 20
101.366611
 30
0.0
 11
-0.135
 21
101.838611
 31
0.0
  0
LINE
  5
249
330
1D
100
AcDbEntity
  8
0
100
AcDbLine
 10
-0.135
 20
101.366611
 30
0.0
 11
-0.135
 21
100.827611
 31
0.0
  0
LINE
  5
24A
330
1D
100
AcDbEntity
  8
0
100
AcDbLine
 10
-0.135
 20
101.522611
 30
0.0
 11
-0.135
 21
101.003611
 31
0.0
  0
LINE
  5
24B
330
1D
100
AcDbEntity
  8
0
100
AcDbLine
 10
-0.135
 20
101.522611
 30
0.0
 11
-0.135
 21
101.971611
 31
0.0
  0
LINE
  5
24C
330
1D
100
AcDbEntity
  8
0
100
AcDbLine
 10
-0.135
 20
101.707611
 30
0.0
 11
-0.135
 21
102.345611
 31
0.0
  0
LINE
  5
24D
330
1D
100
AcDbEntity
  8
0
100
AcDbLine
 10
-0.135
 20
101.707611
 30
0.0
 11
-0.135
 21
101.017611
 31
0.0
  0
LINE
  5
24E
330
1D
100
AcDbEntity
  8
0
100
AcDbLine
 10
-0.135
 20
101.838611
 30
0.0
 11
-0.135
 21
102.232611
 31
0.0
  0
LINE
  5
24F
330
1D
100
AcDbEntity
  8
0
100
AcDbLine
 10
-0.135
 20
101.838611
 30
0.0
 11
-0.135
 21
101.366611
 31
0.0
  0
LINE
  5
250
330
1D
100
AcDbEntity
  8
0
100
AcDbLine
 10
-0.135
 20
101.735611
 30
0.0
 11
-0.135
 21
101.047611
 31
0.0
  0
LINE
  5
251
330
1D
100
AcDbEntity
  8
0
100
AcDbLine
 10
-0.135
 20
101.735611
 30
0.0
 11
-0.135
 21
102.370611
 31
0.0
  0
LINE
  5
252
330
1D
100
AcDbEntity
  8
0
100
AcDbLine
 10
-0.135
 20
101.731611
 30
0.0
 11
-0.135
 21
102.535611
 31
0.0
  0
LINE
  5
253
330
1D
100
AcDbEntity
  8
0
100
AcDbLine
 10
-0.135
 20
101.731611
 30
0.0
 11
-0.135
 21
101.017611
 31
0.0
  0
LINE
  5
254
330
1D
100
AcDbEntity
  8
0
100
AcDbLine
 10
-0.135
 20
101.231611
 30
0.0
 11
-0.135
 21
100.729611
 31
0.0
  0
LINE
  5
255
330
1D
100
AcDbEntity
  8
0
100
AcDbLine
 10
-0.135
 20
101.231611
 30
0.0
 11
-0.135
 21
102.063611
 31
0.0
  0
LINE
  5
256
330
1D
100
AcDbEntity
  8
0
100
AcDbLine
 10
-0.135
 20
101.617611
 30
0.0
 11
-0.135
 21
100.729611
 31
0.0
  0
LINE
  5
257
330
1D
100
AcDbEntity
  8
0
100
AcDbLine
 10
-0.135
 20
101.617611
 30
0.0
 11
-0.135
 21
102.463611
 31
0.0
  0
LINE
  5
258
330
1D
100
AcDbEntity
  8
0
100
AcDbLine
 10
-0.135
 20
101.017611
 30
0.0
 11
-0.135
 21
101.541611
 31
0.0
  0
LINE
  5
259
330
1D
100
AcDbEntity
  8
0
100
AcDbLine
 10
-0.135
 20
101.017611
 30
0.0
 11
-0.135
 21
101.731611
 31
0.0
  0
LINE
  5
25A
330
1D
100
AcDbEntity
  8
0
100
AcDbLine
 10
-0.135
 20
101.017611
 30
0.0
 11
-0.135
 21
101.707611
 31
0.0
  0
LINE
  5
25E
330
1D
100
AcDbEntity
  8
0
100
AcDbLine
 10
1.715
 20
100.722611
 30
0.0
 11
1.715
 21
101.786611
 31
0.0
  0
LINE
  5
25F
330
1D
100
AcDbEntity
  8
0
100
AcDbLine
 10
1.715
 20
101.243611
 30
0.0
 11
1.715
 21
100.221611
 31
0.0
  0
LINE
  5
260
330
1D
100
AcDbEntity
  8
0
100
AcDbLine
 10
1.715
 20
101.786611
 30
0.0
 11
1.715
 21
100.722611
 31
0.0
  0
LINE
  5
261
330
1D
100
AcDbEntity
  8
0
100
AcDbLine
 10
1.715
 20
101.786611
 30
0.0
 11
1.715
 21
102.817611
 31
0.0
  0
LINE
  5
262
330
1D
100
AcDbEntity
  8
0
100
AcDbLine
 10
1.365
 20
101.406611
 30
0.0
 11
1.365
 21
101.174611
 31
0.0
  0
LINE
  5
263
330
1D
100
AcDbEntity
  8
0
100
AcDbLine
 10
1.365
 20
101.406611
 30
0.0
 11
1.365
 21
100.521611
 31
0.0
  0
LINE
  5
264
330
1D
100
AcDbEntity
  8
0
100
AcDbLine
 10
1.365
 20
101.174611
 30
0.0
 11
1.365
 21
101.406611
 31
0.0
  0
LINE
  5
265
330
1D
100
AcDbEntity
  8
0
100
AcDbLine
 10
1.365
 20
101.174611
 30
0.0
 11
1.365
 21
100.256611
 31
0.0
  0
LINE
  5
266
330
1D
100
AcDbEntity
  8
0
100
AcDbLine
 10
-0.135
 20
101.541611
 30
0.0
 11
-0.135
 21
102.391611
 31
0.0
  0
LINE
  5
267
330
1D
100
AcDbEntity
  8
0
100
AcDbLine
 10
-0.135
 20
101.541611
 30
0.0
 11
-0.135
 21
101.017611
 31
0.0
  0
LINE
  5
268
330
1D
100
AcDbEntity
  8
0
100
AcDbLine
 10
-0.135
 20
102.232611
 30
0.0
 11
-0.135
 21
102.540611
 31
0.0
  0
LINE
  5
269
330
1D
100
AcDbEntity
  8
0
100
AcDbLine
 10
-0.135
 20
102.232611
 30
0.0
 11
-0.135
 21
101.838611
 31
0.0
  0
LINE
  5
26A
330
1D
100
AcDbEntity
  8
0
100
AcDbLine
 10
-0.135
 20
101.971611
 30
0.0
 11
-0.135
 21
101.522611
 31
0.0
  0
LINE
  5
26B
330
1D
100
AcDbEntity
  8
0
100
AcDbLine
 10
-0.135
 20
102.345611
 30
0.0
 11
-0.135
 21
101.707611
 31
0.0
  0
LINE
  5
26C
330
1D
100
AcDbEntity
  8
0
100
AcDbLine
 10
-0.135
 20
102.370611
 30
0.0
 11
-0.135
 21
101.735611
 31
0.0
  0
LINE
  5
26D
330
1D
100
AcDbEntity
  8
0
100
AcDbLine
 10
-0.135
 20
102.391611
 30
0.0
 11
-0.135
 21
101.541611
 31
0.0
  0
LINE
  5
26E
330
1D
100
AcDbEntity
  8
0
100
AcDbLine
 10
-0.135
 20
102.063611
 30
0.0
 11
-0.135
 21
101.231611
 31
0.0
  0
LINE
  5
26F
330
1D
100
AcDbEntity
  8
0
100
AcDbLine
 10
-0.135
 20
102.540611
 30
0.0
 11
-0.135
 21
102.232611
 31
0.0
  0
LINE
  5
270
330
1D
100
AcDbEntity
  8
0
100
AcDbLine
 10
-0.135
 20
103.423611
 30
0.0
 11
-0.135
 21
103.846611
 31
0.0
  0
LINE
  5
271
330
1D
100
AcDbEntity
  8
0
100
AcDbLine
 10
-0.135
 20
103.423611
 30
0.0
 11
-0.135
 21
103.258611
 31
0.0
  0
LINE
  5
272
330
1D
100
AcDbEntity
  8
0
100
AcDbLine
 10
-0.135
 20
103.443611
 30
0.0
 11
-0.135
 21
103.258611
 31
0.0
  0
LINE
  5
273
330
1D
100
AcDbEntity
  8
0
100
AcDbLine
 10
-0.135
 20
102.618611
 30
0.0
 11
-0.135
 21
103.282611
 31
0.0
  0
LINE
  5
274
330
1D
100
AcDbEntity
  8
0
100
AcDbLine
 10
-0.135
 20
102.535611
 30
0.0
 11
-0.135
 21
102.618611
 31
0.0
  0
LINE
  5
275
330
1D
100
AcDbEntity
  8
0
100
AcDbLine
 10
-0.135
 20
102.535611
 30
0.0
 11
-0.135
 21
101.731611
 31
0.0
  0
LINE
  5
276
330
1D
100
AcDbEntity
  8
0
100
AcDbLine
 10
-0.135
 20
103.282611
 30
0.0
 11
-0.135
 21
103.963611
 31
0.0
  0
LINE
  5
277
330
1D
100
AcDbEntity
  8
0
100
AcDbLine
 10
-0.135
 20
103.846611
 30
0.0
 11
-0.135
 21
104.183611
 31
0.0
  0
LINE
  5
278
330
1D
100
AcDbEntity
  8
0
100
AcDbLine
 10
-0.135
 20
103.846611
 30
0.0
 11
-0.135
 21
103.423611
 31
0.0
  0
LINE
  5
279
330
1D
100
AcDbEntity
  8
0
100
AcDbLine
 10
-0.135
 20
103.567611
 30
0.0
 11
-0.135
 21
103.258611
 31
0.0
  0
LINE
  5
27A
330
1D
100
AcDbEntity
  8
0
100
AcDbLine
 10
-0.135
 20
103.567611
 30
0.0
 11
-0.135
 21
104.218611
 31
0.0
  0
LINE
  5
27B
330
1D
100
AcDbEntity
  8
0
100
AcDbLine
 10
-0.135
 20
103.258611
 30
0.0
 11
-0.135
 21
103.992611
 31
0.0
  0
LINE
  5
27C
330
1D
100
AcDbEntity
  8
0
100
AcDbLine
 10
-0.135
 20
103.258611
 30
0.0
 11
-0.135
 21
103.567611
 31
0.0
  0
LINE
  5
27D
330
1D
100
AcDbEntity
  8
0
100
AcDbLine
 10
-0.135
 20
103.258611
 30
0.0
 11
-0.135
 21
103.443611
 31
0.0
  0
LINE
  5
27E
330
1D
100
AcDbEntity
  8
0
100
AcDbLine
 10
-0.135
 20
103.258611
 30
0.0
 11
-0.135
 21
103.423611
 31
0.0
  0
LINE
  5
27F
330
1D
100
AcDbEntity
  8
0
100
AcDbLine
 10
-0.135
 20
102.463611
 30
0.0
 11
-0.135
 21
101.617611
 31
0.0
  0
LINE
  5
280
330
1D
100
AcDbEntity
  8
0
100
AcDbLine
 10
-0.135
 20
102.463611
 30
0.0
 11
-0.135
 21
103.258611
 31
0.0
  0
LINE
  5
282
330
1D
100
AcDbEntity
  8
0
100
AcDbLine
 10
1.365
 20
103.072611
 30
0.0
 11
1.365
 21
103.836611
 31
0.0
  0
LINE
  5
283
330
1D
100
AcDbEntity
  8
0
100
AcDbLine
 10
1.365
 20
103.072611
 30
0.0
 11
1.365
 21
102.259611
 31
0.0
  0
LINE
  5
284
330
1D
100
AcDbEntity
  8
0
100
AcDbLine
 10
1.365
 20
102.259611
 30
0.0
 11
1.365
 21
103.072611
 31
0.0
  0
LINE
  5
285
330
1D
100
AcDbEntity
  8
0
100
AcDbLine
 10
1.365
 20
103.836611
 30
0.0
 11
1.365
 21
103.961611
 31
0.0
  0
LINE
  5
286
330
1D
100
AcDbEntity
  8
0
100
AcDbLine
 10
1.365
 20
103.836611
 30
0.0
 11
1.365
 21
103.072611
 31
0.0
  0
LINE
  5
287
330
1D
100
AcDbEntity
  8
0
100
AcDbLine
 10
1.365
 20
103.697611
 30
0.0
 11
1.365
 21
104.428611
 31
0.0
  0
LINE
  5
288
330
1D
100
AcDbEntity
  8
0
100
AcDbLine
 10
1.365
 20
103.697611
 30
0.0
 11
1.365
 21
102.905611
 31
0.0
  0
LINE
  5
289
330
1D
100
AcDbEntity
  8
0
100
AcDbLine
 10
1.715
 20
103.182611
 30
0.0
 11
1.715
 21
102.234611
 31
0.0
  0
LINE
  5
28A
330
1D
100
AcDbEntity
  8
0
100
AcDbLine
 10
1.715
 20
102.234611
 30
0.0
 11
1.715
 21
101.243611
 31
0.0
  0
LINE
  5
28B
330
1D
100
AcDbEntity
  8
0
100
AcDbLine
 10
1.715
 20
103.805611
 30
0.0
 11
1.715
 21
102.817611
 31
0.0
  0
LINE
  5
28C
330
1D
100
AcDbEntity
  8
0
100
AcDbLine
 10
1.715
 20
103.805611
 30
0.0
 11
1.715
 21
104.741611
 31
0.0
  0
LINE
  5
291
330
1D
100
AcDbEntity
  8
0
100
AcDbLine
 10
2.148
 20
103.160611
 30
0.0
 11
2.148
 21
104.209611
 31
0.0
  0
LINE
  5
292
330
1D
100
AcDbEntity
  8
0
100
AcDbLine
 10
1.715
 20
102.817611
 30
0.0
 11
1.715
 21
101.786611
 31
0.0
  0
LINE
  5
293
330
1D
100
AcDbEntity
  8
0
100
AcDbLine
 10
1.715
 20
102.817611
 30
0.0
 11
1.715
 21
103.805611
 31
0.0
  0
LINE
  5
296
330
1D
100
AcDbEntity
  8
0
100
AcDbLine
 10
1.365
 20
102.905611
 30
0.0
 11
1.365
 21
103.697611
 31
0.0
  0
LINE
  5
297
330
1D
100
AcDbEntity
  8
0
100
AcDbLine
 10
1.365
 20
102.905611
 30
0.0
 11
1.365
 21
101.406611
 31
0.0
  0
LINE
  5
298
330
1D
100
AcDbEntity
  8
0
100
AcDbLine
 10
1.365
 20
101.406611
 30
0.0
 11
1.365
 21
102.905611
 31
0.0
  0
LINE
  5
299
330
1D
100
AcDbEntity
  8
0
100
AcDbLine
 10
-0.135
 20
103.191611
 30
0.0
 11
-0.135
 21
103.931611
 31
0.0
  0
LINE
  5
29A
330
1D
100
AcDbEntity
  8
0
100
AcDbLine
 10
-0.135
 20
104.196611
 30
0.0
 11
-0.135
 21
104.437611
 31
0.0
  0
LINE
  5
29B
330
1D
100
AcDbEntity
  8
0
100
AcDbLine
 10
-0.135
 20
104.183611
 30
0.0
 11
-0.135
 21
104.428611
 31
0.0
  0
LINE
  5
29C
330
1D
100
AcDbEntity
  8
0
100
AcDbLine
 10
-0.135
 20
104.183611
 30
0.0
 11
-0.135
 21
103.846611
 31
0.0
  0
LINE
  5
29D
330
1D
100
AcDbEntity
  8
0
100
AcDbLine
 10
-0.135
 20
103.963611
 30
0.0
 11
-0.135
 21
104.568611
 31
0.0
  0
LINE
  5
29E
330
1D
100
AcDbEntity
  8
0
100
AcDbLine
 10
-0.135
 20
103.963611
 30
0.0
 11
-0.135
 21
103.282611
 31
0.0
  0
LINE
  5
29F
330
1D
100
AcDbEntity
  8
0
100
AcDbLine
 10
-0.135
 20
104.428611
 30
0.0
 11
-0.135
 21
104.578611
 31
0.0
  0
LINE
  5
2A0
330
1D
100
AcDbEntity
  8
0
100
AcDbLine
 10
-0.135
 20
104.428611
 30
0.0
 11
-0.135
 21
104.183611
 31
0.0
  0
LINE
  5
2A1
330
1D
100
AcDbEntity
  8
0
100
AcDbLine
 10
-0.135
 20
104.437611
 30
0.0
 11
-0.135
 21
104.196611
 31
0.0
  0
LINE
  5
2A2
330
1D
100
AcDbEntity
  8
0
100
AcDbLine
 10
-0.135
 20
104.437611
 30
0.0
 11
-0.135
 21
104.582611
 31
0.0
  0
LINE
  5
2A3
330
1D
100
AcDbEntity
  8
0
100
AcDbLine
 10
-0.135
 20
104.578611
 30
0.0
 11
-0.135
 21
104.629611
 31
0.0
  0
LINE
  5
2A4
330
1D
100
AcDbEntity
  8
0
100
AcDbLine
 10
-0.135
 20
104.578611
 30
0.0
 11
-0.135
 21
104.428611
 31
0.0
  0
LINE
  5
2A5
330
1D
100
AcDbEntity
  8
0
100
AcDbLine
 10
-0.135
 20
104.582611
 30
0.0
 11
-0.135
 21
104.437611
 31
0.0
  0
LINE
  5
2A6
330
1D
100
AcDbEntity
  8
0
100
AcDbLine
 10
-0.135
 20
104.568611
 30
0.0
 11
-0.135
 21
103.963611
 31
0.0
  0
LINE
  5
2A7
330
1D
100
AcDbEntity
  8
0
100
AcDbLine
 10
-0.135
 20
104.600611
 30
0.0
 11
-0.135
 21
103.931611
 31
0.0
  0
LINE
  5
2A8
330
1D
100
AcDbEntity
  8
0
100
AcDbLine
 10
-0.135
 20
104.218611
 30
0.0
 11
-0.135
 21
103.567611
 31
0.0
  0
LINE
  5
2A9
330
1D
100
AcDbEntity
  8
0
100
AcDbLine
 10
-0.135
 20
104.218611
 30
0.0
 11
-0.135
 21
104.790611
 31
0.0
  0
LINE
  5
2AC
330
1D
100
AcDbEntity
  8
0
100
AcDbLine
 10
1.715
 20
104.078611
 30
0.0
 11
1.715
 21
103.182611
 31
0.0
  0
LINE
  5
2AD
330
1D
100
AcDbEntity
  8
0
100
AcDbLine
 10
1.715
 20
104.032611
 30
0.0
 11
1.715
 21
104.461611
 31
0.0
  0
LINE
  5
2B0
330
1D
100
AcDbEntity
  8
0
100
AcDbLine
 10
2.148
 20
104.209611
 30
0.0
 11
2.148
 21
93.568811
 31
0.0
  0
LINE
  5
2B1
330
1D
100
AcDbEntity
  8
0
100
AcDbLine
 10
2.148
 20
104.209611
 30
0.0
 11
2.148
 21
105.203611
 31
0.0
  0
LINE
  5
2B3
330
1D
100
AcDbEntity
  8
0
100
AcDbLine
 10
1.365
 20
103.961611
 30
0.0
 11
1.365
 21
104.603611
 31
0.0
  0
LINE
  5
2B4
330
1D
100
AcDbEntity
  8
0
100
AcDbLine
 10
1.365
 20
103.961611
 30
0.0
 11
1.365
 21
103.836611
 31
0.0
  0
LINE
  5
2B5
330
1D
100
AcDbEntity
  8
0
100
AcDbLine
 10
1.715
 20
104.461611
 30
0.0
 11
1.715
 21
105.263611
 31
0.0
  0
LINE
  5
2B6
330
1D
100
AcDbEntity
  8
0
100
AcDbLine
 10
1.365
 20
104.428611
 30
0.0
 11
1.365
 21
105.089611
 31
0.0
  0
LINE
  5
2B7
330
1D
100
AcDbEntity
  8
0
100
AcDbLine
 10
1.365
 20
104.428611
 30
0.0
 11
1.365
 21
103.697611
 31
0.0
  0
LINE
  5
2B8
330
1D
100
AcDbEntity
  8
0
100
AcDbLine
 10
-0.135
 20
103.992611
 30
0.0
 11
-0.135
 21
103.258611
 31
0.0
  0
LINE
  5
2B9
330
1D
100
AcDbEntity
  8
0
100
AcDbLine
 10
-0.135
 20
103.992611
 30
0.0
 11
-0.135
 21
104.655611
 31
0.0
  0
LINE
  5
2BA
330
1D
100
AcDbEntity
  8
0
100
AcDbLine
 10
-0.135
 20
103.931611
 30
0.0
 11
-0.135
 21
104.600611
 31
0.0
  0
LINE
  5
2BB
330
1D
100
AcDbEntity
  8
0
100
AcDbLine
 10
-0.135
 20
103.931611
 30
0.0
 11
-0.135
 21
103.191611
 31
0.0
  0
LINE
  5
2BC
330
1D
100
AcDbEntity
  8
0
100
AcDbLine
 10
9.815
 20
104.213611
 30
0.0
 11
9.815
 21
103.062611
 31
0.0
  0
LINE
  5
2BD
330
1D
100
AcDbEntity
  8
0
100
AcDbLine
 10
-0.135
 20
104.629611
 30
0.0
 11
-0.135
 21
104.578611
 31
0.0
  0
LINE
  5
2BE
330
1D
100
AcDbEntity
  8
0
100
AcDbLine
 10
-0.135
 20
105.238611
 30
0.0
 11
-0.135
 21
105.736611
 31
0.0
  0
LINE
  5
2BF
330
1D
100
AcDbEntity
  8
0
100
AcDbLine
 10
-0.135
 20
104.790611
 30
0.0
 11
-0.135
 21
104.218611
 31
0.0
  0
LINE
  5
2C0
330
1D
100
AcDbEntity
  8
0
100
AcDbLine
 10
-0.135
 20
104.790611
 30
0.0
 11
-0.135
 21
105.275611
 31
0.0
  0
LINE
  5
2C1
330
1D
100
AcDbEntity
  8
0
100
AcDbLine
 10
-0.135
 20
104.655611
 30
0.0
 11
-0.135
 21
103.992611
 31
0.0
  0
LINE
  5
2C2
330
1D
100
AcDbEntity
  8
0
100
AcDbLine
 10
-0.135
 20
104.655611
 30
0.0
 11
-0.135
 21
105.238611
 31
0.0
  0
LINE
  5
2C3
330
1D
100
AcDbEntity
  8
0
100
AcDbLine
 10
1.365
 20
104.603611
 30
0.0
 11
1.365
 21
105.193611
 31
0.0
  0
LINE
  5
2C4
330
1D
100
AcDbEntity
  8
0
100
AcDbLine
 10
1.365
 20
104.603611
 30
0.0
 11
1.365
 21
103.961611
 31
0.0
  0
LINE
  5
2C6
330
1D
100
AcDbEntity
  8
0
100
AcDbLine
 10
1.715
 20
104.741611
 30
0.0
 11
1.715
 21
103.805611
 31
0.0
  0
LINE
  5
2C7
330
1D
100
AcDbEntity
  8
0
100
AcDbLine
 10
1.715
 20
104.911611
 30
0.0
 11
1.715
 21
104.078611
 31
0.0
  0
LINE
  5
2C8
330
1D
100
AcDbEntity
  8
0
100
AcDbLine
 10
1.365
 20
105.089611
 30
0.0
 11
1.365
 21
104.428611
 31
0.0
  0
LINE
  5
2C9
330
1D
100
AcDbEntity
  8
0
100
AcDbLine
 10
1.365
 20
105.089611
 30
0.0
 11
1.365
 21
105.674611
 31
0.0
  0
LINE
  5
2CA
330
1D
100
AcDbEntity
  8
0
100
AcDbLine
 10
2.148
 20
105.203611
 30
0.0
 11
2.148
 21
106.131611
 31
0.0
  0
LINE
  5
2CB
330
1D
100
AcDbEntity
  8
0
100
AcDbLine
 10
2.148
 20
105.203611
 30
0.0
 11
2.148
 21
104.209611
 31
0.0
  0
LINE
  5
2CC
330
1D
100
AcDbEntity
  8
0
100
AcDbLine
 10
1.715
 20
105.263611
 30
0.0
 11
1.715
 21
105.675611
 31
0.0
  0
LINE
  5
2D0
330
1D
100
AcDbEntity
  8
0
100
AcDbLine
 10
1.365
 20
105.193611
 30
0.0
 11
1.365
 21
105.729611
 31
0.0
  0
LINE
  5
2D1
330
1D
100
AcDbEntity
  8
0
100
AcDbLine
 10
1.365
 20
105.193611
 30
0.0
 11
1.365
 21
104.603611
 31
0.0
  0
LINE
  5
2D2
330
1D
100
AcDbEntity
  8
0
100
AcDbLine
 10
-0.135
 20
105.275611
 30
0.0
 11
-0.135
 21
105.696611
 31
0.0
  0
LINE
  5
2D3
330
1D
100
AcDbEntity
  8
0
100
AcDbLine
 10
-0.135
 20
105.275611
 30
0.0
 11
-0.135
 21
105.519611
 31
0.0
  0
LINE
  5
2D4
330
1D
100
AcDbEntity
  8
0
100
AcDbLine
 10
-0.135
 20
105.275611
 30
0.0
 11
-0.135
 21
105.667611
 31
0.0
  0
LINE
  5
2D5
330
1D
100
AcDbEntity
  8
0
100
AcDbLine
 10
-0.135
 20
105.667611
 30
0.0
 11
-0.135
 21
105.275611
 31
0.0
  0
LINE
  5
2D6
330
1D
100
AcDbEntity
  8
0
100
AcDbLine
 10
-0.135
 20
105.667611
 30
0.0
 11
-0.135
 21
105.959611
 31
0.0
  0
LINE
  5
2D7
330
1D
100
AcDbEntity
  8
0
100
AcDbLine
 10
-0.135
 20
105.736611
 30
0.0
 11
-0.135
 21
105.238611
 31
0.0
  0
LINE
  5
2D8
330
1D
100
AcDbEntity
  8
0
100
AcDbLine
 10
-0.135
 20
105.736611
 30
0.0
 11
-0.135
 21
106.140611
 31
0.0
  0
LINE
  5
2D9
330
1D
100
AcDbEntity
  8
0
100
AcDbLine
 10
-0.135
 20
105.696611
 30
0.0
 11
-0.135
 21
105.275611
 31
0.0
  0
LINE
  5
2DA
330
1D
100
AcDbEntity
  8
0
100
AcDbLine
 10
-0.135
 20
105.696611
 30
0.0
 11
-0.135
 21
106.109611
 31
0.0
  0
LINE
  5
2DB
330
1D
100
AcDbEntity
  8
0
100
AcDbLine
 10
-0.135
 20
105.519611
 30
0.0
 11
-0.135
 21
105.853611
 31
0.0
  0
LINE
  5
2DC
330
1D
100
AcDbEntity
  8
0
100
AcDbLine
 10
-0.135
 20
105.519611
 30
0.0
 11
-0.135
 21
105.275611
 31
0.0
  0
LINE
  5
2DD
330
1D
100
AcDbEntity
  8
0
100
AcDbLine
 10
-0.135
 20
105.853611
 30
0.0
 11
-0.135
 21
106.085611
 31
0.0
  0
LINE
  5
2DE
330
1D
100
AcDbEntity
  8
0
100
AcDbLine
 10
-0.135
 20
105.853611
 30
0.0
 11
-0.135
 21
105.519611
 31
0.0
  0
LINE
  5
2DF
330
1D
100
AcDbEntity
  8
0
100
AcDbLine
 10
-0.135
 20
106.109611
 30
0.0
 11
-0.135
 21
105.696611
 31
0.0
  0
LINE
  5
2E0
330
1D
100
AcDbEntity
  8
0
100
AcDbLine
 10
-0.135
 20
106.109611
 30
0.0
 11
-0.135
 21
106.424611
 31
0.0
  0
LINE
  5
2E1
330
1D
100
AcDbEntity
  8
0
100
AcDbLine
 10
-0.135
 20
106.085611
 30
0.0
 11
-0.135
 21
106.213611
 31
0.0
  0
LINE
  5
2E2
330
1D
100
AcDbEntity
  8
0
100
AcDbLine
 10
-0.135
 20
106.085611
 30
0.0
 11
-0.135
 21
105.853611
 31
0.0
  0
LINE
  5
2E3
330
1D
100
AcDbEntity
  8
0
100
AcDbLine
 10
-0.135
 20
106.213611
 30
0.0
 11
-0.135
 21
106.085611
 31
0.0
  0
LINE
  5
2E4
330
1D
100
AcDbEntity
  8
0
100
AcDbLine
 10
-0.135
 20
106.234611
 30
0.0
 11
-0.135
 21
106.150611
 31
0.0
  0
LINE
  5
2E5
330
1D
100
AcDbEntity
  8
0
100
AcDbLine
 10
-0.135
 20
106.150611
 30
0.0
 11
-0.135
 21
105.959611
 31
0.0
  0
LINE
  5
2E6
330
1D
100
AcDbEntity
  8
0
100
AcDbLine
 10
-0.135
 20
106.150611
 30
0.0
 11
-0.135
 21
106.234611
 31
0.0
  0
LINE
  5
2E7
330
1D
100
AcDbEntity
  8
0
100
AcDbLine
 10
-0.135
 20
105.959611
 30
0.0
 11
-0.135
 21
105.667611
 31
0.0
  0
LINE
  5
2E8
330
1D
100
AcDbEntity
  8
0
100
AcDbLine
 10
-0.135
 20
105.959611
 30
0.0
 11
-0.135
 21
106.150611
 31
0.0
  0
LINE
  5
2E9
330
1D
100
AcDbEntity
  8
0
100
AcDbLine
 10
1.715
 20
105.616611
 30
0.0
 11
1.715
 21
106.422611
 31
0.0
  0
LINE
  5
2EA
330
1D
100
AcDbEntity
  8
0
100
AcDbLine
 10
1.715
 20
105.672611
 30
0.0
 11
1.715
 21
104.911611
 31
0.0
  0
LINE
  5
2ED
330
1D
100
AcDbEntity
  8
0
100
AcDbLine
 10
1.365
 20
105.604611
 30
0.0
 11
1.365
 21
106.122611
 31
0.0
  0
LINE
  5
2EE
330
1D
100
AcDbEntity
  8
0
100
AcDbLine
 10
1.365
 20
105.604611
 30
0.0
 11
1.365
 21
105.729611
 31
0.0
  0
LINE
  5
2EF
330
1D
100
AcDbEntity
  8
0
100
AcDbLine
 10
1.365
 20
106.122611
 30
0.0
 11
1.365
 21
105.604611
 31
0.0
  0
LINE
  5
2F0
330
1D
100
AcDbEntity
  8
0
100
AcDbLine
 10
1.365
 20
105.729611
 30
0.0
 11
1.365
 21
105.604611
 31
0.0
  0
LINE
  5
2F1
330
1D
100
AcDbEntity
  8
0
100
AcDbLine
 10
1.365
 20
105.729611
 30
0.0
 11
1.365
 21
105.193611
 31
0.0
  0
LINE
  5
2F6
330
1D
100
AcDbEntity
  8
0
100
AcDbLine
 10
2.148
 20
106.131611
 30
0.0
 11
2.148
 21
106.986611
 31
0.0
  0
LINE
  5
2F7
330
1D
100
AcDbEntity
  8
0
100
AcDbLine
 10
2.148
 20
106.131611
 30
0.0
 11
2.148
 21
105.203611
 31
0.0
  0
LINE
  5
2FA
330
1D
100
AcDbEntity
  8
0
100
AcDbLine
 10
1.365
 20
106.175611
 30
0.0
 11
1.365
 21
105.674611
 31
0.0
  0
LINE
  5
2FB
330
1D
100
AcDbEntity
  8
0
100
AcDbLine
 10
1.365
 20
106.175611
 30
0.0
 11
1.365
 21
106.561611
 31
0.0
  0
LINE
  5
2FC
330
1D
100
AcDbEntity
  8
0
100
AcDbLine
 10
1.365
 20
105.674611
 30
0.0
 11
1.365
 21
105.089611
 31
0.0
  0
LINE
  5
2FD
330
1D
100
AcDbEntity
  8
0
100
AcDbLine
 10
1.365
 20
105.674611
 30
0.0
 11
1.365
 21
106.175611
 31
0.0
  0
LINE
  5
2FE
330
1D
100
AcDbEntity
  8
0
100
AcDbLine
 10
-0.135
 20
106.140611
 30
0.0
 11
-0.135
 21
106.447611
 31
0.0
  0
LINE
  5
2FF
330
1D
100
AcDbEntity
  8
0
100
AcDbLine
 10
-0.135
 20
106.140611
 30
0.0
 11
-0.135
 21
105.736611
 31
0.0
  0
LINE
  5
300
330
1D
100
AcDbEntity
  8
0
100
AcDbLine
 10
-0.135
 20
106.447611
 30
0.0
 11
-0.135
 21
106.140611
 31
0.0
  0
LINE
  5
301
330
1D
100
AcDbEntity
  8
0
100
AcDbLine
 10
-0.135
 20
106.447611
 30
0.0
 11
-0.135
 21
106.652611
 31
0.0
  0
LINE
  5
302
330
1D
100
AcDbEntity
  8
0
100
AcDbLine
 10
-0.135
 20
106.652611
 30
0.0
 11
-0.135
 21
106.447611
 31
0.0
  0
LINE
  5
303
330
1D
100
AcDbEntity
  8
0
100
AcDbLine
 10
-0.135
 20
106.652611
 30
0.0
 11
-0.135
 21
106.753611
 31
0.0
  0
LINE
  5
304
330
1D
100
AcDbEntity
  8
0
100
AcDbLine
 10
-0.135
 20
106.748611
 30
0.0
 11
-0.135
 21
106.638611
 31
0.0
  0
LINE
  5
305
330
1D
100
AcDbEntity
  8
0
100
AcDbLine
 10
-0.135
 20
106.753611
 30
0.0
 11
1.365
 21
107.264611
 31
0.0
  0
LINE
  5
306
330
1D
100
AcDbEntity
  8
0
100
AcDbLine
 10
-0.135
 20
106.753611
 30
0.0
 11
-0.135
 21
106.652611
 31
0.0
  0
LINE
  5
307
330
1D
100
AcDbEntity
  8
0
100
AcDbLine
 10
1.365
 20
106.914611
 30
0.0
 11
1.365
 21
106.561611
 31
0.0
  0
LINE
  5
308
330
1D
100
AcDbEntity
  8
0
100
AcDbLine
 10
1.365
 20
106.561611
 30
0.0
 11
1.365
 21
106.867611
 31
0.0
  0
LINE
  5
309
330
1D
100
AcDbEntity
  8
0
100
AcDbLine
 10
1.365
 20
106.561611
 30
0.0
 11
1.365
 21
106.914611
 31
0.0
  0
LINE
  5
30A
330
1D
100
AcDbEntity
  8
0
100
AcDbLine
 10
1.365
 20
106.867611
 30
0.0
 11
1.365
 21
107.087611
 31
0.0
  0
LINE
  5
30B
330
1D
100
AcDbEntity
  8
0
100
AcDbLine
 10
1.365
 20
106.867611
 30
0.0
 11
1.365
 21
106.561611
 31
0.0
  0
LINE
  5
30C
330
1D
100
AcDbEntity
  8
0
100
AcDbLine
 10
1.365
 20
107.179611
 30
0.0
 11
1.365
 21
107.352611
 31
0.0
  0
LINE
  5
30D
330
1D
100
AcDbEntity
  8
0
100
AcDbLine
 10
1.365
 20
107.087611
 30
0.0
 11
1.365
 21
107.220611
 31
0.0
  0
LINE
  5
30E
330
1D
100
AcDbEntity
  8
0
100
AcDbLine
 10
1.365
 20
107.087611
 30
0.0
 11
1.365
 21
106.867611
 31
0.0
  0
LINE
  5
30F
330
1D
100
AcDbEntity
  8
0
100
AcDbLine
 10
-0.135
 20
106.753611
 30
0.0
 11
1.365
 21
107.264611
 31
0.0
  0
LINE
  5
310
330
1D
100
AcDbEntity
  8
0
100
AcDbLine
 10
1.365
 20
107.605611
 30
0.0
 11
1.365
 21
107.529611
 31
0.0
  0
LINE
  5
311
330
1D
100
AcDbEntity
  8
0
100
AcDbLine
 10
1.365
 20
107.605611
 30
0.0
 11
1.378
 21
107.655611
 31
0.0
  0
LINE
  5
312
330
1D
100
AcDbEntity
  8
0
100
AcDbLine
 10
1.365
 20
107.264611
 30
0.0
 11
1.365
 21
107.352611
 31
0.0
  0
LINE
  5
313
330
1D
100
AcDbEntity
  8
0
100
AcDbLine
 10
1.365
 20
107.529611
 30
0.0
 11
1.365
 21
107.352611
 31
0.0
  0
LINE
  5
314
330
1D
100
AcDbEntity
  8
0
100
AcDbLine
 10
1.365
 20
107.529611
 30
0.0
 11
1.365
 21
107.605611
 31
0.0
  0
LINE
  5
316
330
1D
100
AcDbEntity
  8
0
100
AcDbLine
 10
1.365
 20
107.220611
 30
0.0
 11
1.365
 21
107.087611
 31
0.0
  0
LINE
  5
317
330
1D
100
AcDbEntity
  8
0
100
AcDbLine
 10
-0.135
 20
106.638611
 30
0.0
 11
-0.135
 21
106.748611
 31
0.0
  0
LINE
  5
318
330
1D
100
AcDbEntity
  8
0
100
AcDbLine
 10
-0.135
 20
106.638611
 30
0.0
 11
-0.135
 21
106.424611
 31
0.0
  0
LINE
  5
319
330
1D
100
AcDbEntity
  8
0
100
AcDbLine
 10
-0.135
 20
106.424611
 30
0.0
 11
-0.135
 21
106.638611
 31
0.0
  0
LINE
  5
31A
330
1D
100
AcDbEntity
  8
0
100
AcDbLine
 10
-0.135
 20
106.424611
 30
0.0
 11
-0.135
 21
106.109611
 31
0.0
  0
LINE
  5
31C
330
1D
100
AcDbEntity
  8
0
100
AcDbLine
 10
1.715
 20
106.422611
 30
0.0
 11
1.715
 21
105.616611
 31
0.0
  0
LINE
  5
31E
330
1D
100
AcDbEntity
  8
0
100
AcDbLine
 10
1.715
 20
107.446611
 30
0.0
 11
1.715
 21
106.947611
 31
0.0
  0
LINE
  5
31F
330
1D
100
AcDbEntity
  8
0
100
AcDbLine
 10
1.715
 20
106.947611
 30
0.0
 11
1.715
 21
106.353611
 31
0.0
  0
LINE
  5
320
330
1D
100
AcDbEntity
  8
0
100
AcDbLine
 10
2.148
 20
106.986611
 30
0.0
 11
2.148
 21
107.758611
 31
0.0
  0
LINE
  5
321
330
1D
100
AcDbEntity
  8
0
100
AcDbLine
 10
2.148
 20
106.986611
 30
0.0
 11
2.148
 21
106.131611
 31
0.0
  0
LINE
  5
322
330
1D
100
AcDbEntity
  8
0
100
AcDbLine
 10
1.715
 20
106.353611
 30
0.0
 11
1.715
 21
105.672611
 31
0.0
  0
LINE
  5
325
330
1D
100
AcDbEntity
  8
0
100
AcDbLine
 10
1.365
 20
107.352611
 30
0.0
 11
1.365
 21
107.529611
 31
0.0
  0
LINE
  5
326
330
1D
100
AcDbEntity
  8
0
100
AcDbLine
 10
1.365
 20
107.352611
 30
0.0
 11
1.365
 21
107.264611
 31
0.0
  0
LINE
  5
328
330
1D
100
AcDbEntity
  8
0
100
AcDbLine
 10
1.365
 20
107.352611
 30
0.0
 11
1.365
 21
107.179611
 31
0.0
  0
LINE
  5
32A
330
1D
100
AcDbEntity
  8
0
100
AcDbLine
 10
1.465
 20
107.705611
 30
0.0
 11
1.715
 21
107.705611
 31
0.0
  0
LINE
  5
32B
330
1D
100
AcDbEntity
  8
0
100
AcDbLine
 10
1.715
 20
107.846611
 30
0.0
 11
1.715
 21
107.446611
 31
0.0
  0
LINE
  5
32C
330
1D
100
AcDbEntity
  8
0
100
AcDbLine
 10
1.715
 20
108.142611
 30
0.0
 11
1.715
 21
107.846611
 31
0.0
  0
LINE
  5
32D
330
1D
100
AcDbEntity
  8
0
100
AcDbLine
 10
1.715
 20
107.795611
 30
0.0
 11
1.715
 21
108.349611
 31
0.0
  0
LINE
  5
32E
330
1D
100
AcDbEntity
  8
0
100
AcDbLine
 10
1.715
 20
107.993611
 30
0.0
 11
1.715
 21
108.241611
 31
0.0
  0
LINE
  5
32F
330
1D
100
AcDbEntity
  8
0
100
AcDbLine
 10
1.715
 20
108.349611
 30
0.0
 11
1.715
 21
107.795611
 31
0.0
  0
LINE
  5
330
330
1D
100
AcDbEntity
  8
0
100
AcDbLine
 10
1.715
 20
108.331611
 30
0.0
 11
1.715
 21
108.142611
 31
0.0
  0
LINE
  5
331
330
1D
100
AcDbEntity
  8
0
100
AcDbLine
 10
1.715
 20
108.411611
 30
0.0
 11
1.715
 21
108.331611
 31
0.0
  0
LINE
  5
332
330
1D
100
AcDbEntity
  8
0
100
AcDbLine
 10
1.715
 20
108.241611
 30
0.0
 11
1.715
 21
108.381611
 31
0.0
  0
LINE
  5
333
330
1D
100
AcDbEntity
  8
0
100
AcDbLine
 10
1.715
 20
108.237611
 30
0.0
 11
1.715
 21
107.705611
 31
0.0
  0
LINE
  5
334
330
1D
100
AcDbEntity
  8
0
100
AcDbLine
 10
1.715
 20
108.381611
 30
0.0
 11
1.715
 21
109.097611
 31
0.0
  0
LINE
  5
335
330
1D
100
AcDbEntity
  8
0
100
AcDbLine
 10
2.148
 20
108.441611
 30
0.0
 11
2.148
 21
109.029611
 31
0.0
  0
LINE
  5
336
330
1D
100
AcDbEntity
  8
0
100
AcDbLine
 10
2.148
 20
108.441611
 30
0.0
 11
2.148
 21
107.758611
 31
0.0
  0
LINE
  5
337
330
1D
100
AcDbEntity
  8
0
100
AcDbLine
 10
2.148
 20
107.758611
 30
0.0
 11
2.148
 21
108.441611
 31
0.0
  0
LINE
  5
338
330
1D
100
AcDbEntity
  8
0
100
AcDbLine
 10
2.148
 20
107.758611
 30
0.0
 11
2.148
 21
106.986611
 31
0.0
  0
LINE
  5
339
330
1D
100
AcDbEntity
  8
0
100
AcDbLine
 10
1.715
 20
107.705611
 30
0.0
 11
1.715
 21
107.993611
 31
0.0
  0
LINE
  5
33A
330
1D
100
AcDbEntity
  8
0
100
AcDbLine
 10
1.715
 20
107.705611
 30
0.0
 11
1.715
 21
108.237611
 31
0.0
  0
LINE
  5
33B
330
1D
100
AcDbEntity
  8
0
100
AcDbLine
 10
1.415
 20
107.691611
 30
0.0
 11
1.465
 21
107.705611
 31
0.0
  0
LINE
  5
33D
330
1D
100
AcDbEntity
  8
0
100
AcDbLine
 10
1.378
 20
107.655611
 30
0.0
 11
1.415
 21
107.691611
 31
0.0
  0
LINE
  5
33E
330
1D
100
AcDbEntity
  8
0
100
AcDbLine
 10
1.715
 20
109.167611
 30
0.0
 11
1.715
 21
109.422611
 31
0.0
  0
LINE
  5
33F
330
1D
100
AcDbEntity
  8
0
100
AcDbLine
 10
1.715
 20
109.167611
 30
0.0
 11
1.715
 21
108.808611
 31
0.0
  0
LINE
  5
340
330
1D
100
AcDbEntity
  8
0
100
AcDbLine
 10
1.715
 20
109.375611
 30
0.0
 11
1.715
 21
109.097611
 31
0.0
  0
LINE
  5
341
330
1D
100
AcDbEntity
  8
0
100
AcDbLine
 10
1.715
 20
109.375611
 30
0.0
 11
1.715
 21
109.548611
 31
0.0
  0
LINE
  5
342
330
1D
100
AcDbEntity
  8
0
100
AcDbLine
 10
1.715
 20
109.097611
 30
0.0
 11
1.715
 21
108.381611
 31
0.0
  0
LINE
  5
343
330
1D
100
AcDbEntity
  8
0
100
AcDbLine
 10
1.715
 20
109.097611
 30
0.0
 11
1.715
 21
109.375611
 31
0.0
  0
LINE
  5
344
330
1D
100
AcDbEntity
  8
0
100
AcDbLine
 10
2.148
 20
109.029611
 30
0.0
 11
2.148
 21
109.514611
 31
0.0
  0
LINE
  5
345
330
1D
100
AcDbEntity
  8
0
100
AcDbLine
 10
1.715
 20
108.808611
 30
0.0
 11
1.715
 21
109.167611
 31
0.0
  0
LINE
  5
346
330
1D
100
AcDbEntity
  8
0
100
AcDbLine
 10
9.815
 20
108.783611
 30
0.0
 11
9.815
 21
108.062611
 31
0.0
  0
LINE
  5
347
330
1D
100
AcDbEntity
  8
0
100
AcDbLine
 10
9.815
 20
108.062611
 30
0.0
 11
9.815
 21
107.235611
 31
0.0
  0
LINE
  5
348
330
1D
100
AcDbEntity
  8
0
100
AcDbLine
 10
9.815
 20
107.627611
 30
0.0
 11
9.815
 21
106.701611
 31
0.0
  0
LINE
  5
349
330
1D
100
AcDbEntity
  8
0
100
AcDbLine
 10
9.815
 20
107.627611
 30
0.0
 11
9.815
 21
108.459611
 31
0.0
  0
LINE
  5
34A
330
1D
100
AcDbEntity
  8
0
100
AcDbLine
 10
9.815
 20
108.459611
 30
0.0
 11
9.815
 21
107.627611
 31
0.0
  0
LINE
  5
34B
330
1D
100
AcDbEntity
  8
0
100
AcDbLine
 10
9.815
 20
108.459611
 30
0.0
 11
9.815
 21
109.187611
 31
0.0
  0
LINE
  5
34C
330
1D
100
AcDbEntity
  8
0
100
AcDbLine
 10
1.715
 20
109.422611
 30
0.0
 11
1.715
 21
109.571611
 31
0.0
  0
LINE
  5
34D
330
1D
100
AcDbEntity
  8
0
100
AcDbLine
 10
1.715
 20
109.422611
 30
0.0
 11
1.715
 21
109.167611
 31
0.0
  0
LINE
  5
34E
330
1D
100
AcDbEntity
  8
0
100
AcDbLine
 10
1.715
 20
109.548611
 30
0.0
 11
1.715
 21
109.375611
 31
0.0
  0
LINE
  5
34F
330
1D
100
AcDbEntity
  8
0
100
AcDbLine
 10
1.715
 20
109.548611
 30
0.0
 11
1.715
 21
109.613611
 31
0.0
  0
LINE
  5
350
330
1D
100
AcDbEntity
  8
0
100
AcDbLine
 10
1.715
 20
109.613611
 30
0.0
 11
1.715
 21
109.548611
 31
0.0
  0
LINE
  5
351
330
1D
100
AcDbEntity
  8
0
100
AcDbLine
 10
1.715
 20
109.613611
 30
0.0
 11
2.148
 21
110.363611
 31
0.0
  0
LINE
  5
352
330
1D
100
AcDbEntity
  8
0
100
AcDbLine
 10
2.148
 20
109.514611
 30
0.0
 11
2.148
 21
109.893611
 31
0.0
  0
LINE
  5
353
330
1D
100
AcDbEntity
  8
0
100
AcDbLine
 10
2.148
 20
109.514611
 30
0.0
 11
2.148
 21
109.029611
 31
0.0
  0
LINE
  5
354
330
1D
100
AcDbEntity
  8
0
100
AcDbLine
 10
1.715
 20
109.571611
 30
0.0
 11
1.715
 21
109.422611
 31
0.0
  0
LINE
  5
355
330
1D
100
AcDbEntity
  8
0
100
AcDbLine
 10
2.148
 20
110.163611
 30
0.0
 11
2.148
 21
110.320611
 31
0.0
  0
LINE
  5
356
330
1D
100
AcDbEntity
  8
0
100
AcDbLine
 10
2.148
 20
110.163611
 30
0.0
 11
2.148
 21
109.893611
 31
0.0
  0
LINE
  5
357
330
1D
100
AcDbEntity
  8
0
100
AcDbLine
 10
2.148
 20
109.893611
 30
0.0
 11
2.148
 21
110.163611
 31
0.0
  0
LINE
  5
358
330
1D
100
AcDbEntity
  8
0
100
AcDbLine
 10
2.148
 20
109.893611
 30
0.0
 11
2.148
 21
109.514611
 31
0.0
  0
LINE
  5
359
330
1D
100
AcDbEntity
  8
0
100
AcDbLine
 10
2.148
 20
110.363611
 30
0.0
 11
9.815
 21
110.364561415272
 31
0.0
  0
LINE
  5
35A
330
1D
100
AcDbEntity
  8
0
100
AcDbLine
 10
2.148
 20
110.320611
 30
0.0
 11
2.148
 21
110.163611
 31
0.0
  0
LINE
  5
35B
330
1D
100
AcDbEntity
  8
0
100
AcDbLine
 10
9.815
 20
110.364561415272
 30
0.0
 11
9.815
 21
110.524611
 31
0.0
  0
LINE
  5
35C
330
1D
100
AcDbEntity
  8
0
100
AcDbLine
 10
9.815
 20
110.364561415272
 30
0.0
 11
9.815
 21
110.637611
 31
0.0
  0
LINE
  5
35D
330
1D
100
AcDbEntity
  8
0
100
AcDbLine
 10
9.815
 20
110.637611
 30
0.0
 11
9.815
 21
110.364561415272
 31
0.0
  0
LINE
  5
35E
330
1D
100
AcDbEntity
  8
0
100
AcDbLine
 10
9.815
 20
110.637611
 30
0.0
 11
9.815
 21
110.904611
 31
0.0
  0
LINE
  5
35F
330
1D
100
AcDbEntity
  8
0
100
AcDbLine
 10
9.815
 20
110.904611
 30
0.0
 11
9.815
 21
110.637611
 31
0.0
  0
LINE
  5
360
330
1D
100
AcDbEntity
  8
0
100
AcDbLine
 10
9.815
 20
110.904611
 30
0.0
 11
9.815
 21
111.043611
 31
0.0
  0
LINE
  5
361
330
1D
100
AcDbEntity
  8
0
100
AcDbLine
 10
9.815
 20
111.043611
 30
0.0
 11
9.815
 21
110.904611
 31
0.0
  0
LINE
  5
362
330
1D
100
AcDbEntity
  8
0
100
AcDbLine
 10
9.815
 20
111.052611
 30
0.0
 11
17.915
 21
111.057611
 31
0.0
  0
LINE
  5
363
330
1D
100
AcDbEntity
  8
0
100
AcDbLine
 10
9.815
 20
111.052611
 30
0.0
 11
9.815
 21
110.930611
 31
0.0
  0
LINE
  5
364
330
1D
100
AcDbEntity
  8
0
100
AcDbLine
 10
9.815
 20
110.561611
 30
0.0
 11
9.815
 21
110.464611
 31
0.0
  0
LINE
  5
365
330
1D
100
AcDbEntity
  8
0
100
AcDbLine
 10
9.815
 20
110.930611
 30
0.0
 11
9.815
 21
111.052611
 31
0.0
  0
LINE
  5
366
330
1D
100
AcDbEntity
  8
0
100
AcDbLine
 10
9.815
 20
110.930611
 30
0.0
 11
9.815
 21
110.680611
 31
0.0
  0
LINE
  5
367
330
1D
100
AcDbEntity
  8
0
100
AcDbLine
 10
9.815
 20
110.464611
 30
0.0
 11
9.815
 21
110.234611
 31
0.0
  0
LINE
  5
368
330
1D
100
AcDbEntity
  8
0
100
AcDbLine
 10
9.815
 20
110.680611
 30
0.0
 11
9.815
 21
110.930611
 31
0.0
  0
LINE
  5
369
330
1D
100
AcDbEntity
  8
0
100
AcDbLine
 10
9.815
 20
110.680611
 30
0.0
 11
9.815
 21
110.303611
 31
0.0
  0
LINE
  5
36A
330
1D
100
AcDbEntity
  8
0
100
AcDbLine
 10
9.815
 20
110.234611
 30
0.0
 11
9.815
 21
109.875611
 31
0.0
  0
LINE
  5
36B
330
1D
100
AcDbEntity
  8
0
100
AcDbLine
 10
9.815
 20
110.303611
 30
0.0
 11
9.815
 21
110.680611
 31
0.0
  0
LINE
  5
36C
330
1D
100
AcDbEntity
  8
0
100
AcDbLine
 10
9.815
 20
110.303611
 30
0.0
 11
9.815
 21
109.803611
 31
0.0
  0
LINE
  5
36D
330
1D
100
AcDbEntity
  8
0
100
AcDbLine
 10
9.815
 20
109.875611
 30
0.0
 11
9.815
 21
109.389611
 31
0.0
  0
LINE
  5
36E
330
1D
100
AcDbEntity
  8
0
100
AcDbLine
 10
9.815
 20
109.803611
 30
0.0
 11
9.815
 21
110.303611
 31
0.0
  0
LINE
  5
36F
330
1D
100
AcDbEntity
  8
0
100
AcDbLine
 10
9.815
 20
109.803611
 30
0.0
 11
9.815
 21
109.187611
 31
0.0
  0
LINE
  5
370
330
1D
100
AcDbEntity
  8
0
100
AcDbLine
 10
9.815
 20
109.389611
 30
0.0
 11
9.815
 21
108.783611
 31
0.0
  0
LINE
  5
371
330
1D
100
AcDbEntity
  8
0
100
AcDbLine
 10
9.815
 20
107.235611
 30
0.0
 11
9.815
 21
106.311611
 31
0.0
  0
LINE
  5
372
330
1D
100
AcDbEntity
  8
0
100
AcDbLine
 10
9.815
 20
106.311611
 30
0.0
 11
9.815
 21
105.300611
 31
0.0
  0
LINE
  5
373
330
1D
100
AcDbEntity
  8
0
100
AcDbLine
 10
9.815
 20
106.701611
 30
0.0
 11
9.815
 21
107.627611
 31
0.0
  0
LINE
  5
374
330
1D
100
AcDbEntity
  8
0
100
AcDbLine
 10
9.815
 20
106.701611
 30
0.0
 11
9.815
 21
105.689611
 31
0.0
  0
LINE
  5
375
330
1D
100
AcDbEntity
  8
0
100
AcDbLine
 10
9.815
 20
105.300611
 30
0.0
 11
9.815
 21
104.213611
 31
0.0
  0
LINE
  5
376
330
1D
100
AcDbEntity
  8
0
100
AcDbLine
 10
9.815
 20
105.689611
 30
0.0
 11
9.815
 21
106.701611
 31
0.0
  0
LINE
  5
377
330
1D
100
AcDbEntity
  8
0
100
AcDbLine
 10
9.815
 20
105.689611
 30
0.0
 11
9.815
 21
104.602611
 31
0.0
  0
LINE
  5
378
330
1D
100
AcDbEntity
  8
0
100
AcDbLine
 10
9.815
 20
104.602611
 30
0.0
 11
9.815
 21
105.689611
 31
0.0
  0
LINE
  5
379
330
1D
100
AcDbEntity
  8
0
100
AcDbLine
 10
9.815
 20
104.602611
 30
0.0
 11
9.815
 21
103.451611
 31
0.0
  0
LINE
  5
37A
330
1D
100
AcDbEntity
  8
0
100
AcDbLine
 10
9.815
 20
103.062611
 30
0.0
 11
9.815
 21
101.859611
 31
0.0
  0
LINE
  5
37B
330
1D
100
AcDbEntity
  8
0
100
AcDbLine
 10
9.815
 20
101.859611
 30
0.0
 11
9.815
 21
100.618611
 31
0.0
  0
LINE
  5
37C
330
1D
100
AcDbEntity
  8
0
100
AcDbLine
 10
9.815
 20
102.247611
 30
0.0
 11
9.815
 21
103.451611
 31
0.0
  0
LINE
  5
37D
330
1D
100
AcDbEntity
  8
0
100
AcDbLine
 10
9.815
 20
102.247611
 30
0.0
 11
9.815
 21
101.004611
 31
0.0
  0
LINE
  5
37E
330
1D
100
AcDbEntity
  8
0
100
AcDbLine
 10
9.815
 20
100.618611
 30
0.0
 11
9.815
 21
99.353311
 31
0.0
  0
LINE
  5
37F
330
1D
100
AcDbEntity
  8
0
100
AcDbLine
 10
9.815
 20
109.187611
 30
0.0
 11
9.815
 21
109.803611
 31
0.0
  0
LINE
  5
380
330
1D
100
AcDbEntity
  8
0
100
AcDbLine
 10
9.815
 20
109.187611
 30
0.0
 11
9.815
 21
108.459611
 31
0.0
  0
LINE
  5
381
330
1D
100
AcDbEntity
  8
0
100
AcDbLine
 10
9.815
 20
99.734311
 30
0.0
 11
9.815
 21
101.004611
 31
0.0
  0
LINE
  5
382
330
1D
100
AcDbEntity
  8
0
100
AcDbLine
 10
9.815
 20
99.734311
 30
0.0
 11
9.815
 21
98.449911
 31
0.0
  0
LINE
  5
383
330
1D
100
AcDbEntity
  8
0
100
AcDbLine
 10
9.815
 20
101.004611
 30
0.0
 11
9.815
 21
102.247611
 31
0.0
  0
LINE
  5
384
330
1D
100
AcDbEntity
  8
0
100
AcDbLine
 10
9.815
 20
101.004611
 30
0.0
 11
9.815
 21
99.734311
 31
0.0
  0
LINE
  5
385
330
1D
100
AcDbEntity
  8
0
100
AcDbLine
 10
9.815
 20
93.434511
 30
0.0
 11
9.815
 21
94.644011
 31
0.0
  0
LINE
  5
386
330
1D
100
AcDbEntity
  8
0
100
AcDbLine
 10
9.815
 20
93.434511
 30
0.0
 11
9.815
 21
92.276011
 31
0.0
  0
LINE
  5
38A
330
1D
100
AcDbEntity
  8
0
100
AcDbLine
 10
17.915
 20
94.206511
 30
0.0
 11
17.915
 21
93.223411
 31
0.0
  0
LINE
  5
394
330
1D
100
AcDbEntity
  8
0
100
AcDbLine
 10
17.915
 20
110.362611
 30
0.0
 11
17.915
 21
110.719611
 31
0.0
  0
LINE
  5
395
330
1D
100
AcDbEntity
  8
0
100
AcDbLine
 10
17.915
 20
110.362611
 30
0.0
 11
17.915
 21
109.884611
 31
0.0
  0
LINE
  5
396
330
1D
100
AcDbEntity
  8
0
100
AcDbLine
 10
17.915
 20
110.719611
 30
0.0
 11
17.915
 21
110.951611
 31
0.0
  0
LINE
  5
397
330
1D
100
AcDbEntity
  8
0
100
AcDbLine
 10
17.915
 20
110.719611
 30
0.0
 11
17.915
 21
110.362611
 31
0.0
  0
LINE
  5
398
330
1D
100
AcDbEntity
  8
0
100
AcDbLine
 10
17.915
 20
110.951611
 30
0.0
 11
17.915
 21
111.057611
 31
0.0
  0
LINE
  5
399
330
1D
100
AcDbEntity
  8
0
100
AcDbLine
 10
17.915
 20
110.951611
 30
0.0
 11
17.915
 21
110.719611
 31
0.0
  0
LINE
  5
39A
330
1D
100
AcDbEntity
  8
0
100
AcDbLine
 10
17.915
 20
111.057611
 30
0.0
 11
17.915
 21
110.951611
 31
0.0
  0
LINE
  5
39B
330
1D
100
AcDbEntity
  8
0
100
AcDbLine
 10
17.915
 20
111.057611
 30
0.0
 11
19.3147
 21
109.663611
 31
0.0
  0
LINE
  5
39C
330
1D
100
AcDbEntity
  8
0
100
AcDbLine
 10
17.915
 20
109.884611
 30
0.0
 11
17.915
 21
109.291611
 31
0.0
  0
LINE
  5
39D
330
1D
100
AcDbEntity
  8
0
100
AcDbLine
 10
17.915
 20
109.884611
 30
0.0
 11
17.915
 21
110.362611
 31
0.0
  0
LINE
  5
39E
330
1D
100
AcDbEntity
  8
0
100
AcDbLine
 10
17.915
 20
109.291611
 30
0.0
 11
17.915
 21
108.587611
 31
0.0
  0
LINE
  5
39F
330
1D
100
AcDbEntity
  8
0
100
AcDbLine
 10
17.915
 20
109.291611
 30
0.0
 11
17.915
 21
109.884611
 31
0.0
  0
LINE
  5
3A0
330
1D
100
AcDbEntity
  8
0
100
AcDbLine
 10
17.915
 20
108.587611
 30
0.0
 11
17.915
 21
107.781611
 31
0.0
  0
LINE
  5
3A1
330
1D
100
AcDbEntity
  8
0
100
AcDbLine
 10
17.915
 20
108.587611
 30
0.0
 11
17.915
 21
109.291611
 31
0.0
  0
LINE
  5
3A2
330
1D
100
AcDbEntity
  8
0
100
AcDbLine
 10
17.915
 20
107.781611
 30
0.0
 11
17.915
 21
106.880611
 31
0.0
  0
LINE
  5
3A3
330
1D
100
AcDbEntity
  8
0
100
AcDbLine
 10
17.915
 20
107.781611
 30
0.0
 11
17.915
 21
108.587611
 31
0.0
  0
LINE
  5
3A4
330
1D
100
AcDbEntity
  8
0
100
AcDbLine
 10
17.915
 20
106.880611
 30
0.0
 11
17.915
 21
105.893611
 31
0.0
  0
LINE
  5
3A5
330
1D
100
AcDbEntity
  8
0
100
AcDbLine
 10
17.915
 20
106.880611
 30
0.0
 11
17.915
 21
107.781611
 31
0.0
  0
LINE
  5
3A6
330
1D
100
AcDbEntity
  8
0
100
AcDbLine
 10
17.915
 20
105.893611
 30
0.0
 11
17.915
 21
104.831611
 31
0.0
  0
LINE
  5
3A7
330
1D
100
AcDbEntity
  8
0
100
AcDbLine
 10
17.915
 20
105.893611
 30
0.0
 11
17.915
 21
106.880611
 31
0.0
  0
LINE
  5
3A8
330
1D
100
AcDbEntity
  8
0
100
AcDbLine
 10
17.915
 20
104.831611
 30
0.0
 11
17.915
 21
103.703611
 31
0.0
  0
LINE
  5
3A9
330
1D
100
AcDbEntity
  8
0
100
AcDbLine
 10
17.915
 20
104.831611
 30
0.0
 11
17.915
 21
105.893611
 31
0.0
  0
LINE
  5
3AA
330
1D
100
AcDbEntity
  8
0
100
AcDbLine
 10
17.915
 20
103.703611
 30
0.0
 11
17.915
 21
94.206511
 31
0.0
  0
LINE
  5
3AB
330
1D
100
AcDbEntity
  8
0
100
AcDbLine
 10
17.915
 20
103.703611
 30
0.0
 11
17.915
 21
104.831611
 31
0.0
  0
LINE
  5
3AE
330
1D
100
AcDbEntity
  8
0
100
AcDbLine
 10
9.815
 20
103.451611
 30
0.0
 11
9.815
 21
102.247611
 31
0.0
  0
LINE
  5
3AF
330
1D
100
AcDbEntity
  8
0
100
AcDbLine
 10
9.815
 20
103.451611
 30
0.0
 11
9.815
 21
104.602611
 31
0.0
  0
LINE
  5
3B0
330
1D
100
AcDbEntity
  8
0
100
AcDbLine
 10
17.915
 20
93.223411
 30
0.0
 11
17.915
 21
94.206511
 31
0.0
  0
LINE
  5
3B1
330
1D
100
AcDbEntity
  8
0
100
AcDbLine
 10
17.915
 20
93.223411
 30
0.0
 11
17.915
 21
92.276011
 31
0.0
  0
LINE
  5
3B2
330
1D
100
AcDbEntity
  8
0
100
AcDbLine
 10
19.3147
 20
91.906611
 30
0.0
 11
19.3147
 21
90.942011
 31
0.0
  0
LINE
  5
3B3
330
1D
100
AcDbEntity
  8
0
100
AcDbLine
 10
19.3147
 20
91.906611
 30
0.0
 11
19.3147
 21
92.947111
 31
0.0
  0
LINE
  5
3B4
330
1D
100
AcDbEntity
  8
0
100
AcDbLine
 10
19.3147
 20
90.942011
 30
0.0
 11
19.3147
 21
91.906611
 31
0.0
  0
LINE
  5
3B5
330
1D
100
AcDbEntity
  8
0
100
AcDbLine
 10
19.3147
 20
90.942011
 30
0.0
 11
19.3147
 21
90.064211
 31
0.0
  0
LINE
  5
3B6
330
1D
100
AcDbEntity
  8
0
100
AcDbLine
 10
19.3147
 20
90.064211
 30
0.0
 11
19.3147
 21
90.942011
 31
0.0
  0
LINE
  5
3B7
330
1D
100
AcDbEntity
  8
0
100
AcDbLine
 10
19.3147
 20
90.064211
 30
0.0
 11
19.3147
 21
89.283911
 31
0.0
  0
LINE
  5
3B8
330
1D
100
AcDbEntity
  8
0
100
AcDbLine
 10
19.3147
 20
89.283911
 30
0.0
 11
19.3147
 21
90.064211
 31
0.0
  0
LINE
  5
3B9
330
1D
100
AcDbEntity
  8
0
100
AcDbLine
 10
19.3147
 20
89.283911
 30
0.0
 11
19.3147
 21
88.610011
 31
0.0
  0
LINE
  5
3BA
330
1D
100
AcDbEntity
  8
0
100
AcDbLine
 10
19.3147
 20
88.610011
 30
0.0
 11
19.3147
 21
89.283911
 31
0.0
  0
LINE
  5
3BB
330
1D
100
AcDbEntity
  8
0
100
AcDbLine
 10
19.3147
 20
88.610011
 30
0.0
 11
19.3147
 21
88.050511
 31
0.0
  0
LINE
  5
3BC
330
1D
100
AcDbEntity
  8
0
100
AcDbLine
 10
19.3147
 20
88.050511
 30
0.0
 11
19.3147
 21
88.610011
 31
0.0
  0
LINE
  5
3BD
330
1D
100
AcDbEntity
  8
0
100
AcDbLine
 10
19.3147
 20
88.050511
 30
0.0
 11
19.3147
 21
87.611811
 31
0.0
  0
LINE
  5
3BE
330
1D
100
AcDbEntity
  8
0
100
AcDbLine
 10
19.3147
 20
87.611811
 30
0.0
 11
19.3147
 21
88.050511
 31
0.0
  0
LINE
  5
3BF
330
1D
100
AcDbEntity
  8
0
100
AcDbLine
 10
19.3147
 20
87.611811
 30
0.0
 11
19.3147
 21
87.299411
 31
0.0
  0
LINE
  5
3C0
330
1D
100
AcDbEntity
  8
0
100
AcDbLine
 10
19.3147
 20
87.299411
 30
0.0
 11
19.3147
 21
87.611811
 31
0.0
  0
LINE
  5
3C1
330
1D
100
AcDbEntity
  8
0
100
AcDbLine
 10
19.3147
 20
87.299411
 30
0.0
 11
19.3147
 21
87.116511
 31
0.0
  0
LINE
  5
3C2
330
1D
100
AcDbEntity
  8
0
100
AcDbLine
 10
19.3147
 20
87.116511
 30
0.0
 11
19.3147
 21
87.299411
 31
0.0
  0
LINE
  5
3C3
330
1D
100
AcDbEntity
  8
0
100
AcDbLine
 10
19.3147
 20
87.116511
 30
0.0
 11
19.3147
 21
87.065511
 31
0.0
  0
LINE
  5
3C4
330
1D
100
AcDbEntity
  8
0
100
AcDbLine
 10
19.3147
 20
87.065511
 30
0.0
 11
19.3147
 21
87.116511
 31
0.0
  0
LINE
  5
3C5
330
1D
100
AcDbEntity
  8
0
100
AcDbLine
 10
19.3147
 20
87.065511
 30
0.0
 11
24.6527
 21
87.065511
 31
0.0
  0
LINE
  5
3C6
330
1D
100
AcDbEntity
  8
0
100
AcDbLine
 10
19.3147
 20
94.051011
 30
0.0
 11
19.3147
 21
95.205411
 31
0.0
  0
LINE
  5
3C7
330
1D
100
AcDbEntity
  8
0
100
AcDbLine
 10
19.3147
 20
94.051011
 30
0.0
 11
19.3147
 21
92.947111
 31
0.0
  0
LINE
  5
3C8
330
1D
100
AcDbEntity
  8
0
100
AcDbLine
 10
24.6661
 20
85.236711
 30
0.0
 11
24.7554
 21
84.619611
 31
0.0
  0
LINE
  5
3C9
330
1D
100
AcDbEntity
  8
0
100
AcDbLine
 10
24.6527
 20
86.085911
 30
0.0
 11
24.6527
 21
85.912611
 31
0.0
  0
LINE
  5
3CA
330
1D
100
AcDbEntity
  8
0
100
AcDbLine
 10
24.6527
 20
86.085911
 30
0.0
 11
24.6527
 21
85.855411
 31
0.0
  0
LINE
  5
3CB
330
1D
100
AcDbEntity
  8
0
100
AcDbLine
 10
24.6527
 20
86.087011
 30
0.0
 11
24.6527
 21
85.855411
 31
0.0
  0
LINE
  5
3CC
330
1D
100
AcDbEntity
  8
0
100
AcDbLine
 10
24.6527
 20
86.087011
 30
0.0
 11
24.6527
 21
86.638411
 31
0.0
  0
LINE
  5
3CD
330
1D
100
AcDbEntity
  8
0
100
AcDbLine
 10
24.6527
 20
86.088411
 30
0.0
 11
24.6527
 21
86.600011
 31
0.0
  0
LINE
  5
3CE
330
1D
100
AcDbEntity
  8
0
100
AcDbLine
 10
24.6527
 20
85.912611
 30
0.0
 11
24.6527
 21
85.855411
 31
0.0
  0
LINE
  5
3CF
330
1D
100
AcDbEntity
  8
0
100
AcDbLine
 10
24.6527
 20
85.912611
 30
0.0
 11
24.6527
 21
86.085911
 31
0.0
  0
LINE
  5
3D0
330
1D
100
AcDbEntity
  8
0
100
AcDbLine
 10
24.6527
 20
85.855411
 30
0.0
 11
24.6661
 21
85.236711
 31
0.0
  0
LINE
  5
3D1
330
1D
100
AcDbEntity
  8
0
100
AcDbLine
 10
24.6527
 20
85.855411
 30
0.0
 11
24.6527
 21
86.085911
 31
0.0
  0
LINE
  5
3D2
330
1D
100
AcDbEntity
  8
0
100
AcDbLine
 10
24.6527
 20
85.855411
 30
0.0
 11
24.6527
 21
85.912611
 31
0.0
  0
LINE
  5
3D3
330
1D
100
AcDbEntity
  8
0
100
AcDbLine
 10
24.6527
 20
85.855411
 30
0.0
 11
24.6527
 21
86.087011
 31
0.0
  0
LINE
  5
3D4
330
1D
100
AcDbEntity
  8
0
100
AcDbLine
 10
26.3918
 20
83.006611
 30
0.0
 11
26.9598
 21
82.929511
 31
0.0
  0
LINE
  5
3D5
330
1D
100
AcDbEntity
  8
0
100
AcDbLine
 10
25.3125
 20
83.584411
 30
0.0
 11
25.8115
 21
83.216511
 31
0.0
  0
LINE
  5
3D6
330
1D
100
AcDbEntity
  8
0
100
AcDbLine
 10
24.9629
 20
84.063911
 30
0.0
 11
25.3125
 21
83.584411
 31
0.0
  0
LINE
  5
3D7
330
1D
100
AcDbEntity
  8
0
100
AcDbLine
 10
25.8115
 20
83.216511
 30
0.0
 11
26.3918
 21
83.006611
 31
0.0
  0
LINE
  5
3D8
330
1D
100
AcDbEntity
  8
0
100
AcDbLine
 10
24.7554
 20
84.619611
 30
0.0
 11
24.9629
 21
84.063911
 31
0.0
  0
LINE
  5
3D9
330
1D
100
AcDbEntity
  8
0
100
AcDbLine
 10
24.6527
 20
86.638411
 30
0.0
 11
24.6527
 21
87.065511
 31
0.0
  0
LINE
  5
3DA
330
1D
100
AcDbEntity
  8
0
100
AcDbLine
 10
24.6527
 20
86.638411
 30
0.0
 11
24.6527
 21
86.087011
 31
0.0
  0
LINE
  5
3DB
330
1D
100
AcDbEntity
  8
0
100
AcDbLine
 10
24.6527
 20
86.600011
 30
0.0
 11
24.6527
 21
86.088411
 31
0.0
  0
LINE
  5
3DC
330
1D
100
AcDbEntity
  8
0
100
AcDbLine
 10
24.6527
 20
86.600011
 30
0.0
 11
24.6527
 21
87.394911
 31
0.0
  0
LINE
  5
3DD
330
1D
100
AcDbEntity
  8
0
100
AcDbLine
 10
27.5243
 20
82.916411
 30
0.0
 11
76.8613
 21
82.802911
 31
0.0
  0
LINE
  5
3DE
330
1D
100
AcDbEntity
  8
0
100
AcDbLine
 10
27.5243
 20
82.916411
 30
0.0
 11
76.8613
 21
82.802911
 31
0.0
  0
LINE
  5
3DF
330
1D
100
AcDbEntity
  8
0
100
AcDbLine
 10
26.9598
 20
82.929511
 30
0.0
 11
27.5243
 21
82.916411
 31
0.0
  0
LINE
  5
3E0
330
1D
100
AcDbEntity
  8
0
100
AcDbLine
 10
90.24
 20
78.759911
 30
0.0
 11
91.5304
 21
77.169711
 31
0.0
  0
LINE
  5
3E1
330
1D
100
AcDbEntity
  8
0
100
AcDbLine
 10
88.5349
 20
80.254511
 30
0.0
 11
90.24
 21
78.759911
 31
0.0
  0
LINE
  5
3E2
330
1D
100
AcDbEntity
  8
0
100
AcDbLine
 10
91.5304
 20
77.169711
 30
0.0
 11
92.643
 21
75.305611
 31
0.0
  0
LINE
  5
3E3
330
1D
100
AcDbEntity
  8
0
100
AcDbLine
 10
92.643
 20
75.305611
 30
0.0
 11
93.5679
 21
73.181311
 31
0.0
  0
LINE
  5
3E4
330
1D
100
AcDbEntity
  8
0
100
AcDbLine
 10
94.2997
 20
70.817811
 30
0.0
 11
94.8412
 21
68.236011
 31
0.0
  0
LINE
  5
3E5
330
1D
100
AcDbEntity
  8
0
100
AcDbLine
 10
93.5679
 20
73.181311
 30
0.0
 11
94.2997
 21
70.817811
 31
0.0
  0
LINE
  5
3E6
330
1D
100
AcDbEntity
  8
0
100
AcDbLine
 10
94.8412
 20
68.236011
 30
0.0
 11
95.2896
 21
64.487511
 31
0.0
  0
LINE
  5
3E7
330
1D
100
AcDbEntity
  8
0
100
AcDbLine
 10
141.751
 20
41.742111
 30
0.0
 11
141.751
 21
42.018111
 31
0.0
  0
LINE
  5
3E8
330
1D
100
AcDbEntity
  8
0
100
AcDbLine
 10
141.751
 20
41.742111
 30
0.0
 11
141.753
 21
41.264911
 31
0.0
  0
LINE
  5
3E9
330
1D
100
AcDbEntity
  8
0
100
AcDbLine
 10
141.751
 20
42.076211
 30
0.0
 11
141.751
 21
42.018111
 31
0.0
  0
LINE
  5
3EA
330
1D
100
AcDbEntity
  8
0
100
AcDbLine
 10
95.5279
 20
56.049211
 30
0.0
 11
95.7324
 21
-0.235389
 31
0.0
  0
LINE
  5
3EB
330
1D
100
AcDbEntity
  8
0
100
AcDbLine
 10
95.5279
 20
56.049211
 30
0.0
 11
95.7324
 21
-0.235389
 31
0.0
  0
LINE
  5
3EC
330
1D
100
AcDbEntity
  8
0
100
AcDbLine
 10
141.751
 20
42.018111
 30
0.0
 11
141.751
 21
42.076211
 31
0.0
  0
LINE
  5
3ED
330
1D
100
AcDbEntity
  8
0
100
AcDbLine
 10
141.751
 20
42.018111
 30
0.0
 11
141.751
 21
41.742111
 31
0.0
  0
LINE
  5
3EE
330
1D
100
AcDbEntity
  8
0
100
AcDbLine
 10
141.753704813806
 20
40.998209455952
 30
0.0
 11
141.755109776216
 21
40.621258041135
 31
0.0
  0
LINE
  5
3EF
330
1D
100
AcDbEntity
  8
0
100
AcDbLine
 10
141.753
 20
41.264911
 30
0.0
 11
141.755
 21
40.508111
 31
0.0
  0
LINE
  5
3F0
330
1D
100
AcDbEntity
  8
0
100
AcDbLine
 10
95.442
 20
61.810511
 30
0.0
 11
95.5279
 21
56.049211
 31
0.0
  0
LINE
  5
3F1
330
1D
100
AcDbEntity
  8
0
100
AcDbLine
 10
95.2896
 20
64.487511
 30
0.0
 11
95.442
 21
61.810511
 31
0.0
  0
LINE
  5
3F2
330
1D
100
AcDbEntity
  8
0
100
AcDbLine
 10
76.8613
 20
82.802911
 30
0.0
 11
79.7211
 21
82.766211
 31
0.0
  0
LINE
  5
3F3
330
1D
100
AcDbEntity
  8
0
100
AcDbLine
 10
79.7211
 20
82.766211
 30
0.0
 11
81.0725
 21
82.692311
 31
0.0
  0
LINE
  5
3F4
330
1D
100
AcDbEntity
  8
0
100
AcDbLine
 10
81.0725
 20
82.692311
 30
0.0
 11
83.0024
 21
82.461911
 31
0.0
  0
LINE
  5
3F5
330
1D
100
AcDbEntity
  8
0
100
AcDbLine
 10
84.5192
 20
82.133111
 30
0.0
 11
86.6239
 21
81.372311
 31
0.0
  0
LINE
  5
3F6
330
1D
100
AcDbEntity
  8
0
100
AcDbLine
 10
83.0024
 20
82.461911
 30
0.0
 11
84.5192
 21
82.133111
 31
0.0
  0
LINE
  5
3F7
330
1D
100
AcDbEntity
  8
0
100
AcDbLine
 10
86.6239
 20
81.372311
 30
0.0
 11
88.5349
 21
80.254511
 31
0.0
  0
LINE
  5
3F8
330
1D
100
AcDbEntity
  8
0
100
AcDbLine
 10
24.6527
 20
87.065511
 30
0.0
 11
24.6527
 21
86.638411
 31
0.0
  0
LINE
  5
3F9
330
1D
100
AcDbEntity
  8
0
100
AcDbLine
 10
24.6527
 20
88.725611
 30
0.0
 11
24.6527
 21
88.013311
 31
0.0
  0
LINE
  5
3FA
330
1D
100
AcDbEntity
  8
0
100
AcDbLine
 10
24.6527
 20
88.725611
 30
0.0
 11
24.6528
 21
90.016411
 31
0.0
  0
LINE
  5
3FB
330
1D
100
AcDbEntity
  8
0
100
AcDbLine
 10
24.6527
 20
88.013311
 30
0.0
 11
24.6527
 21
87.394911
 31
0.0
  0
LINE
  5
3FC
330
1D
100
AcDbEntity
  8
0
100
AcDbLine
 10
24.6527
 20
88.013311
 30
0.0
 11
24.6527
 21
88.725611
 31
0.0
  0
LINE
  5
3FD
330
1D
100
AcDbEntity
  8
0
100
AcDbLine
 10
24.6527
 20
87.394911
 30
0.0
 11
24.6527
 21
86.600011
 31
0.0
  0
LINE
  5
3FE
330
1D
100
AcDbEntity
  8
0
100
AcDbLine
 10
24.6527
 20
87.394911
 30
0.0
 11
24.6527
 21
88.013311
 31
0.0
  0
LINE
  5
3FF
330
1D
100
AcDbEntity
  8
0
100
AcDbLine
 10
24.6528
 20
90.016411
 30
0.0
 11
24.6529
 21
91.493611
 31
0.0
  0
LINE
  5
400
330
1D
100
AcDbEntity
  8
0
100
AcDbLine
 10
24.6529
 20
91.493611
 30
0.0
 11
24.653
 21
93.124111
 31
0.0
  0
LINE
  5
401
330
1D
100
AcDbEntity
  8
0
100
AcDbLine
 10
24.653
 20
93.124111
 30
0.0
 11
24.6533
 21
93.676111
 31
0.0
  0
LINE
  5
402
330
1D
100
AcDbEntity
  8
0
100
AcDbLine
 10
24.6533
 20
93.676111
 30
0.0
 11
24.6536
 21
95.674611
 31
0.0
  0
LINE
  5
403
330
1D
100
AcDbEntity
  8
0
100
AcDbLine
 10
19.3147
 20
95.205411
 30
0.0
 11
19.3147
 21
96.397011
 31
0.0
  0
LINE
  5
404
330
1D
100
AcDbEntity
  8
0
100
AcDbLine
 10
19.3147
 20
92.947111
 30
0.0
 11
19.3147
 21
94.051011
 31
0.0
  0
LINE
  5
405
330
1D
100
AcDbEntity
  8
0
100
AcDbLine
 10
19.3147
 20
92.947111
 30
0.0
 11
19.3147
 21
91.906611
 31
0.0
  0
LINE
  5
408
330
1D
100
AcDbEntity
  8
0
100
AcDbLine
 10
24.6536
 20
95.674611
 30
0.0
 11
24.6538
 21
97.748611
 31
0.0
  0
LINE
  5
409
330
1D
100
AcDbEntity
  8
0
100
AcDbLine
 10
19.3147
 20
98.835111
 30
0.0
 11
19.3147
 21
100.052611
 31
0.0
  0
LINE
  5
40A
330
1D
100
AcDbEntity
  8
0
100
AcDbLine
 10
19.3147
 20
98.835111
 30
0.0
 11
19.3147
 21
97.611711
 31
0.0
  0
LINE
  5
40B
330
1D
100
AcDbEntity
  8
0
100
AcDbLine
 10
24.6538
 20
97.748611
 30
0.0
 11
24.6538
 21
99.387711
 31
0.0
  0
LINE
  5
40C
330
1D
100
AcDbEntity
  8
0
100
AcDbLine
 10
19.3147
 20
97.611711
 30
0.0
 11
19.3147
 21
98.835111
 31
0.0
  0
LINE
  5
40D
330
1D
100
AcDbEntity
  8
0
100
AcDbLine
 10
19.3147
 20
97.611711
 30
0.0
 11
19.3147
 21
96.397011
 31
0.0
  0
LINE
  5
40E
330
1D
100
AcDbEntity
  8
0
100
AcDbLine
 10
19.3147
 20
96.397011
 30
0.0
 11
19.3147
 21
97.611711
 31
0.0
  0
LINE
  5
40F
330
1D
100
AcDbEntity
  8
0
100
AcDbLine
 10
19.3147
 20
96.397011
 30
0.0
 11
19.3147
 21
95.205411
 31
0.0
  0
LINE
  5
411
330
1D
100
AcDbEntity
  8
0
100
AcDbLine
 10
19.3147
 20
101.251611
 30
0.0
 11
19.3147
 21
102.415611
 31
0.0
  0
LINE
  5
412
330
1D
100
AcDbEntity
  8
0
100
AcDbLine
 10
19.3147
 20
101.251611
 30
0.0
 11
19.3147
 21
100.052611
 31
0.0
  0
LINE
  5
413
330
1D
100
AcDbEntity
  8
0
100
AcDbLine
 10
19.3147
 20
109.663611
 30
0.0
 11
19.3147
 21
109.582611
 31
0.0
  0
LINE
  5
414
330
1D
100
AcDbEntity
  8
0
100
AcDbLine
 10
19.3147
 20
109.663611
 30
0.0
 11
24.668394852941
 21
109.663611
 31
0.0
  0
LINE
  5
415
330
1D
100
AcDbEntity
  8
0
100
AcDbLine
 10
19.3147
 20
109.368611
 30
0.0
 11
19.3147
 21
109.582611
 31
0.0
  0
LINE
  5
416
330
1D
100
AcDbEntity
  8
0
100
AcDbLine
 10
19.3147
 20
109.368611
 30
0.0
 11
19.3147
 21
109.026611
 31
0.0
  0
LINE
  5
417
330
1D
100
AcDbEntity
  8
0
100
AcDbLine
 10
19.3147
 20
109.026611
 30
0.0
 11
19.3147
 21
109.368611
 31
0.0
  0
LINE
  5
418
330
1D
100
AcDbEntity
  8
0
100
AcDbLine
 10
19.3147
 20
109.026611
 30
0.0
 11
19.3147
 21
108.559611
 31
0.0
  0
LINE
  5
419
330
1D
100
AcDbEntity
  8
0
100
AcDbLine
 10
19.3147
 20
108.559611
 30
0.0
 11
19.3147
 21
109.026611
 31
0.0
  0
LINE
  5
41A
330
1D
100
AcDbEntity
  8
0
100
AcDbLine
 10
19.3147
 20
108.559611
 30
0.0
 11
19.3147
 21
107.973611
 31
0.0
  0
LINE
  5
41B
330
1D
100
AcDbEntity
  8
0
100
AcDbLine
 10
19.3147
 20
109.582611
 30
0.0
 11
19.3147
 21
109.663611
 31
0.0
  0
LINE
  5
41C
330
1D
100
AcDbEntity
  8
0
100
AcDbLine
 10
19.3147
 20
109.582611
 30
0.0
 11
19.3147
 21
109.368611
 31
0.0
  0
LINE
  5
41D
330
1D
100
AcDbEntity
  8
0
100
AcDbLine
 10
19.3147
 20
107.973611
 30
0.0
 11
19.3147
 21
108.559611
 31
0.0
  0
LINE
  5
41E
330
1D
100
AcDbEntity
  8
0
100
AcDbLine
 10
19.3147
 20
107.973611
 30
0.0
 11
19.3147
 21
107.274611
 31
0.0
  0
LINE
  5
41F
330
1D
100
AcDbEntity
  8
0
100
AcDbLine
 10
19.3147
 20
107.274611
 30
0.0
 11
19.3147
 21
107.973611
 31
0.0
  0
LINE
  5
420
330
1D
100
AcDbEntity
  8
0
100
AcDbLine
 10
19.3147
 20
107.274611
 30
0.0
 11
19.3147
 21
106.470611
 31
0.0
  0
LINE
  5
421
330
1D
100
AcDbEntity
  8
0
100
AcDbLine
 10
19.3147
 20
106.470611
 30
0.0
 11
19.3147
 21
107.274611
 31
0.0
  0
LINE
  5
422
330
1D
100
AcDbEntity
  8
0
100
AcDbLine
 10
19.3147
 20
106.470611
 30
0.0
 11
19.3147
 21
105.571611
 31
0.0
  0
LINE
  5
423
330
1D
100
AcDbEntity
  8
0
100
AcDbLine
 10
19.3147
 20
105.571611
 30
0.0
 11
19.3147
 21
106.470611
 31
0.0
  0
LINE
  5
424
330
1D
100
AcDbEntity
  8
0
100
AcDbLine
 10
19.3147
 20
105.571611
 30
0.0
 11
19.3147
 21
104.588611
 31
0.0
  0
LINE
  5
425
330
1D
100
AcDbEntity
  8
0
100
AcDbLine
 10
19.3147
 20
104.588611
 30
0.0
 11
19.3147
 21
105.571611
 31
0.0
  0
LINE
  5
426
330
1D
100
AcDbEntity
  8
0
100
AcDbLine
 10
19.3147
 20
104.588611
 30
0.0
 11
19.3147
 21
103.532611
 31
0.0
  0
LINE
  5
427
330
1D
100
AcDbEntity
  8
0
100
AcDbLine
 10
19.3147
 20
103.532611
 30
0.0
 11
19.3147
 21
104.588611
 31
0.0
  0
LINE
  5
428
330
1D
100
AcDbEntity
  8
0
100
AcDbLine
 10
19.3147
 20
103.532611
 30
0.0
 11
19.3147
 21
102.415611
 31
0.0
  0
LINE
  5
429
330
1D
100
AcDbEntity
  8
0
100
AcDbLine
 10
19.3147
 20
102.415611
 30
0.0
 11
19.3147
 21
103.532611
 31
0.0
  0
LINE
  5
42A
330
1D
100
AcDbEntity
  8
0
100
AcDbLine
 10
19.3147
 20
102.415611
 30
0.0
 11
19.3147
 21
101.251611
 31
0.0
  0
LINE
  5
42B
330
1D
100
AcDbEntity
  8
0
100
AcDbLine
 10
24.6559
 20
104.656611
 30
0.0
 11
24.6576
 21
106.266611
 31
0.0
  0
LINE
  5
42C
330
1D
100
AcDbEntity
  8
0
100
AcDbLine
 10
24.6609
 20
107.947611
 30
0.0
 11
24.6659
 21
109.286611
 31
0.0
  0
LINE
  5
42D
330
1D
100
AcDbEntity
  8
0
100
AcDbLine
 10
24.6576
 20
106.266611
 30
0.0
 11
24.6609
 21
107.947611
 31
0.0
  0
LINE
  5
42E
330
1D
100
AcDbEntity
  8
0
100
AcDbLine
 10
24.6549
 20
102.889611
 30
0.0
 11
24.6559
 21
104.656611
 31
0.0
  0
LINE
  5
42F
330
1D
100
AcDbEntity
  8
0
100
AcDbLine
 10
24.6541
 20
101.011611
 30
0.0
 11
24.6549
 21
102.889611
 31
0.0
  0
LINE
  5
430
330
1D
100
AcDbEntity
  8
0
100
AcDbLine
 10
24.6538
 20
99.387711
 30
0.0
 11
24.6538
 21
97.748611
 31
0.0
  0
LINE
  5
431
330
1D
100
AcDbEntity
  8
0
100
AcDbLine
 10
24.6538
 20
99.387711
 30
0.0
 11
24.6541
 21
101.011611
 31
0.0
  0
LINE
  5
432
330
1D
100
AcDbEntity
  8
0
100
AcDbLine
 10
24.668383628319
 20
109.663611
 30
0.0
 11
24.6722
 21
110.238611
 31
0.0
  0
LINE
  5
433
330
1D
100
AcDbEntity
  8
0
100
AcDbLine
 10
24.6767
 20
110.706611
 30
0.0
 11
24.6784
 21
110.864611
 31
0.0
  0
LINE
  5
434
330
1D
100
AcDbEntity
  8
0
100
AcDbLine
 10
24.727737228733
 20
111.25309553797
 30
0.0
 11
24.7383
 21
111.391611
 31
0.0
  0
LINE
  5
435
330
1D
100
AcDbEntity
  8
0
100
AcDbLine
 10
24.6784
 20
110.864611
 30
0.0
 11
24.727737228733
 21
111.25309553797
 31
0.0
  0
LINE
  5
437
330
1D
100
AcDbEntity
  8
0
100
AcDbLine
 10
24.7383
 20
111.391611
 30
0.0
 11
24.8388
 21
112.127611
 31
0.0
  0
LINE
  5
438
330
1D
100
AcDbEntity
  8
0
100
AcDbLine
 10
25.0629
 20
112.834611
 30
0.0
 11
25.3186
 21
113.186611
 31
0.0
  0
LINE
  5
43C
330
1D
100
AcDbEntity
  8
0
100
AcDbLine
 10
25.9124
 20
113.575611
 30
0.0
 11
26.361
 21
113.701611
 31
0.0
  0
LINE
  5
43D
330
1D
100
AcDbEntity
  8
0
100
AcDbLine
 10
26.361
 20
113.701611
 30
0.0
 11
30.2871
 21
114.424611
 31
0.0
  0
LINE
  5
43E
330
1D
100
AcDbEntity
  8
0
100
AcDbLine
 10
30.2871
 20
114.424611
 30
0.0
 11
34.2299
 21
114.934611
 31
0.0
  0
LINE
  5
440
330
1D
100
AcDbEntity
  8
0
100
AcDbLine
 10
25.7397
 20
113.458611
 30
0.0
 11
25.9124
 21
113.575611
 31
0.0
  0
LINE
  5
441
330
1D
100
AcDbEntity
  8
0
100
AcDbLine
 10
25.3186
 20
113.186611
 30
0.0
 11
25.7397
 21
113.458611
 31
0.0
  0
LINE
  5
442
330
1D
100
AcDbEntity
  8
0
100
AcDbLine
 10
24.8483
 20
112.129611
 30
0.0
 11
25.0629
 21
112.834611
 31
0.0
  0
LINE
  5
443
330
1D
100
AcDbEntity
  8
0
100
AcDbLine
 10
34.2299
 20
114.934611
 30
0.0
 11
38.1833
 21
115.264611
 31
0.0
  0
LINE
  5
446
330
1D
100
AcDbEntity
  8
0
100
AcDbLine
 10
24.6768
 20
110.706611
 30
0.0
 11
24.6784
 21
110.864611
 31
0.0
  0
LINE
  5
447
330
1D
100
AcDbEntity
  8
0
100
AcDbLine
 10
24.6722
 20
110.238611
 30
0.0
 11
24.6768
 21
110.706611
 31
0.0
  0
LINE
  5
448
330
1D
100
AcDbEntity
  8
0
100
AcDbLine
 10
24.6722
 20
110.238611
 30
0.0
 11
24.6767
 21
110.706611
 31
0.0
  0
LINE
  5
449
330
1D
100
AcDbEntity
  8
0
100
AcDbLine
 10
24.6659
 20
109.286611
 30
0.0
 11
24.6722
 21
110.238611
 31
0.0
  0
LINE
  5
44A
330
1D
100
AcDbEntity
  8
0
100
AcDbLine
 10
38.1833
 20
115.264611
 30
0.0
 11
42.1413
 21
115.450611
 31
0.0
  0
LINE
  5
44B
330
1D
100
AcDbEntity
  8
0
100
AcDbLine
 10
42.1413
 20
115.450611
 30
0.0
 11
46.7959
 21
115.531611
 31
0.0
  0
LINE
  5
44C
330
1D
100
AcDbEntity
  8
0
100
AcDbLine
 10
46.7959
 20
115.531611
 30
0.0
 11
51.191
 21
115.526611
 31
0.0
  0
LINE
  5
44D
330
1D
100
AcDbEntity
  8
0
100
AcDbLine
 10
68.7592
 20
115.384611
 30
0.0
 11
78.349414780301
 21
115.244285656161
 31
0.0
  0
LINE
  5
44E
330
1D
100
AcDbEntity
  8
0
100
AcDbLine
 10
68.7592
 20
115.384611
 30
0.0
 11
78.349414780301
 21
115.244285656161
 31
0.0
  0
LINE
  5
44F
330
1D
100
AcDbEntity
  8
0
100
AcDbLine
 10
51.191
 20
115.526611
 30
0.0
 11
68.7592
 21
115.384611
 31
0.0
  0
LINE
  5
450
330
1D
100
AcDbEntity
  8
0
100
AcDbLine
 10
87.0325
 20
115.153611
 30
0.0
 11
97.8609
 21
114.958611
 31
0.0
  0
LINE
  5
451
330
1D
100
AcDbEntity
  8
0
100
AcDbLine
 10
96.2324
 20
116.863611
 30
0.0
 11
96.2985
 21
116.612611
 31
0.0
  0
LINE
  5
45E
330
1D
100
AcDbEntity
  8
0
100
AcDbLine
 10
54.7164
 20
158.558611
 30
0.0
 11
56.7312
 21
157.410611
 31
0.0
  0
LINE
  5
45F
330
1D
100
AcDbEntity
  8
0
100
AcDbLine
 10
53.7456
 20
159.209611
 30
0.0
 11
54.7164
 21
158.558611
 31
0.0
  0
LINE
  5
460
330
1D
100
AcDbEntity
  8
0
100
AcDbLine
 10
51.8925
 20
160.695611
 30
0.0
 11
52.8033
 21
159.919611
 31
0.0
  0
LINE
  5
465
330
1D
100
AcDbEntity
  8
0
100
AcDbLine
 10
51.016
 20
161.541611
 30
0.0
 11
51.8925
 21
160.695611
 31
0.0
  0
LINE
  5
466
330
1D
100
AcDbEntity
  8
0
100
AcDbLine
 10
52.8033
 20
159.919611
 30
0.0
 11
53.7456
 21
159.209611
 31
0.0
  0
LINE
  5
467
330
1D
100
AcDbEntity
  8
0
100
AcDbLine
 10
50.8381
 20
161.787611
 30
0.0
 11
51.016
 21
161.541611
 31
0.0
  0
LINE
  5
469
330
1D
100
AcDbEntity
  8
0
100
AcDbLine
 10
50.8257
 20
162.657611
 30
0.0
 11
50.9936
 21
162.912611
 31
0.0
  0
LINE
  5
46A
330
1D
100
AcDbEntity
  8
0
100
AcDbLine
 10
54.3149
 20
163.038611
 30
0.0
 11
56.8199
 21
162.778611
 31
0.0
  0
LINE
  5
46E
330
1D
100
AcDbEntity
  8
0
100
AcDbLine
 10
50.74
 20
162.363611
 30
0.0
 11
50.747
 21
162.054611
 31
0.0
  0
LINE
  5
46F
330
1D
100
AcDbEntity
  8
0
100
AcDbLine
 10
50.74
 20
162.363611
 30
0.0
 11
50.8257
 21
162.657611
 31
0.0
  0
LINE
  5
470
330
1D
100
AcDbEntity
  8
0
100
AcDbLine
 10
51.7982
 20
163.235611
 30
0.0
 11
54.3149
 21
163.038611
 31
0.0
  0
LINE
  5
475
330
1D
100
AcDbEntity
  8
0
100
AcDbLine
 10
92.6707
 20
143.262611
 30
0.0
 11
93.6557
 21
142.273611
 31
0.0
  0
LINE
  5
477
330
1D
100
AcDbEntity
  8
0
100
AcDbLine
 10
89.2912
 20
145.422611
 30
0.0
 11
91.1382
 21
144.400611
 31
0.0
  0
LINE
  5
478
330
1D
100
AcDbEntity
  8
0
100
AcDbLine
 10
91.9432
 20
143.848611
 30
0.0
 11
92.6707
 21
143.262611
 31
0.0
  0
LINE
  5
479
330
1D
100
AcDbEntity
  8
0
100
AcDbLine
 10
87.9394
 20
146.036611
 30
0.0
 11
89.2912
 21
145.422611
 31
0.0
  0
LINE
  5
47A
330
1D
100
AcDbEntity
  8
0
100
AcDbLine
 10
84.0038
 20
147.533611
 30
0.0
 11
86.4512
 21
146.637611
 31
0.0
  0
LINE
  5
47B
330
1D
100
AcDbEntity
  8
0
100
AcDbLine
 10
71.3435
 20
151.901611
 30
0.0
 11
84.0038
 21
147.533611
 31
0.0
  0
LINE
  5
47C
330
1D
100
AcDbEntity
  8
0
100
AcDbLine
 10
86.4512
 20
146.637611
 30
0.0
 11
87.9394
 21
146.036611
 31
0.0
  0
LINE
  5
47E
330
1D
100
AcDbEntity
  8
0
100
AcDbLine
 10
63.1497
 20
154.755611
 30
0.0
 11
71.3435
 21
151.901611
 31
0.0
  0
LINE
  5
47F
330
1D
100
AcDbEntity
  8
0
100
AcDbLine
 10
60.2515
 20
155.836611
 30
0.0
 11
63.1497
 21
154.755611
 31
0.0
  0
LINE
  5
480
330
1D
100
AcDbEntity
  8
0
100
AcDbLine
 10
58.8244
 20
156.425611
 30
0.0
 11
60.2515
 21
155.836611
 31
0.0
  0
LINE
  5
481
330
1D
100
AcDbEntity
  8
0
100
AcDbLine
 10
56.7312
 20
157.410611
 30
0.0
 11
58.8244
 21
156.425611
 31
0.0
  0
LINE
  5
482
330
1D
100
AcDbEntity
  8
0
100
AcDbLine
 10
78.6396
 20
158.690611
 30
0.0
 11
85.957
 21
156.957611
 31
0.0
  0
LINE
  5
483
330
1D
100
AcDbEntity
  8
0
100
AcDbLine
 10
85.957
 20
156.957611
 30
0.0
 11
93.6525
 21
155.051611
 31
0.0
  0
LINE
  5
488
330
1D
100
AcDbEntity
  8
0
100
AcDbLine
 10
95.1042
 20
139.999611
 30
0.0
 11
95.5848
 21
138.720611
 31
0.0
  0
LINE
  5
489
330
1D
100
AcDbEntity
  8
0
100
AcDbLine
 10
95.5848
 20
138.720611
 30
0.0
 11
95.8509
 21
137.703611
 31
0.0
  0
LINE
  5
48A
330
1D
100
AcDbEntity
  8
0
100
AcDbLine
 10
95.8509
 20
137.703611
 30
0.0
 11
96.0456
 21
136.642611
 31
0.0
  0
LINE
  5
48B
330
1D
100
AcDbEntity
  8
0
100
AcDbLine
 10
96.0456
 20
136.642611
 30
0.0
 11
96.2587
 21
134.407611
 31
0.0
  0
LINE
  5
48C
330
1D
100
AcDbEntity
  8
0
100
AcDbLine
 10
96.2587
 20
134.407611
 30
0.0
 11
96.3084
 21
132.847611
 31
0.0
  0
LINE
  5
48D
330
1D
100
AcDbEntity
  8
0
100
AcDbLine
 10
94.4647
 20
141.185611
 30
0.0
 11
95.1042
 21
139.999611
 31
0.0
  0
LINE
  5
48E
330
1D
100
AcDbEntity
  8
0
100
AcDbLine
 10
93.6557
 20
142.273611
 30
0.0
 11
94.4647
 21
141.185611
 31
0.0
  0
LINE
  5
48F
330
1D
100
AcDbEntity
  8
0
100
AcDbLine
 10
93.6525
 20
155.051611
 30
0.0
 11
101.723
 21
152.982611
 31
0.0
  0
LINE
  5
490
330
1D
100
AcDbEntity
  8
0
100
AcDbLine
 10
66.7566
 20
161.227611
 30
0.0
 11
71.7022
 21
160.229611
 31
0.0
  0
LINE
  5
491
330
1D
100
AcDbEntity
  8
0
100
AcDbLine
 10
56.8199
 20
162.778611
 30
0.0
 11
61.8008
 21
162.093611
 31
0.0
  0
LINE
  5
492
330
1D
100
AcDbEntity
  8
0
100
AcDbLine
 10
61.8008
 20
162.093611
 30
0.0
 11
66.7566
 21
161.227611
 31
0.0
  0
LINE
  5
493
330
1D
100
AcDbEntity
  8
0
100
AcDbLine
 10
71.7022
 20
160.229611
 30
0.0
 11
71.7963
 21
160.205611
 31
0.0
  0
LINE
  5
494
330
1D
100
AcDbEntity
  8
0
100
AcDbLine
 10
71.7963
 20
160.205611
 30
0.0
 11
78.6396
 21
158.690611
 31
0.0
  0
LINE
  5
497
330
1D
100
AcDbEntity
  8
0
100
AcDbLine
 10
96.2985
 20
116.612611
 30
0.0
 11
96.4814
 21
116.427611
 31
0.0
  0
LINE
  5
499
330
1D
100
AcDbEntity
  8
0
100
AcDbLine
 10
96.8736
 20
116.360611
 30
0.0
 11
97.2032
 21
116.360611
 31
0.0
  0
LINE
  5
49A
330
1D
100
AcDbEntity
  8
0
100
AcDbLine
 10
96.7325
 20
116.360611
 30
0.0
 11
96.8413
 21
116.360611
 31
0.0
  0
LINE
  5
49B
330
1D
100
AcDbEntity
  8
0
100
AcDbLine
 10
96.7325
 20
116.360611
 30
0.0
 11
96.8736
 21
116.360611
 31
0.0
  0
LINE
  5
49C
330
1D
100
AcDbEntity
  8
0
100
AcDbLine
 10
96.8413
 20
116.360611
 30
0.0
 11
97.1644
 21
116.360611
 31
0.0
  0
LINE
  5
49D
330
1D
100
AcDbEntity
  8
0
100
AcDbLine
 10
97.8609
 20
114.958611
 30
0.0
 11
97.9994
 21
114.943611
 31
0.0
  0
LINE
  5
49E
330
1D
100
AcDbEntity
  8
0
100
AcDbLine
 10
97.9994
 20
114.943611
 30
0.0
 11
98.4129
 21
114.896611
 31
0.0
  0
LINE
  5
49F
330
1D
100
AcDbEntity
  8
0
100
AcDbLine
 10
97.7345
 20
116.360611
 30
0.0
 11
98.322121348315
 21
116.360611
 31
0.0
  0
LINE
  5
4A0
330
1D
100
AcDbEntity
  8
0
100
AcDbLine
 10
97.2032
 20
116.360611
 30
0.0
 11
97.7345
 21
116.360611
 31
0.0
  0
LINE
  5
4A1
330
1D
100
AcDbEntity
  8
0
100
AcDbLine
 10
97.1644
 20
116.360611
 30
0.0
 11
97.7109
 21
116.360611
 31
0.0
  0
LINE
  5
4A2
330
1D
100
AcDbEntity
  8
0
100
AcDbLine
 10
96.4814
 20
116.427611
 30
0.0
 11
96.7325
 21
116.360611
 31
0.0
  0
LINE
  5
4A3
330
1D
100
AcDbEntity
  8
0
100
AcDbLine
 10
97.7109
 20
116.360611
 30
0.0
 11
98.4276
 21
116.360611
 31
0.0
  0
LINE
  5
4A4
330
1D
100
AcDbEntity
  8
0
100
AcDbLine
 10
98.4129
 20
114.896611
 30
0.0
 11
99.095
 21
114.820611
 31
0.0
  0
LINE
  5
4A5
330
1D
100
AcDbEntity
  8
0
100
AcDbLine
 10
100.377
 20
114.681611
 30
0.0
 11
101.417
 21
114.574611
 31
0.0
  0
LINE
  5
4A6
330
1D
100
AcDbEntity
  8
0
100
AcDbLine
 10
99.095
 20
114.820611
 30
0.0
 11
100.377
 21
114.681611
 31
0.0
  0
LINE
  5
4A7
330
1D
100
AcDbEntity
  8
0
100
AcDbLine
 10
98.4276
 20
116.360611
 30
0.0
 11
99.349
 21
116.360611
 31
0.0
  0
LINE
  5
4A8
330
1D
100
AcDbEntity
  8
0
100
AcDbLine
 10
99.349
 20
116.360611
 30
0.0
 11
100.475
 21
116.360611
 31
0.0
  0
LINE
  5
4A9
330
1D
100
AcDbEntity
  8
0
100
AcDbLine
 10
101.417
 20
114.574611
 30
0.0
 11
102.617
 21
114.460611
 31
0.0
  0
LINE
  5
4AA
330
1D
100
AcDbEntity
  8
0
100
AcDbLine
 10
102.617
 20
114.460611
 30
0.0
 11
104.77
 21
114.279611
 31
0.0
  0
LINE
  5
4AB
330
1D
100
AcDbEntity
  8
0
100
AcDbLine
 10
100.475
 20
116.360611
 30
0.0
 11
101.935
 21
116.360611
 31
0.0
  0
LINE
  5
4AC
330
1D
100
AcDbEntity
  8
0
100
AcDbLine
 10
101.935
 20
116.360611
 30
0.0
 11
103.615
 21
116.360611
 31
0.0
  0
LINE
  5
4AD
330
1D
100
AcDbEntity
  8
0
100
AcDbLine
 10
104.77
 20
114.279611
 30
0.0
 11
107.233
 21
114.113611
 31
0.0
  0
LINE
  5
4AE
330
1D
100
AcDbEntity
  8
0
100
AcDbLine
 10
107.233
 20
114.113611
 30
0.0
 11
110.066
 21
113.974611
 31
0.0
  0
LINE
  5
4AF
330
1D
100
AcDbEntity
  8
0
100
AcDbLine
 10
103.615
 20
116.360611
 30
0.0
 11
105.49
 21
116.360611
 31
0.0
  0
LINE
  5
4B0
330
1D
100
AcDbEntity
  8
0
100
AcDbLine
 10
105.49
 20
116.360611
 30
0.0
 11
107.265
 21
116.360611
 31
0.0
  0
LINE
  5
4B1
330
1D
100
AcDbEntity
  8
0
100
AcDbLine
 10
110.066
 20
113.974611
 30
0.0
 11
113.106
 21
113.880611
 31
0.0
  0
LINE
  5
4B2
330
1D
100
AcDbEntity
  8
0
100
AcDbLine
 10
107.265
 20
116.360611
 30
0.0
 11
109.136
 21
116.360611
 31
0.0
  0
LINE
  5
4B3
330
1D
100
AcDbEntity
  8
0
100
AcDbLine
 10
109.136
 20
116.360611
 30
0.0
 11
111.077
 21
116.360611
 31
0.0
  0
LINE
  5
4B4
330
1D
100
AcDbEntity
  8
0
100
AcDbLine
 10
113.106
 20
113.880611
 30
0.0
 11
115.537
 21
113.842611
 31
0.0
  0
LINE
  5
4B5
330
1D
100
AcDbEntity
  8
0
100
AcDbLine
 10
111.077
 20
116.360611
 30
0.0
 11
112.803
 21
116.360611
 31
0.0
  0
LINE
  5
4B6
330
1D
100
AcDbEntity
  8
0
100
AcDbLine
 10
112.803
 20
116.360611
 30
0.0
 11
114.555
 21
116.360611
 31
0.0
  0
LINE
  5
4B7
330
1D
100
AcDbEntity
  8
0
100
AcDbLine
 10
115.537
 20
113.842611
 30
0.0
 11
116.717
 21
113.833611
 31
0.0
  0
LINE
  5
4B8
330
1D
100
AcDbEntity
  8
0
100
AcDbLine
 10
116.717
 20
113.833611
 30
0.0
 11
119.16
 21
113.832611
 31
0.0
  0
LINE
  5
4B9
330
1D
100
AcDbEntity
  8
0
100
AcDbLine
 10
114.555
 20
116.360611
 30
0.0
 11
116.323
 21
116.360611
 31
0.0
  0
LINE
  5
4BA
330
1D
100
AcDbEntity
  8
0
100
AcDbLine
 10
116.323
 20
116.360611
 30
0.0
 11
118.314
 21
116.360611
 31
0.0
  0
LINE
  5
4BB
330
1D
100
AcDbEntity
  8
0
100
AcDbLine
 10
98.132247422509
 20
114.92851105113
 30
0.0
 11
98.322121348315
 21
116.360611
 31
0.0
  0
LINE
  5
4BE
330
1D
100
AcDbEntity
  8
0
100
AcDbLine
 10
125.04
 20
113.890611
 30
0.0
 11
127.176
 21
113.918611
 31
0.0
  0
LINE
  5
4BF
330
1D
100
AcDbEntity
  8
0
100
AcDbLine
 10
123.061
 20
113.865611
 30
0.0
 11
125.04
 21
113.890611
 31
0.0
  0
LINE
  5
4C0
330
1D
100
AcDbEntity
  8
0
100
AcDbLine
 10
121.036
 20
113.844611
 30
0.0
 11
123.061
 21
113.865611
 31
0.0
  0
LINE
  5
4C1
330
1D
100
AcDbEntity
  8
0
100
AcDbLine
 10
138.832
 20
113.890611
 30
0.0
 11
138.961
 21
113.886611
 31
0.0
  0
LINE
  5
4C2
330
1D
100
AcDbEntity
  8
0
100
AcDbLine
 10
140.71
 20
112.833611
 30
0.0
 11
140.812
 21
112.485611
 31
0.0
  0
LINE
  5
4C3
330
1D
100
AcDbEntity
  8
0
100
AcDbLine
 10
140.41
 20
113.317611
 30
0.0
 11
140.71
 21
112.833611
 31
0.0
  0
LINE
  5
4C4
330
1D
100
AcDbEntity
  8
0
100
AcDbLine
 10
139.954
 20
113.665611
 30
0.0
 11
140.41
 21
113.317611
 31
0.0
  0
LINE
  5
4C5
330
1D
100
AcDbEntity
  8
0
100
AcDbLine
 10
139.61
 20
113.798611
 30
0.0
 11
139.954
 21
113.665611
 31
0.0
  0
LINE
  5
4C6
330
1D
100
AcDbEntity
  8
0
100
AcDbLine
 10
140.812
 20
112.485611
 30
0.0
 11
140.862
 21
111.859611
 31
0.0
  0
LINE
  5
4C7
330
1D
100
AcDbEntity
  8
0
100
AcDbLine
 10
140.862
 20
111.859611
 30
0.0
 11
141.751
 21
42.076211
 31
0.0
  0
LINE
  5
4C8
330
1D
100
AcDbEntity
  8
0
100
AcDbLine
 10
138.961
 20
113.886611
 30
0.0
 11
139.428059113301
 21
113.823280950739
 31
0.0
  0
LINE
  5
4C9
330
1D
100
AcDbEntity
  8
0
100
AcDbLine
 10
138.759535917158
 20
113.892473032107
 30
0.0
 11
138.832
 21
113.890611
 31
0.0
  0
LINE
  5
4CA
330
1D
100
AcDbEntity
  8
0
100
AcDbLine
 10
138.831
 20
113.890611
 30
0.0
 11
138.961
 21
113.886611
 31
0.0
  0
LINE
  5
4CB
330
1D
100
AcDbEntity
  8
0
100
AcDbLine
 10
138.29
 20
113.904611
 30
0.0
 11
138.831
 21
113.890611
 31
0.0
  0
LINE
  5
4CC
330
1D
100
AcDbEntity
  8
0
100
AcDbLine
 10
137.337
 20
113.924611
 30
0.0
 11
138.29
 21
113.904611
 31
0.0
  0
LINE
  5
4CD
330
1D
100
AcDbEntity
  8
0
100
AcDbLine
 10
136.217
 20
113.943611
 30
0.0
 11
137.337
 21
113.924611
 31
0.0
  0
LINE
  5
4CE
330
1D
100
AcDbEntity
  8
0
100
AcDbLine
 10
134.832
 20
113.957611
 30
0.0
 11
136.217
 21
113.943611
 31
0.0
  0
LINE
  5
4CF
330
1D
100
AcDbEntity
  8
0
100
AcDbLine
 10
133.201
 20
113.963611
 30
0.0
 11
134.832
 21
113.957611
 31
0.0
  0
LINE
  5
4D0
330
1D
100
AcDbEntity
  8
0
100
AcDbLine
 10
131.302
 20
113.958611
 30
0.0
 11
133.201
 21
113.963611
 31
0.0
  0
LINE
  5
4D1
330
1D
100
AcDbEntity
  8
0
100
AcDbLine
 10
129.202
 20
113.941611
 30
0.0
 11
131.302
 21
113.958611
 31
0.0
  0
LINE
  5
4D2
330
1D
100
AcDbEntity
  8
0
100
AcDbLine
 10
127.176
 20
113.918611
 30
0.0
 11
129.202
 21
113.941611
 31
0.0
  0
LINE
  5
4D3
330
1D
100
AcDbEntity
  8
0
100
AcDbLine
 10
119.16
 20
113.832611
 30
0.0
 11
121.036
 21
113.844611
 31
0.0
  0
LINE
  5
4D4
330
1D
100
AcDbEntity
  8
0
100
AcDbLine
 10
138.726
 20
114.653611
 30
0.0
 11
138.759536476669
 21
113.892460333321
 31
0.0
  0
LINE
  5
4D5
330
1D
100
AcDbEntity
  8
0
100
AcDbLine
 10
118.314
 20
116.360611
 30
0.0
 11
118.501
 21
116.396611
 31
0.0
  0
LINE
  5
4D6
330
1D
100
AcDbEntity
  8
0
100
AcDbLine
 10
118.501
 20
116.396611
 30
0.0
 11
120.728
 21
117.296611
 31
0.0
  0
LINE
  5
4D9
330
1D
100
AcDbEntity
  8
0
100
AcDbLine
 10
120.728
 20
117.296611
 30
0.0
 11
140.101
 21
125.123611
 31
0.0
  0
LINE
  5
4DC
330
1D
100
AcDbEntity
  8
0
100
AcDbLine
 10
138.49
 20
116.433611
 30
0.0
 11
138.726
 21
114.653611
 31
0.0
  0
LINE
  5
4DD
330
1D
100
AcDbEntity
  8
0
100
AcDbLine
 10
138.098
 20
118.184611
 30
0.0
 11
138.49
 21
116.433611
 31
0.0
  0
LINE
  5
4DE
330
1D
100
AcDbEntity
  8
0
100
AcDbLine
 10
137.554
 20
119.895611
 30
0.0
 11
138.098
 21
118.184611
 31
0.0
  0
LINE
  5
4DF
330
1D
100
AcDbEntity
  8
0
100
AcDbLine
 10
136.861
 20
121.551611
 30
0.0
 11
137.554
 21
119.895611
 31
0.0
  0
LINE
  5
4E3
330
1D
100
AcDbEntity
  8
0
100
AcDbLine
 10
136.026
 20
123.139611
 30
0.0
 11
136.861
 21
121.551611
 31
0.0
  0
LINE
  5
4F8
330
1D
100
AcDbEntity
  8
0
100
AcDbLine
 10
135.827735160198
 20
123.397647382083
 30
0.0
 11
135.987
 21
123.139611
 31
0.0
  0
LINE
  5
4FA
330
1D
100
AcDbEntity
  8
0
100
AcDbLine
 10
118.291
 20
116.427611
 30
0.0
 11
118.314
 21
116.360611
 31
0.0
  0
LINE
  5
512
330
1D
100
AcDbEntity
  8
0
100
AcDbLine
 10
140.101
 20
125.123611
 30
0.0
 11
140.166
 21
125.149611
 31
0.0
  0
LINE
  5
513
330
1D
100
AcDbEntity
  8
0
100
AcDbLine
 10
140.166
 20
125.149611
 30
0.0
 11
140.395
 21
125.336611
 31
0.0
  0
LINE
  5
516
330
1D
100
AcDbEntity
  8
0
100
AcDbLine
 10
140.395
 20
125.336611
 30
0.0
 11
140.478
 21
125.619611
 31
0.0
  0
LINE
  5
51C
330
1D
100
AcDbEntity
  8
0
100
AcDbLine
 10
118.976
 20
148.355611
 30
0.0
 11
123.235
 21
147.158611
 31
0.0
  0
LINE
  5
51D
330
1D
100
AcDbEntity
  8
0
100
AcDbLine
 10
123.235
 20
147.158611
 30
0.0
 11
125.35
 21
146.530611
 31
0.0
  0
LINE
  5
51E
330
1D
100
AcDbEntity
  8
0
100
AcDbLine
 10
125.35
 20
146.530611
 30
0.0
 11
128.493
 21
145.522611
 31
0.0
  0
LINE
  5
51F
330
1D
100
AcDbEntity
  8
0
100
AcDbLine
 10
130.823
 20
144.696611
 30
0.0
 11
133.125
 21
143.794611
 31
0.0
  0
LINE
  5
520
330
1D
100
AcDbEntity
  8
0
100
AcDbLine
 10
128.493
 20
145.522611
 30
0.0
 11
130.823
 21
144.696611
 31
0.0
  0
LINE
  5
521
330
1D
100
AcDbEntity
  8
0
100
AcDbLine
 10
133.125
 20
143.794611
 30
0.0
 11
134.698035110169
 21
143.085121122877
 31
0.0
  0
LINE
  5
522
330
1D
100
AcDbEntity
  8
0
100
AcDbLine
 10
139.816
 20
140.481611
 30
0.0
 11
140.018
 21
140.323611
 31
0.0
  0
LINE
  5
523
330
1D
100
AcDbEntity
  8
0
100
AcDbLine
 10
140.305
 20
139.634611
 30
0.0
 11
140.478
 21
125.619611
 31
0.0
  0
LINE
  5
524
330
1D
100
AcDbEntity
  8
0
100
AcDbLine
 10
140.269
 20
139.888611
 30
0.0
 11
140.285
 21
139.638611
 31
0.0
  0
LINE
  5
525
330
1D
100
AcDbEntity
  8
0
100
AcDbLine
 10
140.018
 20
140.323611
 30
0.0
 11
140.095684210526
 21
140.127505736842
 31
0.0
  0
LINE
  5
526
330
1D
100
AcDbEntity
  8
0
100
AcDbLine
 10
140.084
 20
140.143611
 30
0.0
 11
140.269
 21
139.888611
 31
0.0
  0
LINE
  5
527
330
1D
100
AcDbEntity
  8
0
100
AcDbLine
 10
139.93
 20
140.344611
 30
0.0
 11
140.084
 21
140.143611
 31
0.0
  0
LINE
  5
528
330
1D
100
AcDbEntity
  8
0
100
AcDbLine
 10
136.515
 20
142.265611
 30
0.0
 11
138.178
 21
141.408611
 31
0.0
  0
LINE
  5
529
330
1D
100
AcDbEntity
  8
0
100
AcDbLine
 10
138.178
 20
141.408611
 30
0.0
 11
139.816
 21
140.481611
 31
0.0
  0
LINE
  5
52A
330
1D
100
AcDbEntity
  8
0
100
AcDbLine
 10
134.771507861679
 20
143.051982527874
 30
0.0
 11
136.515
 21
142.265611
 31
0.0
  0
LINE
  5
52B
330
1D
100
AcDbEntity
  8
0
100
AcDbLine
 10
101.723
 20
152.982611
 30
0.0
 11
118.976
 21
148.355611
 31
0.0
  0
LINE
  5
531
330
1D
100
AcDbEntity
  8
0
100
AcDbLine
 10
19.3147
 20
100.052611
 30
0.0
 11
19.3147
 21
101.251611
 31
0.0
  0
LINE
  5
532
330
1D
100
AcDbEntity
  8
0
100
AcDbLine
 10
19.3147
 20
100.052611
 30
0.0
 11
19.3147
 21
98.835111
 31
0.0
  0
LINE
  5
536
330
1D
100
AcDbEntity
  8
0
100
AcDbLine
 10
17.915
 20
94.206511
 30
0.0
 11
17.915
 21
103.703611
 31
0.0
  0
LINE
  5
538
330
1D
100
AcDbEntity
  8
0
100
AcDbLine
 10
141.754703937892
 20
40.620140901718
 30
0.0
 11
142.618
 21
42.996511
 31
0.0
  0
LINE
  5
539
330
1D
100
AcDbEntity
  8
0
100
AcDbLine
 10
142.618
 20
42.996511
 30
0.0
 11
146.224
 21
52.320211
 31
0.0
  0
LINE
  5
53F
330
1D
100
AcDbEntity
  8
0
100
AcDbLine
 10
146.224
 20
52.320211
 30
0.0
 11
146.819
 21
53.544511
 31
0.0
  0
LINE
  5
542
330
1D
100
AcDbEntity
  8
0
100
AcDbLine
 10
146.819
 20
53.544511
 30
0.0
 11
147.549
 21
54.690511
 31
0.0
  0
LINE
  5
543
330
1D
100
AcDbEntity
  8
0
100
AcDbLine
 10
147.549
 20
54.690511
 30
0.0
 11
148.425
 21
55.730211
 31
0.0
  0
LINE
  5
549
330
1D
100
AcDbEntity
  8
0
100
AcDbLine
 10
148.425
 20
55.730211
 30
0.0
 11
149.43
 21
56.645211
 31
0.0
  0
LINE
  5
54A
330
1D
100
AcDbEntity
  8
0
100
AcDbLine
 10
149.984
 20
52.123711
 30
0.0
 11
150.221
 21
52.716111
 31
0.0
  0
LINE
  5
54B
330
1D
100
AcDbEntity
  8
0
100
AcDbLine
 10
150.221
 20
52.716111
 30
0.0
 11
150.532
 21
53.273311
 31
0.0
  0
LINE
  5
54C
330
1D
100
AcDbEntity
  8
0
100
AcDbLine
 10
149.953
 20
52.028611
 30
0.0
 11
149.984
 21
52.123711
 31
0.0
  0
LINE
  5
54D
330
1D
100
AcDbEntity
  8
0
100
AcDbLine
 10
150.87
 20
53.764311
 30
0.0
 11
151.253
 21
54.220611
 31
0.0
  0
LINE
  5
54E
330
1D
100
AcDbEntity
  8
0
100
AcDbLine
 10
151.835
 20
54.733811
 30
0.0
 11
152.49
 21
55.151011
 31
0.0
  0
LINE
  5
54F
330
1D
100
AcDbEntity
  8
0
100
AcDbLine
 10
153.897
 20
55.722711
 30
0.0
 11
154.63
 21
55.898911
 31
0.0
  0
LINE
  5
550
330
1D
100
AcDbEntity
  8
0
100
AcDbLine
 10
153.177
 20
55.474511
 30
0.0
 11
153.897
 21
55.722711
 31
0.0
  0
LINE
  5
551
330
1D
100
AcDbEntity
  8
0
100
AcDbLine
 10
156.06
 20
56.002711
 30
0.0
 11
157.864
 21
56.023311
 31
0.0
  0
LINE
  5
552
330
1D
100
AcDbEntity
  8
0
100
AcDbLine
 10
155.379
 20
55.981611
 30
0.0
 11
156.06
 21
56.002711
 31
0.0
  0
LINE
  5
554
330
1D
100
AcDbEntity
  8
0
100
AcDbLine
 10
166.753
 20
56.128411
 30
0.0
 11
166.957
 21
56.212011
 31
0.0
  0
LINE
  5
555
330
1D
100
AcDbEntity
  8
0
100
AcDbLine
 10
166.957
 20
56.212011
 30
0.0
 11
167.049
 21
56.412511
 31
0.0
  0
LINE
  5
558
330
1D
100
AcDbEntity
  8
0
100
AcDbLine
 10
167.049
 20
56.412511
 30
0.0
 11
167.135
 21
58.024111
 31
0.0
  0
LINE
  5
559
330
1D
100
AcDbEntity
  8
0
100
AcDbLine
 10
157.864
 20
56.023311
 30
0.0
 11
166.753
 21
56.128411
 31
0.0
  0
LINE
  5
55A
330
1D
100
AcDbEntity
  8
0
100
AcDbLine
 10
154.637073765258
 20
55.899890153049
 30
0.0
 11
155.379
 21
55.981611
 31
0.0
  0
LINE
  5
55B
330
1D
100
AcDbEntity
  8
0
100
AcDbLine
 10
152.49
 20
55.151011
 30
0.0
 11
153.177
 21
55.474511
 31
0.0
  0
LINE
  5
55C
330
1D
100
AcDbEntity
  8
0
100
AcDbLine
 10
151.253
 20
54.220611
 30
0.0
 11
151.835
 21
54.733811
 31
0.0
  0
LINE
  5
55D
330
1D
100
AcDbEntity
  8
0
100
AcDbLine
 10
150.532
 20
53.273311
 30
0.0
 11
150.87
 21
53.764311
 31
0.0
  0
LINE
  5
55E
330
1D
100
AcDbEntity
  8
0
100
AcDbLine
 10
167.103
 20
58.175911
 30
0.0
 11
167.135
 21
58.024111
 31
0.0
  0
LINE
  5
55F
330
1D
100
AcDbEntity
  8
0
100
AcDbLine
 10
166.851
 20
58.339311
 30
0.0
 11
166.999
 21
58.291311
 31
0.0
  0
LINE
  5
560
330
1D
100
AcDbEntity
  8
0
100
AcDbLine
 10
166.999
 20
58.291311
 30
0.0
 11
167.103
 21
58.175911
 31
0.0
  0
LINE
  5
563
330
1D
100
AcDbEntity
  8
0
100
AcDbLine
 10
151.757
 20
58.039611
 30
0.0
 11
153.038
 21
58.494811
 31
0.0
  0
LINE
  5
564
330
1D
100
AcDbEntity
  8
0
100
AcDbLine
 10
150.547
 20
57.419511
 30
0.0
 11
151.757
 21
58.039611
 31
0.0
  0
LINE
  5
565
330
1D
100
AcDbEntity
  8
0
100
AcDbLine
 10
149.43
 20
56.645211
 30
0.0
 11
150.547
 21
57.419511
 31
0.0
  0
LINE
  5
566
330
1D
100
AcDbEntity
  8
0
100
AcDbLine
 10
155.723
 20
58.881011
 30
0.0
 11
156.178
 21
58.876711
 31
0.0
  0
LINE
  5
567
330
1D
100
AcDbEntity
  8
0
100
AcDbLine
 10
156.178
 20
58.876711
 30
0.0
 11
166.851
 21
58.339311
 31
0.0
  0
LINE
  5
568
330
1D
100
AcDbEntity
  8
0
100
AcDbLine
 10
154.367
 20
58.776911
 30
0.0
 11
155.722
 21
58.881011
 31
0.0
  0
LINE
  5
569
330
1D
100
AcDbEntity
  8
0
100
AcDbLine
 10
153.038
 20
58.494811
 30
0.0
 11
154.367
 21
58.776911
 31
0.0
  0
LINE
  5
56C
330
1D
100
AcDbEntity
  8
0
100
AcDbLine
 10
148.084
 20
46.321211
 30
0.0
 11
149.953
 21
52.028611
 31
0.0
  0
LINE
  5
595
330
1D
100
AcDbEntity
  8
0
100
AcDbLine
 10
50.8381
 20
161.787611
 30
0.0
 11
50.747
 21
162.054611
 31
0.0
  0
LINE
  5
596
330
1D
100
AcDbEntity
  8
0
100
AcDbLine
 10
50.9936
 20
162.912611
 30
0.0
 11
51.318105474647
 21
163.15533402528
 31
0.0
  0
LINE
  5
597
330
1D
100
AcDbEntity
  8
0
100
AcDbLine
 10
51.318105474647
 20
163.15533402528
 30
0.0
 11
51.7982
 21
163.235611
 31
0.0
  0
LINE
  5
598
330
1D
100
AcDbEntity
  8
0
100
AcDbLine
 10
91.9432
 20
143.848611
 30
0.0
 11
91.1382
 21
144.400611
 31
0.0
  0
LINE
  5
599
330
1D
100
AcDbEntity
  8
0
100
AcDbLine
 10
78.349414780301
 20
115.244285656161
 30
0.0
 11
87.0325
 21
115.153611
 31
0.0
  0
LINE
  5
59A
330
1D
100
AcDbEntity
  8
0
100
AcDbLine
 10
96.2324
 20
116.863611
 30
0.0
 11
96.3084
 21
132.847611
 31
0.0
  0
LINE
  5
59B
330
1D
100
AcDbEntity
  8
0
100
AcDbLine
 10
139.428059113301
 20
113.823280950739
 30
0.0
 11
139.61
 21
113.798611
 31
0.0
  0
ENDSEC
  0
SECTION
  2
OBJECTS
  0
DICTIONARY
  5
C
330
0
100
AcDbDictionary
281
     1
  3
ACAD_GROUP
350
D
  3
ACAD_LAYOUT
350
1A
  3
ACAD_MLEADERSTYLE
350
59E
  3
ACAD_MLINESTYLE
350
17
  3
ACAD_PLOTSETTINGS
350
19
  3
ACAD_PLOTSTYLENAME
350
E
  3
ACAD_SCALELIST
350
573
  3
AcDbVariableDictionary
350
59C
  3
DWGPROPS
350
5A1
  0
DICTIONARY
  5
D
102
{ACAD_REACTORS
330
C
102
}
330
C
100
AcDbDictionary
281
     1
  0
DICTIONARY
  5
1A
102
{ACAD_REACTORS
330
C
102
}
330
C
100
AcDbDictionary
281
     1
  3
Layout1
350
1C
  3
Model
350
1E
  0
DICTIONARY
  5
59E
102
{ACAD_REACTORS
330
C
102
}
330
C
100
AcDbDictionary
281
     1
  0
DICTIONARY
  5
17
102
{ACAD_REACTORS
330
C
102
}
330
C
100
AcDbDictionary
281
     1
  3
Standard
350
18
  0
DICTIONARY
  5
19
102
{ACAD_REACTORS
330
C
102
}
330
C
100
AcDbDictionary
281
     1
  0
ACDBDICTIONARYWDFLT
  5
E
102
{ACAD_REACTORS
330
C
102
}
330
C
100
AcDbDictionary
281
     1
  3
Normal
350
F
100
AcDbDictionaryWithDefault
340
F
  0
DICTIONARY
  5
573
102
{ACAD_REACTORS
330
C
102
}
330
C
100
AcDbDictionary
281
     1
  3
A0
350
574
  3
A1
350
575
  3
A2
350
576
  3
A3
350
577
  3
A4
350
578
  3
A5
350
579
  3
A6
350
57A
  3
A7
350
57B
  3
A8
350
57C
  3
A9
350
57D
  3
B0
350
57E
  3
B1
350
57F
  3
B2
350
580
  3
B3
350
581
  3
B4
350
582
  3
B5
350
583
  3
B6
350
584
  3
B7
350
585
  3
B8
350
586
  3
B9
350
587
  3
C0
350
588
  3
C1
350
589
  3
C2
350
58A
  3
C3
350
58B
  3
C4
350
58C
  3
C5
350
58D
  3
C6
350
58E
  3
C7
350
58F
  3
C8
350
590
  3
C9
350
591
  3
D0
350
592
  3
D1
350
593
  3
D2
350
594
  0
DICTIONARY
  5
59C
102
{ACAD_REACTORS
330
C
102
}
330
C
100
AcDbDictionary
281
     1
  3
CANNOSCALE
350
59F
  0
XRECORD
  5
5A1
102
{ACAD_REACTORS
330
C
102
}
330
C
100
AcDbXrecord
280
     1
  1
DWGPROPS COOKIE
  2

  3

  4

  6

  7

  8
MARTIN
  9

300
=
301
=
302
=
303
=
304
=
305
=
306
=
307
=
308
=
309
=
 40
0.0
 41
2456645.899777373
 42
2456645.902170313
  1

 90
        0
  0
LAYOUT
  5
1C
102
{ACAD_REACTORS
330
1A
102
}
330
1A
100
AcDbPlotSettings
  1

  2
none_device
  4

  6

 40
0.0
 41
0.0
 42
0.0
 43
0.0
 44
0.0
 45
0.0
 46
0.0
 47
0.0
 48
0.0
 49
0.0
140
0.0
141
0.0
142
1.0
143
1.0
 70
   688
 72
     0
 73
     0
 74
     5
  7

 75
    16
147
1.0
148
0.0
149
0.0
100
AcDbLayout
  1
Layout1
 70
     1
 71
     1
 10
0.0
 20
0.0
 11
12.0
 21
9.0
 12
0.0
 22
0.0
 32
0.0
 14
1.000000000000E+20
 24
1.000000000000E+20
 34
1.000000000000E+20
 15
-1.000000000000E+20
 25
-1.000000000000E+20
 35
-1.000000000000E+20
146
0.0
 13
0.0
 23
0.0
 33
0.0
 16
1.0
 26
0.0
 36
0.0
 17
0.0
 27
1.0
 37
0.0
 76
     0
330
1B
  0
LAYOUT
  5
1E
102
{ACAD_REACTORS
330
1A
102
}
330
1A
100
AcDbPlotSettings
  1

  2
none_device
  4

  6

 40
0.0
 41
0.0
 42
0.0
 43
0.0
 44
0.0
 45
0.0
 46
0.0
 47
0.0
 48
0.0
 49
0.0
140
0.0
141
0.0
142
1.0
143
1.0
 70
  1712
 72
     0
 73
     0
 74
     0
  7

 75
     0
147
1.0
148
0.0
149
0.0
100
AcDbLayout
  1
Model
 70
     1
 71
     0
 10
0.0
 20
0.0
 11
12.0
 21
9.0
 12
0.0
 22
0.0
 32
0.0
 14
-0.135
 24
-0.235611
 34
0.0
 15
167.135
 25
163.235611
 35
0.0
146
0.0
 13
0.0
 23
0.0
 33
0.0
 16
1.0
 26
0.0
 36
0.0
 17
0.0
 27
1.0
 37
0.0
 76
     0
330
1D
331
56E
  0
MLINESTYLE
  5
18
102
{ACAD_REACTORS
330
17
102
}
330
17
100
AcDbMlineStyle
  2
Standard
 70
     0
  3

 62
   256
 51
90.0
 52
90.0
 71
     2
 49
0.5
 62
   256
  6
BYLAYER
 49
-0.5
 62
   256
  6
BYLAYER
  0
ACDBPLACEHOLDER
  5
F
102
{ACAD_REACTORS
330
E
102
}
330
E
  0
SCALE
  5
574
102
{ACAD_REACTORS
330
573
102
}
330
573
100
AcDbScale
 70
     0
300
1:1
140
1.0
141
1.0
290
     1
  0
SCALE
  5
575
102
{ACAD_REACTORS
330
573
102
}
330
573
100
AcDbScale
 70
     0
300
1:2
140
1.0
141
2.0
290
     0
  0
SCALE
  5
576
102
{ACAD_REACTORS
330
573
102
}
330
573
100
AcDbScale
 70
     0
300
1:4
140
1.0
141
4.0
290
     0
  0
SCALE
  5
577
102
{ACAD_REACTORS
330
573
102
}
330
573
100
AcDbScale
 70
     0
300
1:5
140
1.0
141
5.0
290
     0
  0
SCALE
  5
578
102
{ACAD_REACTORS
330
573
102
}
330
573
100
AcDbScale
 70
     0
300
1:8
140
1.0
141
8.0
290
     0
  0
SCALE
  5
579
102
{ACAD_REACTORS
330
573
102
}
330
573
100
AcDbScale
 70
     0
300
1:10
140
1.0
141
10.0
290
     0
  0
SCALE
  5
57A
102
{ACAD_REACTORS
330
573
102
}
330
573
100
AcDbScale
 70
     0
300
1:16
140
1.0
141
16.0
290
     0
  0
SCALE
  5
57B
102
{ACAD_REACTORS
330
573
102
}
330
573
100
AcDbScale
 70
     0
300
1:20
140
1.0
141
20.0
290
     0
  0
SCALE
  5
57C
102
{ACAD_REACTORS
330
573
102
}
330
573
100
AcDbScale
 70
     0
300
1:30
140
1.0
141
30.0
290
     0
  0
SCALE
  5
57D
102
{ACAD_REACTORS
330
573
102
}
330
573
100
AcDbScale
 70
     0
300
1:40
140
1.0
141
40.0
290
     0
  0
SCALE
  5
57E
102
{ACAD_REACTORS
330
573
102
}
330
573
100
AcDbScale
 70
     0
300
1:50
140
1.0
141
50.0
290
     0
  0
SCALE
  5
57F
102
{ACAD_REACTORS
330
573
102
}
330
573
100
AcDbScale
 70
     0
300
1:100
140
1.0
141
100.0
290
     0
  0
SCALE
  5
580
102
{ACAD_REACTORS
330
573
102
}
330
573
100
AcDbScale
 70
     0
300
2:1
140
2.0
141
1.0
290
     0
  0
SCALE
  5
581
102
{ACAD_REACTORS
330
573
102
}
330
573
100
AcDbScale
 70
     0
300
4:1
140
4.0
141
1.0
290
     0
  0
SCALE
  5
582
102
{ACAD_REACTORS
330
573
102
}
330
573
100
AcDbScale
 70
     0
300
8:1
140
8.0
141
1.0
290
     0
  0
SCALE
  5
583
102
{ACAD_REACTORS
330
573
102
}
330
573
100
AcDbScale
 70
     0
300
10:1
140
10.0
141
1.0
290
     0
  0
SCALE
  5
584
102
{ACAD_REACTORS
330
573
102
}
330
573
100
AcDbScale
 70
     0
300
100:1
140
100.0
141
1.0
290
     0
  0
SCALE
  5
585
102
{ACAD_REACTORS
330
573
102
}
330
573
100
AcDbScale
 70
     0
300
1/128" = 1'-0"
140
0.0078125
141
12.0
290
     0
  0
SCALE
  5
586
102
{ACAD_REACTORS
330
573
102
}
330
573
100
AcDbScale
 70
     0
300
1/64" = 1'-0"
140
0.015625
141
12.0
290
     0
  0
SCALE
  5
587
102
{ACAD_REACTORS
330
573
102
}
330
573
100
AcDbScale
 70
     0
300
1/32" = 1'-0"
140
0.03125
141
12.0
290
     0
  0
SCALE
  5
588
102
{ACAD_REACTORS
330
573
102
}
330
573
100
AcDbScale
 70
     0
300
1/16" = 1'-0"
140
0.0625
141
12.0
290
     0
  0
SCALE
  5
589
102
{ACAD_REACTORS
330
573
102
}
330
573
100
AcDbScale
 70
     0
300
3/32" = 1'-0"
140
0.09375
141
12.0
290
     0
  0
SCALE
  5
58A
102
{ACAD_REACTORS
330
573
102
}
330
573
100
AcDbScale
 70
     0
300
1/8" = 1'-0"
140
0.125
141
12.0
290
     0
  0
SCALE
  5
58B
102
{ACAD_REACTORS
330
573
102
}
330
573
100
AcDbScale
 70
     0
300
3/16" = 1'-0"
140
0.1875
141
12.0
290
     0
  0
SCALE
  5
58C
102
{ACAD_REACTORS
330
573
102
}
330
573
100
AcDbScale
 70
     0
300
1/4" = 1'-0"
140
0.25
141
12.0
290
     0
  0
SCALE
  5
58D
102
{ACAD_REACTORS
330
573
102
}
330
573
100
AcDbScale
 70
     0
300
3/8" = 1'-0"
140
0.375
141
12.0
290
     0
  0
SCALE
  5
58E
102
{ACAD_REACTORS
330
573
102
}
330
573
100
AcDbScale
 70
     0
300
1/2" = 1'-0"
140
0.5
141
12.0
290
     0
  0
SCALE
  5
58F
102
{ACAD_REACTORS
330
573
102
}
330
573
100
AcDbScale
 70
     0
300
3/4" = 1'-0"
140
0.75
141
12.0
290
     0
  0
SCALE
  5
590
102
{ACAD_REACTORS
330
573
102
}
330
573
100
AcDbScale
 70
     0
300
1" = 1'-0"
140
1.0
141
12.0
290
     0
  0
SCALE
  5
591
102
{ACAD_REACTORS
330
573
102
}
330
573
100
AcDbScale
 70
     0
300
1-1/2" = 1'-0"
140
1.5
141
12.0
290
     0
  0
SCALE
  5
592
102
{ACAD_REACTORS
330
573
102
}
330
573
100
AcDbScale
 70
     0
300
3" = 1'-0"
140
3.0
141
12.0
290
     0
  0
SCALE
  5
593
102
{ACAD_REACTORS
330
573
102
}
330
573
100
AcDbScale
 70
     0
300
6" = 1'-0"
140
6.0
141
12.0
290
     0
  0
SCALE
  5
594
102
{ACAD_REACTORS
330
573
102
}
330
573
100
AcDbScale
 70
     0
300
1'-0" = 1'-0"
140
12.0
141
12.0
290
     0
  0
DICTIONARYVAR
  5
59F
102
{ACAD_REACTORS
330
59C
102
}
330
59C
100
DictionaryVariables
280
     0
  1
1:1
  0
ENDSEC
  0
SECTION
  2
THUMBNAILIMAGE
 90
    16364
310
28000000B40000005500000001000800000000000000000000000000000000000000000000000000FFFFFF000000FF0000FFFF0000FF0000FFFF0000FF000000FF00FF000000000080808000C0C0C0000000FF007F7FFF000000A5005252A50000007F003F3F7F0000004C0026264C000000260013132600003FFF007F9FFF
310
000029A5005267A500001F7F003F4F7F0000134C00262F4C000009260013172600007FFF007FBFFF000052A500527CA500003F7F003F5F7F0000264C0026394C0000132600131C260000BFFF007FDFFF00007CA5005291A500005F7F003F6F7F0000394C0026424C00001C26001321260000FFFF007FFFFF0000A5A50052A5
310
A500007F7F003F7F7F00004C4C00264C4C00002626001326260000FFBF007FFFDF0000A57C0052A59100007F5F003F7F6F00004C3900264C420000261C001326210000FF7F007FFFBF0000A5520052A57C00007F3F003F7F5F00004C2600264C39000026130013261C0000FF3F007FFF9F0000A5290052A56700007F1F003F
310
7F4F00004C1300264C2F00002609001326170000FF00007FFF7F0000A5000052A55200007F00003F7F3F00004C0000264C260000260000132613003FFF00009FFF7F0029A5000067A552001F7F00004F7F3F00134C00002F4C260009260000172613007FFF0000BFFF7F0052A500007CA552003F7F00005F7F3F00264C0000
310
394C2600132600001C261300BFFF0000DFFF7F007CA5000091A552005F7F00006F7F3F00394C0000424C26001C26000021261300FFFF0000FFFF7F00A5A50000A5A552007F7F00007F7F3F004C4C00004C4C26002626000026261300FFBF0000FFDF7F00A57C0000A59152007F5F00007F6F3F004C3900004C422600261C00
310
0026211300FF7F0000FFBF7F00A5520000A57C52007F3F00007F5F3F004C2600004C39260026130000261C1300FF3F0000FF9F7F00A5290000A56752007F1F00007F4F3F004C1300004C2F26002609000026171300FF000000FF7F7F00A5000000A55252007F0000007F3F3F004C0000004C2626002600000026131300FF00
310
3F00FF7F9F00A5002900A55267007F001F007F3F4F004C0013004C262F002600090026131700FF007F00FF7FBF00A5005200A5527C007F003F007F3F5F004C0026004C2639002600130026131C00FF00BF00FF7FDF00A5007C00A55291007F005F007F3F6F004C0039004C26420026001C0026132100FF00FF00FF7FFF00A5
310
00A500A552A5007F007F007F3F7F004C004C004C264C002600260026132600BF00FF00DF7FFF007C00A5009152A5005F007F006F3F7F0039004C0042264C001C002600211326007F00FF00BF7FFF005200A5007C52A5003F007F005F3F7F0026004C0039264C00130026001C1326003F00FF009F7FFF002900A5006752A500
310
1F007F004F3F7F0013004C002F264C000900260017132600000000002D2D2D005B5B5B0089898900B7B7B700B3B3B30000000000000000000000000000000000000000000000000000000000000000000000000000000000000000000000000000000000000000000000000000000000000000000000000000000000000000
310
00000000000000000000000000000000000707070707070707070707070707070707070707070707070700000000000000000000000000000000000000000000000000000000000000000000000000000000000000000000000000000000000000000000000000000000000000000000000000000000000000000000000000
310
00000000000000000000000000000000000000000000000000000000000000000000000000000000000000000000000000000000000000000000000000000000000000000000070000000000000000000000000000000000000000000000070000000000000000000000000000000000000000000000000000000000000000
310
00000000000000000000000000000000000000000000000000000000000000000000000000000000000000000000000000000000000000000000000000000000000000000000000000000000000000000000000000000000000000000000000000000000000000000000000000000000000000000000000000000007000000
310
00000000000000000000000000000000000000000700000000000000000000000000000000000000000000000000000000000000000000000000000000000000000000000000000000000000000000000000000000000000000000000000000000000000000000000000000000000000000000000000000000000000000000
310
00000000000000000000000000000000000000000000000000000000000000000000000000000000000000000000000000070000000000000000000000000000000000000000000000070000000000000000000000000000000000000000000000000000000000000000000000000000000000000000000000000000000000
310
00000000000000000000000000000000000000000000000000000000000000000000000000000000000000000000000000000000000000000000000000000000000000000000000000000000000000000000000000000000000000000000000000000000000007000000000000000000000000000000000000000000000007
310
00000000000000000000000000000000000000000000000000000000000000000000000000000000000000000000000000000000000000000000000000000000000000000000000000000000000000000000000000000000000000000000000000000000000000000000000000000000000000000000000000000000000000
310
00000000000000000000000000000000000000000000000000000000070000000000000000000000000000000000000000000000070000000000000000000000000000000000000000000000000000000000000000000000000000000000000000000000000000000000000000000000000000000000000000000000000000
310
00000000000000000000000000000000000000000000000000000000000000000000000000000000000000000000000000000000000000000000000000000000000000000000000000000000000000000007000000000000000000000000000000000000000000000007000000000000000000000000000000000000000000
310
00000000000000000000000000000000000000000000000000000000000000000000000000000000000000000000000000000000000000000000000000000000000000000000000000000000000000000000000000000000000000000000000000000000000000000000000000000000000000000000000000000000000000
310
00000000000000070000000000000000000000000000000000000000000000070000000000000000000000000000000000000000000000000000000000000000000000000000000000000000000000000000000000000000000000000000000000000000000000000000000000000000000000000000000000000000000000
310
00000000000000000000000000000000000000000000000000000000000000000000000000000000000000000000000000000000000000000000000007000000000000000000000000000000000000000000000007000000000000000000000000000000000000000000000000000000000000000000000000000000000000
310
00000000000000000000000000000000000000000000000000000000000000000000000000000000000000000000000000000000000000000000000000000000000000000000000000000000000000000000000000000000000000000000000000000000000000000000000000000000000700000000000000000000000000
310
00000000000000000000070000000000000000000000000000000000000000000000000000000000000000000000000000000000000000000000000000000000000000000000000000000000000000000000000000000000000000000000000000000000000000000000000000000000000000000000000000000000000000
310
00000000000000000000000000000000000000000000000000000000000000000000000000000007000000000000000000000000000000000000000000000007000000000000000000000000000000000000000000000000000000000000000000000000000000000000000000000000000000000000000000000000000000
310
00000000000000000000000000000000000000000000000000000000000000000000000000000000000000000000000000000000000000000000000000000000000000000000000000000000000000000000000000000000000000000700000000000000000000000000000000000000000000000700000000000000000000
310
00000000000000000000000000000000000000000000000000000000000000000000000000000000000000000000000000000000000000000000000000000000000000000000000000000000000000000000000000000000000000000000000000000000000000000000000000000000000000000000000000000000000000
310
00000000000000000000000000000000000007000000000000000000000000000000000000000000000007000000000000000000000000000000000000000000000000000000000000000000000000000000000000000000000000000000000000000000000000000000000000000000000000000000000000000000000000
310
00000000000000000000000000000000000000000000000000000000000000000000000000000000000000000000000000000000000000000000000000000000000000000000000700000000000000000000000000000000000000000000000700000000000000000000000000000000000000000000000000000000000000
310
00000000000000000000000000000000000000000000000000000000000000000000000000000000000000000000000000000000000000000000000000000000000000000000000000000000000000000000000000000000000000000000000000000000000000000000000000000000000000000000000000000000070000
310
00000000000000000000000000000000000000000007000000000000000000000000000000000000000000000000000000000000000000000000000000000000000000000000000000000000000000000000000000000000000000000000000000000000000000000000000000000000000000000000000000000000000000
310
00000000000000000000000000000000000000000000000000000000000000000000000000000000000000000000000000000700000000000000000000000000000000000000000000000700000000000000000000000000000000000000000000000000000000000000000000000000000000000000000000000000000000
310
00000000000000000000000000000000000000000000000000000000000000000000000000000000000000000000000000000000000000000000000000000000000000000000000000000000000000000000000000000000000000000000000000000000000000070000000000000000000000000000000000000000000000
310
07000000000000000000000000000000000000000000000000000000000000000000000000000000000000000000000000000000000000000000000000000000000000000000000000000000000000000000000000000000000000000000000000000000000000000000000000000000000000000000000000000000000000
310
00000000000000000000000000000000000000000000000000000000000700000000000000000000000000000000000000000000000707000000000000000000000000000000000000000000000000000000000000000000000000000000000000000000000000000000000000000000000000000000000000000000000000
310
00000000000000000000000000000000000000000000000000000000000000000000000000000000000000000000000000000000000000000000000000000000000000000000000000000000000000000000070000000000000000000000000000000000000000000000070700000000000000000000000000000000000000
310
00000000000000000000000000000000000000000000000000000000000000000000000000000000000000000000000000000000000000000000000000000000000000000000000000000000000000000000000000000000000000000000000000000000000000000000000000000000000000000000000000000000000000
310
00000000000000000700000000000000000000000000000000000000000000000707000000000000000000000000000000000000000000000000000000000000000000000000000000000000000000000000000000000000000000000000000000000000000000000000000000000000000000000000000000000000000000
310
00000000000000000000000000000000000000000000000000000000000000000000000000000000000000000000000000000000000000000000000000070000000000000000000000000000000000000000000000070007000000000000000000000000000000000000000000000000000000000000000000000000000000
310
00000000000000000000000000000000000000000000000000000000000000000000000000000000000000000000000000000000000000000000000000000000000000000000000000000000000000000000000000000000000000000000000000000000000000000000000000000000000007000000000000000000000000
310
00000000000000000000000700070000000000000000000000000000000000000000000000000000000000000000000000000000000000000000000000000000000000000000000000000000000000000000000000000000000000000000000000000000000000000000000000000000000000000000000000000000000000
310
00000000000000000000000000000000000000000000000000000000000000000000000000000000070000000000000000000000000000000000000000000000070007000000000000000000000000000000000000000000000000000000000000000000000000000000000000000000000000000000000000000000000000
310
00000000000000000000000000000000000000000000000000000000000000000000000000000000000000000000000000000000000000000000000000000000000000000000000000000000000000000000000000000000000000000007000000000000000000000000000000000000000000000007000007000000000000
310
00000000000000000000000000000000000000000000000000000000000000000000000000000000000000000000000000000000000000000000000000000000000000000000000000000000000000000000000000000000000000000000000000000000000000000000000000000000000000000000000000000000000000
310
00000000000000000000000000000000000000070000000000000000000000000000000000000000000000070700070000000000000000000000000000000000000000000000000000000000000000000000000000000000000000000000000000000000000000000000000000000000000000000000000000000000000000
310
00000000000000000000000000000000000000000000000000000000000000000000000000000000000000000000000000000000000000000000000000000000000000000000000007000000000000000000000000000000000000000000000007070007000000000000000000000000000000000000000000000000000000
310
00000000000000000000000000000000000000000000000000000000000000000000000000000000000000000000000000000000000000000000000000000000000000000000000000000000000000000000000000000000000000000000000000000000000000000000000000000000000000000000000000000000000700
310
00000000000000000000000000000000000000000000070007000700000000000000000000000000000000000000000000000000000000000000000000000000000000000000000000000000000000000000000000000000000000000000000000000000000000000000000000000000000000000000000000000000000000
310
00000000000000000000000000000000000000000000000000000000000000000000000000000000000000000000000000000007000000000000000000000000000000000000000000000007000700070000000000000000000000000000000000000000000000000000000000000000000000000000000000000000000000
310
00000000000000000000000000000000000000000000000000000000000000000000000000000000000000000000000000000000000000000000000000000000000000000000000000000000000000000000000000000000000000000000000000000000000000000700000000000000000000000000000000000000000000
310
00070000070007070700000000000000000000000000000000000000000000000000000000000000000000000000000000000000000000000000000000000000000000000000000000000000000000000000000000000000000000000000000000000000000000000000000000000000000000000000000000000000000000
310
00000000000000000000000000000000000000000000000000000000000007000000000000000000000000000000000000000000000007000000070000070707070707070000000000000000000000000000000000000000000000000000000000000000000000000000000000000000000000000000000000000000000000
310
00000000000000000000000000000000000000000000000000000000000000000000000000000000000000000000000000000000000000000000000000000000000000000000000000000000000000000000000700000000000000000000000000000000000000000000000700000000070707070707070707000000000000
310
00000000000000000000000000000000000000000000000000000000000000000000000000000000000000000000000000000000000000000000000000000000000000000000000000000000000000000000000000000000000000000000000000000000000000000000000000000000000000000000000000000000000000
310
00000000000000000007000000000000000000000000000000000000000000000007000000000000000000000000000000000000000000000000000000000000000000000000000000000000000000000000000000000000000000000000000000000000000000000000000000000000000000000000000000000000000000
310
00000000000000000000000000000000000000000000000000000000000000000000000000000000000000000000000000000000000000000000000000000700000000000000000000000000000000000000000000000700000000000000000000000000000000000000000000000000000000000000000000000000000000
310
00000000000000000000000000000000000000000000000000000000000000000000000000000000000000000000000000000000000000000000000000000000000000000000000000000000000000000000000000000000000000000000000000000000000000000000000000000000000000070000000000000000000000
310
00000000000000000000000007000000000000000000000000000000000000000000000000000000000000000000000000000000000000000000000000000000000000000000000000000000000000000000000000000000000000000000000000000000000000000000000000000000000000000000000000000000000000
310
00000000000000000000000000000000000000000000000000000000000000000000000000000000000700000000000000000000000000000000000000000000000700000000000000000000000000000000000000000000000000000000000000000000000000000000000000000000000000000000000000000000000000
310
00000000000000000000000000000000000000000000000000000000000000000000000000000000000000000000000000000000000000000000000000000000000000000000000000000000000000000000000000000000000000000000070000000000000000000000000000000000000000000000070000000000000000
310
00000000000000000000000000000000000000000000000000000000000000000000000000000000000000000000000000000000000000000000000000000000000000000000000000000000000000000000000000000000000000000000000000000000000000000000000000000000000000000000000000000000000000
310
00000000000000000000000000000000000000000700000000000000000000000000000000000000000000000700000000000000000000000000000000000000000000000000000000000000000000000000000000000000000000000000000000000000000000000000000000000000000000000000000000000000000000
310
00000000000000000000000000000000000000000000000000000000000000000000000000000000000000000000000000000000000000000000000000000000000000000000000007000000000000000000000000000000000000000000000000070000000000000000000000000000000000000000000000000000000000
310
00000000000000000000000000000000000000000000000000000000000000000000000000000000000000000000000000000000000000000000000000000000000000000000000000000000000000000000000000000000000000000000000000000000000000000000000000000000000000000000000000000000000700
310
00000000000000000000000000000000000000000000000700000000000000000000000000000000000000000000000000000000000000000000000000000000000000000000000000000000000000000000000000000000000000000000000000000000000000000000000000000000000000000000000000000000000000
310
00000000000000000000000000000000000000000000000000000000000000000000000000000000000000000000000000000700000000000000000000000000000000000000000000000007000000000000000000000000000000000000000000000000000000000000000000000000000000000000000000000000000000
310
00000000000000000000000000000000000000000000000000000000000000000000000000000000000000000000000000000000000000000000000000000000000000000000000000000000000000000000000000000000000000000000000000000000000007000000000000000000000000000000000000000000000000
310
00070000000000000000000000000000000000000000000000000000000000000000000000000000000000000000000000000000000000000000000000000000000000000000000000000000000000000000000000000000000000000000000000000000000000000000000000000000000000000000000000000000000000
310
00000000000000000000000000000000000000000000000000000007070000000000000000000000000000000000000000000000000007000000000000000000000000000000000000000000000000000000000000000000000000000000000000000000000000000000000000000000000000000000000000000000000000
310
00000000000000000000000000000000000000000000000000000000000000000000000000000000000000000000000000070707070707070707070707070707070707070707070707070707070707070000000000000000000000000000000000000000000000000000000700000000000000000000000000000000000000
310
00000000000000000000000000000000000000000000000000000000000000000000000000000000000000000000000000000000000000000000000000000000000000000000000000000000000000000000000000000000000000000000000000000000000700000000000000000000000000000000000000000000000000
310
00000000000000000000000000000000000000000000000000000000000000000007000000000000000000000000000000000000000000000000000000000000000000000000000000000000000000000000000000000000000000000000000000000000000000000000000000000000000000000000000000000000000000
310
00000000000000000000000000000007070707070707070707070707000000000000000000000000000000000000000000000000000000000000000000000000000000000000000000000000000000000000000000000700000000000000000000000000000000000000000000000000000000000000000000000000000000
310
00000000000000000000000000000000000000000000000000000000000000000000000000000000000000000000000000000000000000000000000000000000000000000707000007000000000700000700000000000000000000000000000000000000000000000000000000000000000000000000000000000000000000
310
00000000000000000000000007000000000000000000000000000000000000000000000000000000000000000000000000000000000000000000000000000000000000000000000000000000000000000000000000000000000000000000000000000000000000000000000000000000000000000000000007070700000700
310
00000007000007000000000000000000000000000000000000000000000000000000000000000000000000000000000000000000000000000000000000000000000700000000000000000000000000000000000000000000000000000000000000000000000000000000000000000000000000000000000000000000000000
310
00000000000000000000000000000000000000000000000000000000000000000000000000000000000000000000070707000007000000000700000700000000000000000000000000000000000000000000000000000000000000000000000000000000000000000000000000000000000000000000070000000000000000
310
00000000000000000000000000000000000000000000000000000000000000000000000000000000000000000000000000000000000000000000000000000000000000000000000000000000000000000000000000000000000000000000000000000007070700000700000000070000070000000000000000000000000000
310
00000000000000000000000000000000000000000000000000000000000000000000000000000000000000000700000000000000000000000000000000000000000000000000000000000000000000000000000000000000000000000000000000000000000000000000000000000000000000000000000000000000000000
310
00000000000000000000000000000000000000000000000000070707000007000000000700000700000000000000000000000000000000000000000000000000000000000000000000000000000000000000000000000000000000000000000000070000000000000000000000000000000000000000000000000000000000
310
00000000000000000000000000000000000000000000000000000000000000000000000000000000000000000000000000000000000000000000000000000000000000000000000000000000000007070700000700000000070000070000000000000000000000000000000000000000000000000000000000000000000000
310
00000000000000000000000000000000000000000000000700000000000000000000000000000000000000000000000000000000000000000000000000000000000000000000000000000000000000000000000000000000000000000000000000000000000000000000000000000000000000000000000000000000000000
310
00000000070707000007000000000700000700000000000000000000000000000000000000000000000000000000000000000000000000000000000000000000000000000000000000000000070000000000000000000000000000000000000000000000000000000000000000000000000000000000000000000000000000
310
00000000000000000000000000000000000000000000000000000000000000000000000000000000000000000000000000000000000000000007070700000700000000070000070000000000000000000000000000000000000000000000000000000000000000000000000000000000000000000000000000000000000000
310
00000700000000000000000000000000000000000000000000000000000000000000000000000000000000000000000000000000000000000000000000000000000000000000000000000000000000000000000000000000000000000000000000000000000000000000000000000707070000070000000007000007000000
310
00000000000000000000000000000000000000000000000000000000000000000000000000000000000000000000000000000000000000070000000000000000000000000000000000000000000000000000000000000000000000000000000000000000000000000000000000000000000000000000000000000000000000
310
00000000000000000000000000000000000000000000000000000000000000000000000007070700000700000000070000070000000000000000000000000000000000000000000000000000000000000000000000000000000000000000000000000000000000000000000007000000000000000000000000000000000000
310
00000000000000000000000000000000000000000000000000000000000000000000000000000000000000000000000000000000000000000000000000000000000000000000000000000000000000000000000000000000000007070000070000000007000007000000000000000000000000000000000000000000000000
310
00000000000000000000000000000000000000000000000000000000000000000000070000000000000000000000000000000000000000000000000000000000000000000000000000000000000000000000000000000000000000000000000000000000000000000000000000000000000000000000000000000000000000
310
00000000000000000000000000000000070707070700000000070707070000000000000000000000000000000000000000000000000000000000000000000000000000000000000000000000000000000000000000000007000000000000000000000000000000000000000000000000000000000000000000000000000000
310
00000000000000000000000000000000000000000000000000000000000000000000000000000000000000000000000000000000000000000000000000000000000000000000000000070707070707000007000000000000000000000000000000000000000000000000000000000000000000000000000000000000000000
310
00000000000000000000000000070000000000000000000000000000000000000000000000000000000000000000000000000000000000000000000000000000000000000000000000000000000000000000000000000000000000000000000000000000000000000000000000000000000000000000000000000000000000
310
00000000000000070707070000000000000000000000000000000000000000000000000000000000000000000007070707070707070707070707070707070707070707000000000000000000000000000000000000000000000000000000000000000000000000000000000000000000000000000000000000000000000000
310
00000000000000000000000000000000000000000000000000000000000000000000000000000000000000000000000000000000000000000000000000000000070707070707070707070707070707070707070707070707070707070707070707070707070707070707070707000000000000000000070000000000000000
310
00000000000000000000000000000000000000000000000000000000000000000000000000000000000000000000000000000000000000000000000000000000000000000000000000000000000000000000000000000000000000000000000000000000000000000000000000000000000000000000000000000000000000
310
00000000000000000000000000000000000000000000070000000000000000000000000707000000000000000700000000000000000000000000000000000000000000000000000000000000000000000000000000000000000000000000000000000000000000000000000000000000000000000000000000000000000000
310
00000000000000000000000000000000000000000000000000000000000000000000000000000000000000000000000000000000000000000000000000000000000000000000000000000007000000000000000000000000000007070000000000070000000000000000000000000000000000000000000000000000000000
310
00000000000000000000000000000000000000000000000000000000000000000000000000000000000000000000000000000000000000000000000000000000000000000000000000000000000000000000000000000000000000000000000000000000000000000000000000000000000000000000000000000000000000
310
00070000000000000000000000000000000007070700070000000000000000000000000000000000000000000000000000000000000000000000000000000000000000000000000000000000000000000000000000000000000000000000000000000000000000000000000000000000000000000000000000000000000000
310
00000000000000000000000000000000000000000000000000000000000000000000000000000000000000000000000000000000000007000000000000000000000000000000000000000707000000000000000000000000000000000000000000000000000000000000000000000000000000000000000000000000000000
310
00000000000000000000000000000000000000000000000000000000000000000000000000000000000000000000000000000000000000000000000000000000000000000000000000000000000000000000000000000000000000000000000000000000000000000000000700000000000000000000000000000000000000
310
00000707000000000000000000000000000000000000000000000000000000000000000000000000000000000000000000000000000000000000000000000000000000000000000000000000000000000000000000000000000000000000000000000000000000000000000000000000000000000000000000000000000000
310
00000000000000000000000000000000000000000000000000000000000000000000070000000000000000000000000000000000000000000700000000000000000000000000000000000000000000000000000000000000000000000000000000000000000000000000000000000000000000000000000000000000000000
310
00000000000000000000000000000000000000000000000000000000000000000000000000000000000000000000000000000000000000000000000000000000000000000000000000000000000000000000000000000007000000000000000000000000000000000000000000070000000000000000000000000000000000
310
00000000000000000000000000000000000000000000000000000000000000000000000000000000000000000000000000000000000000000000000000000000000000000000000000000000000000000000000000000000000000000000000000000000000000000000000000000000000000000000000000000000000000
310
00000000000000000000000000070000000000000000000000000000000000000000000700000000000000000000000000000000000000000000000000000000000000000000000000000000000000000000000000000000000000000000000000000000000000000000000000000000000000000000000000000000000000
310
00000000000000000000000000000000000000000000000000000000000000000000000000000000000000000000000000000000000000000000000000000000000007000000000000000000000000000000000000000000070000000000000000000000000000000000000000000000000000000000000000000000000000
310
00000000000000000000000000000000000000000000000000000000000000000000000000000000000000000000000000000000000000000000000000000000000000000000000000000000000000000000000000000000000000000000000000000000000000000000000000000000000000000000070000000000000000
310
00000000000000000000000000000700000000000000000000000000000000000000000000000000000000000000000000000000000000000000000000000000000000000000000000000000000000000000000000000000000000000000000000000000000000000000000000000000000000000000000000000000000000
310
00000000000000000000000000000000000000000000000000000000000000000000000000000000000000000700000000000000000000000000000000000000000000070000000000000000000000000000000000000000000000000000000000000000000000000000000000000000000000000000000000000000000000
310
00000000000000000000000000000000000000000000000000000000000000000000000000000000000000000000000000000000000000000000000000000000000000000000000000000000000000000000000000000000000000000000000000070000000000000000000000000000000000000000000007000000000000
310
00000000000000000000000000000000000000000000000000000000000000000000000000000000000000000000000000000000000000000000000000000000000000000000000000000000000000000000000000000000000000000000000000000000000000000000000000000000000000000000000000000000000000
310
00000000000000000000000000000000000000000000070700000000000000000000000000000000000000000707070000000000000000000000000000000000000000000000000000000000000000000000000000000000000000000000000000000000000000000000000000000000000000000000000000000000000000
310
00000000000000000000000000000000000000000000000000000000000000000000000000000000000000000000000000000000000000000000000000000000000000000000000000000707000000000000000000000000000000000000000707000000000000000000000000000000000000000000000000000000000000
310
00000000000000000000000000000000000000000000000000000000000000000000000000000000000000000000000000000000000000000000000000000000000000000000000000000000000000000000000000000000000000000000000000000000000000000000000000000000000000000000000000000000000707
310
00000000000000000000000000000000000000070700000000000000000000000000000000000000000000000000000000000000000000000000000000000000000000000000000000000000000000000000000000000000000000000000000000000000000000000000000000000000000000000000000000000000000000
310
00000000000000000000000000000000000000000000000000000000000000000000000000000000000000000000000007070707000000000000000000000000000000000007070700000000000000000000000000000000000000000000000000000000000000000000000000000000000000000000000000000000000000
310
00000000000000000000000000000000000000000000000000000000000000000000000000000000000000000000000000000000000000000000000000000000000000000000000000000000000000000000000000000000000000000000000000000707070000000000000000000000000000000000070707070000000000
310
00000000000000000000000000000000000000000000000000000000000000000000000000000000000000000000000000000000000000000000000000000000000000000000000000000000000000000000000000000000000000000000000000000000000000000000000000000000000000000000000000000000000000
310
00000000000000000000000000000000000000000000070700000000000000000000000000000000070707070000000000000000000000000000000000000000000000000000000000000000000000000000000000000000000000000000000000000000000000000000000000000000000000000000000000000000000000
310
00000000000000000000000000000000000000000000000000000000000000000000000000000000000000000000000000000000000000000000000000000000000000000000000000070700000000000000000000000000000707070700000000000000000000000000000000000000000000000000000000000000000000
310
00000000000000000000000000000000000000000000000000000000000000000000000000000000000000000000000000000000000000000000000000000000000000000000000000000000000000000000000000000000000000000000000000000000000000000000000000000000000000000000000000000707070700
310
00000000000000000000000707070700000000000000000000000000000000000000000000000000000000000000000000000000000000000000000000000000000000000000000000000000000000000000000000000000000000000000000000000000000000000000000000000000000000000000000000000000000000
310
00000000000000000000000000000000000000000000000000000000000000000000000000000000000000000000070700000000000000000000000007070707000000000000000000000000000000000000000000000000000000000000000000000000000000000000000000000000000000000000000000000000000000
310
00000000000000000000000000000000000000000000000000000000000000000000000000000000000000000000000000000000000000000000000000000000000000000000000000000000000000000000000000000000000000000000000000070700000000000000000000000707070000000000000000000000000000
310
00000000000000000000000000000000000000000000000000000000000000000000000000000000000000000000000000000000000000000000000000000000000000000000000000000000000000000000000000000000000000000000000000000000000000000000000000000000000000000000000000000000000000
310
00000000000000000000000000000000000000000000070700000000000007070707070700000000000000000000000000000000000000000000000000000000000000000000000000000000000000000000000000000000000000000000000000000000000000000000000000000000000000000000000000000000000000
310
00000000000000000000000000000000000000000000000000000000000000000000000000000000000000000000000000000000000000000000000000000000000000000000000000000007070707070707070000000000000000000000000000000000000000000000000000000000000000000000000000000000000000
310
00000000000000000000000000000000000000000000000000000000000000000000000000000000000000000000000000000000000000000000000000000000000000000000000000000000000000000000000000000000000000000000000000000000000000000000000000000000000000000000000000000000000000
310
000000000000000000000000000000000000000000000000000000000000000000000000000000000000000000000000000000000000000000000000000000000000000000000000000000000000000000000000000000000000000000000000000000000000000000000000
  0
ENDSEC
  0
EOF
