  0
SECTION
  2
HEADER
  9
$ACADVER
  1
AC1015
  9
$ACADMAINTVER
 70
     6
  9
$DWGCODEPAGE
  3
ANSI_1252
  9
$INSBASE
 10
0.0
 20
0.0
 30
0.0
  9
$EXTMIN
 10
-0.0388
 20
-0.235611
 30
0.0
  9
$EXTMAX
 10
48.0388
 20
163.217611
 30
0.0
  9
$LIMMIN
 10
0.0
 20
0.0
  9
$LIMMAX
 10
12.0
 20
9.0
  9
$ORTHOMODE
 70
     0
  9
$REGENMODE
 70
     1
  9
$FILLMODE
 70
     1
  9
$QTEXTMODE
 70
     0
  9
$MIRRTEXT
 70
     1
  9
$LTSCALE
 40
1.0
  9
$ATTMODE
 70
     1
  9
$TEXTSIZE
 40
0.2
  9
$TRACEWID
 40
0.05
  9
$TEXTSTYLE
  7
Standard
  9
$CLAYER
  8
0
  9
$CELTYPE
  6
ByBlock
  9
$CECOLOR
 62
   256
  9
$CELTSCALE
 40
1.0
  9
$DISPSILH
 70
     0
  9
$DIMSCALE
 40
1.0
  9
$DIMASZ
 40
0.18
  9
$DIMEXO
 40
0.0625
  9
$DIMDLI
 40
0.38
  9
$DIMRND
 40
0.0
  9
$DIMDLE
 40
0.0
  9
$DIMEXE
 40
0.18
  9
$DIMTP
 40
0.0
  9
$DIMTM
 40
0.0
  9
$DIMTXT
 40
0.18
  9
$DIMCEN
 40
0.09
  9
$DIMTSZ
 40
0.0
  9
$DIMTOL
 70
     0
  9
$DIMLIM
 70
     0
  9
$DIMTIH
 70
     1
  9
$DIMTOH
 70
     1
  9
$DIMSE1
 70
     0
  9
$DIMSE2
 70
     0
  9
$DIMTAD
 70
     0
  9
$DIMZIN
 70
     0
  9
$DIMBLK
  1

  9
$DIMASO
 70
     1
  9
$DIMSHO
 70
     1
  9
$DIMPOST
  1

  9
$DIMAPOST
  1

  9
$DIMALT
 70
     0
  9
$DIMALTD
 70
     2
  9
$DIMALTF
 40
25.4
  9
$DIMLFAC
 40
1.0
  9
$DIMTOFL
 70
     0
  9
$DIMTVP
 40
0.0
  9
$DIMTIX
 70
     0
  9
$DIMSOXD
 70
     0
  9
$DIMSAH
 70
     0
  9
$DIMBLK1
  1

  9
$DIMBLK2
  1

  9
$DIMSTYLE
  2
Standard
  9
$DIMCLRD
 70
     0
  9
$DIMCLRE
 70
     0
  9
$DIMCLRT
 70
     0
  9
$DIMTFAC
 40
1.0
  9
$DIMGAP
 40
0.09
  9
$DIMJUST
 70
     0
  9
$DIMSD1
 70
     0
  9
$DIMSD2
 70
     0
  9
$DIMTOLJ
 70
     1
  9
$DIMTZIN
 70
     0
  9
$DIMALTZ
 70
     0
  9
$DIMALTTZ
 70
     0
  9
$DIMUPT
 70
     0
  9
$DIMDEC
 70
     4
  9
$DIMTDEC
 70
     4
  9
$DIMALTU
 70
     2
  9
$DIMALTTD
 70
     2
  9
$DIMTXSTY
  7
Standard
  9
$DIMAUNIT
 70
     0
  9
$DIMADEC
 70
     0
  9
$DIMALTRND
 40
0.0
  9
$DIMAZIN
 70
     0
  9
$DIMDSEP
 70
    46
  9
$DIMATFIT
 70
     3
  9
$DIMFRAC
 70
     0
  9
$DIMLDRBLK
  1

  9
$DIMLUNIT
 70
     2
  9
$DIMLWD
 70
    -2
  9
$DIMLWE
 70
    -2
  9
$DIMTMOVE
 70
     2
  9
$LUNITS
 70
     2
  9
$LUPREC
 70
     4
  9
$SKETCHINC
 40
0.1
  9
$FILLETRAD
 40
0.5
  9
$AUNITS
 70
     0
  9
$AUPREC
 70
     0
  9
$MENU
  1
.
  9
$ELEVATION
 40
0.0
  9
$PELEVATION
 40
0.0
  9
$THICKNESS
 40
0.0
  9
$LIMCHECK
 70
     0
  9
$CHAMFERA
 40
0.5
  9
$CHAMFERB
 40
0.5
  9
$CHAMFERC
 40
1.0
  9
$CHAMFERD
 40
0.0
  9
$SKPOLY
 70
     0
  9
$TDCREATE
 40
2456645.941441331
  9
$TDUCREATE
 40
2456645.899774665
  9
$TDUPDATE
 40
2456645.95197338
  9
$TDUUPDATE
 40
2456645.910306713
  9
$TDINDWG
 40
0.0105315162
  9
$TDUSRTIMER
 40
0.0105315162
  9
$USRTIMER
 70
     1
  9
$ANGBASE
 50
0.0
  9
$ANGDIR
 70
     0
  9
$PDMODE
 70
     0
  9
$PDSIZE
 40
0.0
  9
$PLINEWID
 40
0.0
  9
$SPLFRAME
 70
     0
  9
$SPLINETYPE
 70
     6
  9
$SPLINESEGS
 70
     8
  9
$HANDSEED
  5
D20
  9
$SURFTAB1
 70
     6
  9
$SURFTAB2
 70
     6
  9
$SURFTYPE
 70
     6
  9
$SURFU
 70
     6
  9
$SURFV
 70
     6
  9
$UCSBASE
  2

  9
$UCSNAME
  2

  9
$UCSORG
 10
0.0
 20
0.0
 30
0.0
  9
$UCSXDIR
 10
1.0
 20
0.0
 30
0.0
  9
$UCSYDIR
 10
0.0
 20
1.0
 30
0.0
  9
$UCSORTHOREF
  2

  9
$UCSORTHOVIEW
 70
     0
  9
$UCSORGTOP
 10
0.0
 20
0.0
 30
0.0
  9
$UCSORGBOTTOM
 10
0.0
 20
0.0
 30
0.0
  9
$UCSORGLEFT
 10
0.0
 20
0.0
 30
0.0
  9
$UCSORGRIGHT
 10
0.0
 20
0.0
 30
0.0
  9
$UCSORGFRONT
 10
0.0
 20
0.0
 30
0.0
  9
$UCSORGBACK
 10
0.0
 20
0.0
 30
0.0
  9
$PUCSBASE
  2

  9
$PUCSNAME
  2

  9
$PUCSORG
 10
0.0
 20
0.0
 30
0.0
  9
$PUCSXDIR
 10
1.0
 20
0.0
 30
0.0
  9
$PUCSYDIR
 10
0.0
 20
1.0
 30
0.0
  9
$PUCSORTHOREF
  2

  9
$PUCSORTHOVIEW
 70
     0
  9
$PUCSORGTOP
 10
0.0
 20
0.0
 30
0.0
  9
$PUCSORGBOTTOM
 10
0.0
 20
0.0
 30
0.0
  9
$PUCSORGLEFT
 10
0.0
 20
0.0
 30
0.0
  9
$PUCSORGRIGHT
 10
0.0
 20
0.0
 30
0.0
  9
$PUCSORGFRONT
 10
0.0
 20
0.0
 30
0.0
  9
$PUCSORGBACK
 10
0.0
 20
0.0
 30
0.0
  9
$USERI1
 70
     0
  9
$USERI2
 70
     0
  9
$USERI3
 70
     0
  9
$USERI4
 70
     0
  9
$USERI5
 70
     0
  9
$USERR1
 40
0.0
  9
$USERR2
 40
0.0
  9
$USERR3
 40
0.0
  9
$USERR4
 40
0.0
  9
$USERR5
 40
0.0
  9
$WORLDVIEW
 70
     1
  9
$SHADEDGE
 70
     3
  9
$SHADEDIF
 70
    70
  9
$TILEMODE
 70
     1
  9
$MAXACTVP
 70
    64
  9
$PINSBASE
 10
0.0
 20
0.0
 30
0.0
  9
$PLIMCHECK
 70
     0
  9
$PEXTMIN
 10
1.000000000000E+20
 20
1.000000000000E+20
 30
1.000000000000E+20
  9
$PEXTMAX
 10
-1.000000000000E+20
 20
-1.000000000000E+20
 30
-1.000000000000E+20
  9
$PLIMMIN
 10
0.0
 20
0.0
  9
$PLIMMAX
 10
12.0
 20
9.0
  9
$UNITMODE
 70
     0
  9
$VISRETAIN
 70
     1
  9
$PLINEGEN
 70
     0
  9
$PSLTSCALE
 70
     1
  9
$TREEDEPTH
 70
  3020
  9
$CMLSTYLE
  2
Standard
  9
$CMLJUST
 70
     0
  9
$CMLSCALE
 40
1.0
  9
$PROXYGRAPHICS
 70
     1
  9
$MEASUREMENT
 70
     0
  9
$CELWEIGHT
370
    -1
  9
$ENDCAPS
280
     0
  9
$JOINSTYLE
280
     0
  9
$LWDISPLAY
290
     0
  9
$INSUNITS
 70
     0
  9
$HYPERLINKBASE
  1

  9
$STYLESHEET
  1

  9
$XEDIT
290
     1
  9
$CEPSNTYPE
380
     0
  9
$PSTYLEMODE
290
     1
  9
$FINGERPRINTGUID
  2
{331609F7-B98E-4F92-8836-89467DB85610}
  9
$VERSIONGUID
  2
{FAEB1C32-E019-11D5-929B-00C0DF256EC4}
  9
$EXTNAMES
290
     1
  9
$PSVPSCALE
 40
0.0
  9
$OLESTARTUP
290
     0
  0
ENDSEC
  0
SECTION
  2
CLASSES
  0
CLASS
  1
ACDBDICTIONARYWDFLT
  2
AcDbDictionaryWithDefault
  3
ObjectDBX Classes
 90
        0
280
     0
281
     0
  0
CLASS
  1
SCALE
  2
AcDbScale
  3
ObjectDBX Classes
 90
     1153
280
     0
281
     0
  0
CLASS
  1
DICTIONARYVAR
  2
AcDbDictionaryVar
  3
ObjectDBX Classes
 90
        0
280
     0
281
     0
  0
CLASS
  1
ACDBPLACEHOLDER
  2
AcDbPlaceHolder
  3
ObjectDBX Classes
 90
        0
280
     0
281
     0
  0
CLASS
  1
LAYOUT
  2
AcDbLayout
  3
ObjectDBX Classes
 90
        0
280
     0
281
     0
  0
ENDSEC
  0
SECTION
  2
TABLES
  0
TABLE
  2
VPORT
  5
8
330
0
100
AcDbSymbolTable
 70
     1
  0
VPORT
  5
955
330
8
100
AcDbSymbolTableRecord
100
AcDbViewportTableRecord
  2
*Active
 70
     0
 10
0.0
 20
0.0
 11
1.0
 21
1.0
 12
24.0
 22
81.491
 13
0.0
 23
0.0
 14
0.5
 24
0.5
 15
0.5
 25
0.5
 16
0.0
 26
0.0
 36
1.0
 17
0.0
 27
0.0
 37
0.0
 40
166.72228644
 41
1.729542302358
 42
50.0
 43
0.0
 44
0.0
 50
0.0
 51
0.0
 71
    16
 72
   100
 73
     1
 74
     3
 75
     0
 76
     0
 77
     0
 78
     0
281
     0
 65
     1
110
0.0
120
0.0
130
0.0
111
1.0
121
0.0
131
0.0
112
0.0
122
1.0
132
0.0
 79
     0
146
0.0
  0
ENDTAB
  0
TABLE
  2
LTYPE
  5
5
330
0
100
AcDbSymbolTable
 70
     1
  0
LTYPE
  5
14
330
5
100
AcDbSymbolTableRecord
100
AcDbLinetypeTableRecord
  2
ByBlock
 70
     0
  3

 72
    65
 73
     0
 40
0.0
  0
LTYPE
  5
15
330
5
100
AcDbSymbolTableRecord
100
AcDbLinetypeTableRecord
  2
ByLayer
 70
     0
  3

 72
    65
 73
     0
 40
0.0
  0
LTYPE
  5
16
330
5
100
AcDbSymbolTableRecord
100
AcDbLinetypeTableRecord
  2
Continuous
 70
     0
  3
Solid line
 72
    65
 73
     0
 40
0.0
  0
ENDTAB
  0
TABLE
  2
LAYER
  5
2
330
0
100
AcDbSymbolTable
 70
     1
  0
LAYER
  5
10
330
2
100
AcDbSymbolTableRecord
100
AcDbLayerTableRecord
  2
0
 70
     0
 62
     7
  6
Continuous
370
    -3
390
F
  0
ENDTAB
  0
TABLE
  2
STYLE
  5
3
330
0
100
AcDbSymbolTable
 70
     1
  0
STYLE
  5
11
330
3
100
AcDbSymbolTableRecord
100
AcDbTextStyleTableRecord
  2
Standard
 70
     0
 40
0.0
 41
1.0
 50
0.0
 71
     0
 42
0.2
  3
txt
  4

  0
ENDTAB
  0
TABLE
  2
VIEW
  5
6
330
0
100
AcDbSymbolTable
 70
     0
  0
ENDTAB
  0
TABLE
  2
UCS
  5
7
330
0
100
AcDbSymbolTable
 70
     0
  0
ENDTAB
  0
TABLE
  2
APPID
  5
9
330
0
100
AcDbSymbolTable
 70
     1
  0
APPID
  5
12
330
9
100
AcDbSymbolTableRecord
100
AcDbRegAppTableRecord
  2
ACAD
 70
     0
  0
ENDTAB
  0
TABLE
  2
DIMSTYLE
  5
A
330
0
100
AcDbSymbolTable
 70
     1
100
AcDbDimStyleTable
  0
DIMSTYLE
105
20
330
A
100
AcDbSymbolTableRecord
100
AcDbDimStyleTableRecord
  2
Standard
 70
     0
340
11
  0
ENDTAB
  0
TABLE
  2
BLOCK_RECORD
  5
1
330
0
100
AcDbSymbolTable
 70
     0
  0
BLOCK_RECORD
  5
1D
330
1
100
AcDbSymbolTableRecord
100
AcDbBlockTableRecord
  2
*Model_Space
340
1E
  0
BLOCK_RECORD
  5
1B
330
1
100
AcDbSymbolTableRecord
100
AcDbBlockTableRecord
  2
*Paper_Space
340
1C
  0
ENDTAB
  0
ENDSEC
  0
SECTION
  2
BLOCKS
  0
BLOCK
  5
958
330
1D
100
AcDbEntity
  8
0
100
AcDbBlockBegin
  2
*Model_Space
 70
     0
 10
0.0
 20
0.0
 30
0.0
  3
*Model_Space
  1
*Model_Space
  0
ENDBLK
  5
959
330
1D
100
AcDbEntity
  8
0
100
AcDbBlockEnd
  0
BLOCK
  5
956
330
1B
100
AcDbEntity
 67
     1
  8
0
100
AcDbBlockBegin
  2
*Paper_Space
 70
     0
 10
0.0
 20
0.0
 30
0.0
  3
*Paper_Space
  1
*Paper_Space
  0
ENDBLK
  5
957
330
1B
100
AcDbEntity
 67
     1
  8
0
100
AcDbBlockEnd
  0
ENDSEC
  0
SECTION
  2
ENTITIES
  0
LINE
  5
21
330
1D
100
AcDbEntity
  8
0
100
AcDbLine
 10
0.1199
 20
-0.235389
 30
0.0
 11
0.3555
 21
-0.235389
 31
0.0
  0
LINE
  5
22
330
1D
100
AcDbEntity
  8
0
100
AcDbLine
 10
-0.0211
 20
-0.235389
 30
0.0
 11
0.1199
 21
-0.235389
 31
0.0
  0
LINE
  5
23
330
1D
100
AcDbEntity
  8
0
100
AcDbLine
 10
-0.0211
 20
-0.235389
 30
0.0
 11
0.1199
 21
-0.235389
 31
0.0
  0
LINE
  5
24
330
1D
100
AcDbEntity
  8
0
100
AcDbLine
 10
0.1199
 20
-0.235389
 30
0.0
 11
0.3555
 21
-0.235389
 31
0.0
  0
LINE
  5
25
330
1D
100
AcDbEntity
  8
0
100
AcDbLine
 10
0.3555
 20
-0.235389
 30
0.0
 11
0.7263
 21
-0.235389
 31
0.0
  0
LINE
  5
26
330
1D
100
AcDbEntity
  8
0
100
AcDbLine
 10
0.0654
 20
-0.235389
 30
0.0
 11
0.3647
 21
-0.235389
 31
0.0
  0
LINE
  5
27
330
1D
100
AcDbEntity
  8
0
100
AcDbLine
 10
-0.0388
 20
-0.235389
 30
0.0
 11
0.0654
 21
-0.235389
 31
0.0
  0
LINE
  5
28
330
1D
100
AcDbEntity
  8
0
100
AcDbLine
 10
0.7263
 20
-0.235389
 30
0.0
 11
1.1782
 21
-0.235389
 31
0.0
  0
LINE
  5
29
330
1D
100
AcDbEntity
  8
0
100
AcDbLine
 10
0.3647
 20
-0.235389
 30
0.0
 11
0.8067
 21
-0.235389
 31
0.0
  0
LINE
  5
2A
330
1D
100
AcDbEntity
  8
0
100
AcDbLine
 10
0.0654
 20
-0.235389
 30
0.0
 11
0.3647
 21
-0.235389
 31
0.0
  0
LINE
  5
2B
330
1D
100
AcDbEntity
  8
0
100
AcDbLine
 10
1.1782
 20
-0.235389
 30
0.0
 11
1.7466
 21
-0.235389
 31
0.0
  0
LINE
  5
2C
330
1D
100
AcDbEntity
  8
0
100
AcDbLine
 10
0.3647
 20
-0.235389
 30
0.0
 11
0.8067
 21
-0.235389
 31
0.0
  0
LINE
  5
2D
330
1D
100
AcDbEntity
  8
0
100
AcDbLine
 10
1.7466
 20
-0.235389
 30
0.0
 11
2.534
 21
-0.235389
 31
0.0
  0
LINE
  5
2E
330
1D
100
AcDbEntity
  8
0
100
AcDbLine
 10
0.8067
 20
-0.235389
 30
0.0
 11
1.4834
 21
-0.235389
 31
0.0
  0
LINE
  5
2F
330
1D
100
AcDbEntity
  8
0
100
AcDbLine
 10
2.534
 20
-0.235389
 30
0.0
 11
3.4373
 21
-0.235389
 31
0.0
  0
LINE
  5
30
330
1D
100
AcDbEntity
  8
0
100
AcDbLine
 10
1.4834
 20
-0.235389
 30
0.0
 11
2.3014
 21
-0.235389
 31
0.0
  0
LINE
  5
31
330
1D
100
AcDbEntity
  8
0
100
AcDbLine
 10
3.4373
 20
-0.235389
 30
0.0
 11
4.6772
 21
-0.235389
 31
0.0
  0
LINE
  5
32
330
1D
100
AcDbEntity
  8
0
100
AcDbLine
 10
3.3542
 20
-0.235389
 30
0.0
 11
4.6615
 21
-0.235389
 31
0.0
  0
LINE
  5
33
330
1D
100
AcDbEntity
  8
0
100
AcDbLine
 10
2.3014
 20
-0.235389
 30
0.0
 11
3.3542
 21
-0.235389
 31
0.0
  0
LINE
  5
34
330
1D
100
AcDbEntity
  8
0
100
AcDbLine
 10
11.9332
 20
-0.235607
 30
0.0
 11
14.4118
 21
-0.235607
 31
0.0
  0
LINE
  5
35
330
1D
100
AcDbEntity
  8
0
100
AcDbLine
 10
9.9997
 20
-0.235607
 30
0.0
 11
11.9332
 21
-0.235607
 31
0.0
  0
LINE
  5
36
330
1D
100
AcDbEntity
  8
0
100
AcDbLine
 10
7.9721
 20
-0.235389
 30
0.0
 11
9.9997
 21
-0.235607
 31
0.0
  0
LINE
  5
37
330
1D
100
AcDbEntity
  8
0
100
AcDbLine
 10
6.0084
 20
-0.235389
 30
0.0
 11
7.9721
 21
-0.235389
 31
0.0
  0
LINE
  5
38
330
1D
100
AcDbEntity
  8
0
100
AcDbLine
 10
4.6772
 20
-0.235389
 30
0.0
 11
6.0084
 21
-0.235389
 31
0.0
  0
LINE
  5
39
330
1D
100
AcDbEntity
  8
0
100
AcDbLine
 10
4.6615
 20
-0.235389
 30
0.0
 11
6.2248
 21
-0.235389
 31
0.0
  0
LINE
  5
3A
330
1D
100
AcDbEntity
  8
0
100
AcDbLine
 10
-0.0388
 20
-0.235389
 30
0.0
 11
1.1518
 21
70.938711
 31
0.0
  0
LINE
  5
3B
330
1D
100
AcDbEntity
  8
0
100
AcDbLine
 10
1.1518
 20
70.938711
 30
0.0
 11
1.194153413395
 21
73.045019738057
 31
0.0
  0
LINE
  5
3C
330
1D
100
AcDbEntity
  8
0
100
AcDbLine
 10
1.1518
 20
70.938711
 30
0.0
 11
1.194153413395
 21
73.045019738057
 31
0.0
  0
LINE
  5
3D
330
1D
100
AcDbEntity
  8
0
100
AcDbLine
 10
8.0383
 20
-0.235389
 30
0.0
 11
8.3816
 21
-0.235389
 31
0.0
  0
LINE
  5
3E
330
1D
100
AcDbEntity
  8
0
100
AcDbLine
 10
10.3213
 20
-0.235389
 30
0.0
 11
12.4433
 21
-0.235389
 31
0.0
  0
LINE
  5
3F
330
1D
100
AcDbEntity
  8
0
100
AcDbLine
 10
11.0856
 20
87.513411
 30
0.0
 11
12.3432
 21
86.540611
 31
0.0
  0
LINE
  5
40
330
1D
100
AcDbEntity
  8
0
100
AcDbLine
 10
9.6184
 20
88.891111
 30
0.0
 11
11.0856
 21
87.513211
 31
0.0
  0
LINE
  5
41
330
1D
100
AcDbEntity
  8
0
100
AcDbLine
 10
9.6184
 20
88.891111
 30
0.0
 11
11.0856
 21
87.513411
 31
0.0
  0
LINE
  5
42
330
1D
100
AcDbEntity
  8
0
100
AcDbLine
 10
11.0856
 20
87.513211
 30
0.0
 11
12.3432
 21
86.540611
 31
0.0
  0
LINE
  5
43
330
1D
100
AcDbEntity
  8
0
100
AcDbLine
 10
8.3816
 20
-0.235389
 30
0.0
 11
10.3213
 21
-0.235389
 31
0.0
  0
LINE
  5
44
330
1D
100
AcDbEntity
  8
0
100
AcDbLine
 10
1.4939
 20
91.853511
 30
0.0
 11
1.5475
 21
97.019411
 31
0.0
  0
LINE
  5
45
330
1D
100
AcDbEntity
  8
0
100
AcDbLine
 10
1.1606
 20
70.939611
 30
0.0
 11
1.4939
 21
91.853511
 31
0.0
  0
LINE
  5
46
330
1D
100
AcDbEntity
  8
0
100
AcDbLine
 10
6.2248
 20
-0.235389
 30
0.0
 11
8.0383
 21
-0.235389
 31
0.0
  0
LINE
  5
4A
330
1D
100
AcDbEntity
  8
0
100
AcDbLine
 10
1.5475
 20
97.019411
 30
0.0
 11
1.6301
 21
104.477611
 31
0.0
  0
LINE
  5
4B
330
1D
100
AcDbEntity
  8
0
100
AcDbLine
 10
11.8402
 20
97.375911
 30
0.0
 11
12.0099
 21
96.110511
 31
0.0
  0
LINE
  5
50
330
1D
100
AcDbEntity
  8
0
100
AcDbLine
 10
12.4433
 20
-0.235389
 30
0.0
 11
14.7223
 21
-0.235389
 31
0.0
  0
LINE
  5
54
330
1D
100
AcDbEntity
  8
0
100
AcDbLine
 10
14.4118
 20
-0.235607
 30
0.0
 11
16.9129
 21
-0.235607
 31
0.0
  0
LINE
  5
57
330
1D
100
AcDbEntity
  8
0
100
AcDbLine
 10
14.7223
 20
-0.235389
 30
0.0
 11
16.1374
 21
-0.235389
 31
0.0
  0
LINE
  5
58
330
1D
100
AcDbEntity
  8
0
100
AcDbLine
 10
16.1374
 20
-0.235389
 30
0.0
 11
17.59
 21
-0.235389
 31
0.0
  0
LINE
  5
5C
330
1D
100
AcDbEntity
  8
0
100
AcDbLine
 10
16.9129
 20
-0.235607
 30
0.0
 11
19.4071
 21
-0.235607
 31
0.0
  0
LINE
  5
5D
330
1D
100
AcDbEntity
  8
0
100
AcDbLine
 10
17.59
 20
-0.235389
 30
0.0
 11
19.0727
 21
-0.235389
 31
0.0
  0
LINE
  5
60
330
1D
100
AcDbEntity
  8
0
100
AcDbLine
 10
19.0727
 20
-0.235389
 30
0.0
 11
20.5773
 21
-0.235389
 31
0.0
  0
LINE
  5
61
330
1D
100
AcDbEntity
  8
0
100
AcDbLine
 10
19.4071
 20
-0.235607
 30
0.0
 11
21.8876
 21
-0.235526
 31
0.0
  0
LINE
  5
66
330
1D
100
AcDbEntity
  8
0
100
AcDbLine
 10
20.5773
 20
-0.235389
 30
0.0
 11
22.1462
 21
-0.235389
 31
0.0
  0
LINE
  5
6A
330
1D
100
AcDbEntity
  8
0
100
AcDbLine
 10
21.8876
 20
-0.235526
 30
0.0
 11
23.9997
 21
-0.235611
 31
0.0
  0
LINE
  5
6B
330
1D
100
AcDbEntity
  8
0
100
AcDbLine
 10
21.7711
 20
83.058111
 30
0.0
 11
22.5431
 21
83.039611
 31
0.0
  0
LINE
  5
6C
330
1D
100
AcDbEntity
  8
0
100
AcDbLine
 10
22.1462
 20
-0.235389
 30
0.0
 11
23.9996
 21
-0.235389
 31
0.0
  0
LINE
  5
73
330
1D
100
AcDbEntity
  8
0
100
AcDbLine
 10
21.1826
 20
86.494311
 30
0.0
 11
22.4387
 21
86.265011
 31
0.0
  0
LINE
  5
78
330
1D
100
AcDbEntity
  8
0
100
AcDbLine
 10
19.9575
 20
86.854011
 30
0.0
 11
21.1826
 21
86.494311
 31
0.0
  0
LINE
  5
7E
330
1D
100
AcDbEntity
  8
0
100
AcDbLine
 10
18.7761
 20
87.339511
 30
0.0
 11
19.9575
 21
86.854011
 31
0.0
  0
LINE
  5
86
330
1D
100
AcDbEntity
  8
0
100
AcDbLine
 10
16.598
 20
88.666511
 30
0.0
 11
17.6526
 21
87.945911
 31
0.0
  0
LINE
  5
92
330
1D
100
AcDbEntity
  8
0
100
AcDbLine
 10
17.6526
 20
87.945911
 30
0.0
 11
18.7761
 21
87.339511
 31
0.0
  0
LINE
  5
A1
330
1D
100
AcDbEntity
  8
0
100
AcDbLine
 10
21.8273
 20
89.450511
 30
0.0
 11
22.75
 21
89.275111
 31
0.0
  0
LINE
  5
A4
330
1D
100
AcDbEntity
  8
0
100
AcDbLine
 10
20.9273
 20
89.719411
 30
0.0
 11
21.8273
 21
89.450511
 31
0.0
  0
LINE
  5
A9
330
1D
100
AcDbEntity
  8
0
100
AcDbLine
 10
20.0596
 20
90.078811
 30
0.0
 11
20.9273
 21
89.719411
 31
0.0
  0
LINE
  5
AB
330
1D
100
AcDbEntity
  8
0
100
AcDbLine
 10
20.5343
 20
90.167211
 30
0.0
 11
21.3699
 21
89.862011
 31
0.0
  0
LINE
  5
AC
330
1D
100
AcDbEntity
  8
0
100
AcDbLine
 10
21.3699
 20
89.862011
 30
0.0
 11
22.2319
 21
89.642111
 31
0.0
  0
LINE
  5
AE
330
1D
100
AcDbEntity
  8
0
100
AcDbLine
 10
21.7141
 20
90.281611
 30
0.0
 11
22.6335
 21
90.076611
 31
0.0
  0
LINE
  5
AF
330
1D
100
AcDbEntity
  8
0
100
AcDbLine
 10
15.6248
 20
89.493511
 30
0.0
 11
16.598
 21
88.666511
 31
0.0
  0
LINE
  5
B1
330
1D
100
AcDbEntity
  8
0
100
AcDbLine
 10
19.2332
 20
90.525111
 30
0.0
 11
20.0596
 21
90.078811
 31
0.0
  0
LINE
  5
B5
330
1D
100
AcDbEntity
  8
0
100
AcDbLine
 10
18.1823
 20
90.779111
 30
0.0
 11
18.3318
 21
90.928611
 31
0.0
  0
LINE
  5
B6
330
1D
100
AcDbEntity
  8
0
100
AcDbLine
 10
18.1571
 20
90.753911
 30
0.0
 11
18.4567
 21
91.053511
 31
0.0
  0
LINE
  5
B7
330
1D
100
AcDbEntity
  8
0
100
AcDbLine
 10
19.7331
 20
90.554111
 30
0.0
 11
20.5343
 21
90.167211
 31
0.0
  0
LINE
  5
B8
330
1D
100
AcDbEntity
  8
0
100
AcDbLine
 10
21.9201
 20
90.769311
 30
0.0
 11
22.8158
 21
90.579111
 31
0.0
  0
LINE
  5
B9
330
1D
100
AcDbEntity
  8
0
100
AcDbLine
 10
21.92
 20
90.769311
 30
0.0
 11
22.8158
 21
90.579111
 31
0.0
  0
LINE
  5
BA
330
1D
100
AcDbEntity
  8
0
100
AcDbLine
 10
20.8235
 20
90.588311
 30
0.0
 11
21.7141
 21
90.281611
 31
0.0
  0
LINE
  5
BB
330
1D
100
AcDbEntity
  8
0
100
AcDbLine
 10
14.7435
 20
90.417411
 30
0.0
 11
15.6248
 21
89.493511
 31
0.0
  0
LINE
  5
C0
330
1D
100
AcDbEntity
  8
0
100
AcDbLine
 10
18.361
 20
90.957911
 30
0.0
 11
18.4031
 21
91.000011
 31
0.0
  0
LINE
  5
C1
330
1D
100
AcDbEntity
  8
0
100
AcDbLine
 10
18.361
 20
90.957911
 30
0.0
 11
18.403100000013
 21
91.000011000013
 31
0.0
  0
LINE
  5
C2
330
1D
100
AcDbEntity
  8
0
100
AcDbLine
 10
18.361
 20
90.957911
 30
0.0
 11
18.403100000013
 21
91.000011000013
 31
0.0
  0
LINE
  5
C4
330
1D
100
AcDbEntity
  8
0
100
AcDbLine
 10
18.4567
 20
91.053511
 30
0.0
 11
19.2332
 21
90.525111
 31
0.0
  0
LINE
  5
C5
330
1D
100
AcDbEntity
  8
0
100
AcDbLine
 10
18.4031
 20
91.000011
 30
0.0
 11
18.5281
 21
91.124911
 31
0.0
  0
LINE
  5
C6
330
1D
100
AcDbEntity
  8
0
100
AcDbLine
 10
19.9728
 20
90.992911
 30
0.0
 11
20.8235
 21
90.588311
 31
0.0
  0
LINE
  5
C7
330
1D
100
AcDbEntity
  8
0
100
AcDbLine
 10
18.9228
 20
91.054911
 30
0.0
 11
19.7331
 21
90.554111
 31
0.0
  0
LINE
  5
CA
330
1D
100
AcDbEntity
  8
0
100
AcDbLine
 10
21.0524
 20
91.062111
 30
0.0
 11
21.92
 21
90.769311
 31
0.0
  0
LINE
  5
CE
330
1D
100
AcDbEntity
  8
0
100
AcDbLine
 10
18.4863
 20
91.083211
 30
0.0
 11
18.5281
 21
91.124911
 31
0.0
  0
LINE
  5
D7
330
1D
100
AcDbEntity
  8
0
100
AcDbLine
 10
16.3893
 20
92.521711
 30
0.0
 11
16.564
 21
92.696411
 31
0.0
  0
LINE
  5
DA
330
1D
100
AcDbEntity
  8
0
100
AcDbLine
 10
16.4145
 20
92.546911
 30
0.0
 11
16.564
 21
92.696411
 31
0.0
  0
LINE
  5
DB
330
1D
100
AcDbEntity
  8
0
100
AcDbLine
 10
16.564
 20
92.696411
 30
0.0
 11
16.688859509578
 21
92.821270509579
 31
0.0
  0
LINE
  5
DC
330
1D
100
AcDbEntity
  8
0
100
AcDbLine
 10
16.564
 20
92.696411
 30
0.0
 11
16.6889
 21
92.821311
 31
0.0
  0
LINE
  5
E0
330
1D
100
AcDbEntity
  8
0
100
AcDbLine
 10
16.5933
 20
92.725611
 30
0.0
 11
16.7186
 21
92.851011
 31
0.0
  0
LINE
  5
E1
330
1D
100
AcDbEntity
  8
0
100
AcDbLine
 10
16.5933
 20
92.725611
 30
0.0
 11
16.6354
 21
92.767711
 31
0.0
  0
LINE
  5
E2
330
1D
100
AcDbEntity
  8
0
100
AcDbLine
 10
16.5933
 20
92.725611
 30
0.0
 11
16.635400000013
 21
92.767711000013
 31
0.0
  0
LINE
  5
E3
330
1D
100
AcDbEntity
  8
0
100
AcDbLine
 10
16.5933
 20
92.725611
 30
0.0
 11
16.635400000013
 21
92.767711000013
 31
0.0
  0
LINE
  5
E5
330
1D
100
AcDbEntity
  8
0
100
AcDbLine
 10
16.7186
 20
92.851011
 30
0.0
 11
16.7603
 21
92.892711
 31
0.0
  0
LINE
  5
E6
330
1D
100
AcDbEntity
  8
0
100
AcDbLine
 10
16.6354
 20
92.767711
 30
0.0
 11
16.7603
 21
92.892711
 31
0.0
  0
LINE
  5
EA
330
1D
100
AcDbEntity
  8
0
100
AcDbLine
 10
20.2246
 20
91.453711
 30
0.0
 11
21.0524
 21
91.062111
 31
0.0
  0
LINE
  5
EB
330
1D
100
AcDbEntity
  8
0
100
AcDbLine
 10
19.4478
 20
91.938811
 30
0.0
 11
20.2246
 21
91.453711
 31
0.0
  0
LINE
  5
EC
330
1D
100
AcDbEntity
  8
0
100
AcDbLine
 10
19.4477
 20
91.938711
 30
0.0
 11
20.2246
 21
91.453711
 31
0.0
  0
LINE
  5
ED
330
1D
100
AcDbEntity
  8
0
100
AcDbLine
 10
19.1727
 20
91.490211
 30
0.0
 11
19.9728
 21
90.992911
 31
0.0
  0
LINE
  5
EE
330
1D
100
AcDbEntity
  8
0
100
AcDbLine
 10
22.056
 20
91.978911
 30
0.0
 11
22.2182
 21
92.137211
 31
0.0
  0
LINE
  5
EF
330
1D
100
AcDbEntity
  8
0
100
AcDbLine
 10
18.1706
 20
91.639211
 30
0.0
 11
18.9228
 21
91.054911
 31
0.0
  0
LINE
  5
F0
330
1D
100
AcDbEntity
  8
0
100
AcDbLine
 10
18.599135711528
 20
92.645546711528
 30
0.0
 11
19.4419
 21
93.488311
 31
0.0
  0
LINE
  5
F1
330
1D
100
AcDbEntity
  8
0
100
AcDbLine
 10
20.8593
 20
92.474611
 30
0.0
 11
21.4455
 21
92.197611
 31
0.0
  0
LINE
  5
F4
330
1D
100
AcDbEntity
  8
0
100
AcDbLine
 10
22.18891423667
 20
92.474949910021
 30
0.0
 11
22.5191
 21
93.706911
 31
0.0
  0
LINE
  5
F5
330
1D
100
AcDbEntity
  8
0
100
AcDbLine
 10
21.4455
 20
92.197611
 30
0.0
 11
22.056
 21
91.978911
 31
0.0
  0
LINE
  5
F6
330
1D
100
AcDbEntity
  8
0
100
AcDbLine
 10
20.4696
 20
92.699611
 30
0.0
 11
20.6671
 21
92.810511
 31
0.0
  0
LINE
  5
F7
330
1D
100
AcDbEntity
  8
0
100
AcDbLine
 10
20.8566
 20
92.701211
 30
0.0
 11
20.8575
 21
92.612211
 31
0.0
  0
LINE
  5
F8
330
1D
100
AcDbEntity
  8
0
100
AcDbLine
 10
21.7722
 20
92.605511
 30
0.0
 11
22.543
 21
92.364011
 31
0.0
  0
LINE
  5
F9
330
1D
100
AcDbEntity
  8
0
100
AcDbLine
 10
20.8575
 20
92.612211
 30
0.0
 11
20.8593
 21
92.474611
 31
0.0
  0
LINE
  5
FB
330
1D
100
AcDbEntity
  8
0
100
AcDbLine
 10
18.7326
 20
92.510611
 30
0.0
 11
19.4477
 21
91.938711
 31
0.0
  0
LINE
  5
FC
330
1D
100
AcDbEntity
  8
0
100
AcDbLine
 10
18.7326
 20
92.510611
 30
0.0
 11
19.4478
 21
91.938811
 31
0.0
  0
LINE
  5
FD
330
1D
100
AcDbEntity
  8
0
100
AcDbLine
 10
18.4333
 20
92.073911
 30
0.0
 11
19.1727
 21
91.490211
 31
0.0
  0
LINE
  5
FE
330
1D
100
AcDbEntity
  8
0
100
AcDbLine
 10
17.4853
 20
92.300811
 30
0.0
 11
18.1706
 21
91.639211
 31
0.0
  0
LINE
  5
FF
330
1D
100
AcDbEntity
  8
0
100
AcDbLine
 10
18.282690374616
 20
92.965480809142
 30
0.0
 11
19.1237
 21
93.806311
 31
0.0
  0
LINE
  5
100
330
1D
100
AcDbEntity
  8
0
100
AcDbLine
 10
19.9365
 20
93.068911
 30
0.0
 11
20.4696
 21
92.699611
 31
0.0
  0
LINE
  5
101
330
1D
100
AcDbEntity
  8
0
100
AcDbLine
 10
20.726288164916
 20
93.144322441947
 30
0.0
 11
21.364
 21
94.248911
 31
0.0
  0
LINE
  5
102
330
1D
100
AcDbEntity
  8
0
100
AcDbLine
 10
21.111751299454
 20
92.91198371487
 30
0.0
 11
21.7537
 21
94.023911
 31
0.0
  0
LINE
  5
103
330
1D
100
AcDbEntity
  8
0
100
AcDbLine
 10
21.0395
 20
92.945511
 30
0.0
 11
21.7722
 21
92.605511
 31
0.0
  0
LINE
  5
104
330
1D
100
AcDbEntity
  8
0
100
AcDbLine
 10
17.7641
 20
92.736811
 30
0.0
 11
18.4333
 21
92.073911
 31
0.0
  0
LINE
  5
105
330
1D
100
AcDbEntity
  8
0
100
AcDbLine
 10
16.8745
 20
93.031811
 30
0.0
 11
17.4853
 21
92.300811
 31
0.0
  0
LINE
  5
106
330
1D
100
AcDbEntity
  8
0
100
AcDbLine
 10
13.9637
 20
91.428411
 30
0.0
 11
14.7435
 21
90.417411
 31
0.0
  0
LINE
  5
107
330
1D
100
AcDbEntity
  8
0
100
AcDbLine
 10
13.2936
 20
92.515711
 30
0.0
 11
13.9637
 21
91.428411
 31
0.0
  0
LINE
  5
10E
330
1D
100
AcDbEntity
  8
0
100
AcDbLine
 10
12.0099
 20
96.110511
 30
0.0
 11
12.3115
 21
94.869511
 31
0.0
  0
LINE
  5
111
330
1D
100
AcDbEntity
  8
0
100
AcDbLine
 10
18.0886
 20
93.161711
 30
0.0
 11
18.7326
 21
92.510611
 31
0.0
  0
LINE
  5
116
330
1D
100
AcDbEntity
  8
0
100
AcDbLine
 10
13.0
 20
93.568811
 30
0.0
 11
13.0
 21
98.364511
 31
0.0
  0
LINE
  5
119
330
1D
100
AcDbEntity
  8
0
100
AcDbLine
 10
13.0001
 20
93.568611
 30
0.0
 11
13.0001
 21
94.825611
 31
0.0
  0
LINE
  5
11A
330
1D
100
AcDbEntity
  8
0
100
AcDbLine
 10
16.1605
 20
93.597811
 30
0.0
 11
16.688859509578
 21
92.821270509578
 31
0.0
  0
LINE
  5
11B
330
1D
100
AcDbEntity
  8
0
100
AcDbLine
 10
20.3575
 20
93.378411
 30
0.0
 11
21.0395
 21
92.945511
 31
0.0
  0
LINE
  5
11C
330
1D
100
AcDbEntity
  8
0
100
AcDbLine
 10
19.4419
 20
93.488311
 30
0.0
 11
19.4978
 21
93.707811
 31
0.0
  0
LINE
  5
11D
330
1D
100
AcDbEntity
  8
0
100
AcDbLine
 10
19.4419
 20
93.488311
 30
0.0
 11
19.9365
 21
93.068911
 31
0.0
  0
LINE
  5
11E
330
1D
100
AcDbEntity
  8
0
100
AcDbLine
 10
17.1732
 20
93.470211
 30
0.0
 11
17.7641
 21
92.736811
 31
0.0
  0
LINE
  5
12D
330
1D
100
AcDbEntity
  8
0
100
AcDbLine
 10
13.0001
 20
94.825611
 30
0.0
 11
13.0001
 21
93.568611
 31
0.0
  0
LINE
  5
130
330
1D
100
AcDbEntity
  8
0
100
AcDbLine
 10
14.5225
 20
97.114611
 30
0.0
 11
14.7339
 21
97.114611
 31
0.0
  0
LINE
  5
131
330
1D
100
AcDbEntity
  8
0
100
AcDbLine
 10
14.4869
 20
97.114611
 30
0.0
 11
14.9106
 21
97.114611
 31
0.0
  0
LINE
  5
133
330
1D
100
AcDbEntity
  8
0
100
AcDbLine
 10
13.0
 20
96.006211
 30
0.0
 11
13.0001
 21
94.825611
 31
0.0
  0
LINE
  5
134
330
1D
100
AcDbEntity
  8
0
100
AcDbLine
 10
13.0
 20
96.006211
 30
0.0
 11
13.0
 21
100.722611
 31
0.0
  0
LINE
  5
136
330
1D
100
AcDbEntity
  8
0
100
AcDbLine
 10
14.9106
 20
97.114611
 30
0.0
 11
15.086
 21
96.191911
 31
0.0
  0
LINE
  5
139
330
1D
100
AcDbEntity
  8
0
100
AcDbLine
 10
15.086
 20
96.191911
 30
0.0
 11
15.3548
 21
95.291911
 31
0.0
  0
LINE
  5
13A
330
1D
100
AcDbEntity
  8
0
100
AcDbLine
 10
14.9525
 20
97.114611
 30
0.0
 11
15.0115
 21
97.114611
 31
0.0
  0
LINE
  5
13B
330
1D
100
AcDbEntity
  8
0
100
AcDbLine
 10
14.8347
 20
97.114611
 30
0.0
 11
15.0115
 21
97.114611
 31
0.0
  0
LINE
  5
13C
330
1D
100
AcDbEntity
  8
0
100
AcDbLine
 10
14.7753
 20
97.114611
 30
0.0
 11
14.8347
 21
97.114611
 31
0.0
  0
LINE
  5
144
330
1D
100
AcDbEntity
  8
0
100
AcDbLine
 10
13.0
 20
98.364511
 30
0.0
 11
13.0
 21
103.160611
 31
0.0
  0
LINE
  5
145
330
1D
100
AcDbEntity
  8
0
100
AcDbLine
 10
13.0
 20
98.364511
 30
0.0
 11
13.0
 21
93.568811
 31
0.0
  0
LINE
  5
148
330
1D
100
AcDbEntity
  8
0
100
AcDbLine
 10
15.3548
 20
95.291911
 30
0.0
 11
15.7142
 21
94.424211
 31
0.0
  0
LINE
  5
149
330
1D
100
AcDbEntity
  8
0
100
AcDbLine
 10
15.7142
 20
94.424211
 30
0.0
 11
16.1605
 21
93.597811
 31
0.0
  0
LINE
  5
14A
330
1D
100
AcDbEntity
  8
0
100
AcDbLine
 10
15.904
 20
94.668111
 30
0.0
 11
16.3455
 21
93.824011
 31
0.0
  0
LINE
  5
14B
330
1D
100
AcDbEntity
  8
0
100
AcDbLine
 10
15.5553
 20
95.554611
 30
0.0
 11
15.904
 21
94.668111
 31
0.0
  0
LINE
  5
14C
330
1D
100
AcDbEntity
  8
0
100
AcDbLine
 10
16.3455
 20
93.824011
 30
0.0
 11
16.8745
 21
93.031811
 31
0.0
  0
LINE
  5
14D
330
1D
100
AcDbEntity
  8
0
100
AcDbLine
 10
19.1237
 20
93.806311
 30
0.0
 11
19.3432
 21
93.862411
 31
0.0
  0
LINE
  5
150
330
1D
100
AcDbEntity
  8
0
100
AcDbLine
 10
19.79900496616
 20
93.84541596616
 30
0.0
 11
20.7067
 21
94.753111
 31
0.0
  0
LINE
  5
151
330
1D
100
AcDbEntity
  8
0
100
AcDbLine
 10
22.1297
 20
93.849211
 30
0.0
 11
22.5191
 21
93.706911
 31
0.0
  0
LINE
  5
153
330
1D
100
AcDbEntity
  8
0
100
AcDbLine
 10
17.072656155556
 20
94.624902617035
 30
0.0
 11
18.1101
 21
95.223911
 31
0.0
  0
LINE
  5
154
330
1D
100
AcDbEntity
  8
0
100
AcDbLine
 10
17.306835394816
 20
94.240502606327
 30
0.0
 11
18.3351
 21
94.834211
 31
0.0
  0
LINE
  5
155
330
1D
100
AcDbEntity
  8
0
100
AcDbLine
 10
18.3351
 20
94.834211
 30
0.0
 11
18.7044
 21
94.301111
 31
0.0
  0
LINE
  5
156
330
1D
100
AcDbEntity
  8
0
100
AcDbLine
 10
18.3351
 20
94.834211
 30
0.0
 11
18.446
 21
95.031711
 31
0.0
  0
LINE
  5
157
330
1D
100
AcDbEntity
  8
0
100
AcDbLine
 10
19.486754324016
 20
94.169565324017
 30
0.0
 11
20.3886
 21
95.071411
 31
0.0
  0
LINE
  5
158
330
1D
100
AcDbEntity
  8
0
100
AcDbLine
 10
21.364
 20
94.248911
 30
0.0
 11
21.5446
 21
94.330511
 31
0.0
  0
LINE
  5
159
330
1D
100
AcDbEntity
  8
0
100
AcDbLine
 10
19.7379
 20
93.896511
 30
0.0
 11
20.3575
 21
93.378411
 31
0.0
  0
LINE
  5
15A
330
1D
100
AcDbEntity
  8
0
100
AcDbLine
 10
18.7044
 20
94.301111
 30
0.0
 11
19.1237
 21
93.806311
 31
0.0
  0
LINE
  5
15D
330
1D
100
AcDbEntity
  8
0
100
AcDbLine
 10
21.7344
 20
94.217511
 30
0.0
 11
21.7537
 21
94.023911
 31
0.0
  0
LINE
  5
15E
330
1D
100
AcDbEntity
  8
0
100
AcDbLine
 10
21.7537
 20
94.023911
 30
0.0
 11
22.1297
 21
93.849211
 31
0.0
  0
LINE
  5
161
330
1D
100
AcDbEntity
  8
0
100
AcDbLine
 10
19.1911
 20
94.491011
 30
0.0
 11
19.7379
 21
93.896511
 31
0.0
  0
LINE
  5
162
330
1D
100
AcDbEntity
  8
0
100
AcDbLine
 10
20.7067
 20
94.753111
 30
0.0
 11
21.0247
 21
94.487111
 31
0.0
  0
LINE
  5
163
330
1D
100
AcDbEntity
  8
0
100
AcDbLine
 10
20.7067
 20
94.753111
 30
0.0
 11
20.7389
 21
94.948811
 31
0.0
  0
LINE
  5
164
330
1D
100
AcDbEntity
  8
0
100
AcDbLine
 10
21.3159
 20
94.830911
 30
0.0
 11
21.8725
 21
94.470411
 31
0.0
  0
LINE
  5
165
330
1D
100
AcDbEntity
  8
0
100
AcDbLine
 10
21.8725
 20
94.470411
 30
0.0
 11
22.4767
 21
94.196811
 31
0.0
  0
LINE
  5
166
330
1D
100
AcDbEntity
  8
0
100
AcDbLine
 10
21.0247
 20
94.487111
 30
0.0
 11
21.364
 21
94.248911
 31
0.0
  0
LINE
  5
169
330
1D
100
AcDbEntity
  8
0
100
AcDbLine
 10
18.772388820259
 20
95.086671597574
 30
0.0
 11
19.8843
 21
95.728611
 31
0.0
  0
LINE
  5
16A
330
1D
100
AcDbEntity
  8
0
100
AcDbLine
 10
20.3886
 20
95.071411
 30
0.0
 11
20.5842
 21
95.103511
 31
0.0
  0
LINE
  5
16B
330
1D
100
AcDbEntity
  8
0
100
AcDbLine
 10
21.033965743312
 20
95.080377691794
 30
0.0
 11
21.9285
 21
95.975011
 31
0.0
  0
LINE
  5
16C
330
1D
100
AcDbEntity
  8
0
100
AcDbLine
 10
17.0481
 20
94.665211
 30
0.0
 11
17.5245
 21
93.883211
 31
0.0
  0
LINE
  5
16D
330
1D
100
AcDbEntity
  8
0
100
AcDbLine
 10
17.5245
 20
93.883211
 30
0.0
 11
18.0886
 21
93.161711
 31
0.0
  0
LINE
  5
16E
330
1D
100
AcDbEntity
  8
0
100
AcDbLine
 10
16.6681
 20
94.265411
 30
0.0
 11
17.1732
 21
93.470211
 31
0.0
  0
LINE
  5
16F
330
1D
100
AcDbEntity
  8
0
100
AcDbLine
 10
16.465472701074
 20
96.112754605208
 30
0.0
 11
17.6144
 21
96.420511
 31
0.0
  0
LINE
  5
170
330
1D
100
AcDbEntity
  8
0
100
AcDbLine
 10
16.346517884291
 20
96.546807131277
 30
0.0
 11
17.4979
 21
96.855311
 31
0.0
  0
LINE
  5
171
330
1D
100
AcDbEntity
  8
0
100
AcDbLine
 10
16.3824
 20
96.368311
 30
0.0
 11
16.6655
 21
95.497411
 31
0.0
  0
LINE
  5
173
330
1D
100
AcDbEntity
  8
0
100
AcDbLine
 10
18.7266
 20
95.151811
 30
0.0
 11
19.1911
 21
94.491011
 31
0.0
  0
LINE
  5
175
330
1D
100
AcDbEntity
  8
0
100
AcDbLine
 10
17.6144
 20
96.420511
 30
0.0
 11
17.8332
 21
95.810111
 31
0.0
  0
LINE
  5
176
330
1D
100
AcDbEntity
  8
0
100
AcDbLine
 10
17.6144
 20
96.420511
 30
0.0
 11
17.7726
 21
96.582811
 31
0.0
  0
LINE
  5
177
330
1D
100
AcDbEntity
  8
0
100
AcDbLine
 10
17.4979
 20
96.855311
 30
0.0
 11
17.716
 21
96.794011
 31
0.0
  0
LINE
  5
17A
330
1D
100
AcDbEntity
  8
0
100
AcDbLine
 10
17.8332
 20
95.810111
 30
0.0
 11
18.1101
 21
95.223911
 31
0.0
  0
LINE
  5
17D
330
1D
100
AcDbEntity
  8
0
100
AcDbLine
 10
18.3524
 20
95.867711
 30
0.0
 11
18.7266
 21
95.151811
 31
0.0
  0
LINE
  5
17E
330
1D
100
AcDbEntity
  8
0
100
AcDbLine
 10
18.1101
 20
95.223911
 30
0.0
 11
18.3366
 21
95.221111
 31
0.0
  0
LINE
  5
17F
330
1D
100
AcDbEntity
  8
0
100
AcDbLine
 10
18.102200379867
 20
96.551343607605
 30
0.0
 11
19.3423
 21
96.883611
 31
0.0
  0
LINE
  5
181
330
1D
100
AcDbEntity
  8
0
100
AcDbLine
 10
18.554735571693
 20
95.480613095737
 30
0.0
 11
19.6593
 21
96.118311
 31
0.0
  0
LINE
  5
182
330
1D
100
AcDbEntity
  8
0
100
AcDbLine
 10
19.8843
 20
95.728611
 30
0.0
 11
20.1224
 21
95.389311
 31
0.0
  0
LINE
  5
183
330
1D
100
AcDbEntity
  8
0
100
AcDbLine
 10
19.8843
 20
95.728611
 30
0.0
 11
19.9659
 21
95.909211
 31
0.0
  0
LINE
  5
184
330
1D
100
AcDbEntity
  8
0
100
AcDbLine
 10
20.8192
 20
95.270411
 30
0.0
 11
21.3159
 21
94.830911
 31
0.0
  0
LINE
  5
186
330
1D
100
AcDbEntity
  8
0
100
AcDbLine
 10
20.3936
 20
95.779011
 30
0.0
 11
20.8192
 21
95.270411
 31
0.0
  0
LINE
  5
18A
330
1D
100
AcDbEntity
  8
0
100
AcDbLine
 10
22.1959
 20
95.767211
 30
0.0
 11
22.4838
 21
95.589211
 31
0.0
  0
LINE
  5
18B
330
1D
100
AcDbEntity
  8
0
100
AcDbLine
 10
20.713643147422
 20
95.396553422982
 30
0.0
 11
21.6103
 21
96.293111
 31
0.0
  0
LINE
  5
18C
330
1D
100
AcDbEntity
  8
0
100
AcDbLine
 10
20.1224
 20
95.389311
 30
0.0
 11
20.3886
 21
95.071411
 31
0.0
  0
LINE
  5
18D
330
1D
100
AcDbEntity
  8
0
100
AcDbLine
 10
21.9285
 20
95.975011
 30
0.0
 11
22.1959
 21
95.767211
 31
0.0
  0
LINE
  5
18E
330
1D
100
AcDbEntity
  8
0
100
AcDbLine
 10
21.9285
 20
95.975011
 30
0.0
 11
21.9823
 21
96.192311
 31
0.0
  0
LINE
  5
18F
330
1D
100
AcDbEntity
  8
0
100
AcDbLine
 10
19.4845
 20
96.494311
 30
0.0
 11
19.6593
 21
96.118311
 31
0.0
  0
LINE
  5
190
330
1D
100
AcDbEntity
  8
0
100
AcDbLine
 10
19.6593
 20
96.118311
 30
0.0
 11
19.8566
 21
96.098611
 31
0.0
  0
LINE
  5
192
330
1D
100
AcDbEntity
  8
0
100
AcDbLine
 10
20.0485
 20
96.345411
 30
0.0
 11
20.3936
 21
95.779011
 31
0.0
  0
LINE
  5
195
330
1D
100
AcDbEntity
  8
0
100
AcDbLine
 10
21.6103
 20
96.293111
 30
0.0
 11
21.8277
 21
96.346911
 31
0.0
  0
LINE
  5
199
330
1D
100
AcDbEntity
  8
0
100
AcDbLine
 10
18.0748
 20
96.626211
 30
0.0
 11
18.3524
 21
95.867711
 31
0.0
  0
LINE
  5
19A
330
1D
100
AcDbEntity
  8
0
100
AcDbLine
 10
21.968614212166
 20
96.651425212166
 30
0.0
 11
23.2247
 21
97.907511
 31
0.0
  0
LINE
  5
19C
330
1D
100
AcDbEntity
  8
0
100
AcDbLine
 10
21.3096
 20
96.702311
 30
0.0
 11
21.6103
 21
96.293111
 31
0.0
  0
LINE
  5
19E
330
1D
100
AcDbEntity
  8
0
100
AcDbLine
 10
21.9265
 20
96.694311
 30
0.0
 11
22.2922
 21
96.321911
 31
0.0
  0
LINE
  5
19F
330
1D
100
AcDbEntity
  8
0
100
AcDbLine
 10
19.3423
 20
96.883611
 30
0.0
 11
19.4845
 21
96.494311
 31
0.0
  0
LINE
  5
1A0
330
1D
100
AcDbEntity
  8
0
100
AcDbLine
 10
19.3423
 20
96.883611
 30
0.0
 11
19.4679
 21
97.037011
 31
0.0
  0
LINE
  5
1A1
330
1D
100
AcDbEntity
  8
0
100
AcDbLine
 10
16.6655
 20
95.497411
 30
0.0
 11
17.0481
 21
94.665211
 31
0.0
  0
LINE
  5
1A2
330
1D
100
AcDbEntity
  8
0
100
AcDbLine
 10
16.2551
 20
95.112111
 30
0.0
 11
16.6681
 21
94.265411
 31
0.0
  0
LINE
  5
1A3
330
1D
100
AcDbEntity
  8
0
100
AcDbLine
 10
15.9397
 20
95.999711
 30
0.0
 11
16.2551
 21
95.112111
 31
0.0
  0
LINE
  5
1A6
330
1D
100
AcDbEntity
  8
0
100
AcDbLine
 10
17.993827660379
 20
96.988221199033
 30
0.0
 11
19.2258
 21
97.318311
 31
0.0
  0
LINE
  5
1A7
330
1D
100
AcDbEntity
  8
0
100
AcDbLine
 10
19.7917
 20
96.956911
 30
0.0
 11
20.0485
 21
96.345411
 31
0.0
  0
LINE
  5
1AD
330
1D
100
AcDbEntity
  8
0
100
AcDbLine
 10
21.6406
 20
97.131011
 30
0.0
 11
21.9265
 21
96.694311
 31
0.0
  0
LINE
  5
1AE
330
1D
100
AcDbEntity
  8
0
100
AcDbLine
 10
21.0782
 20
97.154311
 30
0.0
 11
21.3096
 21
96.702311
 31
0.0
  0
LINE
  5
1AF
330
1D
100
AcDbEntity
  8
0
100
AcDbLine
 10
19.2258
 20
97.318311
 30
0.0
 11
19.4113
 21
97.248311
 31
0.0
  0
LINE
  5
1B1
330
1D
100
AcDbEntity
  8
0
100
AcDbLine
 10
16.2019
 20
97.266211
 30
0.0
 11
16.3824
 21
96.368311
 31
0.0
  0
LINE
  5
1B2
330
1D
100
AcDbEntity
  8
0
100
AcDbLine
 10
15.7257
 20
96.917011
 30
0.0
 11
15.9397
 21
95.999711
 31
0.0
  0
LINE
  5
1B3
330
1D
100
AcDbEntity
  8
0
100
AcDbLine
 10
15.3034
 20
96.473111
 30
0.0
 11
15.5553
 21
95.554611
 31
0.0
  0
LINE
  5
1B6
330
1D
100
AcDbEntity
  8
0
100
AcDbLine
 10
17.8985
 20
97.414411
 30
0.0
 11
18.0748
 21
96.626211
 31
0.0
  0
LINE
  5
1B9
330
1D
100
AcDbEntity
  8
0
100
AcDbLine
 10
19.6289
 20
97.599911
 30
0.0
 11
19.7917
 21
96.956911
 31
0.0
  0
LINE
  5
1BD
330
1D
100
AcDbEntity
  8
0
100
AcDbLine
 10
21.4452
 20
97.615011
 30
0.0
 11
21.6406
 21
97.131011
 31
0.0
  0
LINE
  5
1BF
330
1D
100
AcDbEntity
  8
0
100
AcDbLine
 10
20.9222
 20
97.637611
 30
0.0
 11
21.0782
 21
97.154311
 31
0.0
  0
LINE
  5
1C0
330
1D
100
AcDbEntity
  8
0
100
AcDbLine
 10
19.1543
 20
97.726611
 30
0.0
 11
19.2258
 21
97.318311
 31
0.0
  0
LINE
  5
1C1
330
1D
100
AcDbEntity
  8
0
100
AcDbLine
 10
17.3821
 20
97.493311
 30
0.0
 11
17.4979
 21
96.855311
 31
0.0
  0
LINE
  5
1C3
330
1D
100
AcDbEntity
  8
0
100
AcDbLine
 10
19.575584181818
 20
98.139611
 30
0.0
 11
20.8455
 21
98.139611
 31
0.0
  0
LINE
  5
1C4
330
1D
100
AcDbEntity
  8
0
100
AcDbLine
 10
16.13040871042
 20
98.139611
 30
0.0
 11
17.3288
 21
98.139611
 31
0.0
  0
LINE
  5
1C5
330
1D
100
AcDbEntity
  8
0
100
AcDbLine
 10
17.833867474795
 20
98.139611369973
 30
0.0
 11
19.1177
 21
98.139711
 31
0.0
  0
LINE
  5
1C6
330
1D
100
AcDbEntity
  8
0
100
AcDbLine
 10
19.1177
 20
98.139711
 30
0.0
 11
19.1543
 21
97.726611
 31
0.0
  0
LINE
  5
1C7
330
1D
100
AcDbEntity
  8
0
100
AcDbLine
 10
19.1177
 20
98.139711
 30
0.0
 11
19.2787
 21
98.255211
 31
0.0
  0
LINE
  5
1C8
330
1D
100
AcDbEntity
  8
0
100
AcDbLine
 10
17.3288
 20
98.139611
 30
0.0
 11
17.3821
 21
97.493311
 31
0.0
  0
LINE
  5
1C9
330
1D
100
AcDbEntity
  8
0
100
AcDbLine
 10
17.3288
 20
98.139611
 30
0.0
 11
17.5237
 21
98.255211
 31
0.0
  0
LINE
  5
1CB
330
1D
100
AcDbEntity
  8
0
100
AcDbLine
 10
21.348206265568
 20
98.139611
 30
0.0
 11
23.1286
 21
98.139611
 31
0.0
  0
LINE
  5
1CC
330
1D
100
AcDbEntity
  8
0
100
AcDbLine
 10
21.3481
 20
98.127811
 30
0.0
 11
21.3528
 21
98.649711
 31
0.0
  0
LINE
  5
1CD
330
1D
100
AcDbEntity
  8
0
100
AcDbLine
 10
21.3481
 20
98.127811
 30
0.0
 11
21.4452
 21
97.615011
 31
0.0
  0
LINE
  5
1CF
330
1D
100
AcDbEntity
  8
0
100
AcDbLine
 10
20.8455
 20
98.139611
 30
0.0
 11
21.0372
 21
98.255211
 31
0.0
  0
LINE
  5
1D0
330
1D
100
AcDbEntity
  8
0
100
AcDbLine
 10
20.8455
 20
98.139611
 30
0.0
 11
20.9222
 21
97.637611
 31
0.0
  0
LINE
  5
1D2
330
1D
100
AcDbEntity
  8
0
100
AcDbLine
 10
16.1272
 20
98.178711
 30
0.0
 11
16.2021
 21
97.266011
 31
0.0
  0
LINE
  5
1D3
330
1D
100
AcDbEntity
  8
0
100
AcDbLine
 10
16.1272
 20
98.178711
 30
0.0
 11
16.1589
 21
99.094111
 31
0.0
  0
LINE
  5
1D4
330
1D
100
AcDbEntity
  8
0
100
AcDbLine
 10
16.1272
 20
98.178711
 30
0.0
 11
16.1589
 21
99.094111
 31
0.0
  0
LINE
  5
1D5
330
1D
100
AcDbEntity
  8
0
100
AcDbLine
 10
17.8268
 20
98.218911
 30
0.0
 11
17.8605
 21
99.026011
 31
0.0
  0
LINE
  5
1D6
330
1D
100
AcDbEntity
  8
0
100
AcDbLine
 10
17.8268
 20
98.218911
 30
0.0
 11
17.8985
 21
97.414411
 31
0.0
  0
LINE
  5
1D7
330
1D
100
AcDbEntity
  8
0
100
AcDbLine
 10
19.5637
 20
98.259911
 30
0.0
 11
19.5977
 21
98.922311
 31
0.0
  0
LINE
  5
1D8
330
1D
100
AcDbEntity
  8
0
100
AcDbLine
 10
19.5637
 20
98.259911
 30
0.0
 11
19.6289
 21
97.599911
 31
0.0
  0
LINE
  5
1DF
330
1D
100
AcDbEntity
  8
0
100
AcDbLine
 10
16.1271
 20
98.178911
 30
0.0
 11
16.2019
 21
97.266211
 31
0.0
  0
LINE
  5
1E0
330
1D
100
AcDbEntity
  8
0
100
AcDbLine
 10
16.1271
 20
98.178911
 30
0.0
 11
16.1589
 21
99.094111
 31
0.0
  0
LINE
  5
1E1
330
1D
100
AcDbEntity
  8
0
100
AcDbLine
 10
15.6155
 20
97.852611
 30
0.0
 11
15.7257
 21
96.917011
 31
0.0
  0
LINE
  5
1E2
330
1D
100
AcDbEntity
  8
0
100
AcDbLine
 10
15.151
 20
97.413511
 30
0.0
 11
15.3034
 21
96.473111
 31
0.0
  0
LINE
  5
1E3
330
1D
100
AcDbEntity
  8
0
100
AcDbLine
 10
15.1
 20
98.364611
 30
0.0
 11
15.151
 21
99.315711
 31
0.0
  0
LINE
  5
1E4
330
1D
100
AcDbEntity
  8
0
100
AcDbLine
 10
15.1
 20
98.364611
 30
0.0
 11
15.151
 21
97.413511
 31
0.0
  0
LINE
  5
1E5
330
1D
100
AcDbEntity
  8
0
100
AcDbLine
 10
12.7409
 20
93.666811
 30
0.0
 11
13.2936
 21
92.515711
 31
0.0
  0
LINE
  5
1E6
330
1D
100
AcDbEntity
  8
0
100
AcDbLine
 10
12.3115
 20
94.869511
 30
0.0
 11
12.7409
 21
93.666811
 31
0.0
  0
LINE
  5
1ED
330
1D
100
AcDbEntity
  8
0
100
AcDbLine
 10
11.9002
 20
99.925611
 30
0.0
 11
12.1297
 21
101.181611
 31
0.0
  0
LINE
  5
1EE
330
1D
100
AcDbEntity
  8
0
100
AcDbLine
 10
11.8034
 20
98.652511
 30
0.0
 11
11.8402
 21
97.375911
 31
0.0
  0
LINE
  5
1EF
330
1D
100
AcDbEntity
  8
0
100
AcDbLine
 10
11.8034
 20
98.652511
 30
0.0
 11
11.9002
 21
99.925611
 31
0.0
  0
LINE
  5
1F1
330
1D
100
AcDbEntity
  8
0
100
AcDbLine
 10
1.6301
 20
104.477611
 30
0.0
 11
1.6326
 21
106.884611
 31
0.0
  0
LINE
  5
1F2
330
1D
100
AcDbEntity
  8
0
100
AcDbLine
 10
1.6298
 20
111.789611
 30
0.0
 11
1.6835
 21
112.444611
 31
0.0
  0
LINE
  5
1F3
330
1D
100
AcDbEntity
  8
0
100
AcDbLine
 10
1.6298
 20
111.789611
 30
0.0
 11
1.6326
 21
106.884611
 31
0.0
  0
LINE
  5
1F4
330
1D
100
AcDbEntity
  8
0
100
AcDbLine
 10
1.6791
 20
120.458611
 30
0.0
 11
1.756
 21
134.125611
 31
0.0
  0
LINE
  5
1F5
330
1D
100
AcDbEntity
  8
0
100
AcDbLine
 10
1.6791
 20
120.458611
 30
0.0
 11
1.6947
 21
119.564611
 31
0.0
  0
LINE
  5
1F6
330
1D
100
AcDbEntity
  8
0
100
AcDbLine
 10
1.6772
 20
143.389611
 30
0.0
 11
1.6833
 21
143.490611
 31
0.0
  0
LINE
  5
1F7
330
1D
100
AcDbEntity
  8
0
100
AcDbLine
 10
1.6684
 20
142.793611
 30
0.0
 11
1.6772
 21
143.389611
 31
0.0
  0
LINE
  5
1F8
330
1D
100
AcDbEntity
  8
0
100
AcDbLine
 10
1.6684
 20
142.793611
 30
0.0
 11
1.7603
 21
138.622611
 31
0.0
  0
LINE
  5
1F9
330
1D
100
AcDbEntity
  8
0
100
AcDbLine
 10
1.6835
 20
112.444611
 30
0.0
 11
1.7009
 21
112.528611
 31
0.0
  0
LINE
  5
1FA
330
1D
100
AcDbEntity
  8
0
100
AcDbLine
 10
1.7918
 20
112.808611
 30
0.0
 11
1.8505
 21
112.934611
 31
0.0
  0
LINE
  5
1FB
330
1D
100
AcDbEntity
  8
0
100
AcDbLine
 10
1.7009
 20
112.528611
 30
0.0
 11
1.7918
 21
112.808611
 31
0.0
  0
LINE
  5
1FC
330
1D
100
AcDbEntity
  8
0
100
AcDbLine
 10
1.6947
 20
119.564611
 30
0.0
 11
1.7737
 21
118.335611
 31
0.0
  0
LINE
  5
1FD
330
1D
100
AcDbEntity
  8
0
100
AcDbLine
 10
1.7737
 20
118.335611
 30
0.0
 11
1.8387
 21
117.745611
 31
0.0
  0
LINE
  5
1FE
330
1D
100
AcDbEntity
  8
0
100
AcDbLine
 10
2.1144
 20
113.306611
 30
0.0
 11
2.5977
 21
113.649611
 31
0.0
  0
LINE
  5
1FF
330
1D
100
AcDbEntity
  8
0
100
AcDbLine
 10
1.8505
 20
112.934611
 30
0.0
 11
2.11
 21
113.299611
 31
0.0
  0
LINE
  5
200
330
1D
100
AcDbEntity
  8
0
100
AcDbLine
 10
2.5977
 20
113.649611
 30
0.0
 11
2.9477
 21
113.767611
 31
0.0
  0
LINE
  5
201
330
1D
100
AcDbEntity
  8
0
100
AcDbLine
 10
2.9989
 20
113.776611
 30
0.0
 11
3.262596824968
 21
113.807369131383
 31
0.0
  0
LINE
  5
202
330
1D
100
AcDbEntity
  8
0
100
AcDbLine
 10
2.9989
 20
113.776611
 30
0.0
 11
3.262596824968
 21
113.807369131383
 31
0.0
  0
LINE
  5
205
330
1D
100
AcDbEntity
  8
0
100
AcDbLine
 10
2.9477
 20
113.767611
 30
0.0
 11
2.9989
 21
113.776611
 31
0.0
  0
LINE
  5
209
330
1D
100
AcDbEntity
  8
0
100
AcDbLine
 10
3.262596824968
 20
113.807369131383
 30
0.0
 11
3.649091724895
 21
113.849192483319
 31
0.0
  0
LINE
  5
211
330
1D
100
AcDbEntity
  8
0
100
AcDbLine
 10
9.095414413637
 20
114.549401139174
 30
0.0
 11
10.3754
 21
114.735611
 31
0.0
  0
LINE
  5
219
330
1D
100
AcDbEntity
  8
0
100
AcDbLine
 10
3.648829756873
 20
113.843224139424
 30
0.0
 11
3.6844
 21
114.653611
 31
0.0
  0
LINE
  5
21A
330
1D
100
AcDbEntity
  8
0
100
AcDbLine
 10
2.5744
 20
116.360611
 30
0.0
 11
2.9882
 21
116.360611
 31
0.0
  0
LINE
  5
21B
330
1D
100
AcDbEntity
  8
0
100
AcDbLine
 10
2.9882
 20
116.360611
 30
0.0
 11
3.6471
 21
116.360611
 31
0.0
  0
LINE
  5
21C
330
1D
100
AcDbEntity
  8
0
100
AcDbLine
 10
3.6471
 20
116.360611
 30
0.0
 11
4.3865
 21
116.360611
 31
0.0
  0
LINE
  5
21D
330
1D
100
AcDbEntity
  8
0
100
AcDbLine
 10
4.3865
 20
116.360611
 30
0.0
 11
5.345
 21
116.360611
 31
0.0
  0
LINE
  5
21E
330
1D
100
AcDbEntity
  8
0
100
AcDbLine
 10
5.345
 20
116.360611
 30
0.0
 11
6.5368
 21
116.360611
 31
0.0
  0
LINE
  5
21F
330
1D
100
AcDbEntity
  8
0
100
AcDbLine
 10
6.5368
 20
116.360611
 30
0.0
 11
7.9785
 21
116.360611
 31
0.0
  0
LINE
  5
220
330
1D
100
AcDbEntity
  8
0
100
AcDbLine
 10
10.3754
 20
114.735611
 30
0.0
 11
11.9268
 21
114.921611
 31
0.0
  0
LINE
  5
221
330
1D
100
AcDbEntity
  8
0
100
AcDbLine
 10
7.9785
 20
116.360611
 30
0.0
 11
9.6449
 21
116.360611
 31
0.0
  0
LINE
  5
222
330
1D
100
AcDbEntity
  8
0
100
AcDbLine
 10
9.6449
 20
116.360611
 30
0.0
 11
11.5104
 21
116.360611
 31
0.0
  0
LINE
  5
224
330
1D
100
AcDbEntity
  8
0
100
AcDbLine
 10
11.5104
 20
116.360611
 30
0.0
 11
13.2593
 21
116.360611
 31
0.0
  0
LINE
  5
225
330
1D
100
AcDbEntity
  8
0
100
AcDbLine
 10
3.6844
 20
114.653611
 30
0.0
 11
3.911392640449
 21
116.360611
 31
0.0
  0
LINE
  5
226
330
1D
100
AcDbEntity
  8
0
100
AcDbLine
 10
2.4898
 20
116.360611
 30
0.0
 11
2.5744
 21
116.360611
 31
0.0
  0
LINE
  5
227
330
1D
100
AcDbEntity
  8
0
100
AcDbLine
 10
2.0291
 20
116.670611
 30
0.0
 11
2.0521
 21
116.625611
 31
0.0
  0
LINE
  5
228
330
1D
100
AcDbEntity
  8
0
100
AcDbLine
 10
2.0521
 20
116.625611
 30
0.0
 11
2.1368
 21
116.507611
 31
0.0
  0
LINE
  5
229
330
1D
100
AcDbEntity
  8
0
100
AcDbLine
 10
1.9918
 20
116.862611
 30
0.0
 11
2.0291
 21
116.670611
 31
0.0
  0
LINE
  5
22F
330
1D
100
AcDbEntity
  8
0
100
AcDbLine
 10
2.1368
 20
116.507611
 30
0.0
 11
2.2987
 21
116.398611
 31
0.0
  0
LINE
  5
230
330
1D
100
AcDbEntity
  8
0
100
AcDbLine
 10
2.2987
 20
116.398611
 30
0.0
 11
2.4898
 21
116.360611
 31
0.0
  0
LINE
  5
231
330
1D
100
AcDbEntity
  8
0
100
AcDbLine
 10
1.8387
 20
117.745611
 30
0.0
 11
1.9918
 21
116.862611
 31
0.0
  0
LINE
  5
232
330
1D
100
AcDbEntity
  8
0
100
AcDbLine
 10
2.1468
 20
147.570611
 30
0.0
 11
2.6215
 21
151.294611
 31
0.0
  0
LINE
  5
233
330
1D
100
AcDbEntity
  8
0
100
AcDbLine
 10
1.8947
 20
145.755611
 30
0.0
 11
2.1468
 21
147.570611
 31
0.0
  0
LINE
  5
234
330
1D
100
AcDbEntity
  8
0
100
AcDbLine
 10
2.6215
 20
151.294611
 30
0.0
 11
2.8717
 21
153.320611
 31
0.0
  0
LINE
  5
235
330
1D
100
AcDbEntity
  8
0
100
AcDbLine
 10
4.2167
 20
160.246611
 30
0.0
 11
4.3029
 21
160.410611
 31
0.0
  0
LINE
  5
236
330
1D
100
AcDbEntity
  8
0
100
AcDbLine
 10
4.3029
 20
160.410611
 30
0.0
 11
4.6525
 21
160.877611
 31
0.0
  0
LINE
  5
237
330
1D
100
AcDbEntity
  8
0
100
AcDbLine
 10
4.066
 20
159.925611
 30
0.0
 11
4.2167
 21
160.246611
 31
0.0
  0
LINE
  5
23A
330
1D
100
AcDbEntity
  8
0
100
AcDbLine
 10
3.7979
 20
158.925611
 30
0.0
 11
4.066
 21
159.925611
 31
0.0
  0
LINE
  5
23B
330
1D
100
AcDbEntity
  8
0
100
AcDbLine
 10
4.6525
 20
160.877611
 30
0.0
 11
4.8061
 21
161.064611
 31
0.0
  0
LINE
  5
23C
330
1D
100
AcDbEntity
  8
0
100
AcDbLine
 10
5.8442
 20
161.822611
 30
0.0
 11
6.225
 21
162.005611
 31
0.0
  0
LINE
  5
23D
330
1D
100
AcDbEntity
  8
0
100
AcDbLine
 10
6.225
 20
162.005611
 30
0.0
 11
6.6524
 21
162.171611
 31
0.0
  0
LINE
  5
23E
330
1D
100
AcDbEntity
  8
0
100
AcDbLine
 10
6.6524
 20
162.171611
 30
0.0
 11
7.236
 21
162.354611
 31
0.0
  0
LINE
  5
23F
330
1D
100
AcDbEntity
  8
0
100
AcDbLine
 10
5.5145
 20
161.624611
 30
0.0
 11
5.8442
 21
161.822611
 31
0.0
  0
LINE
  5
240
330
1D
100
AcDbEntity
  8
0
100
AcDbLine
 10
5.3305
 20
161.497611
 30
0.0
 11
5.5145
 21
161.624611
 31
0.0
  0
LINE
  5
241
330
1D
100
AcDbEntity
  8
0
100
AcDbLine
 10
5.0442
 20
161.286611
 30
0.0
 11
5.3305
 21
161.497611
 31
0.0
  0
LINE
  5
242
330
1D
100
AcDbEntity
  8
0
100
AcDbLine
 10
4.8061
 20
161.064611
 30
0.0
 11
5.0442
 21
161.286611
 31
0.0
  0
LINE
  5
243
330
1D
100
AcDbEntity
  8
0
100
AcDbLine
 10
7.236
 20
162.354611
 30
0.0
 11
7.6703
 21
162.470611
 31
0.0
  0
LINE
  5
244
330
1D
100
AcDbEntity
  8
0
100
AcDbLine
 10
8.2176
 20
162.587611
 30
0.0
 11
8.8699
 21
162.700611
 31
0.0
  0
LINE
  5
245
330
1D
100
AcDbEntity
  8
0
100
AcDbLine
 10
8.8699
 20
162.700611
 30
0.0
 11
9.573
 21
162.798611
 31
0.0
  0
LINE
  5
246
330
1D
100
AcDbEntity
  8
0
100
AcDbLine
 10
11.0468
 20
162.945611
 30
0.0
 11
12.6702
 21
163.047611
 31
0.0
  0
LINE
  5
247
330
1D
100
AcDbEntity
  8
0
100
AcDbLine
 10
9.573
 20
162.798611
 30
0.0
 11
11.0468
 21
162.945611
 31
0.0
  0
LINE
  5
248
330
1D
100
AcDbEntity
  8
0
100
AcDbLine
 10
7.6703
 20
162.470611
 30
0.0
 11
8.2176
 21
162.587611
 31
0.0
  0
LINE
  5
249
330
1D
100
AcDbEntity
  8
0
100
AcDbLine
 10
3.4669
 20
157.243611
 30
0.0
 11
3.7979
 21
158.925611
 31
0.0
  0
LINE
  5
24A
330
1D
100
AcDbEntity
  8
0
100
AcDbLine
 10
3.1296
 20
155.208611
 30
0.0
 11
3.4669
 21
157.243611
 31
0.0
  0
LINE
  5
24B
330
1D
100
AcDbEntity
  8
0
100
AcDbLine
 10
2.8717
 20
153.320611
 30
0.0
 11
3.1296
 21
155.208611
 31
0.0
  0
LINE
  5
24C
330
1D
100
AcDbEntity
  8
0
100
AcDbLine
 10
1.8031
 20
145.006611
 30
0.0
 11
1.8947
 21
145.755611
 31
0.0
  0
LINE
  5
24D
330
1D
100
AcDbEntity
  8
0
100
AcDbLine
 10
1.7282
 20
144.166611
 30
0.0
 11
1.8031
 21
145.006611
 31
0.0
  0
LINE
  5
24E
330
1D
100
AcDbEntity
  8
0
100
AcDbLine
 10
1.6833
 20
143.490611
 30
0.0
 11
1.7282
 21
144.166611
 31
0.0
  0
LINE
  5
255
330
1D
100
AcDbEntity
  8
0
100
AcDbLine
 10
12.1297
 20
101.181611
 30
0.0
 11
12.4894
 21
102.407611
 31
0.0
  0
LINE
  5
25F
330
1D
100
AcDbEntity
  8
0
100
AcDbLine
 10
12.4894
 20
102.407611
 30
0.0
 11
12.975
 21
103.588611
 31
0.0
  0
LINE
  5
268
330
1D
100
AcDbEntity
  8
0
100
AcDbLine
 10
13.0
 20
100.722611
 30
0.0
 11
13.0
 21
96.006211
 31
0.0
  0
LINE
  5
269
330
1D
100
AcDbEntity
  8
0
100
AcDbLine
 10
13.0
 20
100.722611
 30
0.0
 11
13.0
 21
101.903611
 31
0.0
  0
LINE
  5
26A
330
1D
100
AcDbEntity
  8
0
100
AcDbLine
 10
13.0
 20
101.903611
 30
0.0
 11
13.0
 21
100.722611
 31
0.0
  0
LINE
  5
26B
330
1D
100
AcDbEntity
  8
0
100
AcDbLine
 10
13.0
 20
101.903611
 30
0.0
 11
13.0
 21
103.160611
 31
0.0
  0
LINE
  5
26D
330
1D
100
AcDbEntity
  8
0
100
AcDbLine
 10
13.0
 20
103.160611
 30
0.0
 11
13.0
 21
101.903611
 31
0.0
  0
LINE
  5
26F
330
1D
100
AcDbEntity
  8
0
100
AcDbLine
 10
13.0
 20
103.160611
 30
0.0
 11
13.0
 21
98.364511
 31
0.0
  0
LINE
  5
274
330
1D
100
AcDbEntity
  8
0
100
AcDbLine
 10
12.975
 20
103.588611
 30
0.0
 11
13.5815
 21
104.712611
 31
0.0
  0
LINE
  5
27F
330
1D
100
AcDbEntity
  8
0
100
AcDbLine
 10
13.5815
 20
104.712611
 30
0.0
 11
14.302
 21
105.766611
 31
0.0
  0
LINE
  5
285
330
1D
100
AcDbEntity
  8
0
100
AcDbLine
 10
14.302
 20
105.766611
 30
0.0
 11
15.1287
 21
106.739611
 31
0.0
  0
LINE
  5
288
330
1D
100
AcDbEntity
  8
0
100
AcDbLine
 10
14.4869
 20
99.614611
 30
0.0
 11
14.7339
 21
99.614611
 31
0.0
  0
LINE
  5
28B
330
1D
100
AcDbEntity
  8
0
100
AcDbLine
 10
14.5225
 20
99.614611
 30
0.0
 11
14.7339
 21
99.614611
 31
0.0
  0
LINE
  5
28C
330
1D
100
AcDbEntity
  8
0
100
AcDbLine
 10
14.9105
 20
99.614611
 30
0.0
 11
15.086
 21
100.537611
 31
0.0
  0
LINE
  5
28D
330
1D
100
AcDbEntity
  8
0
100
AcDbLine
 10
14.7753
 20
99.614611
 30
0.0
 11
14.8349
 21
99.614611
 31
0.0
  0
LINE
  5
28E
330
1D
100
AcDbEntity
  8
0
100
AcDbLine
 10
14.8349
 20
99.614611
 30
0.0
 11
15.0115
 21
99.614611
 31
0.0
  0
LINE
  5
28F
330
1D
100
AcDbEntity
  8
0
100
AcDbLine
 10
14.9525
 20
99.614611
 30
0.0
 11
15.0115
 21
99.614611
 31
0.0
  0
LINE
  5
291
330
1D
100
AcDbEntity
  8
0
100
AcDbLine
 10
15.086
 20
100.537611
 30
0.0
 11
15.3548
 21
101.437611
 31
0.0
  0
LINE
  5
292
330
1D
100
AcDbEntity
  8
0
100
AcDbLine
 10
15.151
 20
99.315711
 30
0.0
 11
15.3033
 21
100.255611
 31
0.0
  0
LINE
  5
293
330
1D
100
AcDbEntity
  8
0
100
AcDbLine
 10
15.611
 20
98.794611
 30
0.0
 11
15.712
 21
99.731111
 31
0.0
  0
LINE
  5
294
330
1D
100
AcDbEntity
  8
0
100
AcDbLine
 10
15.611
 20
98.794611
 30
0.0
 11
15.6155
 21
97.852611
 31
0.0
  0
LINE
  5
295
330
1D
100
AcDbEntity
  8
0
100
AcDbLine
 10
15.712
 20
99.731111
 30
0.0
 11
15.917
 21
100.650611
 31
0.0
  0
LINE
  5
296
330
1D
100
AcDbEntity
  8
0
100
AcDbLine
 10
15.3033
 20
100.255611
 30
0.0
 11
15.5553
 21
101.174611
 31
0.0
  0
LINE
  5
29A
330
1D
100
AcDbEntity
  8
0
100
AcDbLine
 10
15.3548
 20
101.437611
 30
0.0
 11
15.7142
 21
102.304611
 31
0.0
  0
LINE
  5
2A4
330
1D
100
AcDbEntity
  8
0
100
AcDbLine
 10
15.7142
 20
102.304611
 30
0.0
 11
16.1605
 21
103.131611
 31
0.0
  0
LINE
  5
2AE
330
1D
100
AcDbEntity
  8
0
100
AcDbLine
 10
15.5553
 20
101.174611
 30
0.0
 11
15.9041
 21
102.061611
 31
0.0
  0
LINE
  5
2B0
330
1D
100
AcDbEntity
  8
0
100
AcDbLine
 10
15.917
 20
100.650611
 30
0.0
 11
16.2237
 21
101.541611
 31
0.0
  0
LINE
  5
2B1
330
1D
100
AcDbEntity
  8
0
100
AcDbLine
 10
15.9041
 20
102.061611
 30
0.0
 11
16.3454
 21
102.905611
 31
0.0
  0
LINE
  5
2B7
330
1D
100
AcDbEntity
  8
0
100
AcDbLine
 10
15.1287
 20
106.739611
 30
0.0
 11
16.0527
 21
107.620611
 31
0.0
  0
LINE
  5
2C2
330
1D
100
AcDbEntity
  8
0
100
AcDbLine
 10
16.0527
 20
107.620611
 30
0.0
 11
17.0639
 21
108.401611
 31
0.0
  0
LINE
  5
2C4
330
1D
100
AcDbEntity
  8
0
100
AcDbLine
 10
16.14142933144
 20
98.589611
 30
0.0
 11
17.3288
 21
98.589611
 31
0.0
  0
LINE
  5
2C6
330
1D
100
AcDbEntity
  8
0
100
AcDbLine
 10
16.1589
 20
99.094111
 30
0.0
 11
16.2966
 21
99.999611
 31
0.0
  0
LINE
  5
2C7
330
1D
100
AcDbEntity
  8
0
100
AcDbLine
 10
16.465555816876
 20
100.616345131052
 30
0.0
 11
17.6144
 21
100.308611
 31
0.0
  0
LINE
  5
2C8
330
1D
100
AcDbEntity
  8
0
100
AcDbLine
 10
16.346568995682
 20
100.182011261211
 30
0.0
 11
17.4979
 21
99.873611
 31
0.0
  0
LINE
  5
2C9
330
1D
100
AcDbEntity
  8
0
100
AcDbLine
 10
16.2966
 20
99.999611
 30
0.0
 11
16.5385
 21
100.882611
 31
0.0
  0
LINE
  5
2CA
330
1D
100
AcDbEntity
  8
0
100
AcDbLine
 10
16.5385
 20
100.882611
 30
0.0
 11
16.8812
 21
101.731611
 31
0.0
  0
LINE
  5
2CB
330
1D
100
AcDbEntity
  8
0
100
AcDbLine
 10
16.2237
 20
101.541611
 30
0.0
 11
16.6284
 21
102.391611
 31
0.0
  0
LINE
  5
2CC
330
1D
100
AcDbEntity
  8
0
100
AcDbLine
 10
16.1605
 20
103.131611
 30
0.0
 11
16.6889
 21
103.907611
 31
0.0
  0
LINE
  5
2CD
330
1D
100
AcDbEntity
  8
0
100
AcDbLine
 10
16.3454
 20
102.905611
 30
0.0
 11
16.8745
 21
103.697611
 31
0.0
  0
LINE
  5
2CE
330
1D
100
AcDbEntity
  8
0
100
AcDbLine
 10
16.70985
 20
101.307111
 30
0.0
 11
16.8813
 21
101.731611
 31
0.0
  0
LINE
  5
2CF
330
1D
100
AcDbEntity
  8
0
100
AcDbLine
 10
16.8813
 20
101.731611
 30
0.0
 11
17.3203
 21
102.535611
 31
0.0
  0
LINE
  5
2D0
330
1D
100
AcDbEntity
  8
0
100
AcDbLine
 10
16.70985
 20
101.307111
 30
0.0
 11
16.8813
 21
101.731611
 31
0.0
  0
LINE
  5
2D1
330
1D
100
AcDbEntity
  8
0
100
AcDbLine
 10
17.082053070016
 20
102.09927721479
 30
0.0
 11
18.11
 21
101.505611
 31
0.0
  0
LINE
  5
2D2
330
1D
100
AcDbEntity
  8
0
100
AcDbLine
 10
16.8812
 20
101.731611
 30
0.0
 11
17.3202
 21
102.535611
 31
0.0
  0
LINE
  5
2D3
330
1D
100
AcDbEntity
  8
0
100
AcDbLine
 10
16.6284
 20
102.391611
 30
0.0
 11
17.1256
 21
103.191611
 31
0.0
  0
LINE
  5
2D4
330
1D
100
AcDbEntity
  8
0
100
AcDbLine
 10
16.7185
 20
103.878611
 30
0.0
 11
16.7603
 21
103.836611
 31
0.0
  0
LINE
  5
2D5
330
1D
100
AcDbEntity
  8
0
100
AcDbLine
 10
16.8745
 20
103.697611
 30
0.0
 11
17.4853
 21
104.428611
 31
0.0
  0
LINE
  5
2D6
330
1D
100
AcDbEntity
  8
0
100
AcDbLine
 10
17.297477434053
 20
102.493812952115
 30
0.0
 11
18.3351
 21
101.894611
 31
0.0
  0
LINE
  5
2D7
330
1D
100
AcDbEntity
  8
0
100
AcDbLine
 10
17.4979
 20
99.873611
 30
0.0
 11
17.716
 21
99.935611
 31
0.0
  0
LINE
  5
2D8
330
1D
100
AcDbEntity
  8
0
100
AcDbLine
 10
17.3821
 20
99.235911
 30
0.0
 11
17.4979
 21
99.873611
 31
0.0
  0
LINE
  5
2D9
330
1D
100
AcDbEntity
  8
0
100
AcDbLine
 10
17.3288
 20
98.589611
 30
0.0
 11
17.5236
 21
98.473911
 31
0.0
  0
LINE
  5
2DA
330
1D
100
AcDbEntity
  8
0
100
AcDbLine
 10
17.3288
 20
98.589611
 30
0.0
 11
17.3821
 21
99.235911
 31
0.0
  0
LINE
  5
2DF
330
1D
100
AcDbEntity
  8
0
100
AcDbLine
 10
17.6144
 20
100.308611
 30
0.0
 11
17.7726
 21
100.146611
 31
0.0
  0
LINE
  5
2E0
330
1D
100
AcDbEntity
  8
0
100
AcDbLine
 10
17.6144
 20
100.308611
 30
0.0
 11
17.8332
 21
100.918611
 31
0.0
  0
LINE
  5
2E2
330
1D
100
AcDbEntity
  8
0
100
AcDbLine
 10
17.842278366993
 20
98.589611
 30
0.0
 11
19.1177
 21
98.589611
 31
0.0
  0
LINE
  5
2E3
330
1D
100
AcDbEntity
  8
0
100
AcDbLine
 10
17.8605
 20
99.026011
 30
0.0
 11
17.9993
 21
99.821611
 31
0.0
  0
LINE
  5
2E7
330
1D
100
AcDbEntity
  8
0
100
AcDbLine
 10
17.98562048243
 20
99.743200162977
 30
0.0
 11
19.2258
 21
99.411011
 31
0.0
  0
LINE
  5
2E8
330
1D
100
AcDbEntity
  8
0
100
AcDbLine
 10
17.9993
 20
99.821611
 30
0.0
 11
18.2409
 21
100.592611
 31
0.0
  0
LINE
  5
2EC
330
1D
100
AcDbEntity
  8
0
100
AcDbLine
 10
17.8332
 20
100.918611
 30
0.0
 11
18.11
 21
101.505611
 31
0.0
  0
LINE
  5
2ED
330
1D
100
AcDbEntity
  8
0
100
AcDbLine
 10
18.110119681142
 20
100.175261555298
 30
0.0
 11
19.3423
 21
99.845611
 31
0.0
  0
LINE
  5
2EE
330
1D
100
AcDbEntity
  8
0
100
AcDbLine
 10
18.11
 20
101.505611
 30
0.0
 11
18.3366
 21
101.507611
 31
0.0
  0
LINE
  5
2F0
330
1D
100
AcDbEntity
  8
0
100
AcDbLine
 10
17.3203
 20
102.535611
 30
0.0
 11
17.584999999996
 21
102.909110999995
 31
0.0
  0
LINE
  5
2F1
330
1D
100
AcDbEntity
  8
0
100
AcDbLine
 10
17.3203
 20
102.535611
 30
0.0
 11
17.584999999997
 21
102.909110999995
 31
0.0
  0
LINE
  5
2F2
330
1D
100
AcDbEntity
  8
0
100
AcDbLine
 10
17.3202
 20
102.535611
 30
0.0
 11
17.8498
 21
103.282611
 31
0.0
  0
LINE
  5
2F3
330
1D
100
AcDbEntity
  8
0
100
AcDbLine
 10
18.156000000008
 20
103.623111000009
 30
0.0
 11
18.4623
 21
103.963611
 31
0.0
  0
LINE
  5
2F4
330
1D
100
AcDbEntity
  8
0
100
AcDbLine
 10
18.156000000008
 20
103.623111000009
 30
0.0
 11
18.4623
 21
103.963611
 31
0.0
  0
LINE
  5
2F5
330
1D
100
AcDbEntity
  8
0
100
AcDbLine
 10
17.8498
 20
103.282611
 30
0.0
 11
18.4622
 21
103.963611
 31
0.0
  0
LINE
  5
2F6
330
1D
100
AcDbEntity
  8
0
100
AcDbLine
 10
17.1256
 20
103.191611
 30
0.0
 11
17.7093
 21
103.931611
 31
0.0
  0
LINE
  5
2F8
330
1D
100
AcDbEntity
  8
0
100
AcDbLine
 10
16.3893
 20
104.207611
 30
0.0
 11
16.564149775582
 21
104.032790216256
 31
0.0
  0
LINE
  5
304
330
1D
100
AcDbEntity
  8
0
100
AcDbLine
 10
16.5933
 20
104.003611
 30
0.0
 11
16.6354
 21
103.961611
 31
0.0
  0
LINE
  5
305
330
1D
100
AcDbEntity
  8
0
100
AcDbLine
 10
16.5933
 20
104.003611
 30
0.0
 11
16.649055733332
 21
103.947944333335
 31
0.0
  0
LINE
  5
306
330
1D
100
AcDbEntity
  8
0
100
AcDbLine
 10
16.5933
 20
104.003611
 30
0.0
 11
16.649055733332
 21
103.947944333335
 31
0.0
  0
LINE
  5
308
330
1D
100
AcDbEntity
  8
0
100
AcDbLine
 10
16.4145
 20
104.182611
 30
0.0
 11
16.564215833846
 21
104.032869259278
 31
0.0
  0
LINE
  5
309
330
1D
100
AcDbEntity
  8
0
100
AcDbLine
 10
16.4145
 20
104.182611
 30
0.0
 11
16.564
 21
104.032611
 31
0.0
  0
LINE
  5
30A
330
1D
100
AcDbEntity
  8
0
100
AcDbLine
 10
16.6354
 20
103.961611
 30
0.0
 11
16.7603
 21
103.836611
 31
0.0
  0
LINE
  5
30D
330
1D
100
AcDbEntity
  8
0
100
AcDbLine
 10
18.1571
 20
105.975611
 30
0.0
 11
18.45692698233
 21
105.675833731976
 31
0.0
  0
LINE
  5
30F
330
1D
100
AcDbEntity
  8
0
100
AcDbLine
 10
17.4853
 20
104.428611
 30
0.0
 11
18.1706
 21
105.089611
 31
0.0
  0
LINE
  5
310
330
1D
100
AcDbEntity
  8
0
100
AcDbLine
 10
17.7093
 20
103.931611
 30
0.0
 11
18.3721
 21
104.600611
 31
0.0
  0
LINE
  5
312
330
1D
100
AcDbEntity
  8
0
100
AcDbLine
 10
18.2409
 20
100.592611
 30
0.0
 11
18.5809
 21
101.325611
 31
0.0
  0
LINE
  5
313
330
1D
100
AcDbEntity
  8
0
100
AcDbLine
 10
18.1823
 20
105.949611
 30
0.0
 11
18.3318
 21
105.800611
 31
0.0
  0
LINE
  5
314
330
1D
100
AcDbEntity
  8
0
100
AcDbLine
 10
18.1706
 20
105.089611
 30
0.0
 11
18.923
 21
105.674611
 31
0.0
  0
LINE
  5
315
330
1D
100
AcDbEntity
  8
0
100
AcDbLine
 10
17.0639
 20
108.401611
 30
0.0
 11
18.151
 21
109.070611
 31
0.0
  0
LINE
  5
320
330
1D
100
AcDbEntity
  8
0
100
AcDbLine
 10
18.151
 20
109.070611
 30
0.0
 11
19.3021
 21
109.623611
 31
0.0
  0
LINE
  5
323
330
1D
100
AcDbEntity
  8
0
100
AcDbLine
 10
18.282785820344
 20
103.764053121538
 30
0.0
 11
19.1236
 21
102.922611
 31
0.0
  0
LINE
  5
325
330
1D
100
AcDbEntity
  8
0
100
AcDbLine
 10
18.3351
 20
101.894611
 30
0.0
 11
18.446
 21
101.697611
 31
0.0
  0
LINE
  5
326
330
1D
100
AcDbEntity
  8
0
100
AcDbLine
 10
18.3351
 20
101.894611
 30
0.0
 11
18.7044
 21
102.427611
 31
0.0
  0
LINE
  5
328
330
1D
100
AcDbEntity
  8
0
100
AcDbLine
 10
18.4623
 20
103.963611
 30
0.0
 11
19.1497
 21
104.568611
 31
0.0
  0
LINE
  5
329
330
1D
100
AcDbEntity
  8
0
100
AcDbLine
 10
18.456897411152
 20
105.675813588848
 30
0.0
 11
19.2332
 21
106.204611
 31
0.0
  0
LINE
  5
32A
330
1D
100
AcDbEntity
  8
0
100
AcDbLine
 10
18.4622
 20
103.963611
 30
0.0
 11
19.1497
 21
104.568611
 31
0.0
  0
LINE
  5
32B
330
1D
100
AcDbEntity
  8
0
100
AcDbLine
 10
18.3721
 20
104.600611
 30
0.0
 11
19.1056
 21
105.191611
 31
0.0
  0
LINE
  5
32C
330
1D
100
AcDbEntity
  8
0
100
AcDbLine
 10
18.361
 20
105.771611
 30
0.0
 11
18.4031
 21
105.729611
 31
0.0
  0
LINE
  5
32D
330
1D
100
AcDbEntity
  8
0
100
AcDbLine
 10
18.4031
 20
105.729611
 30
0.0
 11
18.5281
 21
105.604611
 31
0.0
  0
LINE
  5
32E
330
1D
100
AcDbEntity
  8
0
100
AcDbLine
 10
18.547346022859
 20
101.25327257281
 30
0.0
 11
19.6593
 21
100.610611
 31
0.0
  0
LINE
  5
32F
330
1D
100
AcDbEntity
  8
0
100
AcDbLine
 10
18.779307650443
 20
101.638258914977
 30
0.0
 11
19.8843
 21
101.000611
 31
0.0
  0
LINE
  5
330
330
1D
100
AcDbEntity
  8
0
100
AcDbLine
 10
19.2258
 20
99.411011
 30
0.0
 11
19.4113
 21
99.480911
 31
0.0
  0
LINE
  5
331
330
1D
100
AcDbEntity
  8
0
100
AcDbLine
 10
19.1543
 20
99.002611
 30
0.0
 11
19.2258
 21
99.411011
 31
0.0
  0
LINE
  5
332
330
1D
100
AcDbEntity
  8
0
100
AcDbLine
 10
19.1177
 20
98.589611
 30
0.0
 11
19.2787
 21
98.474011
 31
0.0
  0
LINE
  5
333
330
1D
100
AcDbEntity
  8
0
100
AcDbLine
 10
19.1177
 20
98.589611
 30
0.0
 11
19.1543
 21
99.002611
 31
0.0
  0
LINE
  5
334
330
1D
100
AcDbEntity
  8
0
100
AcDbLine
 10
18.5809
 20
101.325611
 30
0.0
 11
19.0137
 21
102.007611
 31
0.0
  0
LINE
  5
335
330
1D
100
AcDbEntity
  8
0
100
AcDbLine
 10
19.3423
 20
99.845611
 30
0.0
 11
19.4679
 21
99.692211
 31
0.0
  0
LINE
  5
336
330
1D
100
AcDbEntity
  8
0
100
AcDbLine
 10
19.3423
 20
99.845611
 30
0.0
 11
19.4845
 21
100.234611
 31
0.0
  0
LINE
  5
33B
330
1D
100
AcDbEntity
  8
0
100
AcDbLine
 10
19.0137
 20
102.007611
 30
0.0
 11
19.5319
 21
102.626611
 31
0.0
  0
LINE
  5
33C
330
1D
100
AcDbEntity
  8
0
100
AcDbLine
 10
18.7044
 20
102.427611
 30
0.0
 11
19.1236
 21
102.922611
 31
0.0
  0
LINE
  5
33F
330
1D
100
AcDbEntity
  8
0
100
AcDbLine
 10
18.599067001032
 20
104.083983469631
 30
0.0
 11
19.4419
 21
103.240611
 31
0.0
  0
LINE
  5
340
330
1D
100
AcDbEntity
  8
0
100
AcDbLine
 10
19.1236
 20
102.922611
 30
0.0
 11
19.3432
 21
102.866611
 31
0.0
  0
LINE
  5
342
330
1D
100
AcDbEntity
  8
0
100
AcDbLine
 10
19.480636254038
 20
102.56537545629
 30
0.0
 11
20.3886
 21
101.657611
 31
0.0
  0
LINE
  5
343
330
1D
100
AcDbEntity
  8
0
100
AcDbLine
 10
19.4845
 20
100.234611
 30
0.0
 11
19.6593
 21
100.610611
 31
0.0
  0
LINE
  5
346
330
1D
100
AcDbEntity
  8
0
100
AcDbLine
 10
19.5977
 20
98.922311
 30
0.0
 11
19.73
 21
99.572211
 31
0.0
  0
LINE
  5
349
330
1D
100
AcDbEntity
  8
0
100
AcDbLine
 10
19.580623007246
 20
98.589611
 30
0.0
 11
20.8455
 21
98.589611
 31
0.0
  0
LINE
  5
34A
330
1D
100
AcDbEntity
  8
0
100
AcDbLine
 10
19.73
 20
99.572211
 30
0.0
 11
19.9577
 21
100.194611
 31
0.0
  0
LINE
  5
34D
330
1D
100
AcDbEntity
  8
0
100
AcDbLine
 10
19.6593
 20
100.610611
 30
0.0
 11
19.8566
 21
100.630611
 31
0.0
  0
LINE
  5
34F
330
1D
100
AcDbEntity
  8
0
100
AcDbLine
 10
19.5319
 20
102.626611
 30
0.0
 11
20.1263
 21
103.173611
 31
0.0
  0
LINE
  5
350
330
1D
100
AcDbEntity
  8
0
100
AcDbLine
 10
19.8843
 20
101.000611
 30
0.0
 11
19.9659
 21
100.819611
 31
0.0
  0
LINE
  5
351
330
1D
100
AcDbEntity
  8
0
100
AcDbLine
 10
19.8843
 20
101.000611
 30
0.0
 11
20.1224
 21
101.339611
 31
0.0
  0
LINE
  5
354
330
1D
100
AcDbEntity
  8
0
100
AcDbLine
 10
19.805139949657
 20
102.878061626619
 30
0.0
 11
20.7067
 21
101.975611
 31
0.0
  0
LINE
  5
356
330
1D
100
AcDbEntity
  8
0
100
AcDbLine
 10
19.4419
 20
103.240611
 30
0.0
 11
19.4978
 21
103.021611
 31
0.0
  0
LINE
  5
357
330
1D
100
AcDbEntity
  8
0
100
AcDbLine
 10
19.4419
 20
103.240611
 30
0.0
 11
19.9365
 21
103.660611
 31
0.0
  0
LINE
  5
358
330
1D
100
AcDbEntity
  8
0
100
AcDbLine
 10
19.870413888794
 20
105.06727226967
 30
0.0
 11
20.4696
 21
104.029611
 31
0.0
  0
LINE
  5
359
330
1D
100
AcDbEntity
  8
0
100
AcDbLine
 10
19.1497
 20
104.568611
 30
0.0
 11
19.9027
 21
105.089611
 31
0.0
  0
LINE
  5
35A
330
1D
100
AcDbEntity
  8
0
100
AcDbLine
 10
19.9577
 20
100.194611
 30
0.0
 11
20.2756
 21
100.777611
 31
0.0
  0
LINE
  5
35C
330
1D
100
AcDbEntity
  8
0
100
AcDbLine
 10
20.2756
 20
100.777611
 30
0.0
 11
20.6768
 21
101.305611
 31
0.0
  0
LINE
  5
361
330
1D
100
AcDbEntity
  8
0
100
AcDbLine
 10
20.1224
 20
101.339611
 30
0.0
 11
20.3886
 21
101.657611
 31
0.0
  0
LINE
  5
363
330
1D
100
AcDbEntity
  8
0
100
AcDbLine
 10
20.3886
 20
101.657611
 30
0.0
 11
20.5842
 21
101.625611
 31
0.0
  0
LINE
  5
364
330
1D
100
AcDbEntity
  8
0
100
AcDbLine
 10
20.1263
 20
103.173611
 30
0.0
 11
20.7872
 21
103.637611
 31
0.0
  0
LINE
  5
367
330
1D
100
AcDbEntity
  8
0
100
AcDbLine
 10
20.4696
 20
104.029611
 30
0.0
 11
20.6671
 21
103.918611
 31
0.0
  0
LINE
  5
368
330
1D
100
AcDbEntity
  8
0
100
AcDbLine
 10
19.9365
 20
103.660611
 30
0.0
 11
20.4696
 21
104.029611
 31
0.0
  0
LINE
  5
36A
330
1D
100
AcDbEntity
  8
0
100
AcDbLine
 10
19.9027
 20
105.089611
 30
0.0
 11
20.7112
 21
105.519611
 31
0.0
  0
LINE
  5
36B
330
1D
100
AcDbEntity
  8
0
100
AcDbLine
 10
20.265659360745
 20
105.282650610538
 30
0.0
 11
20.8592
 21
104.254611
 31
0.0
  0
LINE
  5
36C
330
1D
100
AcDbEntity
  8
0
100
AcDbLine
 10
19.9008
 20
105.696611
 30
0.0
 11
20.7474
 21
106.109611
 31
0.0
  0
LINE
  5
36D
330
1D
100
AcDbEntity
  8
0
100
AcDbLine
 10
18.923
 20
105.674611
 30
0.0
 11
19.7331
 21
106.175611
 31
0.0
  0
LINE
  5
36E
330
1D
100
AcDbEntity
  8
0
100
AcDbLine
 10
19.1056
 20
105.191611
 30
0.0
 11
19.9008
 21
105.696611
 31
0.0
  0
LINE
  5
36F
330
1D
100
AcDbEntity
  8
0
100
AcDbLine
 10
18.4864
 20
105.645611
 30
0.0
 11
18.5281
 21
105.604611
 31
0.0
  0
LINE
  5
379
330
1D
100
AcDbEntity
  8
0
100
AcDbLine
 10
20.0596
 20
106.650611
 30
0.0
 11
20.9273
 21
107.009611
 31
0.0
  0
LINE
  5
37A
330
1D
100
AcDbEntity
  8
0
100
AcDbLine
 10
19.2332
 20
106.204611
 30
0.0
 11
20.0596
 21
106.650611
 31
0.0
  0
LINE
  5
37B
330
1D
100
AcDbEntity
  8
0
100
AcDbLine
 10
19.7331
 20
106.175611
 30
0.0
 11
20.5343
 21
106.561611
 31
0.0
  0
LINE
  5
37C
330
1D
100
AcDbEntity
  8
0
100
AcDbLine
 10
20.5343
 20
106.561611
 30
0.0
 11
21.3699
 21
106.867611
 31
0.0
  0
LINE
  5
383
330
1D
100
AcDbEntity
  8
0
100
AcDbLine
 10
19.3021
 20
109.623611
 30
0.0
 11
20.5047
 21
110.053611
 31
0.0
  0
LINE
  5
385
330
1D
100
AcDbEntity
  8
0
100
AcDbLine
 10
20.5047
 20
110.053611
 30
0.0
 11
21.7457
 21
110.354611
 31
0.0
  0
LINE
  5
38B
330
1D
100
AcDbEntity
  8
0
100
AcDbLine
 10
20.6768
 20
101.305611
 30
0.0
 11
21.1521
 21
101.767611
 31
0.0
  0
LINE
  5
38C
330
1D
100
AcDbEntity
  8
0
100
AcDbLine
 10
20.709405163282
 20
101.337303794943
 30
0.0
 11
21.6103
 21
100.435611
 31
0.0
  0
LINE
  5
38D
330
1D
100
AcDbEntity
  8
0
100
AcDbLine
 10
20.7067
 20
101.975611
 30
0.0
 11
20.7389
 21
101.780611
 31
0.0
  0
LINE
  5
38E
330
1D
100
AcDbEntity
  8
0
100
AcDbLine
 10
20.7067
 20
101.975611
 30
0.0
 11
21.0247
 21
102.241611
 31
0.0
  0
LINE
  5
38F
330
1D
100
AcDbEntity
  8
0
100
AcDbLine
 10
20.722325076583
 20
103.592064072378
 30
0.0
 11
21.364
 21
102.480611
 31
0.0
  0
LINE
  5
390
330
1D
100
AcDbEntity
  8
0
100
AcDbLine
 10
20.7112
 20
105.519611
 30
0.0
 11
21.5642
 21
105.853611
 31
0.0
  0
LINE
  5
391
330
1D
100
AcDbEntity
  8
0
100
AcDbLine
 10
20.7872
 20
103.637611
 30
0.0
 11
21.5029
 21
104.012611
 31
0.0
  0
LINE
  5
392
330
1D
100
AcDbEntity
  8
0
100
AcDbLine
 10
20.8455
 20
98.589611
 30
0.0
 11
21.0372
 21
98.474011
 31
0.0
  0
LINE
  5
393
330
1D
100
AcDbEntity
  8
0
100
AcDbLine
 10
20.8455
 20
98.589611
 30
0.0
 11
20.9222
 21
99.091611
 31
0.0
  0
LINE
  5
394
330
1D
100
AcDbEntity
  8
0
100
AcDbLine
 10
20.9222
 20
99.091611
 30
0.0
 11
21.0782
 21
99.574911
 31
0.0
  0
LINE
  5
397
330
1D
100
AcDbEntity
  8
0
100
AcDbLine
 10
21.03207102432
 20
101.650940714361
 30
0.0
 11
21.9285
 21
100.754611
 31
0.0
  0
LINE
  5
398
330
1D
100
AcDbEntity
  8
0
100
AcDbLine
 10
21.0247
 20
102.241611
 30
0.0
 11
21.364
 21
102.480611
 31
0.0
  0
LINE
  5
39D
330
1D
100
AcDbEntity
  8
0
100
AcDbLine
 10
21.352258766047
 20
98.589611
 30
0.0
 11
23.1286
 21
98.589611
 31
0.0
  0
LINE
  5
3A0
330
1D
100
AcDbEntity
  8
0
100
AcDbLine
 10
21.3528
 20
98.649711
 30
0.0
 11
21.4593
 21
99.160611
 31
0.0
  0
LINE
  5
3A1
330
1D
100
AcDbEntity
  8
0
100
AcDbLine
 10
21.0782
 20
99.574911
 30
0.0
 11
21.3096
 21
100.026611
 31
0.0
  0
LINE
  5
3A2
330
1D
100
AcDbEntity
  8
0
100
AcDbLine
 10
21.1521
 20
101.767611
 30
0.0
 11
21.6912
 21
102.154611
 31
0.0
  0
LINE
  5
3AA
330
1D
100
AcDbEntity
  8
0
100
AcDbLine
 10
21.4593
 20
99.160611
 30
0.0
 11
21.6634
 21
99.641011
 31
0.0
  0
LINE
  5
3AB
330
1D
100
AcDbEntity
  8
0
100
AcDbLine
 10
21.3096
 20
100.026611
 30
0.0
 11
21.6103
 21
100.435611
 31
0.0
  0
LINE
  5
3AF
330
1D
100
AcDbEntity
  8
0
100
AcDbLine
 10
21.6103
 20
100.435611
 30
0.0
 11
21.8277
 21
100.382611
 31
0.0
  0
LINE
  5
3B0
330
1D
100
AcDbEntity
  8
0
100
AcDbLine
 10
21.116128174181
 20
103.809957046273
 30
0.0
 11
21.7537
 21
102.705611
 31
0.0
  0
LINE
  5
3B1
330
1D
100
AcDbEntity
  8
0
100
AcDbLine
 10
21.364
 20
102.480611
 30
0.0
 11
21.5446
 21
102.398611
 31
0.0
  0
LINE
  5
3B2
330
1D
100
AcDbEntity
  8
0
100
AcDbLine
 10
21.5029
 20
104.012611
 30
0.0
 11
22.2615
 21
104.289611
 31
0.0
  0
LINE
  5
3B4
330
1D
100
AcDbEntity
  8
0
100
AcDbLine
 10
20.8592
 20
104.254611
 30
0.0
 11
21.4455
 21
104.531611
 31
0.0
  0
LINE
  5
3B5
330
1D
100
AcDbEntity
  8
0
100
AcDbLine
 10
21.4455
 20
104.531611
 30
0.0
 11
22.056
 21
104.750611
 31
0.0
  0
LINE
  5
3B6
330
1D
100
AcDbEntity
  8
0
100
AcDbLine
 10
20.8566
 20
104.027611
 30
0.0
 11
20.8592
 21
104.254611
 31
0.0
  0
LINE
  5
3B7
330
1D
100
AcDbEntity
  8
0
100
AcDbLine
 10
21.5642
 20
105.853611
 30
0.0
 11
22.4501
 21
106.085611
 31
0.0
  0
LINE
  5
3B8
330
1D
100
AcDbEntity
  8
0
100
AcDbLine
 10
20.7474
 20
106.109611
 30
0.0
 11
21.6351
 21
106.424611
 31
0.0
  0
LINE
  5
3BB
330
1D
100
AcDbEntity
  8
0
100
AcDbLine
 10
20.9273
 20
107.009611
 30
0.0
 11
21.8272
 21
107.278611
 31
0.0
  0
LINE
  5
3BC
330
1D
100
AcDbEntity
  8
0
100
AcDbLine
 10
20.9273
 20
107.009611
 30
0.0
 11
21.8272
 21
107.278611
 31
0.0
  0
LINE
  5
3C3
330
1D
100
AcDbEntity
  8
0
100
AcDbLine
 10
21.3699
 20
106.867611
 30
0.0
 11
22.232
 21
107.087611
 31
0.0
  0
LINE
  5
3C7
330
1D
100
AcDbEntity
  8
0
100
AcDbLine
 10
21.6634
 20
99.641011
 30
0.0
 11
21.9574
 21
100.072611
 31
0.0
  0
LINE
  5
3C8
330
1D
100
AcDbEntity
  8
0
100
AcDbLine
 10
21.6912
 20
102.154611
 30
0.0
 11
22.2817
 21
102.455611
 31
0.0
  0
LINE
  5
3CB
330
1D
100
AcDbEntity
  8
0
100
AcDbLine
 10
21.96578322985
 20
100.080827645798
 30
0.0
 11
23.2247
 21
98.821711
 31
0.0
  0
LINE
  5
3CC
330
1D
100
AcDbEntity
  8
0
100
AcDbLine
 10
21.9574
 20
100.072611
 30
0.0
 11
22.3298
 21
100.437611
 31
0.0
  0
LINE
  5
3D0
330
1D
100
AcDbEntity
  8
0
100
AcDbLine
 10
21.9285
 20
100.754611
 30
0.0
 11
21.9823
 21
100.536611
 31
0.0
  0
LINE
  5
3D1
330
1D
100
AcDbEntity
  8
0
100
AcDbLine
 10
21.9285
 20
100.754611
 30
0.0
 11
22.3377
 21
101.054611
 31
0.0
  0
LINE
  5
3D2
330
1D
100
AcDbEntity
  8
0
100
AcDbLine
 10
22.1297
 20
102.879611
 30
0.0
 11
22.519
 21
103.022611
 31
0.0
  0
LINE
  5
3D3
330
1D
100
AcDbEntity
  8
0
100
AcDbLine
 10
21.7537
 20
102.705611
 30
0.0
 11
22.1297
 21
102.879611
 31
0.0
  0
LINE
  5
3D4
330
1D
100
AcDbEntity
  8
0
100
AcDbLine
 10
21.7341
 20
102.507611
 30
0.0
 11
21.7537
 21
102.705611
 31
0.0
  0
LINE
  5
3D8
330
1D
100
AcDbEntity
  8
0
100
AcDbLine
 10
21.8272
 20
107.278611
 30
0.0
 11
22.75
 21
107.453611
 31
0.0
  0
LINE
  5
3D9
330
1D
100
AcDbEntity
  8
0
100
AcDbLine
 10
21.747478808286
 20
105.901608159411
 30
0.0
 11
22.056
 21
104.750611
 31
0.0
  0
LINE
  5
3DB
330
1D
100
AcDbEntity
  8
0
100
AcDbLine
 10
22.186660145101
 20
104.262283502232
 30
0.0
 11
22.519
 21
103.022611
 31
0.0
  0
LINE
  5
3DC
330
1D
100
AcDbEntity
  8
0
100
AcDbLine
 10
22.182944605316
 20
106.015648192046
 30
0.0
 11
22.4907
 21
104.866611
 31
0.0
  0
LINE
  5
3DE
330
1D
100
AcDbEntity
  8
0
100
AcDbLine
 10
22.056
 20
104.750611
 30
0.0
 11
22.2182
 21
104.591611
 31
0.0
  0
LINE
  5
3E0
330
1D
100
AcDbEntity
  8
0
100
AcDbLine
 10
21.6351
 20
106.424611
 30
0.0
 11
22.5525
 21
106.638611
 31
0.0
  0
LINE
  5
3E1
330
1D
100
AcDbEntity
  8
0
100
AcDbLine
 10
21.7457
 20
110.354611
 30
0.0
 11
23.0115
 21
110.524611
 31
0.0
  0
LINE
  5
3E7
330
1D
100
AcDbEntity
  8
0
100
AcDbLine
 10
11.9268
 20
114.921611
 30
0.0
 11
14.7379
 21
115.185611
 31
0.0
  0
LINE
  5
3E8
330
1D
100
AcDbEntity
  8
0
100
AcDbLine
 10
13.2593
 20
116.360611
 30
0.0
 11
15.1077
 21
116.360611
 31
0.0
  0
LINE
  5
3E9
330
1D
100
AcDbEntity
  8
0
100
AcDbLine
 10
12.6702
 20
163.047611
 30
0.0
 11
13.3573
 21
163.078611
 31
0.0
  0
LINE
  5
3EA
330
1D
100
AcDbEntity
  8
0
100
AcDbLine
 10
13.3573
 20
163.078611
 30
0.0
 11
14.5938
 21
163.121611
 31
0.0
  0
LINE
  5
3EB
330
1D
100
AcDbEntity
  8
0
100
AcDbLine
 10
14.7379
 20
115.185611
 30
0.0
 11
15.1441
 21
115.219611
 31
0.0
  0
LINE
  5
3EC
330
1D
100
AcDbEntity
  8
0
100
AcDbLine
 10
17.0053
 20
115.337611
 30
0.0
 11
17.5644
 21
115.369611
 31
0.0
  0
LINE
  5
3ED
330
1D
100
AcDbEntity
  8
0
100
AcDbLine
 10
17.5644
 20
115.369611
 30
0.0
 11
19.3041
 21
115.446611
 31
0.0
  0
LINE
  5
3EE
330
1D
100
AcDbEntity
  8
0
100
AcDbLine
 10
16.2155
 20
115.291611
 30
0.0
 11
17.0053
 21
115.337611
 31
0.0
  0
LINE
  5
3EF
330
1D
100
AcDbEntity
  8
0
100
AcDbLine
 10
15.6212
 20
115.254611
 30
0.0
 11
16.2155
 21
115.291611
 31
0.0
  0
LINE
  5
3F0
330
1D
100
AcDbEntity
  8
0
100
AcDbLine
 10
15.1441
 20
115.219611
 30
0.0
 11
15.6212
 21
115.254611
 31
0.0
  0
LINE
  5
3F1
330
1D
100
AcDbEntity
  8
0
100
AcDbLine
 10
15.1077
 20
116.360611
 30
0.0
 11
17.0323
 21
116.360611
 31
0.0
  0
LINE
  5
3F2
330
1D
100
AcDbEntity
  8
0
100
AcDbLine
 10
17.0323
 20
116.360611
 30
0.0
 11
19.1537
 21
116.360611
 31
0.0
  0
LINE
  5
3F3
330
1D
100
AcDbEntity
  8
0
100
AcDbLine
 10
20.9081
 20
115.492611
 30
0.0
 11
21.6427
 21
115.510611
 31
0.0
  0
LINE
  5
3F4
330
1D
100
AcDbEntity
  8
0
100
AcDbLine
 10
19.3041
 20
115.446611
 30
0.0
 11
20.9081
 21
115.492611
 31
0.0
  0
LINE
  5
3F6
330
1D
100
AcDbEntity
  8
0
100
AcDbLine
 10
19.1537
 20
116.360611
 30
0.0
 11
21.3158
 21
116.360611
 31
0.0
  0
LINE
  5
3F8
330
1D
100
AcDbEntity
  8
0
100
AcDbLine
 10
21.7254
 20
124.414611
 30
0.0
 11
22.2268
 21
123.684611
 31
0.0
  0
LINE
  5
3F9
330
1D
100
AcDbEntity
  8
0
100
AcDbLine
 10
21.599769491043
 20
124.7988119383
 30
0.0
 11
21.7254
 21
124.414611
 31
0.0
  0
LINE
  5
3FA
330
1D
100
AcDbEntity
  8
0
100
AcDbLine
 10
21.954979742069
 20
127.522737408499
 30
0.0
 11
22.1083
 21
127.766611
 31
0.0
  0
LINE
  5
3FB
330
1D
100
AcDbEntity
  8
0
100
AcDbLine
 10
14.5938
 20
163.121611
 30
0.0
 11
16.3014
 21
163.162611
 31
0.0
  0
LINE
  5
3FD
330
1D
100
AcDbEntity
  8
0
100
AcDbLine
 10
16.3014
 20
163.162611
 30
0.0
 11
20.1444
 21
163.217611
 31
0.0
  0
LINE
  5
3FE
330
1D
100
AcDbEntity
  8
0
100
AcDbLine
 10
22.1083
 20
127.766611
 30
0.0
 11
22.7536
 21
128.299611
 31
0.0
  0
LINE
  5
407
330
1D
100
AcDbEntity
  8
0
100
AcDbLine
 10
22.4294
 20
92.080711
 30
0.0
 11
22.4906
 21
91.862511
 31
0.0
  0
LINE
  5
409
330
1D
100
AcDbEntity
  8
0
100
AcDbLine
 10
22.2319
 20
89.642111
 30
0.0
 11
23.1115
 21
89.509011
 31
0.0
  0
LINE
  5
40C
330
1D
100
AcDbEntity
  8
0
100
AcDbLine
 10
22.75
 20
88.887111
 30
0.0
 11
22.75
 21
89.098511
 31
0.0
  0
LINE
  5
40E
330
1D
100
AcDbEntity
  8
0
100
AcDbLine
 10
22.75
 20
89.139911
 30
0.0
 11
22.75
 21
89.199311
 31
0.0
  0
LINE
  5
40F
330
1D
100
AcDbEntity
  8
0
100
AcDbLine
 10
22.75
 20
89.275111
 30
0.0
 11
22.75
 21
88.851511
 31
0.0
  0
LINE
  5
410
330
1D
100
AcDbEntity
  8
0
100
AcDbLine
 10
22.75
 20
89.317111
 30
0.0
 11
22.75
 21
89.376111
 31
0.0
  0
LINE
  5
411
330
1D
100
AcDbEntity
  8
0
100
AcDbLine
 10
22.75
 20
89.199311
 30
0.0
 11
22.75
 21
89.139911
 31
0.0
  0
LINE
  5
412
330
1D
100
AcDbEntity
  8
0
100
AcDbLine
 10
22.75
 20
89.199311
 30
0.0
 11
22.75
 21
89.376111
 31
0.0
  0
LINE
  5
416
330
1D
100
AcDbEntity
  8
0
100
AcDbLine
 10
22.75
 20
89.376111
 30
0.0
 11
22.75
 21
89.199311
 31
0.0
  0
LINE
  5
417
330
1D
100
AcDbEntity
  8
0
100
AcDbLine
 10
22.75
 20
89.376111
 30
0.0
 11
22.75
 21
89.317111
 31
0.0
  0
LINE
  5
419
330
1D
100
AcDbEntity
  8
0
100
AcDbLine
 10
22.4906
 20
91.862511
 30
0.0
 11
23.1287
 21
91.746711
 31
0.0
  0
LINE
  5
41C
330
1D
100
AcDbEntity
  8
0
100
AcDbLine
 10
23.1287
 20
91.746711
 30
0.0
 11
23.775
 21
91.693411
 31
0.0
  0
LINE
  5
41F
330
1D
100
AcDbEntity
  8
0
100
AcDbLine
 10
22.8158
 20
90.579111
 30
0.0
 11
23.7278
 21
90.494311
 31
0.0
  0
LINE
  5
420
330
1D
100
AcDbEntity
  8
0
100
AcDbLine
 10
22.8158
 20
90.579111
 30
0.0
 11
23.7277
 21
90.494411
 31
0.0
  0
LINE
  5
421
330
1D
100
AcDbEntity
  8
0
100
AcDbLine
 10
22.6335
 20
90.076611
 30
0.0
 11
23.57
 21
89.975611
 31
0.0
  0
LINE
  5
423
330
1D
100
AcDbEntity
  8
0
100
AcDbLine
 10
22.4387
 20
86.265011
 30
0.0
 11
23.7122
 21
86.167811
 31
0.0
  0
LINE
  5
426
330
1D
100
AcDbEntity
  8
0
100
AcDbLine
 10
23.9997
 20
-0.235611
 30
0.0
 11
27.0258
 21
-0.235611
 31
0.0
  0
LINE
  5
427
330
1D
100
AcDbEntity
  8
0
100
AcDbLine
 10
23.9996
 20
-0.235389
 30
0.0
 11
25.4592
 21
-0.235389
 31
0.0
  0
LINE
  5
42A
330
1D
100
AcDbEntity
  8
0
100
AcDbLine
 10
27.0258
 20
-0.235611
 30
0.0
 11
30.2277
 21
-0.235611
 31
0.0
  0
LINE
  5
42B
330
1D
100
AcDbEntity
  8
0
100
AcDbLine
 10
30.2277
 20
-0.235611
 30
0.0
 11
33.4444
 21
-0.235611
 31
0.0
  0
LINE
  5
42C
330
1D
100
AcDbEntity
  8
0
100
AcDbLine
 10
33.4444
 20
-0.235611
 30
0.0
 11
35.7412
 21
-0.235611
 31
0.0
  0
LINE
  5
42D
330
1D
100
AcDbEntity
  8
0
100
AcDbLine
 10
33.2561
 20
-0.235389
 30
0.0
 11
34.7248
 21
-0.235389
 31
0.0
  0
LINE
  5
42E
330
1D
100
AcDbEntity
  8
0
100
AcDbLine
 10
34.7248
 20
-0.235389
 30
0.0
 11
36.1344
 21
-0.235389
 31
0.0
  0
LINE
  5
42F
330
1D
100
AcDbEntity
  8
0
100
AcDbLine
 10
31.7364
 20
-0.235389
 30
0.0
 11
33.2561
 21
-0.235389
 31
0.0
  0
LINE
  5
430
330
1D
100
AcDbEntity
  8
0
100
AcDbLine
 10
26.9125
 20
-0.235389
 30
0.0
 11
28.5561
 21
-0.235389
 31
0.0
  0
LINE
  5
431
330
1D
100
AcDbEntity
  8
0
100
AcDbLine
 10
28.5561
 20
-0.235389
 30
0.0
 11
30.1749
 21
-0.235389
 31
0.0
  0
LINE
  5
436
330
1D
100
AcDbEntity
  8
0
100
AcDbLine
 10
30.1749
 20
-0.235389
 30
0.0
 11
31.7364
 21
-0.235389
 31
0.0
  0
LINE
  5
437
330
1D
100
AcDbEntity
  8
0
100
AcDbLine
 10
25.4592
 20
-0.235389
 30
0.0
 11
26.9125
 21
-0.235389
 31
0.0
  0
LINE
  5
45B
330
1D
100
AcDbEntity
  8
0
100
AcDbLine
 10
23.775
 20
91.693411
 30
0.0
 11
23.8906
 21
91.888311
 31
0.0
  0
LINE
  5
4F8
330
1D
100
AcDbEntity
  8
0
100
AcDbLine
 10
22.621437221286
 20
92.350328599203
 30
0.0
 11
22.9537
 21
93.590411
 31
0.0
  0
LINE
  5
4F9
330
1D
100
AcDbEntity
  8
0
100
AcDbLine
 10
22.543
 20
92.364011
 30
0.0
 11
23.3387
 21
92.225211
 31
0.0
  0
LINE
  5
50E
330
1D
100
AcDbEntity
  8
0
100
AcDbLine
 10
22.9537
 20
93.590411
 30
0.0
 11
23.3621
 21
93.518911
 31
0.0
  0
LINE
  5
50F
330
1D
100
AcDbEntity
  8
0
100
AcDbLine
 10
23.3621
 20
93.518911
 30
0.0
 11
23.775
 21
93.482311
 31
0.0
  0
LINE
  5
510
330
1D
100
AcDbEntity
  8
0
100
AcDbLine
 10
23.775
 20
93.482311
 30
0.0
 11
23.8906
 21
93.643311
 31
0.0
  0
LINE
  5
511
330
1D
100
AcDbEntity
  8
0
100
AcDbLine
 10
23.775
 20
93.482311
 30
0.0
 11
23.775
 21
92.206826813608
 31
0.0
  0
LINE
  5
512
330
1D
100
AcDbEntity
  8
0
100
AcDbLine
 10
22.5191
 20
93.706911
 30
0.0
 11
22.6724
 21
93.832511
 31
0.0
  0
LINE
  5
51D
330
1D
100
AcDbEntity
  8
0
100
AcDbLine
 10
22.8837
 20
93.775911
 30
0.0
 11
22.9537
 21
93.590411
 31
0.0
  0
LINE
  5
52E
330
1D
100
AcDbEntity
  8
0
100
AcDbLine
 10
23.1149
 20
94.016311
 30
0.0
 11
23.7729
 21
93.932911
 31
0.0
  0
LINE
  5
532
330
1D
100
AcDbEntity
  8
0
100
AcDbLine
 10
22.4767
 20
94.196811
 30
0.0
 11
23.1149
 21
94.016311
 31
0.0
  0
LINE
  5
560
330
1D
100
AcDbEntity
  8
0
100
AcDbLine
 10
23.3279
 20
95.274411
 30
0.0
 11
23.775
 21
95.210111
 31
0.0
  0
LINE
  5
561
330
1D
100
AcDbEntity
  8
0
100
AcDbLine
 10
23.775
 20
95.210111
 30
0.0
 11
23.8906
 21
95.401811
 31
0.0
  0
LINE
  5
596
330
1D
100
AcDbEntity
  8
0
100
AcDbLine
 10
22.8946
 20
95.401611
 30
0.0
 11
23.3279
 21
95.274411
 31
0.0
  0
LINE
  5
598
330
1D
100
AcDbEntity
  8
0
100
AcDbLine
 10
23.8906
 20
95.401811
 30
0.0
 11
23.8906
 21
93.935698164404
 31
0.0
  0
LINE
  5
59A
330
1D
100
AcDbEntity
  8
0
100
AcDbLine
 10
22.4838
 20
95.589211
 30
0.0
 11
22.8946
 21
95.401611
 31
0.0
  0
LINE
  5
59F
330
1D
100
AcDbEntity
  8
0
100
AcDbLine
 10
23.204
 20
95.824011
 30
0.0
 11
23.7149
 21
95.717511
 31
0.0
  0
LINE
  5
5BD
330
1D
100
AcDbEntity
  8
0
100
AcDbLine
 10
22.7235
 20
96.028011
 30
0.0
 11
23.204
 21
95.824011
 31
0.0
  0
LINE
  5
5C5
330
1D
100
AcDbEntity
  8
0
100
AcDbLine
 10
22.283925795963
 20
96.330336795963
 30
0.0
 11
23.5429
 21
97.589311
 31
0.0
  0
LINE
  5
5C6
330
1D
100
AcDbEntity
  8
0
100
AcDbLine
 10
22.2922
 20
96.321911
 30
0.0
 11
22.7235
 21
96.028011
 31
0.0
  0
LINE
  5
5E5
330
1D
100
AcDbEntity
  8
0
100
AcDbLine
 10
23.5685
 20
97.574811
 30
0.0
 11
23.775
 21
97.493211
 31
0.0
  0
LINE
  5
5E6
330
1D
100
AcDbEntity
  8
0
100
AcDbLine
 10
23.5429
 20
97.589311
 30
0.0
 11
23.5959
 21
97.777311
 31
0.0
  0
LINE
  5
5E7
330
1D
100
AcDbEntity
  8
0
100
AcDbLine
 10
23.775
 20
97.493211
 30
0.0
 11
23.775
 21
95.716969869732
 31
0.0
  0
LINE
  5
5E8
330
1D
100
AcDbEntity
  8
0
100
AcDbLine
 10
23.775
 20
97.493211
 30
0.0
 11
23.8704
 21
97.663611
 31
0.0
  0
LINE
  5
5E9
330
1D
100
AcDbEntity
  8
0
100
AcDbLine
 10
23.8704
 20
97.663611
 30
0.0
 11
23.8906
 21
97.739211
 31
0.0
  0
LINE
  5
5ED
330
1D
100
AcDbEntity
  8
0
100
AcDbLine
 10
23.5959
 20
97.777311
 30
0.0
 11
23.6351
 21
97.845111
 31
0.0
  0
LINE
  5
5EE
330
1D
100
AcDbEntity
  8
0
100
AcDbLine
 10
23.2247
 20
97.907511
 30
0.0
 11
23.4127
 21
97.960511
 31
0.0
  0
LINE
  5
5EF
330
1D
100
AcDbEntity
  8
0
100
AcDbLine
 10
23.4127
 20
97.960511
 30
0.0
 11
23.4805
 21
97.999711
 31
0.0
  0
LINE
  5
5F0
330
1D
100
AcDbEntity
  8
0
100
AcDbLine
 10
23.1286
 20
98.139611
 30
0.0
 11
23.299
 21
98.235011
 31
0.0
  0
LINE
  5
5F1
330
1D
100
AcDbEntity
  8
0
100
AcDbLine
 10
23.1286
 20
98.139611
 30
0.0
 11
23.2247
 21
97.907511
 31
0.0
  0
LINE
  5
5F2
330
1D
100
AcDbEntity
  8
0
100
AcDbLine
 10
23.299
 20
98.235011
 30
0.0
 11
23.3746
 21
98.255211
 31
0.0
  0
LINE
  5
60C
330
1D
100
AcDbEntity
  8
0
100
AcDbLine
 10
23.1286
 20
98.589611
 30
0.0
 11
23.299
 21
98.494211
 31
0.0
  0
LINE
  5
60D
330
1D
100
AcDbEntity
  8
0
100
AcDbLine
 10
23.1286
 20
98.589611
 30
0.0
 11
23.2247
 21
98.821711
 31
0.0
  0
LINE
  5
60E
330
1D
100
AcDbEntity
  8
0
100
AcDbLine
 10
23.299
 20
98.494211
 30
0.0
 11
23.3746
 21
98.474011
 31
0.0
  0
LINE
  5
613
330
1D
100
AcDbEntity
  8
0
100
AcDbLine
 10
23.2247
 20
98.821711
 30
0.0
 11
23.4127
 21
98.768711
 31
0.0
  0
LINE
  5
614
330
1D
100
AcDbEntity
  8
0
100
AcDbLine
 10
23.4127
 20
98.768711
 30
0.0
 11
23.4805
 21
98.729511
 31
0.0
  0
LINE
  5
618
330
1D
100
AcDbEntity
  8
0
100
AcDbLine
 10
23.5429
 20
99.139911
 30
0.0
 11
23.5959
 21
98.951911
 31
0.0
  0
LINE
  5
619
330
1D
100
AcDbEntity
  8
0
100
AcDbLine
 10
23.5429
 20
99.139911
 30
0.0
 11
23.775
 21
99.236011
 31
0.0
  0
LINE
  5
61A
330
1D
100
AcDbEntity
  8
0
100
AcDbLine
 10
23.775
 20
99.236011
 30
0.0
 11
23.8704
 21
99.065611
 31
0.0
  0
LINE
  5
61B
330
1D
100
AcDbEntity
  8
0
100
AcDbLine
 10
23.5959
 20
98.951911
 30
0.0
 11
23.6351
 21
98.884211
 31
0.0
  0
LINE
  5
622
330
1D
100
AcDbEntity
  8
0
100
AcDbLine
 10
23.8704
 20
99.065611
 30
0.0
 11
23.8906
 21
98.990011
 31
0.0
  0
LINE
  5
674
330
1D
100
AcDbEntity
  8
0
100
AcDbLine
 10
22.287075508543
 20
100.395735491456
 30
0.0
 11
23.5429
 21
99.139911
 31
0.0
  0
LINE
  5
675
330
1D
100
AcDbEntity
  8
0
100
AcDbLine
 10
22.3298
 20
100.437611
 30
0.0
 11
22.7664
 21
100.723611
 31
0.0
  0
LINE
  5
685
330
1D
100
AcDbEntity
  8
0
100
AcDbLine
 10
22.7664
 20
100.723611
 30
0.0
 11
23.2504
 21
100.919611
 31
0.0
  0
LINE
  5
691
330
1D
100
AcDbEntity
  8
0
100
AcDbLine
 10
22.3377
 20
101.054611
 30
0.0
 11
22.7897
 21
101.286611
 31
0.0
  0
LINE
  5
692
330
1D
100
AcDbEntity
  8
0
100
AcDbLine
 10
22.7897
 20
101.286611
 30
0.0
 11
23.273
 21
101.442611
 31
0.0
  0
LINE
  5
694
330
1D
100
AcDbEntity
  8
0
100
AcDbLine
 10
23.2504
 20
100.919611
 30
0.0
 11
23.7633
 21
101.016611
 31
0.0
  0
LINE
  5
695
330
1D
100
AcDbEntity
  8
0
100
AcDbLine
 10
23.775
 20
101.016498909561
 30
0.0
 11
23.775
 21
99.236011
 31
0.0
  0
LINE
  5
69E
330
1D
100
AcDbEntity
  8
0
100
AcDbLine
 10
23.273
 20
101.442611
 30
0.0
 11
23.775
 21
101.518611
 31
0.0
  0
LINE
  5
69F
330
1D
100
AcDbEntity
  8
0
100
AcDbLine
 10
23.775
 20
101.518611
 30
0.0
 11
23.8907
 21
101.327611
 31
0.0
  0
LINE
  5
6D3
330
1D
100
AcDbEntity
  8
0
100
AcDbLine
 10
22.2817
 20
102.455611
 30
0.0
 11
22.9107
 21
102.666611
 31
0.0
  0
LINE
  5
6E1
330
1D
100
AcDbEntity
  8
0
100
AcDbLine
 10
22.9107
 20
102.666611
 30
0.0
 11
23.5641
 21
102.780611
 31
0.0
  0
LINE
  5
6EC
330
1D
100
AcDbEntity
  8
0
100
AcDbLine
 10
23.8907
 20
102.788492749623
 30
0.0
 11
23.8907
 21
101.327611
 31
0.0
  0
LINE
  5
6FA
330
1D
100
AcDbEntity
  8
0
100
AcDbLine
 10
22.8837
 20
102.953611
 30
0.0
 11
22.9537
 21
103.138611
 31
0.0
  0
LINE
  5
74B
330
1D
100
AcDbEntity
  8
0
100
AcDbLine
 10
35.7412
 20
-0.235611
 30
0.0
 11
38.0
 21
-0.235389
 31
0.0
  0
LINE
  5
74D
330
1D
100
AcDbEntity
  8
0
100
AcDbLine
 10
41.4399
 20
-0.235389
 30
0.0
 11
42.6856
 21
-0.235389
 31
0.0
  0
LINE
  5
74E
330
1D
100
AcDbEntity
  8
0
100
AcDbLine
 10
39.8891
 20
-0.235389
 30
0.0
 11
41.4399
 21
-0.235389
 31
0.0
  0
LINE
  5
74F
330
1D
100
AcDbEntity
  8
0
100
AcDbLine
 10
42.6856
 20
-0.235389
 30
0.0
 11
43.8697
 21
-0.235389
 31
0.0
  0
LINE
  5
750
330
1D
100
AcDbEntity
  8
0
100
AcDbLine
 10
38.0
 20
-0.235389
 30
0.0
 11
39.8891
 21
-0.235389
 31
0.0
  0
LINE
  5
751
330
1D
100
AcDbEntity
  8
0
100
AcDbLine
 10
44.9422
 20
-0.235389
 30
0.0
 11
45.8915
 21
-0.235389
 31
0.0
  0
LINE
  5
752
330
1D
100
AcDbEntity
  8
0
100
AcDbLine
 10
46.4703
 20
-0.235389
 30
0.0
 11
47.055
 21
-0.235389
 31
0.0
  0
LINE
  5
753
330
1D
100
AcDbEntity
  8
0
100
AcDbLine
 10
45.8915
 20
-0.235389
 30
0.0
 11
46.4703
 21
-0.235389
 31
0.0
  0
LINE
  5
754
330
1D
100
AcDbEntity
  8
0
100
AcDbLine
 10
43.8697
 20
-0.235389
 30
0.0
 11
44.9422
 21
-0.235389
 31
0.0
  0
LINE
  5
755
330
1D
100
AcDbEntity
  8
0
100
AcDbLine
 10
47.4905
 20
-0.235391
 30
0.0
 11
47.8572
 21
-0.235391
 31
0.0
  0
LINE
  5
756
330
1D
100
AcDbEntity
  8
0
100
AcDbLine
 10
47.8572
 20
-0.235391
 30
0.0
 11
48.0214
 21
-0.235391
 31
0.0
  0
LINE
  5
757
330
1D
100
AcDbEntity
  8
0
100
AcDbLine
 10
47.055
 20
-0.235389
 30
0.0
 11
47.4905
 21
-0.235391
 31
0.0
  0
LINE
  5
758
330
1D
100
AcDbEntity
  8
0
100
AcDbLine
 10
46.5129
 20
-0.235389
 30
0.0
 11
47.0191
 21
-0.235389
 31
0.0
  0
LINE
  5
759
330
1D
100
AcDbEntity
  8
0
100
AcDbLine
 10
47.0191
 20
-0.235389
 30
0.0
 11
47.4013
 21
-0.235389
 31
0.0
  0
LINE
  5
75A
330
1D
100
AcDbEntity
  8
0
100
AcDbLine
 10
47.4013
 20
-0.235389
 30
0.0
 11
47.7146
 21
-0.235389
 31
0.0
  0
LINE
  5
75B
330
1D
100
AcDbEntity
  8
0
100
AcDbLine
 10
44.0832
 20
-0.235389
 30
0.0
 11
44.8945
 21
-0.235389
 31
0.0
  0
LINE
  5
75C
330
1D
100
AcDbEntity
  8
0
100
AcDbLine
 10
44.8945
 20
-0.235389
 30
0.0
 11
45.5951
 21
-0.235389
 31
0.0
  0
LINE
  5
75D
330
1D
100
AcDbEntity
  8
0
100
AcDbLine
 10
39.4606
 20
-0.235389
 30
0.0
 11
40.8545
 21
-0.235389
 31
0.0
  0
LINE
  5
75E
330
1D
100
AcDbEntity
  8
0
100
AcDbLine
 10
37.8606
 20
-0.235389
 30
0.0
 11
39.4606
 21
-0.235389
 31
0.0
  0
LINE
  5
75F
330
1D
100
AcDbEntity
  8
0
100
AcDbLine
 10
36.1344
 20
-0.235389
 30
0.0
 11
37.8606
 21
-0.235389
 31
0.0
  0
LINE
  5
760
330
1D
100
AcDbEntity
  8
0
100
AcDbLine
 10
40.8545
 20
-0.235389
 30
0.0
 11
42.1171
 21
-0.235389
 31
0.0
  0
LINE
  5
761
330
1D
100
AcDbEntity
  8
0
100
AcDbLine
 10
42.1171
 20
-0.235389
 30
0.0
 11
43.1577
 21
-0.235389
 31
0.0
  0
LINE
  5
762
330
1D
100
AcDbEntity
  8
0
100
AcDbLine
 10
43.1577
 20
-0.235389
 30
0.0
 11
44.0832
 21
-0.235389
 31
0.0
  0
LINE
  5
767
330
1D
100
AcDbEntity
  8
0
100
AcDbLine
 10
45.5951
 20
-0.235389
 30
0.0
 11
46.5129
 21
-0.235389
 31
0.0
  0
LINE
  5
768
330
1D
100
AcDbEntity
  8
0
100
AcDbLine
 10
47.7146
 20
-0.235389
 30
0.0
 11
47.9082
 21
-0.235389
 31
0.0
  0
LINE
  5
769
330
1D
100
AcDbEntity
  8
0
100
AcDbLine
 10
47.9082
 20
-0.235389
 30
0.0
 11
48.0388
 21
-0.235389
 31
0.0
  0
LINE
  5
795
330
1D
100
AcDbEntity
  8
0
100
AcDbLine
 10
22.519
 20
103.022611
 30
0.0
 11
22.6724
 21
102.896611
 31
0.0
  0
LINE
  5
799
330
1D
100
AcDbEntity
  8
0
100
AcDbLine
 10
22.9537
 20
103.138611
 30
0.0
 11
23.362
 21
103.210611
 31
0.0
  0
LINE
  5
79A
330
1D
100
AcDbEntity
  8
0
100
AcDbLine
 10
23.362
 20
103.210611
 30
0.0
 11
23.775
 21
103.246611
 31
0.0
  0
LINE
  5
7A0
330
1D
100
AcDbEntity
  8
0
100
AcDbLine
 10
23.775
 20
103.246611
 30
0.0
 11
23.8906
 21
103.085611
 31
0.0
  0
LINE
  5
7D4
330
1D
100
AcDbEntity
  8
0
100
AcDbLine
 10
22.2615
 20
104.289611
 30
0.0
 11
23.0498
 21
104.465611
 31
0.0
  0
LINE
  5
7D7
330
1D
100
AcDbEntity
  8
0
100
AcDbLine
 10
22.623717025044
 20
104.370481476224
 30
0.0
 11
22.9537
 21
103.138611
 31
0.0
  0
LINE
  5
7DA
330
1D
100
AcDbEntity
  8
0
100
AcDbLine
 10
23.0498
 20
104.465611
 30
0.0
 11
23.8543
 21
104.537611
 31
0.0
  0
LINE
  5
7DE
330
1D
100
AcDbEntity
  8
0
100
AcDbLine
 10
23.775
 20
104.530513921069
 30
0.0
 11
23.775
 21
103.246611
 31
0.0
  0
LINE
  5
7F2
330
1D
100
AcDbEntity
  8
0
100
AcDbLine
 10
22.4294
 20
104.648611
 30
0.0
 11
22.4907
 21
104.866611
 31
0.0
  0
LINE
  5
7FD
330
1D
100
AcDbEntity
  8
0
100
AcDbLine
 10
23.1287
 20
104.982611
 30
0.0
 11
23.775
 21
105.035611
 31
0.0
  0
LINE
  5
7FE
330
1D
100
AcDbEntity
  8
0
100
AcDbLine
 10
22.4907
 20
104.866611
 30
0.0
 11
23.1287
 21
104.982611
 31
0.0
  0
LINE
  5
7FF
330
1D
100
AcDbEntity
  8
0
100
AcDbLine
 10
23.775
 20
105.035611
 30
0.0
 11
23.8907
 21
104.840611
 31
0.0
  0
LINE
  5
806
330
1D
100
AcDbEntity
  8
0
100
AcDbLine
 10
22.4501
 20
106.085611
 30
0.0
 11
23.3567
 21
106.213611
 31
0.0
  0
LINE
  5
807
330
1D
100
AcDbEntity
  8
0
100
AcDbLine
 10
23.775
 20
106.223205036697
 30
0.0
 11
23.775
 21
105.035611
 31
0.0
  0
LINE
  5
832
330
1D
100
AcDbEntity
  8
0
100
AcDbLine
 10
22.5525
 20
106.638611
 30
0.0
 11
23.4878
 21
106.748611
 31
0.0
  0
LINE
  5
84B
330
1D
100
AcDbEntity
  8
0
100
AcDbLine
 10
22.232
 20
107.087611
 30
0.0
 11
23.1114
 21
107.220611
 31
0.0
  0
LINE
  5
84C
330
1D
100
AcDbEntity
  8
0
100
AcDbLine
 10
22.75
 20
107.877611
 30
0.0
 11
22.75
 21
107.453611
 31
0.0
  0
LINE
  5
84E
330
1D
100
AcDbEntity
  8
0
100
AcDbLine
 10
22.75
 20
107.630611
 30
0.0
 11
22.75
 21
107.842611
 31
0.0
  0
LINE
  5
851
330
1D
100
AcDbEntity
  8
0
100
AcDbLine
 10
22.75
 20
107.589611
 30
0.0
 11
22.75
 21
107.529611
 31
0.0
  0
LINE
  5
852
330
1D
100
AcDbEntity
  8
0
100
AcDbLine
 10
22.75
 20
107.529611
 30
0.0
 11
22.75
 21
107.589611
 31
0.0
  0
LINE
  5
853
330
1D
100
AcDbEntity
  8
0
100
AcDbLine
 10
22.75
 20
107.529611
 30
0.0
 11
22.75
 21
107.352611
 31
0.0
  0
LINE
  5
873
330
1D
100
AcDbEntity
  8
0
100
AcDbLine
 10
22.75
 20
107.412611
 30
0.0
 11
22.75
 21
107.352611
 31
0.0
  0
LINE
  5
874
330
1D
100
AcDbEntity
  8
0
100
AcDbLine
 10
22.75
 20
107.352611
 30
0.0
 11
22.75
 21
107.529611
 31
0.0
  0
LINE
  5
875
330
1D
100
AcDbEntity
  8
0
100
AcDbLine
 10
22.75
 20
107.352611
 30
0.0
 11
22.75
 21
107.412611
 31
0.0
  0
LINE
  5
8A1
330
1D
100
AcDbEntity
  8
0
100
AcDbLine
 10
22.2268
 20
123.684611
 30
0.0
 11
22.732486722046
 21
123.292576283978
 31
0.0
  0
LINE
  5
8A2
330
1D
100
AcDbEntity
  8
0
100
AcDbLine
 10
22.7536
 20
128.299611
 30
0.0
 11
23.354
 21
128.550611
 31
0.0
  0
LINE
  5
8A3
330
1D
100
AcDbEntity
  8
0
100
AcDbLine
 10
22.732486722047
 20
123.292576283977
 30
0.0
 11
22.8791
 21
123.209611
 31
0.0
  0
LINE
  5
8A4
330
1D
100
AcDbEntity
  8
0
100
AcDbLine
 10
22.8791
 20
123.209611
 30
0.0
 11
23.1291
 21
123.100611
 31
0.0
  0
LINE
  5
8A7
330
1D
100
AcDbEntity
  8
0
100
AcDbLine
 10
23.1291
 20
123.100611
 30
0.0
 11
23.3897
 21
123.018611
 31
0.0
  0
LINE
  5
8A8
330
1D
100
AcDbEntity
  8
0
100
AcDbLine
 10
23.3897
 20
123.018611
 30
0.0
 11
23.658
 21
122.965611
 31
0.0
  0
LINE
  5
8A9
330
1D
100
AcDbEntity
  8
0
100
AcDbLine
 10
23.658
 20
122.965611
 30
0.0
 11
23.8862
 21
122.944611
 31
0.0
  0
LINE
  5
97C
330
1D
100
AcDbEntity
  8
0
100
AcDbLine
 10
21.7711
 20
83.058111
 30
0.0
 11
18.33994136298
 21
83.720155776012
 31
0.0
  0
LINE
  5
97D
330
1D
100
AcDbEntity
  8
0
100
AcDbLine
 10
18.33994136298
 20
83.720155776012
 30
0.0
 11
14.74322306521
 21
85.026226666264
 31
0.0
  0
LINE
  5
97E
330
1D
100
AcDbEntity
  8
0
100
AcDbLine
 10
14.74322306521
 20
85.026226666264
 30
0.0
 11
12.3432
 21
86.540611
 31
0.0
  0
LINE
  5
97F
330
1D
100
AcDbEntity
  8
0
100
AcDbLine
 10
9.6184
 20
88.891111
 30
0.0
 11
6.677495820961
 21
93.066806281324
 31
0.0
  0
LINE
  5
980
330
1D
100
AcDbEntity
  8
0
100
AcDbLine
 10
6.677495820961
 20
93.066806281324
 30
0.0
 11
3.828299529924
 21
98.670225653696
 31
0.0
  0
LINE
  5
981
330
1D
100
AcDbEntity
  8
0
100
AcDbLine
 10
3.828299529924
 20
98.670225653696
 30
0.0
 11
2.308728174704
 21
102.469154041746
 31
0.0
  0
LINE
  5
982
330
1D
100
AcDbEntity
  8
0
100
AcDbLine
 10
3.649262140221
 20
113.85307500783
 30
0.0
 11
9.095414413637
 21
114.549401139174
 31
0.0
  0
LINE
  5
983
330
1D
100
AcDbEntity
  8
0
100
AcDbLine
 10
21.599769491043
 20
124.7988119383
 30
0.0
 11
21.534473644817
 21
125.359535656562
 31
0.0
  0
LINE
  5
984
330
1D
100
AcDbEntity
  8
0
100
AcDbLine
 10
21.534473644817
 20
125.359535656562
 30
0.0
 11
21.555483847567
 21
126.262974374812
 31
0.0
  0
LINE
  5
985
330
1D
100
AcDbEntity
  8
0
100
AcDbLine
 10
21.555483847567
 20
126.262974374812
 30
0.0
 11
21.744575672317
 21
126.977321268312
 31
0.0
  0
LINE
  5
986
330
1D
100
AcDbEntity
  8
0
100
AcDbLine
 10
21.744575672317
 20
126.977321268312
 30
0.0
 11
21.954979742069
 21
127.522737408499
 31
0.0
  0
LINE
  5
987
330
1D
100
AcDbEntity
  8
0
100
AcDbLine
 10
1.756
 20
134.125611
 30
0.0
 11
1.7603
 21
138.622611
 31
0.0
  0
LINE
  5
988
330
1D
100
AcDbEntity
  8
0
100
AcDbLine
 10
46.8394
 20
70.939611
 30
0.0
 11
46.5061
 21
91.853511
 31
0.0
  0
LINE
  5
989
330
1D
100
AcDbEntity
  8
0
100
AcDbLine
 10
48.0388
 20
-0.235389
 30
0.0
 11
46.8482
 21
70.938711
 31
0.0
  0
LINE
  5
98A
330
1D
100
AcDbEntity
  8
0
100
AcDbLine
 10
46.8482
 20
70.938711
 30
0.0
 11
46.805846586605
 21
73.045019738057
 31
0.0
  0
LINE
  5
98B
330
1D
100
AcDbEntity
  8
0
100
AcDbLine
 10
46.8482
 20
70.938711
 30
0.0
 11
46.805846586605
 21
73.045019738057
 31
0.0
  0
LINE
  5
98C
330
1D
100
AcDbEntity
  8
0
100
AcDbLine
 10
46.3209
 20
120.458611
 30
0.0
 11
46.244
 21
134.125611
 31
0.0
  0
LINE
  5
991
330
1D
100
AcDbEntity
  8
0
100
AcDbLine
 10
28.0425
 20
86.854011
 30
0.0
 11
26.8174
 21
86.494311
 31
0.0
  0
LINE
  5
996
330
1D
100
AcDbEntity
  8
0
100
AcDbLine
 10
27.9404
 20
90.078811
 30
0.0
 11
27.0727
 21
89.719411
 31
0.0
  0
LINE
  5
997
330
1D
100
AcDbEntity
  8
0
100
AcDbLine
 10
28.2669
 20
90.554111
 30
0.0
 11
27.4657
 21
90.167211
 31
0.0
  0
LINE
  5
998
330
1D
100
AcDbEntity
  8
0
100
AcDbLine
 10
28.0272
 20
90.992911
 30
0.0
 11
27.1765
 21
90.588311
 31
0.0
  0
LINE
  5
999
330
1D
100
AcDbEntity
  8
0
100
AcDbLine
 10
27.7754
 20
91.453711
 30
0.0
 11
26.9476
 21
91.062111
 31
0.0
  0
LINE
  5
99A
330
1D
100
AcDbEntity
  8
0
100
AcDbLine
 10
28.0635
 20
93.068911
 30
0.0
 11
27.5304
 21
92.699611
 31
0.0
  0
LINE
  5
99B
330
1D
100
AcDbEntity
  8
0
100
AcDbLine
 10
27.6425
 20
93.378411
 30
0.0
 11
26.9605
 21
92.945511
 31
0.0
  0
LINE
  5
99C
330
1D
100
AcDbEntity
  8
0
100
AcDbLine
 10
28.20099503384
 20
93.84541596616
 30
0.0
 11
27.2933
 21
94.753111
 31
0.0
  0
LINE
  5
99D
330
1D
100
AcDbEntity
  8
0
100
AcDbLine
 10
27.6114
 20
95.071411
 30
0.0
 11
27.4158
 21
95.103511
 31
0.0
  0
LINE
  5
99E
330
1D
100
AcDbEntity
  8
0
100
AcDbLine
 10
27.6064
 20
95.779011
 30
0.0
 11
27.1808
 21
95.270411
 31
0.0
  0
LINE
  5
99F
330
1D
100
AcDbEntity
  8
0
100
AcDbLine
 10
28.424415818182
 20
98.139611
 30
0.0
 11
27.1545
 21
98.139611
 31
0.0
  0
LINE
  5
9A0
330
1D
100
AcDbEntity
  8
0
100
AcDbLine
 10
28.419376992754
 20
98.589611
 30
0.0
 11
27.1545
 21
98.589611
 31
0.0
  0
LINE
  5
9A1
330
1D
100
AcDbEntity
  8
0
100
AcDbLine
 10
28.194860050343
 20
102.878061626619
 30
0.0
 11
27.2933
 21
101.975611
 31
0.0
  0
LINE
  5
9A2
330
1D
100
AcDbEntity
  8
0
100
AcDbLine
 10
28.129586111206
 20
105.06727226967
 30
0.0
 11
27.5304
 21
104.029611
 31
0.0
  0
LINE
  5
9A3
330
1D
100
AcDbEntity
  8
0
100
AcDbLine
 10
27.7244
 20
100.777611
 30
0.0
 11
27.3232
 21
101.305611
 31
0.0
  0
LINE
  5
9A4
330
1D
100
AcDbEntity
  8
0
100
AcDbLine
 10
27.6114
 20
101.657611
 30
0.0
 11
27.4158
 21
101.625611
 31
0.0
  0
LINE
  5
9A5
330
1D
100
AcDbEntity
  8
0
100
AcDbLine
 10
27.8737
 20
103.173611
 30
0.0
 11
27.2128
 21
103.637611
 31
0.0
  0
LINE
  5
9A6
330
1D
100
AcDbEntity
  8
0
100
AcDbLine
 10
28.0635
 20
103.660611
 30
0.0
 11
27.5304
 21
104.029611
 31
0.0
  0
LINE
  5
9A7
330
1D
100
AcDbEntity
  8
0
100
AcDbLine
 10
28.0973
 20
105.089611
 30
0.0
 11
27.2888
 21
105.519611
 31
0.0
  0
LINE
  5
9A8
330
1D
100
AcDbEntity
  8
0
100
AcDbLine
 10
27.734340639255
 20
105.282650610538
 30
0.0
 11
27.1408
 21
104.254611
 31
0.0
  0
LINE
  5
9A9
330
1D
100
AcDbEntity
  8
0
100
AcDbLine
 10
28.0992
 20
105.696611
 30
0.0
 11
27.2526
 21
106.109611
 31
0.0
  0
LINE
  5
9AE
330
1D
100
AcDbEntity
  8
0
100
AcDbLine
 10
27.9404
 20
106.650611
 30
0.0
 11
27.0727
 21
107.009611
 31
0.0
  0
LINE
  5
9AF
330
1D
100
AcDbEntity
  8
0
100
AcDbLine
 10
28.2669
 20
106.175611
 30
0.0
 11
27.4657
 21
106.561611
 31
0.0
  0
LINE
  5
9B0
330
1D
100
AcDbEntity
  8
0
100
AcDbLine
 10
28.6979
 20
109.623611
 30
0.0
 11
27.4953
 21
110.053611
 31
0.0
  0
LINE
  5
9B4
330
1D
100
AcDbEntity
  8
0
100
AcDbLine
 10
28.6959
 20
115.446611
 30
0.0
 11
27.0919
 21
115.492611
 31
0.0
  0
LINE
  5
9B5
330
1D
100
AcDbEntity
  8
0
100
AcDbLine
 10
28.8463
 20
116.360611
 30
0.0
 11
26.6842
 21
116.360611
 31
0.0
  0
LINE
  5
9B6
330
1D
100
AcDbEntity
  8
0
100
AcDbLine
 10
26.2289
 20
83.058111
 30
0.0
 11
29.66005863702
 21
83.720155776012
 31
0.0
  0
LINE
  5
9B7
330
1D
100
AcDbEntity
  8
0
100
AcDbLine
 10
46.4525
 20
97.019411
 30
0.0
 11
46.3699
 21
104.477611
 31
0.0
  0
LINE
  5
9B8
330
1D
100
AcDbEntity
  8
0
100
AcDbLine
 10
35.0
 20
98.364511
 30
0.0
 11
35.0
 21
103.160611
 31
0.0
  0
LINE
  5
9BA
330
1D
100
AcDbEntity
  8
0
100
AcDbLine
 10
35.8703
 20
101.181611
 30
0.0
 11
35.5106
 21
102.407611
 31
0.0
  0
LINE
  5
9BC
330
1D
100
AcDbEntity
  8
0
100
AcDbLine
 10
35.0
 20
101.903611
 30
0.0
 11
35.0
 21
103.160611
 31
0.0
  0
LINE
  5
9BD
330
1D
100
AcDbEntity
  8
0
100
AcDbLine
 10
35.0
 20
103.160611
 30
0.0
 11
35.0
 21
101.903611
 31
0.0
  0
LINE
  5
9BE
330
1D
100
AcDbEntity
  8
0
100
AcDbLine
 10
35.0
 20
103.160611
 30
0.0
 11
35.0
 21
98.364511
 31
0.0
  0
LINE
  5
9C1
330
1D
100
AcDbEntity
  8
0
100
AcDbLine
 10
32.6452
 20
101.437611
 30
0.0
 11
32.2858
 21
102.304611
 31
0.0
  0
LINE
  5
9C3
330
1D
100
AcDbEntity
  8
0
100
AcDbLine
 10
32.4447
 20
101.174611
 30
0.0
 11
32.0959
 21
102.061611
 31
0.0
  0
LINE
  5
9C4
330
1D
100
AcDbEntity
  8
0
100
AcDbLine
 10
31.7763
 20
101.541611
 30
0.0
 11
31.3716
 21
102.391611
 31
0.0
  0
LINE
  5
9C5
330
1D
100
AcDbEntity
  8
0
100
AcDbLine
 10
31.1187
 20
101.731611
 30
0.0
 11
30.6797
 21
102.535611
 31
0.0
  0
LINE
  5
9C6
330
1D
100
AcDbEntity
  8
0
100
AcDbLine
 10
30.917946929984
 20
102.09927721479
 30
0.0
 11
29.89
 21
101.505611
 31
0.0
  0
LINE
  5
9C7
330
1D
100
AcDbEntity
  8
0
100
AcDbLine
 10
31.1188
 20
101.731611
 30
0.0
 11
30.6798
 21
102.535611
 31
0.0
  0
LINE
  5
9C8
330
1D
100
AcDbEntity
  8
0
100
AcDbLine
 10
30.702522565947
 20
102.493812952115
 30
0.0
 11
29.6649
 21
101.894611
 31
0.0
  0
LINE
  5
9C9
330
1D
100
AcDbEntity
  8
0
100
AcDbLine
 10
29.6649
 20
101.894611
 30
0.0
 11
29.2956
 21
102.427611
 31
0.0
  0
LINE
  5
9CA
330
1D
100
AcDbEntity
  8
0
100
AcDbLine
 10
29.4191
 20
101.325611
 30
0.0
 11
28.9863
 21
102.007611
 31
0.0
  0
LINE
  5
9CB
330
1D
100
AcDbEntity
  8
0
100
AcDbLine
 10
28.519363745962
 20
102.56537545629
 30
0.0
 11
27.6114
 21
101.657611
 31
0.0
  0
LINE
  5
9CC
330
1D
100
AcDbEntity
  8
0
100
AcDbLine
 10
44.171700470076
 20
98.670225653696
 30
0.0
 11
45.691271825296
 21
102.469154041746
 31
0.0
  0
LINE
  5
9CD
330
1D
100
AcDbEntity
  8
0
100
AcDbLine
 10
38.3816
 20
88.891111
 30
0.0
 11
36.9144
 21
87.513211
 31
0.0
  0
LINE
  5
9CE
330
1D
100
AcDbEntity
  8
0
100
AcDbLine
 10
38.3816
 20
88.891111
 30
0.0
 11
36.9144
 21
87.513411
 31
0.0
  0
LINE
  5
9CF
330
1D
100
AcDbEntity
  8
0
100
AcDbLine
 10
46.5061
 20
91.853511
 30
0.0
 11
46.4525
 21
97.019411
 31
0.0
  0
LINE
  5
9D0
330
1D
100
AcDbEntity
  8
0
100
AcDbLine
 10
38.3816
 20
88.891111
 30
0.0
 11
41.322504179039
 21
93.066806281324
 31
0.0
  0
LINE
  5
9D1
330
1D
100
AcDbEntity
  8
0
100
AcDbLine
 10
41.322504179039
 20
93.066806281324
 30
0.0
 11
44.171700470076
 21
98.670225653696
 31
0.0
  0
LINE
  5
9D9
330
1D
100
AcDbEntity
  8
0
100
AcDbLine
 10
28.5522
 20
91.938811
 30
0.0
 11
27.7754
 21
91.453711
 31
0.0
  0
LINE
  5
9DA
330
1D
100
AcDbEntity
  8
0
100
AcDbLine
 10
28.5523
 20
91.938711
 30
0.0
 11
27.7754
 21
91.453711
 31
0.0
  0
LINE
  5
9DB
330
1D
100
AcDbEntity
  8
0
100
AcDbLine
 10
29.5667
 20
92.073911
 30
0.0
 11
28.8273
 21
91.490211
 31
0.0
  0
LINE
  5
9DC
330
1D
100
AcDbEntity
  8
0
100
AcDbLine
 10
30.5147
 20
92.300811
 30
0.0
 11
29.8294
 21
91.639211
 31
0.0
  0
LINE
  5
9DD
330
1D
100
AcDbEntity
  8
0
100
AcDbLine
 10
34.7064
 20
92.515711
 30
0.0
 11
34.0363
 21
91.428411
 31
0.0
  0
LINE
  5
9E6
330
1D
100
AcDbEntity
  8
0
100
AcDbLine
 10
33.2565
 20
90.417411
 30
0.0
 11
32.3752
 21
89.493511
 31
0.0
  0
LINE
  5
9E7
330
1D
100
AcDbEntity
  8
0
100
AcDbLine
 10
29.66005863702
 20
83.720155776012
 30
0.0
 11
33.25677693479
 21
85.026226666264
 31
0.0
  0
LINE
  5
9E8
330
1D
100
AcDbEntity
  8
0
100
AcDbLine
 10
36.9144
 20
87.513411
 30
0.0
 11
35.6568
 21
86.540611
 31
0.0
  0
LINE
  5
9E9
330
1D
100
AcDbEntity
  8
0
100
AcDbLine
 10
36.9144
 20
87.513211
 30
0.0
 11
35.6568
 21
86.540611
 31
0.0
  0
LINE
  5
9F1
330
1D
100
AcDbEntity
  8
0
100
AcDbLine
 10
34.0363
 20
91.428411
 30
0.0
 11
33.2565
 21
90.417411
 31
0.0
  0
LINE
  5
9F3
330
1D
100
AcDbEntity
  8
0
100
AcDbLine
 10
33.25677693479
 20
85.026226666264
 30
0.0
 11
35.6568
 21
86.540611
 31
0.0
  0
LINE
  5
9F9
330
1D
100
AcDbEntity
  8
0
100
AcDbLine
 10
30.3474
 20
87.945911
 30
0.0
 11
29.2239
 21
87.339511
 31
0.0
  0
LINE
  5
A01
330
1D
100
AcDbEntity
  8
0
100
AcDbLine
 10
32.3752
 20
89.493511
 30
0.0
 11
31.402
 21
88.666511
 31
0.0
  0
LINE
  5
A0A
330
1D
100
AcDbEntity
  8
0
100
AcDbLine
 10
31.402
 20
88.666511
 30
0.0
 11
30.3474
 21
87.945911
 31
0.0
  0
LINE
  5
A1A
330
1D
100
AcDbEntity
  8
0
100
AcDbLine
 10
29.2239
 20
87.339511
 30
0.0
 11
28.0425
 21
86.854011
 31
0.0
  0
LINE
  5
A27
330
1D
100
AcDbEntity
  8
0
100
AcDbLine
 10
28.7668
 20
90.525111
 30
0.0
 11
27.9404
 21
90.078811
 31
0.0
  0
LINE
  5
A28
330
1D
100
AcDbEntity
  8
0
100
AcDbLine
 10
29.8177
 20
90.779111
 30
0.0
 11
29.6682
 21
90.928611
 31
0.0
  0
LINE
  5
A29
330
1D
100
AcDbEntity
  8
0
100
AcDbLine
 10
29.8429
 20
90.753911
 30
0.0
 11
29.5433
 21
91.053511
 31
0.0
  0
LINE
  5
A2A
330
1D
100
AcDbEntity
  8
0
100
AcDbLine
 10
29.639
 20
90.957911
 30
0.0
 11
29.5969
 21
91.000011
 31
0.0
  0
LINE
  5
A2B
330
1D
100
AcDbEntity
  8
0
100
AcDbLine
 10
29.639
 20
90.957911
 30
0.0
 11
29.596899999987
 21
91.000011000013
 31
0.0
  0
LINE
  5
A2C
330
1D
100
AcDbEntity
  8
0
100
AcDbLine
 10
29.639
 20
90.957911
 30
0.0
 11
29.596899999987
 21
91.000011000013
 31
0.0
  0
LINE
  5
A2D
330
1D
100
AcDbEntity
  8
0
100
AcDbLine
 10
29.5433
 20
91.053511
 30
0.0
 11
28.7668
 21
90.525111
 31
0.0
  0
LINE
  5
A2E
330
1D
100
AcDbEntity
  8
0
100
AcDbLine
 10
29.5969
 20
91.000011
 30
0.0
 11
29.4719
 21
91.124911
 31
0.0
  0
LINE
  5
A2F
330
1D
100
AcDbEntity
  8
0
100
AcDbLine
 10
29.0772
 20
91.054911
 30
0.0
 11
28.2669
 21
90.554111
 31
0.0
  0
LINE
  5
A30
330
1D
100
AcDbEntity
  8
0
100
AcDbLine
 10
29.5137
 20
91.083211
 30
0.0
 11
29.4719
 21
91.124911
 31
0.0
  0
LINE
  5
A31
330
1D
100
AcDbEntity
  8
0
100
AcDbLine
 10
28.8273
 20
91.490211
 30
0.0
 11
28.0272
 21
90.992911
 31
0.0
  0
LINE
  5
A32
330
1D
100
AcDbEntity
  8
0
100
AcDbLine
 10
29.8294
 20
91.639211
 30
0.0
 11
29.0772
 21
91.054911
 31
0.0
  0
LINE
  5
A36
330
1D
100
AcDbEntity
  8
0
100
AcDbLine
 10
32.914
 20
96.191911
 30
0.0
 11
32.6452
 21
95.291911
 31
0.0
  0
LINE
  5
A37
330
1D
100
AcDbEntity
  8
0
100
AcDbLine
 10
32.849
 20
97.413511
 30
0.0
 11
32.6966
 21
96.473111
 31
0.0
  0
LINE
  5
A38
330
1D
100
AcDbEntity
  8
0
100
AcDbLine
 10
32.914
 20
100.537611
 30
0.0
 11
32.6452
 21
101.437611
 31
0.0
  0
LINE
  5
A39
330
1D
100
AcDbEntity
  8
0
100
AcDbLine
 10
32.849
 20
99.315711
 30
0.0
 11
32.6967
 21
100.255611
 31
0.0
  0
LINE
  5
A3A
330
1D
100
AcDbEntity
  8
0
100
AcDbLine
 10
36.1598
 20
97.375911
 30
0.0
 11
35.9901
 21
96.110511
 31
0.0
  0
LINE
  5
A3E
330
1D
100
AcDbEntity
  8
0
100
AcDbLine
 10
35.0
 20
93.568811
 30
0.0
 11
35.0
 21
98.364511
 31
0.0
  0
LINE
  5
A41
330
1D
100
AcDbEntity
  8
0
100
AcDbLine
 10
35.0
 20
96.006211
 30
0.0
 11
35.0
 21
100.722611
 31
0.0
  0
LINE
  5
A42
330
1D
100
AcDbEntity
  8
0
100
AcDbLine
 10
33.0894
 20
97.114611
 30
0.0
 11
32.914
 21
96.191911
 31
0.0
  0
LINE
  5
A44
330
1D
100
AcDbEntity
  8
0
100
AcDbLine
 10
35.0
 20
98.364511
 30
0.0
 11
35.0
 21
93.568811
 31
0.0
  0
LINE
  5
A45
330
1D
100
AcDbEntity
  8
0
100
AcDbLine
 10
35.0
 20
100.722611
 30
0.0
 11
35.0
 21
96.006211
 31
0.0
  0
LINE
  5
A48
330
1D
100
AcDbEntity
  8
0
100
AcDbLine
 10
35.6885
 20
94.869511
 30
0.0
 11
35.2591
 21
93.666811
 31
0.0
  0
LINE
  5
A4E
330
1D
100
AcDbEntity
  8
0
100
AcDbLine
 10
35.9901
 20
96.110511
 30
0.0
 11
35.6885
 21
94.869511
 31
0.0
  0
LINE
  5
A50
330
1D
100
AcDbEntity
  8
0
100
AcDbLine
 10
34.9999
 20
93.568611
 30
0.0
 11
34.9999
 21
94.825611
 31
0.0
  0
LINE
  5
A54
330
1D
100
AcDbEntity
  8
0
100
AcDbLine
 10
34.9999
 20
94.825611
 30
0.0
 11
34.9999
 21
93.568611
 31
0.0
  0
LINE
  5
A61
330
1D
100
AcDbEntity
  8
0
100
AcDbLine
 10
35.2591
 20
93.666811
 30
0.0
 11
34.7064
 21
92.515711
 31
0.0
  0
LINE
  5
A66
330
1D
100
AcDbEntity
  8
0
100
AcDbLine
 10
35.0
 20
96.006211
 30
0.0
 11
34.9999
 21
94.825611
 31
0.0
  0
LINE
  5
A6C
330
1D
100
AcDbEntity
  8
0
100
AcDbLine
 10
36.0998
 20
99.925611
 30
0.0
 11
35.8703
 21
101.181611
 31
0.0
  0
LINE
  5
A6D
330
1D
100
AcDbEntity
  8
0
100
AcDbLine
 10
36.1966
 20
98.652511
 30
0.0
 11
36.1598
 21
97.375911
 31
0.0
  0
LINE
  5
A6E
330
1D
100
AcDbEntity
  8
0
100
AcDbLine
 10
36.1966
 20
98.652511
 30
0.0
 11
36.0998
 21
99.925611
 31
0.0
  0
LINE
  5
A7C
330
1D
100
AcDbEntity
  8
0
100
AcDbLine
 10
33.4775
 20
97.114611
 30
0.0
 11
33.2661
 21
97.114611
 31
0.0
  0
LINE
  5
A7D
330
1D
100
AcDbEntity
  8
0
100
AcDbLine
 10
33.5131
 20
97.114611
 30
0.0
 11
33.0894
 21
97.114611
 31
0.0
  0
LINE
  5
A7E
330
1D
100
AcDbEntity
  8
0
100
AcDbLine
 10
33.0475
 20
97.114611
 30
0.0
 11
32.9885
 21
97.114611
 31
0.0
  0
LINE
  5
A7F
330
1D
100
AcDbEntity
  8
0
100
AcDbLine
 10
33.1653
 20
97.114611
 30
0.0
 11
32.9885
 21
97.114611
 31
0.0
  0
LINE
  5
A80
330
1D
100
AcDbEntity
  8
0
100
AcDbLine
 10
33.2247
 20
97.114611
 30
0.0
 11
33.1653
 21
97.114611
 31
0.0
  0
LINE
  5
A85
330
1D
100
AcDbEntity
  8
0
100
AcDbLine
 10
32.9
 20
98.364611
 30
0.0
 11
32.849
 21
99.315711
 31
0.0
  0
LINE
  5
A86
330
1D
100
AcDbEntity
  8
0
100
AcDbLine
 10
32.9
 20
98.364611
 30
0.0
 11
32.849
 21
97.413511
 31
0.0
  0
LINE
  5
A8C
330
1D
100
AcDbEntity
  8
0
100
AcDbLine
 10
35.0
 20
100.722611
 30
0.0
 11
35.0
 21
101.903611
 31
0.0
  0
LINE
  5
A8D
330
1D
100
AcDbEntity
  8
0
100
AcDbLine
 10
35.0
 20
101.903611
 30
0.0
 11
35.0
 21
100.722611
 31
0.0
  0
LINE
  5
A8E
330
1D
100
AcDbEntity
  8
0
100
AcDbLine
 10
33.5131
 20
99.614611
 30
0.0
 11
33.2661
 21
99.614611
 31
0.0
  0
LINE
  5
A91
330
1D
100
AcDbEntity
  8
0
100
AcDbLine
 10
33.4775
 20
99.614611
 30
0.0
 11
33.2661
 21
99.614611
 31
0.0
  0
LINE
  5
A92
330
1D
100
AcDbEntity
  8
0
100
AcDbLine
 10
33.0895
 20
99.614611
 30
0.0
 11
32.914
 21
100.537611
 31
0.0
  0
LINE
  5
A93
330
1D
100
AcDbEntity
  8
0
100
AcDbLine
 10
33.2247
 20
99.614611
 30
0.0
 11
33.1651
 21
99.614611
 31
0.0
  0
LINE
  5
A94
330
1D
100
AcDbEntity
  8
0
100
AcDbLine
 10
33.1651
 20
99.614611
 30
0.0
 11
32.9885
 21
99.614611
 31
0.0
  0
LINE
  5
A95
330
1D
100
AcDbEntity
  8
0
100
AcDbLine
 10
33.0475
 20
99.614611
 30
0.0
 11
32.9885
 21
99.614611
 31
0.0
  0
LINE
  5
A96
330
1D
100
AcDbEntity
  8
0
100
AcDbLine
 10
31.653482115709
 20
96.546807131277
 30
0.0
 11
30.5021
 21
96.855311
 31
0.0
  0
LINE
  5
A97
330
1D
100
AcDbEntity
  8
0
100
AcDbLine
 10
30.5021
 20
96.855311
 30
0.0
 11
30.284
 21
96.794011
 31
0.0
  0
LINE
  5
A98
330
1D
100
AcDbEntity
  8
0
100
AcDbLine
 10
29.897799620133
 20
96.551343607605
 30
0.0
 11
28.6577
 21
96.883611
 31
0.0
  0
LINE
  5
A99
330
1D
100
AcDbEntity
  8
0
100
AcDbLine
 10
28.6577
 20
96.883611
 30
0.0
 11
28.5155
 21
96.494311
 31
0.0
  0
LINE
  5
A9A
330
1D
100
AcDbEntity
  8
0
100
AcDbLine
 10
28.2083
 20
96.956911
 30
0.0
 11
27.9515
 21
96.345411
 31
0.0
  0
LINE
  5
A9B
330
1D
100
AcDbEntity
  8
0
100
AcDbLine
 10
31.7981
 20
97.266211
 30
0.0
 11
31.6176
 21
96.368311
 31
0.0
  0
LINE
  5
A9C
330
1D
100
AcDbEntity
  8
0
100
AcDbLine
 10
32.2743
 20
96.917011
 30
0.0
 11
32.0603
 21
95.999711
 31
0.0
  0
LINE
  5
A9D
330
1D
100
AcDbEntity
  8
0
100
AcDbLine
 10
30.1015
 20
97.414411
 30
0.0
 11
29.9252
 21
96.626211
 31
0.0
  0
LINE
  5
A9E
330
1D
100
AcDbEntity
  8
0
100
AcDbLine
 10
30.2359
 20
92.736811
 30
0.0
 11
29.5667
 21
92.073911
 31
0.0
  0
LINE
  5
A9F
330
1D
100
AcDbEntity
  8
0
100
AcDbLine
 10
30.927343844444
 20
94.624902617035
 30
0.0
 11
29.8899
 21
95.223911
 31
0.0
  0
LINE
  5
AA0
330
1D
100
AcDbEntity
  8
0
100
AcDbLine
 10
30.693164605184
 20
94.240502606327
 30
0.0
 11
29.6649
 21
94.834211
 31
0.0
  0
LINE
  5
AA1
330
1D
100
AcDbEntity
  8
0
100
AcDbLine
 10
30.4755
 20
93.883211
 30
0.0
 11
29.9114
 21
93.161711
 31
0.0
  0
LINE
  5
AA2
330
1D
100
AcDbEntity
  8
0
100
AcDbLine
 10
30.1668
 20
95.810111
 30
0.0
 11
29.8899
 21
95.223911
 31
0.0
  0
LINE
  5
AA3
330
1D
100
AcDbEntity
  8
0
100
AcDbLine
 10
32.2858
 20
94.424211
 30
0.0
 11
31.8395
 21
93.597811
 31
0.0
  0
LINE
  5
AA4
330
1D
100
AcDbEntity
  8
0
100
AcDbLine
 10
32.096
 20
94.668111
 30
0.0
 11
31.6545
 21
93.824011
 31
0.0
  0
LINE
  5
AA5
330
1D
100
AcDbEntity
  8
0
100
AcDbLine
 10
30.9519
 20
94.665211
 30
0.0
 11
30.4755
 21
93.883211
 31
0.0
  0
LINE
  5
AA6
330
1D
100
AcDbEntity
  8
0
100
AcDbLine
 10
31.7449
 20
95.112111
 30
0.0
 11
31.3319
 21
94.265411
 31
0.0
  0
LINE
  5
AA7
330
1D
100
AcDbEntity
  8
0
100
AcDbLine
 10
31.6107
 20
92.521711
 30
0.0
 11
31.436
 21
92.696411
 31
0.0
  0
LINE
  5
AA9
330
1D
100
AcDbEntity
  8
0
100
AcDbLine
 10
31.5855
 20
92.546911
 30
0.0
 11
31.436
 21
92.696411
 31
0.0
  0
LINE
  5
AAA
330
1D
100
AcDbEntity
  8
0
100
AcDbLine
 10
31.436
 20
92.696411
 30
0.0
 11
31.311140490422
 21
92.821270509579
 31
0.0
  0
LINE
  5
AAB
330
1D
100
AcDbEntity
  8
0
100
AcDbLine
 10
31.436
 20
92.696411
 30
0.0
 11
31.3111
 21
92.821311
 31
0.0
  0
LINE
  5
AAC
330
1D
100
AcDbEntity
  8
0
100
AcDbLine
 10
31.4067
 20
92.725611
 30
0.0
 11
31.2814
 21
92.851011
 31
0.0
  0
LINE
  5
AAD
330
1D
100
AcDbEntity
  8
0
100
AcDbLine
 10
31.4067
 20
92.725611
 30
0.0
 11
31.3646
 21
92.767711
 31
0.0
  0
LINE
  5
AAE
330
1D
100
AcDbEntity
  8
0
100
AcDbLine
 10
31.4067
 20
92.725611
 30
0.0
 11
31.364599999987
 21
92.767711000013
 31
0.0
  0
LINE
  5
AAF
330
1D
100
AcDbEntity
  8
0
100
AcDbLine
 10
31.4067
 20
92.725611
 30
0.0
 11
31.364599999987
 21
92.767711000013
 31
0.0
  0
LINE
  5
AB1
330
1D
100
AcDbEntity
  8
0
100
AcDbLine
 10
31.2814
 20
92.851011
 30
0.0
 11
31.2397
 21
92.892711
 31
0.0
  0
LINE
  5
AB2
330
1D
100
AcDbEntity
  8
0
100
AcDbLine
 10
31.3646
 20
92.767711
 30
0.0
 11
31.2397
 21
92.892711
 31
0.0
  0
LINE
  5
AB3
330
1D
100
AcDbEntity
  8
0
100
AcDbLine
 10
31.1255
 20
93.031811
 30
0.0
 11
30.5147
 21
92.300811
 31
0.0
  0
LINE
  5
AB5
330
1D
100
AcDbEntity
  8
0
100
AcDbLine
 10
31.8395
 20
93.597811
 30
0.0
 11
31.311140490422
 21
92.821270509578
 31
0.0
  0
LINE
  5
AB6
330
1D
100
AcDbEntity
  8
0
100
AcDbLine
 10
30.8268
 20
93.470211
 30
0.0
 11
30.2359
 21
92.736811
 31
0.0
  0
LINE
  5
AB7
330
1D
100
AcDbEntity
  8
0
100
AcDbLine
 10
31.6545
 20
93.824011
 30
0.0
 11
31.1255
 21
93.031811
 31
0.0
  0
LINE
  5
AB8
330
1D
100
AcDbEntity
  8
0
100
AcDbLine
 10
31.3319
 20
94.265411
 30
0.0
 11
30.8268
 21
93.470211
 31
0.0
  0
LINE
  5
AB9
330
1D
100
AcDbEntity
  8
0
100
AcDbLine
 10
32.6452
 20
95.291911
 30
0.0
 11
32.2858
 21
94.424211
 31
0.0
  0
LINE
  5
ABA
330
1D
100
AcDbEntity
  8
0
100
AcDbLine
 10
32.4447
 20
95.554611
 30
0.0
 11
32.096
 21
94.668111
 31
0.0
  0
LINE
  5
ABB
330
1D
100
AcDbEntity
  8
0
100
AcDbLine
 10
31.534527298926
 20
96.112754605208
 30
0.0
 11
30.3856
 21
96.420511
 31
0.0
  0
LINE
  5
ABC
330
1D
100
AcDbEntity
  8
0
100
AcDbLine
 10
31.6176
 20
96.368311
 30
0.0
 11
31.3345
 21
95.497411
 31
0.0
  0
LINE
  5
ABD
330
1D
100
AcDbEntity
  8
0
100
AcDbLine
 10
30.3856
 20
96.420511
 30
0.0
 11
30.1668
 21
95.810111
 31
0.0
  0
LINE
  5
ABE
330
1D
100
AcDbEntity
  8
0
100
AcDbLine
 10
30.3856
 20
96.420511
 30
0.0
 11
30.2274
 21
96.582811
 31
0.0
  0
LINE
  5
ABF
330
1D
100
AcDbEntity
  8
0
100
AcDbLine
 10
31.3345
 20
95.497411
 30
0.0
 11
30.9519
 21
94.665211
 31
0.0
  0
LINE
  5
AC0
330
1D
100
AcDbEntity
  8
0
100
AcDbLine
 10
32.0603
 20
95.999711
 30
0.0
 11
31.7449
 21
95.112111
 31
0.0
  0
LINE
  5
AC1
330
1D
100
AcDbEntity
  8
0
100
AcDbLine
 10
32.6966
 20
96.473111
 30
0.0
 11
32.4447
 21
95.554611
 31
0.0
  0
LINE
  5
AC2
330
1D
100
AcDbEntity
  8
0
100
AcDbLine
 10
28.513245675984
 20
94.169565324017
 30
0.0
 11
27.6114
 21
95.071411
 31
0.0
  0
LINE
  5
AC3
330
1D
100
AcDbEntity
  8
0
100
AcDbLine
 10
29.2956
 20
94.301111
 30
0.0
 11
28.8763
 21
93.806311
 31
0.0
  0
LINE
  5
AC4
330
1D
100
AcDbEntity
  8
0
100
AcDbLine
 10
28.8089
 20
94.491011
 30
0.0
 11
28.2621
 21
93.896511
 31
0.0
  0
LINE
  5
AC5
330
1D
100
AcDbEntity
  8
0
100
AcDbLine
 10
29.400864288472
 20
92.645546711528
 30
0.0
 11
28.5581
 21
93.488311
 31
0.0
  0
LINE
  5
AC6
330
1D
100
AcDbEntity
  8
0
100
AcDbLine
 10
29.2674
 20
92.510611
 30
0.0
 11
28.5523
 21
91.938711
 31
0.0
  0
LINE
  5
AC7
330
1D
100
AcDbEntity
  8
0
100
AcDbLine
 10
29.2674
 20
92.510611
 30
0.0
 11
28.5522
 21
91.938811
 31
0.0
  0
LINE
  5
AC8
330
1D
100
AcDbEntity
  8
0
100
AcDbLine
 10
29.717309625384
 20
92.965480809142
 30
0.0
 11
28.8763
 21
93.806311
 31
0.0
  0
LINE
  5
AC9
330
1D
100
AcDbEntity
  8
0
100
AcDbLine
 10
29.9114
 20
93.161711
 30
0.0
 11
29.2674
 21
92.510611
 31
0.0
  0
LINE
  5
ACA
330
1D
100
AcDbEntity
  8
0
100
AcDbLine
 10
28.5581
 20
93.488311
 30
0.0
 11
28.5022
 21
93.707811
 31
0.0
  0
LINE
  5
ACB
330
1D
100
AcDbEntity
  8
0
100
AcDbLine
 10
28.5581
 20
93.488311
 30
0.0
 11
28.0635
 21
93.068911
 31
0.0
  0
LINE
  5
ACC
330
1D
100
AcDbEntity
  8
0
100
AcDbLine
 10
28.8763
 20
93.806311
 30
0.0
 11
28.6568
 21
93.862411
 31
0.0
  0
LINE
  5
ACD
330
1D
100
AcDbEntity
  8
0
100
AcDbLine
 10
28.2621
 20
93.896511
 30
0.0
 11
27.6425
 21
93.378411
 31
0.0
  0
LINE
  5
ACE
330
1D
100
AcDbEntity
  8
0
100
AcDbLine
 10
29.227611179741
 20
95.086671597574
 30
0.0
 11
28.1157
 21
95.728611
 31
0.0
  0
LINE
  5
ACF
330
1D
100
AcDbEntity
  8
0
100
AcDbLine
 10
29.2734
 20
95.151811
 30
0.0
 11
28.8089
 21
94.491011
 31
0.0
  0
LINE
  5
AD0
330
1D
100
AcDbEntity
  8
0
100
AcDbLine
 10
29.445264428307
 20
95.480613095737
 30
0.0
 11
28.3407
 21
96.118311
 31
0.0
  0
LINE
  5
AD1
330
1D
100
AcDbEntity
  8
0
100
AcDbLine
 10
29.6649
 20
94.834211
 30
0.0
 11
29.2956
 21
94.301111
 31
0.0
  0
LINE
  5
AD2
330
1D
100
AcDbEntity
  8
0
100
AcDbLine
 10
29.6649
 20
94.834211
 30
0.0
 11
29.554
 21
95.031711
 31
0.0
  0
LINE
  5
AD3
330
1D
100
AcDbEntity
  8
0
100
AcDbLine
 10
29.6476
 20
95.867711
 30
0.0
 11
29.2734
 21
95.151811
 31
0.0
  0
LINE
  5
AD4
330
1D
100
AcDbEntity
  8
0
100
AcDbLine
 10
29.8899
 20
95.223911
 30
0.0
 11
29.6634
 21
95.221111
 31
0.0
  0
LINE
  5
AD5
330
1D
100
AcDbEntity
  8
0
100
AcDbLine
 10
29.9252
 20
96.626211
 30
0.0
 11
29.6476
 21
95.867711
 31
0.0
  0
LINE
  5
AD6
330
1D
100
AcDbEntity
  8
0
100
AcDbLine
 10
28.1157
 20
95.728611
 30
0.0
 11
27.8776
 21
95.389311
 31
0.0
  0
LINE
  5
AD7
330
1D
100
AcDbEntity
  8
0
100
AcDbLine
 10
28.1157
 20
95.728611
 30
0.0
 11
28.0341
 21
95.909211
 31
0.0
  0
LINE
  5
AD8
330
1D
100
AcDbEntity
  8
0
100
AcDbLine
 10
27.8776
 20
95.389311
 30
0.0
 11
27.6114
 21
95.071411
 31
0.0
  0
LINE
  5
AD9
330
1D
100
AcDbEntity
  8
0
100
AcDbLine
 10
28.5155
 20
96.494311
 30
0.0
 11
28.3407
 21
96.118311
 31
0.0
  0
LINE
  5
ADA
330
1D
100
AcDbEntity
  8
0
100
AcDbLine
 10
28.3407
 20
96.118311
 30
0.0
 11
28.1434
 21
96.098611
 31
0.0
  0
LINE
  5
ADB
330
1D
100
AcDbEntity
  8
0
100
AcDbLine
 10
27.9515
 20
96.345411
 30
0.0
 11
27.6064
 21
95.779011
 31
0.0
  0
LINE
  5
ADC
330
1D
100
AcDbEntity
  8
0
100
AcDbLine
 10
30.166132525205
 20
98.139611369973
 30
0.0
 11
28.8823
 21
98.139711
 31
0.0
  0
LINE
  5
ADD
330
1D
100
AcDbEntity
  8
0
100
AcDbLine
 10
30.1732
 20
98.218911
 30
0.0
 11
30.1395
 21
99.026011
 31
0.0
  0
LINE
  5
ADE
330
1D
100
AcDbEntity
  8
0
100
AcDbLine
 10
30.1732
 20
98.218911
 30
0.0
 11
30.1015
 21
97.414411
 31
0.0
  0
LINE
  5
ADF
330
1D
100
AcDbEntity
  8
0
100
AcDbLine
 10
30.1668
 20
100.918611
 30
0.0
 11
29.89
 21
101.505611
 31
0.0
  0
LINE
  5
AE0
330
1D
100
AcDbEntity
  8
0
100
AcDbLine
 10
32.389
 20
98.794611
 30
0.0
 11
32.288
 21
99.731111
 31
0.0
  0
LINE
  5
AE1
330
1D
100
AcDbEntity
  8
0
100
AcDbLine
 10
31.8411
 20
99.094111
 30
0.0
 11
31.7034
 21
99.999611
 31
0.0
  0
LINE
  5
AE2
330
1D
100
AcDbEntity
  8
0
100
AcDbLine
 10
30.6179
 20
99.235911
 30
0.0
 11
30.5021
 21
99.873611
 31
0.0
  0
LINE
  5
AE3
330
1D
100
AcDbEntity
  8
0
100
AcDbLine
 10
30.6179
 20
97.493311
 30
0.0
 11
30.5021
 21
96.855311
 31
0.0
  0
LINE
  5
AE4
330
1D
100
AcDbEntity
  8
0
100
AcDbLine
 10
31.86959128958
 20
98.139611
 30
0.0
 11
30.6712
 21
98.139611
 31
0.0
  0
LINE
  5
AE5
330
1D
100
AcDbEntity
  8
0
100
AcDbLine
 10
30.6712
 20
98.139611
 30
0.0
 11
30.6179
 21
97.493311
 31
0.0
  0
LINE
  5
AE6
330
1D
100
AcDbEntity
  8
0
100
AcDbLine
 10
30.6712
 20
98.139611
 30
0.0
 11
30.4763
 21
98.255211
 31
0.0
  0
LINE
  5
AE7
330
1D
100
AcDbEntity
  8
0
100
AcDbLine
 10
31.8728
 20
98.178711
 30
0.0
 11
31.7979
 21
97.266011
 31
0.0
  0
LINE
  5
AE8
330
1D
100
AcDbEntity
  8
0
100
AcDbLine
 10
31.8728
 20
98.178711
 30
0.0
 11
31.8411
 21
99.094111
 31
0.0
  0
LINE
  5
AE9
330
1D
100
AcDbEntity
  8
0
100
AcDbLine
 10
31.8728
 20
98.178711
 30
0.0
 11
31.8411
 21
99.094111
 31
0.0
  0
LINE
  5
AEA
330
1D
100
AcDbEntity
  8
0
100
AcDbLine
 10
31.8729
 20
98.178911
 30
0.0
 11
31.7981
 21
97.266211
 31
0.0
  0
LINE
  5
AEB
330
1D
100
AcDbEntity
  8
0
100
AcDbLine
 10
31.8729
 20
98.178911
 30
0.0
 11
31.8411
 21
99.094111
 31
0.0
  0
LINE
  5
AEC
330
1D
100
AcDbEntity
  8
0
100
AcDbLine
 10
32.3845
 20
97.852611
 30
0.0
 11
32.2743
 21
96.917011
 31
0.0
  0
LINE
  5
AED
330
1D
100
AcDbEntity
  8
0
100
AcDbLine
 10
32.389
 20
98.794611
 30
0.0
 11
32.3845
 21
97.852611
 31
0.0
  0
LINE
  5
AEE
330
1D
100
AcDbEntity
  8
0
100
AcDbLine
 10
31.85857066856
 20
98.589611
 30
0.0
 11
30.6712
 21
98.589611
 31
0.0
  0
LINE
  5
AEF
330
1D
100
AcDbEntity
  8
0
100
AcDbLine
 10
30.6712
 20
98.589611
 30
0.0
 11
30.4764
 21
98.473911
 31
0.0
  0
LINE
  5
AF0
330
1D
100
AcDbEntity
  8
0
100
AcDbLine
 10
30.6712
 20
98.589611
 30
0.0
 11
30.6179
 21
99.235911
 31
0.0
  0
LINE
  5
AF1
330
1D
100
AcDbEntity
  8
0
100
AcDbLine
 10
32.288
 20
99.731111
 30
0.0
 11
32.083
 21
100.650611
 31
0.0
  0
LINE
  5
AF2
330
1D
100
AcDbEntity
  8
0
100
AcDbLine
 10
32.6967
 20
100.255611
 30
0.0
 11
32.4447
 21
101.174611
 31
0.0
  0
LINE
  5
AF3
330
1D
100
AcDbEntity
  8
0
100
AcDbLine
 10
32.083
 20
100.650611
 30
0.0
 11
31.7763
 21
101.541611
 31
0.0
  0
LINE
  5
AF4
330
1D
100
AcDbEntity
  8
0
100
AcDbLine
 10
31.534444183124
 20
100.616345131052
 30
0.0
 11
30.3856
 21
100.308611
 31
0.0
  0
LINE
  5
AF5
330
1D
100
AcDbEntity
  8
0
100
AcDbLine
 10
31.653431004318
 20
100.182011261211
 30
0.0
 11
30.5021
 21
99.873611
 31
0.0
  0
LINE
  5
AF6
330
1D
100
AcDbEntity
  8
0
100
AcDbLine
 10
31.7034
 20
99.999611
 30
0.0
 11
31.4615
 21
100.882611
 31
0.0
  0
LINE
  5
AF7
330
1D
100
AcDbEntity
  8
0
100
AcDbLine
 10
31.4615
 20
100.882611
 30
0.0
 11
31.1188
 21
101.731611
 31
0.0
  0
LINE
  5
AF8
330
1D
100
AcDbEntity
  8
0
100
AcDbLine
 10
31.29015
 20
101.307111
 30
0.0
 11
31.1187
 21
101.731611
 31
0.0
  0
LINE
  5
AF9
330
1D
100
AcDbEntity
  8
0
100
AcDbLine
 10
31.29015
 20
101.307111
 30
0.0
 11
31.1187
 21
101.731611
 31
0.0
  0
LINE
  5
AFA
330
1D
100
AcDbEntity
  8
0
100
AcDbLine
 10
30.5021
 20
99.873611
 30
0.0
 11
30.284
 21
99.935611
 31
0.0
  0
LINE
  5
AFB
330
1D
100
AcDbEntity
  8
0
100
AcDbLine
 10
30.3856
 20
100.308611
 30
0.0
 11
30.2274
 21
100.146611
 31
0.0
  0
LINE
  5
AFC
330
1D
100
AcDbEntity
  8
0
100
AcDbLine
 10
30.3856
 20
100.308611
 30
0.0
 11
30.1668
 21
100.918611
 31
0.0
  0
LINE
  5
AFD
330
1D
100
AcDbEntity
  8
0
100
AcDbLine
 10
30.1395
 20
99.026011
 30
0.0
 11
30.0007
 21
99.821611
 31
0.0
  0
LINE
  5
AFE
330
1D
100
AcDbEntity
  8
0
100
AcDbLine
 10
28.8457
 20
99.002611
 30
0.0
 11
28.7742
 21
99.411011
 31
0.0
  0
LINE
  5
AFF
330
1D
100
AcDbEntity
  8
0
100
AcDbLine
 10
28.4023
 20
98.922311
 30
0.0
 11
28.27
 21
99.572211
 31
0.0
  0
LINE
  5
B00
330
1D
100
AcDbEntity
  8
0
100
AcDbLine
 10
28.6577
 20
96.883611
 30
0.0
 11
28.5321
 21
97.037011
 31
0.0
  0
LINE
  5
B01
330
1D
100
AcDbEntity
  8
0
100
AcDbLine
 10
30.006172339621
 20
96.988221199033
 30
0.0
 11
28.7742
 21
97.318311
 31
0.0
  0
LINE
  5
B02
330
1D
100
AcDbEntity
  8
0
100
AcDbLine
 10
28.7742
 20
97.318311
 30
0.0
 11
28.5887
 21
97.248311
 31
0.0
  0
LINE
  5
B03
330
1D
100
AcDbEntity
  8
0
100
AcDbLine
 10
28.3711
 20
97.599911
 30
0.0
 11
28.2083
 21
96.956911
 31
0.0
  0
LINE
  5
B04
330
1D
100
AcDbEntity
  8
0
100
AcDbLine
 10
28.8457
 20
97.726611
 30
0.0
 11
28.7742
 21
97.318311
 31
0.0
  0
LINE
  5
B05
330
1D
100
AcDbEntity
  8
0
100
AcDbLine
 10
28.8823
 20
98.139711
 30
0.0
 11
28.8457
 21
97.726611
 31
0.0
  0
LINE
  5
B06
330
1D
100
AcDbEntity
  8
0
100
AcDbLine
 10
28.8823
 20
98.139711
 30
0.0
 11
28.7213
 21
98.255211
 31
0.0
  0
LINE
  5
B07
330
1D
100
AcDbEntity
  8
0
100
AcDbLine
 10
28.4363
 20
98.259911
 30
0.0
 11
28.4023
 21
98.922311
 31
0.0
  0
LINE
  5
B08
330
1D
100
AcDbEntity
  8
0
100
AcDbLine
 10
28.4363
 20
98.259911
 30
0.0
 11
28.3711
 21
97.599911
 31
0.0
  0
LINE
  5
B09
330
1D
100
AcDbEntity
  8
0
100
AcDbLine
 10
30.157721633007
 20
98.589611
 30
0.0
 11
28.8823
 21
98.589611
 31
0.0
  0
LINE
  5
B0A
330
1D
100
AcDbEntity
  8
0
100
AcDbLine
 10
28.8823
 20
98.589611
 30
0.0
 11
28.7213
 21
98.474011
 31
0.0
  0
LINE
  5
B0B
330
1D
100
AcDbEntity
  8
0
100
AcDbLine
 10
28.8823
 20
98.589611
 30
0.0
 11
28.8457
 21
99.002611
 31
0.0
  0
LINE
  5
B0C
330
1D
100
AcDbEntity
  8
0
100
AcDbLine
 10
30.01437951757
 20
99.743200162977
 30
0.0
 11
28.7742
 21
99.411011
 31
0.0
  0
LINE
  5
B0D
330
1D
100
AcDbEntity
  8
0
100
AcDbLine
 10
29.889880318858
 20
100.175261555298
 30
0.0
 11
28.6577
 21
99.845611
 31
0.0
  0
LINE
  5
B0E
330
1D
100
AcDbEntity
  8
0
100
AcDbLine
 10
29.452653977141
 20
101.25327257281
 30
0.0
 11
28.3407
 21
100.610611
 31
0.0
  0
LINE
  5
B0F
330
1D
100
AcDbEntity
  8
0
100
AcDbLine
 10
29.220692349557
 20
101.638258914977
 30
0.0
 11
28.1157
 21
101.000611
 31
0.0
  0
LINE
  5
B10
330
1D
100
AcDbEntity
  8
0
100
AcDbLine
 10
30.0007
 20
99.821611
 30
0.0
 11
29.7591
 21
100.592611
 31
0.0
  0
LINE
  5
B11
330
1D
100
AcDbEntity
  8
0
100
AcDbLine
 10
29.89
 20
101.505611
 30
0.0
 11
29.6634
 21
101.507611
 31
0.0
  0
LINE
  5
B12
330
1D
100
AcDbEntity
  8
0
100
AcDbLine
 10
29.7591
 20
100.592611
 30
0.0
 11
29.4191
 21
101.325611
 31
0.0
  0
LINE
  5
B13
330
1D
100
AcDbEntity
  8
0
100
AcDbLine
 10
29.6649
 20
101.894611
 30
0.0
 11
29.554
 21
101.697611
 31
0.0
  0
LINE
  5
B14
330
1D
100
AcDbEntity
  8
0
100
AcDbLine
 10
28.7742
 20
99.411011
 30
0.0
 11
28.5887
 21
99.480911
 31
0.0
  0
LINE
  5
B15
330
1D
100
AcDbEntity
  8
0
100
AcDbLine
 10
28.6577
 20
99.845611
 30
0.0
 11
28.5321
 21
99.692211
 31
0.0
  0
LINE
  5
B16
330
1D
100
AcDbEntity
  8
0
100
AcDbLine
 10
28.6577
 20
99.845611
 30
0.0
 11
28.5155
 21
100.234611
 31
0.0
  0
LINE
  5
B17
330
1D
100
AcDbEntity
  8
0
100
AcDbLine
 10
28.5155
 20
100.234611
 30
0.0
 11
28.3407
 21
100.610611
 31
0.0
  0
LINE
  5
B18
330
1D
100
AcDbEntity
  8
0
100
AcDbLine
 10
28.27
 20
99.572211
 30
0.0
 11
28.0423
 21
100.194611
 31
0.0
  0
LINE
  5
B19
330
1D
100
AcDbEntity
  8
0
100
AcDbLine
 10
28.3407
 20
100.610611
 30
0.0
 11
28.1434
 21
100.630611
 31
0.0
  0
LINE
  5
B1A
330
1D
100
AcDbEntity
  8
0
100
AcDbLine
 10
28.1157
 20
101.000611
 30
0.0
 11
28.0341
 21
100.819611
 31
0.0
  0
LINE
  5
B1B
330
1D
100
AcDbEntity
  8
0
100
AcDbLine
 10
28.1157
 20
101.000611
 30
0.0
 11
27.8776
 21
101.339611
 31
0.0
  0
LINE
  5
B1C
330
1D
100
AcDbEntity
  8
0
100
AcDbLine
 10
28.0423
 20
100.194611
 30
0.0
 11
27.7244
 21
100.777611
 31
0.0
  0
LINE
  5
B1D
330
1D
100
AcDbEntity
  8
0
100
AcDbLine
 10
27.8776
 20
101.339611
 30
0.0
 11
27.6114
 21
101.657611
 31
0.0
  0
LINE
  5
B1E
330
1D
100
AcDbEntity
  8
0
100
AcDbLine
 10
38.904585586363
 20
114.549401139174
 30
0.0
 11
37.6246
 21
114.735611
 31
0.0
  0
LINE
  5
B1F
330
1D
100
AcDbEntity
  8
0
100
AcDbLine
 10
38.3551
 20
116.360611
 30
0.0
 11
36.4896
 21
116.360611
 31
0.0
  0
LINE
  5
B20
330
1D
100
AcDbEntity
  8
0
100
AcDbLine
 10
46.3702
 20
111.789611
 30
0.0
 11
46.3165
 21
112.444611
 31
0.0
  0
LINE
  5
B21
330
1D
100
AcDbEntity
  8
0
100
AcDbLine
 10
46.3699
 20
104.477611
 30
0.0
 11
46.3674
 21
106.884611
 31
0.0
  0
LINE
  5
B22
330
1D
100
AcDbEntity
  8
0
100
AcDbLine
 10
46.3702
 20
111.789611
 30
0.0
 11
46.3674
 21
106.884611
 31
0.0
  0
LINE
  5
B23
330
1D
100
AcDbEntity
  8
0
100
AcDbLine
 10
43.6135
 20
116.360611
 30
0.0
 11
42.655
 21
116.360611
 31
0.0
  0
LINE
  5
B24
330
1D
100
AcDbEntity
  8
0
100
AcDbLine
 10
44.350737859779
 20
113.85307500783
 30
0.0
 11
38.904585586363
 21
114.549401139174
 31
0.0
  0
LINE
  5
B25
330
1D
100
AcDbEntity
  8
0
100
AcDbLine
 10
46.1613
 20
117.745611
 30
0.0
 11
46.0082
 21
116.862611
 31
0.0
  0
LINE
  5
B26
330
1D
100
AcDbEntity
  8
0
100
AcDbLine
 10
45.8856
 20
113.306611
 30
0.0
 11
45.4023
 21
113.649611
 31
0.0
  0
LINE
  5
B27
330
1D
100
AcDbEntity
  8
0
100
AcDbLine
 10
45.5102
 20
116.360611
 30
0.0
 11
45.4256
 21
116.360611
 31
0.0
  0
LINE
  5
B28
330
1D
100
AcDbEntity
  8
0
100
AcDbLine
 10
46.3165
 20
112.444611
 30
0.0
 11
46.2991
 21
112.528611
 31
0.0
  0
LINE
  5
B29
330
1D
100
AcDbEntity
  8
0
100
AcDbLine
 10
46.2082
 20
112.808611
 30
0.0
 11
46.1495
 21
112.934611
 31
0.0
  0
LINE
  5
B2A
330
1D
100
AcDbEntity
  8
0
100
AcDbLine
 10
46.2991
 20
112.528611
 30
0.0
 11
46.2082
 21
112.808611
 31
0.0
  0
LINE
  5
B2B
330
1D
100
AcDbEntity
  8
0
100
AcDbLine
 10
46.1495
 20
112.934611
 30
0.0
 11
45.89
 21
113.299611
 31
0.0
  0
LINE
  5
B2C
330
1D
100
AcDbEntity
  8
0
100
AcDbLine
 10
45.9709
 20
116.670611
 30
0.0
 11
45.9479
 21
116.625611
 31
0.0
  0
LINE
  5
B2D
330
1D
100
AcDbEntity
  8
0
100
AcDbLine
 10
45.9479
 20
116.625611
 30
0.0
 11
45.8632
 21
116.507611
 31
0.0
  0
LINE
  5
B2E
330
1D
100
AcDbEntity
  8
0
100
AcDbLine
 10
46.0082
 20
116.862611
 30
0.0
 11
45.9709
 21
116.670611
 31
0.0
  0
LINE
  5
B2F
330
1D
100
AcDbEntity
  8
0
100
AcDbLine
 10
45.8632
 20
116.507611
 30
0.0
 11
45.7013
 21
116.398611
 31
0.0
  0
LINE
  5
B30
330
1D
100
AcDbEntity
  8
0
100
AcDbLine
 10
45.7013
 20
116.398611
 30
0.0
 11
45.5102
 21
116.360611
 31
0.0
  0
LINE
  5
B31
330
1D
100
AcDbEntity
  8
0
100
AcDbLine
 10
44.3156
 20
114.653611
 30
0.0
 11
44.088607359551
 21
116.360611
 31
0.0
  0
LINE
  5
B32
330
1D
100
AcDbEntity
  8
0
100
AcDbLine
 10
45.0011
 20
113.776611
 30
0.0
 11
44.737403175032
 21
113.807369131383
 31
0.0
  0
LINE
  5
B33
330
1D
100
AcDbEntity
  8
0
100
AcDbLine
 10
45.0011
 20
113.776611
 30
0.0
 11
44.737403175032
 21
113.807369131383
 31
0.0
  0
LINE
  5
B34
330
1D
100
AcDbEntity
  8
0
100
AcDbLine
 10
45.0523
 20
113.767611
 30
0.0
 11
45.0011
 21
113.776611
 31
0.0
  0
LINE
  5
B35
330
1D
100
AcDbEntity
  8
0
100
AcDbLine
 10
44.351170243127
 20
113.843224139424
 30
0.0
 11
44.3156
 21
114.653611
 31
0.0
  0
LINE
  5
B36
330
1D
100
AcDbEntity
  8
0
100
AcDbLine
 10
44.737403175032
 20
113.807369131383
 30
0.0
 11
44.350908275105
 21
113.849192483319
 31
0.0
  0
LINE
  5
B37
330
1D
100
AcDbEntity
  8
0
100
AcDbLine
 10
45.4023
 20
113.649611
 30
0.0
 11
45.0523
 21
113.767611
 31
0.0
  0
LINE
  5
B38
330
1D
100
AcDbEntity
  8
0
100
AcDbLine
 10
45.4256
 20
116.360611
 30
0.0
 11
45.0118
 21
116.360611
 31
0.0
  0
LINE
  5
B39
330
1D
100
AcDbEntity
  8
0
100
AcDbLine
 10
45.0118
 20
116.360611
 30
0.0
 11
44.3529
 21
116.360611
 31
0.0
  0
LINE
  5
B3A
330
1D
100
AcDbEntity
  8
0
100
AcDbLine
 10
44.3529
 20
116.360611
 30
0.0
 11
43.6135
 21
116.360611
 31
0.0
  0
LINE
  5
B3B
330
1D
100
AcDbEntity
  8
0
100
AcDbLine
 10
46.3209
 20
120.458611
 30
0.0
 11
46.3053
 21
119.564611
 31
0.0
  0
LINE
  5
B3C
330
1D
100
AcDbEntity
  8
0
100
AcDbLine
 10
46.3053
 20
119.564611
 30
0.0
 11
46.2263
 21
118.335611
 31
0.0
  0
LINE
  5
B3D
330
1D
100
AcDbEntity
  8
0
100
AcDbLine
 10
46.2263
 20
118.335611
 30
0.0
 11
46.1613
 21
117.745611
 31
0.0
  0
LINE
  5
B3E
330
1D
100
AcDbEntity
  8
0
100
AcDbLine
 10
42.655
 20
116.360611
 30
0.0
 11
41.4632
 21
116.360611
 31
0.0
  0
LINE
  5
B3F
330
1D
100
AcDbEntity
  8
0
100
AcDbLine
 10
41.4632
 20
116.360611
 30
0.0
 11
40.0215
 21
116.360611
 31
0.0
  0
LINE
  5
B40
330
1D
100
AcDbEntity
  8
0
100
AcDbLine
 10
40.0215
 20
116.360611
 30
0.0
 11
38.3551
 21
116.360611
 31
0.0
  0
LINE
  5
B48
330
1D
100
AcDbEntity
  8
0
100
AcDbLine
 10
32.8713
 20
106.739611
 30
0.0
 11
31.9473
 21
107.620611
 31
0.0
  0
LINE
  5
B4F
330
1D
100
AcDbEntity
  8
0
100
AcDbLine
 10
35.5106
 20
102.407611
 30
0.0
 11
35.025
 21
103.588611
 31
0.0
  0
LINE
  5
B55
330
1D
100
AcDbEntity
  8
0
100
AcDbLine
 10
35.025
 20
103.588611
 30
0.0
 11
34.4185
 21
104.712611
 31
0.0
  0
LINE
  5
B69
330
1D
100
AcDbEntity
  8
0
100
AcDbLine
 10
34.4185
 20
104.712611
 30
0.0
 11
33.698
 21
105.766611
 31
0.0
  0
LINE
  5
B6C
330
1D
100
AcDbEntity
  8
0
100
AcDbLine
 10
33.698
 20
105.766611
 30
0.0
 11
32.8713
 21
106.739611
 31
0.0
  0
LINE
  5
B77
330
1D
100
AcDbEntity
  8
0
100
AcDbLine
 10
30.6798
 20
102.535611
 30
0.0
 11
30.1502
 21
103.282611
 31
0.0
  0
LINE
  5
B7B
330
1D
100
AcDbEntity
  8
0
100
AcDbLine
 10
30.5147
 20
104.428611
 30
0.0
 11
29.8294
 21
105.089611
 31
0.0
  0
LINE
  5
B7C
330
1D
100
AcDbEntity
  8
0
100
AcDbLine
 10
30.2907
 20
103.931611
 30
0.0
 11
29.6279
 21
104.600611
 31
0.0
  0
LINE
  5
B81
330
1D
100
AcDbEntity
  8
0
100
AcDbLine
 10
32.2858
 20
102.304611
 30
0.0
 11
31.8395
 21
103.131611
 31
0.0
  0
LINE
  5
B82
330
1D
100
AcDbEntity
  8
0
100
AcDbLine
 10
32.0959
 20
102.061611
 30
0.0
 11
31.6546
 21
102.905611
 31
0.0
  0
LINE
  5
B83
330
1D
100
AcDbEntity
  8
0
100
AcDbLine
 10
31.8395
 20
103.131611
 30
0.0
 11
31.3111
 21
103.907611
 31
0.0
  0
LINE
  5
B84
330
1D
100
AcDbEntity
  8
0
100
AcDbLine
 10
31.6546
 20
102.905611
 30
0.0
 11
31.1255
 21
103.697611
 31
0.0
  0
LINE
  5
B85
330
1D
100
AcDbEntity
  8
0
100
AcDbLine
 10
31.3716
 20
102.391611
 30
0.0
 11
30.8744
 21
103.191611
 31
0.0
  0
LINE
  5
B86
330
1D
100
AcDbEntity
  8
0
100
AcDbLine
 10
31.2815
 20
103.878611
 30
0.0
 11
31.2397
 21
103.836611
 31
0.0
  0
LINE
  5
B87
330
1D
100
AcDbEntity
  8
0
100
AcDbLine
 10
31.1255
 20
103.697611
 30
0.0
 11
30.5147
 21
104.428611
 31
0.0
  0
LINE
  5
B88
330
1D
100
AcDbEntity
  8
0
100
AcDbLine
 10
30.6797
 20
102.535611
 30
0.0
 11
30.415000000004
 21
102.909110999995
 31
0.0
  0
LINE
  5
B89
330
1D
100
AcDbEntity
  8
0
100
AcDbLine
 10
30.6797
 20
102.535611
 30
0.0
 11
30.415000000003
 21
102.909110999995
 31
0.0
  0
LINE
  5
B8A
330
1D
100
AcDbEntity
  8
0
100
AcDbLine
 10
30.8744
 20
103.191611
 30
0.0
 11
30.2907
 21
103.931611
 31
0.0
  0
LINE
  5
B8B
330
1D
100
AcDbEntity
  8
0
100
AcDbLine
 10
31.6107
 20
104.207611
 30
0.0
 11
31.435850224418
 21
104.032790216256
 31
0.0
  0
LINE
  5
B8C
330
1D
100
AcDbEntity
  8
0
100
AcDbLine
 10
31.4067
 20
104.003611
 30
0.0
 11
31.3646
 21
103.961611
 31
0.0
  0
LINE
  5
B8D
330
1D
100
AcDbEntity
  8
0
100
AcDbLine
 10
31.4067
 20
104.003611
 30
0.0
 11
31.350944266668
 21
103.947944333335
 31
0.0
  0
LINE
  5
B8E
330
1D
100
AcDbEntity
  8
0
100
AcDbLine
 10
31.4067
 20
104.003611
 30
0.0
 11
31.350944266668
 21
103.947944333335
 31
0.0
  0
LINE
  5
B8F
330
1D
100
AcDbEntity
  8
0
100
AcDbLine
 10
31.5855
 20
104.182611
 30
0.0
 11
31.435784166154
 21
104.032869259278
 31
0.0
  0
LINE
  5
B90
330
1D
100
AcDbEntity
  8
0
100
AcDbLine
 10
31.5855
 20
104.182611
 30
0.0
 11
31.436
 21
104.032611
 31
0.0
  0
LINE
  5
B91
330
1D
100
AcDbEntity
  8
0
100
AcDbLine
 10
31.3646
 20
103.961611
 30
0.0
 11
31.2397
 21
103.836611
 31
0.0
  0
LINE
  5
B9C
330
1D
100
AcDbEntity
  8
0
100
AcDbLine
 10
29.5377
 20
103.963611
 30
0.0
 11
28.8503
 21
104.568611
 31
0.0
  0
LINE
  5
B9D
330
1D
100
AcDbEntity
  8
0
100
AcDbLine
 10
29.5378
 20
103.963611
 30
0.0
 11
28.8503
 21
104.568611
 31
0.0
  0
LINE
  5
B9E
330
1D
100
AcDbEntity
  8
0
100
AcDbLine
 10
29.843999999992
 20
103.623111000009
 30
0.0
 11
29.5377
 21
103.963611
 31
0.0
  0
LINE
  5
B9F
330
1D
100
AcDbEntity
  8
0
100
AcDbLine
 10
29.843999999992
 20
103.623111000009
 30
0.0
 11
29.5377
 21
103.963611
 31
0.0
  0
LINE
  5
BA0
330
1D
100
AcDbEntity
  8
0
100
AcDbLine
 10
30.1502
 20
103.282611
 30
0.0
 11
29.5378
 21
103.963611
 31
0.0
  0
LINE
  5
BA1
330
1D
100
AcDbEntity
  8
0
100
AcDbLine
 10
29.717214179656
 20
103.764053121538
 30
0.0
 11
28.8764
 21
102.922611
 31
0.0
  0
LINE
  5
BA2
330
1D
100
AcDbEntity
  8
0
100
AcDbLine
 10
28.9863
 20
102.007611
 30
0.0
 11
28.4681
 21
102.626611
 31
0.0
  0
LINE
  5
BA3
330
1D
100
AcDbEntity
  8
0
100
AcDbLine
 10
29.2956
 20
102.427611
 30
0.0
 11
28.8764
 21
102.922611
 31
0.0
  0
LINE
  5
BA4
330
1D
100
AcDbEntity
  8
0
100
AcDbLine
 10
29.400932998968
 20
104.083983469631
 30
0.0
 11
28.5581
 21
103.240611
 31
0.0
  0
LINE
  5
BA5
330
1D
100
AcDbEntity
  8
0
100
AcDbLine
 10
28.8764
 20
102.922611
 30
0.0
 11
28.6568
 21
102.866611
 31
0.0
  0
LINE
  5
BA6
330
1D
100
AcDbEntity
  8
0
100
AcDbLine
 10
28.4681
 20
102.626611
 30
0.0
 11
27.8737
 21
103.173611
 31
0.0
  0
LINE
  5
BA7
330
1D
100
AcDbEntity
  8
0
100
AcDbLine
 10
28.5581
 20
103.240611
 30
0.0
 11
28.5022
 21
103.021611
 31
0.0
  0
LINE
  5
BA8
330
1D
100
AcDbEntity
  8
0
100
AcDbLine
 10
28.5581
 20
103.240611
 30
0.0
 11
28.0635
 21
103.660611
 31
0.0
  0
LINE
  5
BA9
330
1D
100
AcDbEntity
  8
0
100
AcDbLine
 10
29.8429
 20
105.975611
 30
0.0
 11
29.54307301767
 21
105.675833731976
 31
0.0
  0
LINE
  5
BAA
330
1D
100
AcDbEntity
  8
0
100
AcDbLine
 10
29.8177
 20
105.949611
 30
0.0
 11
29.6682
 21
105.800611
 31
0.0
  0
LINE
  5
BAB
330
1D
100
AcDbEntity
  8
0
100
AcDbLine
 10
29.8294
 20
105.089611
 30
0.0
 11
29.077
 21
105.674611
 31
0.0
  0
LINE
  5
BAC
330
1D
100
AcDbEntity
  8
0
100
AcDbLine
 10
29.543102588848
 20
105.675813588848
 30
0.0
 11
28.7668
 21
106.204611
 31
0.0
  0
LINE
  5
BAD
330
1D
100
AcDbEntity
  8
0
100
AcDbLine
 10
29.6279
 20
104.600611
 30
0.0
 11
28.8944
 21
105.191611
 31
0.0
  0
LINE
  5
BAE
330
1D
100
AcDbEntity
  8
0
100
AcDbLine
 10
29.639
 20
105.771611
 30
0.0
 11
29.5969
 21
105.729611
 31
0.0
  0
LINE
  5
BAF
330
1D
100
AcDbEntity
  8
0
100
AcDbLine
 10
29.5969
 20
105.729611
 30
0.0
 11
29.4719
 21
105.604611
 31
0.0
  0
LINE
  5
BB0
330
1D
100
AcDbEntity
  8
0
100
AcDbLine
 10
28.8503
 20
104.568611
 30
0.0
 11
28.0973
 21
105.089611
 31
0.0
  0
LINE
  5
BB1
330
1D
100
AcDbEntity
  8
0
100
AcDbLine
 10
29.077
 20
105.674611
 30
0.0
 11
28.2669
 21
106.175611
 31
0.0
  0
LINE
  5
BB2
330
1D
100
AcDbEntity
  8
0
100
AcDbLine
 10
28.8944
 20
105.191611
 30
0.0
 11
28.0992
 21
105.696611
 31
0.0
  0
LINE
  5
BB3
330
1D
100
AcDbEntity
  8
0
100
AcDbLine
 10
29.5136
 20
105.645611
 30
0.0
 11
29.4719
 21
105.604611
 31
0.0
  0
LINE
  5
BB4
330
1D
100
AcDbEntity
  8
0
100
AcDbLine
 10
28.7668
 20
106.204611
 30
0.0
 11
27.9404
 21
106.650611
 31
0.0
  0
LINE
  5
BB6
330
1D
100
AcDbEntity
  8
0
100
AcDbLine
 10
30.9361
 20
108.401611
 30
0.0
 11
29.849
 21
109.070611
 31
0.0
  0
LINE
  5
BC1
330
1D
100
AcDbEntity
  8
0
100
AcDbLine
 10
31.9473
 20
107.620611
 30
0.0
 11
30.9361
 21
108.401611
 31
0.0
  0
LINE
  5
BCE
330
1D
100
AcDbEntity
  8
0
100
AcDbLine
 10
29.849
 20
109.070611
 30
0.0
 11
28.6979
 21
109.623611
 31
0.0
  0
LINE
  5
BD5
330
1D
100
AcDbEntity
  8
0
100
AcDbLine
 10
37.6246
 20
114.735611
 30
0.0
 11
36.0732
 21
114.921611
 31
0.0
  0
LINE
  5
BD6
330
1D
100
AcDbEntity
  8
0
100
AcDbLine
 10
36.4896
 20
116.360611
 30
0.0
 11
34.7407
 21
116.360611
 31
0.0
  0
LINE
  5
BD7
330
1D
100
AcDbEntity
  8
0
100
AcDbLine
 10
34.7407
 20
116.360611
 30
0.0
 11
32.8923
 21
116.360611
 31
0.0
  0
LINE
  5
BD8
330
1D
100
AcDbEntity
  8
0
100
AcDbLine
 10
33.2621
 20
115.185611
 30
0.0
 11
32.8559
 21
115.219611
 31
0.0
  0
LINE
  5
BD9
330
1D
100
AcDbEntity
  8
0
100
AcDbLine
 10
30.9947
 20
115.337611
 30
0.0
 11
30.4356
 21
115.369611
 31
0.0
  0
LINE
  5
BDA
330
1D
100
AcDbEntity
  8
0
100
AcDbLine
 10
30.4356
 20
115.369611
 30
0.0
 11
28.6959
 21
115.446611
 31
0.0
  0
LINE
  5
BDB
330
1D
100
AcDbEntity
  8
0
100
AcDbLine
 10
31.7845
 20
115.291611
 30
0.0
 11
30.9947
 21
115.337611
 31
0.0
  0
LINE
  5
BDC
330
1D
100
AcDbEntity
  8
0
100
AcDbLine
 10
32.3788
 20
115.254611
 30
0.0
 11
31.7845
 21
115.291611
 31
0.0
  0
LINE
  5
BDD
330
1D
100
AcDbEntity
  8
0
100
AcDbLine
 10
32.8559
 20
115.219611
 30
0.0
 11
32.3788
 21
115.254611
 31
0.0
  0
LINE
  5
BDE
330
1D
100
AcDbEntity
  8
0
100
AcDbLine
 10
32.8923
 20
116.360611
 30
0.0
 11
30.9677
 21
116.360611
 31
0.0
  0
LINE
  5
BDF
330
1D
100
AcDbEntity
  8
0
100
AcDbLine
 10
30.9677
 20
116.360611
 30
0.0
 11
28.8463
 21
116.360611
 31
0.0
  0
LINE
  5
BE0
330
1D
100
AcDbEntity
  8
0
100
AcDbLine
 10
36.0732
 20
114.921611
 30
0.0
 11
33.2621
 21
115.185611
 31
0.0
  0
LINE
  5
BE1
330
1D
100
AcDbEntity
  8
0
100
AcDbLine
 10
27.2933
 20
101.975611
 30
0.0
 11
27.2611
 21
101.780611
 31
0.0
  0
LINE
  5
BE2
330
1D
100
AcDbEntity
  8
0
100
AcDbLine
 10
26.8479
 20
101.767611
 30
0.0
 11
26.3088
 21
102.154611
 31
0.0
  0
LINE
  5
BE3
330
1D
100
AcDbEntity
  8
0
100
AcDbLine
 10
24.1093
 20
102.788492749623
 30
0.0
 11
24.1093
 21
101.327611
 31
0.0
  0
LINE
  5
BE4
330
1D
100
AcDbEntity
  8
0
100
AcDbLine
 10
24.8713
 20
91.746711
 30
0.0
 11
24.225
 21
91.693411
 31
0.0
  0
LINE
  5
BE5
330
1D
100
AcDbEntity
  8
0
100
AcDbLine
 10
24.225
 20
91.693411
 30
0.0
 11
24.1094
 21
91.888311
 31
0.0
  0
LINE
  5
BEB
330
1D
100
AcDbEntity
  8
0
100
AcDbLine
 10
25.5613
 20
86.265011
 30
0.0
 11
24.2878
 21
86.167811
 31
0.0
  0
LINE
  5
BEC
330
1D
100
AcDbEntity
  8
0
100
AcDbLine
 10
26.2289
 20
83.058111
 30
0.0
 11
25.4569
 21
83.039611
 31
0.0
  0
LINE
  5
BEF
330
1D
100
AcDbEntity
  8
0
100
AcDbLine
 10
26.8174
 20
86.494311
 30
0.0
 11
25.5613
 21
86.265011
 31
0.0
  0
LINE
  5
BF7
330
1D
100
AcDbEntity
  8
0
100
AcDbLine
 10
25.7681
 20
89.642111
 30
0.0
 11
24.8885
 21
89.509011
 31
0.0
  0
LINE
  5
BFB
330
1D
100
AcDbEntity
  8
0
100
AcDbLine
 10
25.1842
 20
90.579111
 30
0.0
 11
24.2722
 21
90.494311
 31
0.0
  0
LINE
  5
BFC
330
1D
100
AcDbEntity
  8
0
100
AcDbLine
 10
25.1842
 20
90.579111
 30
0.0
 11
24.2723
 21
90.494411
 31
0.0
  0
LINE
  5
BFD
330
1D
100
AcDbEntity
  8
0
100
AcDbLine
 10
25.3665
 20
90.076611
 30
0.0
 11
24.43
 21
89.975611
 31
0.0
  0
LINE
  5
BFE
330
1D
100
AcDbEntity
  8
0
100
AcDbLine
 10
25.25
 20
89.139911
 30
0.0
 11
25.25
 21
89.199311
 31
0.0
  0
LINE
  5
BFF
330
1D
100
AcDbEntity
  8
0
100
AcDbLine
 10
25.25
 20
89.275111
 30
0.0
 11
25.25
 21
88.851511
 31
0.0
  0
LINE
  5
C00
330
1D
100
AcDbEntity
  8
0
100
AcDbLine
 10
25.25
 20
89.199311
 30
0.0
 11
25.25
 21
89.139911
 31
0.0
  0
LINE
  5
C07
330
1D
100
AcDbEntity
  8
0
100
AcDbLine
 10
25.25
 20
88.887111
 30
0.0
 11
25.25
 21
89.098511
 31
0.0
  0
LINE
  5
C08
330
1D
100
AcDbEntity
  8
0
100
AcDbLine
 10
26.1727
 20
89.450511
 30
0.0
 11
25.25
 21
89.275111
 31
0.0
  0
LINE
  5
C09
330
1D
100
AcDbEntity
  8
0
100
AcDbLine
 10
27.0727
 20
89.719411
 30
0.0
 11
26.1727
 21
89.450511
 31
0.0
  0
LINE
  5
C0A
330
1D
100
AcDbEntity
  8
0
100
AcDbLine
 10
27.4657
 20
90.167211
 30
0.0
 11
26.6301
 21
89.862011
 31
0.0
  0
LINE
  5
C0B
330
1D
100
AcDbEntity
  8
0
100
AcDbLine
 10
26.6301
 20
89.862011
 30
0.0
 11
25.7681
 21
89.642111
 31
0.0
  0
LINE
  5
C0C
330
1D
100
AcDbEntity
  8
0
100
AcDbLine
 10
26.2859
 20
90.281611
 30
0.0
 11
25.3665
 21
90.076611
 31
0.0
  0
LINE
  5
C0D
330
1D
100
AcDbEntity
  8
0
100
AcDbLine
 10
26.0799
 20
90.769311
 30
0.0
 11
25.1842
 21
90.579111
 31
0.0
  0
LINE
  5
C0E
330
1D
100
AcDbEntity
  8
0
100
AcDbLine
 10
26.08
 20
90.769311
 30
0.0
 11
25.1842
 21
90.579111
 31
0.0
  0
LINE
  5
C0F
330
1D
100
AcDbEntity
  8
0
100
AcDbLine
 10
27.1765
 20
90.588311
 30
0.0
 11
26.2859
 21
90.281611
 31
0.0
  0
LINE
  5
C10
330
1D
100
AcDbEntity
  8
0
100
AcDbLine
 10
26.9476
 20
91.062111
 30
0.0
 11
26.08
 21
90.769311
 31
0.0
  0
LINE
  5
C11
330
1D
100
AcDbEntity
  8
0
100
AcDbLine
 10
25.25
 20
89.317111
 30
0.0
 11
25.25
 21
89.376111
 31
0.0
  0
LINE
  5
C12
330
1D
100
AcDbEntity
  8
0
100
AcDbLine
 10
25.25
 20
89.199311
 30
0.0
 11
25.25
 21
89.376111
 31
0.0
  0
LINE
  5
C13
330
1D
100
AcDbEntity
  8
0
100
AcDbLine
 10
25.25
 20
89.376111
 30
0.0
 11
25.25
 21
89.199311
 31
0.0
  0
LINE
  5
C14
330
1D
100
AcDbEntity
  8
0
100
AcDbLine
 10
25.25
 20
89.376111
 30
0.0
 11
25.25
 21
89.317111
 31
0.0
  0
LINE
  5
C15
330
1D
100
AcDbEntity
  8
0
100
AcDbLine
 10
26.031385787834
 20
96.651425212166
 30
0.0
 11
24.7753
 21
97.907511
 31
0.0
  0
LINE
  5
C16
330
1D
100
AcDbEntity
  8
0
100
AcDbLine
 10
26.3594
 20
97.131011
 30
0.0
 11
26.0735
 21
96.694311
 31
0.0
  0
LINE
  5
C17
330
1D
100
AcDbEntity
  8
0
100
AcDbLine
 10
26.9218
 20
97.154311
 30
0.0
 11
26.6904
 21
96.702311
 31
0.0
  0
LINE
  5
C18
330
1D
100
AcDbEntity
  8
0
100
AcDbLine
 10
25.716074204037
 20
96.330336795963
 30
0.0
 11
24.4571
 21
97.589311
 31
0.0
  0
LINE
  5
C19
330
1D
100
AcDbEntity
  8
0
100
AcDbLine
 10
24.225
 20
97.493211
 30
0.0
 11
24.225
 21
95.716969869732
 31
0.0
  0
LINE
  5
C1A
330
1D
100
AcDbEntity
  8
0
100
AcDbLine
 10
25.5094
 20
91.862511
 30
0.0
 11
24.8713
 21
91.746711
 31
0.0
  0
LINE
  5
C1B
330
1D
100
AcDbEntity
  8
0
100
AcDbLine
 10
25.378562778714
 20
92.350328599203
 30
0.0
 11
25.0463
 21
93.590411
 31
0.0
  0
LINE
  5
C1C
330
1D
100
AcDbEntity
  8
0
100
AcDbLine
 10
25.457
 20
92.364011
 30
0.0
 11
24.6613
 21
92.225211
 31
0.0
  0
LINE
  5
C1D
330
1D
100
AcDbEntity
  8
0
100
AcDbLine
 10
25.1163
 20
93.775911
 30
0.0
 11
25.0463
 21
93.590411
 31
0.0
  0
LINE
  5
C1E
330
1D
100
AcDbEntity
  8
0
100
AcDbLine
 10
25.5233
 20
94.196811
 30
0.0
 11
24.8851
 21
94.016311
 31
0.0
  0
LINE
  5
C1F
330
1D
100
AcDbEntity
  8
0
100
AcDbLine
 10
25.1054
 20
95.401611
 30
0.0
 11
24.6721
 21
95.274411
 31
0.0
  0
LINE
  5
C20
330
1D
100
AcDbEntity
  8
0
100
AcDbLine
 10
25.2765
 20
96.028011
 30
0.0
 11
24.796
 21
95.824011
 31
0.0
  0
LINE
  5
C21
330
1D
100
AcDbEntity
  8
0
100
AcDbLine
 10
26.636
 20
94.248911
 30
0.0
 11
26.4554
 21
94.330511
 31
0.0
  0
LINE
  5
C22
330
1D
100
AcDbEntity
  8
0
100
AcDbLine
 10
26.1275
 20
94.470411
 30
0.0
 11
25.5233
 21
94.196811
 31
0.0
  0
LINE
  5
C23
330
1D
100
AcDbEntity
  8
0
100
AcDbLine
 10
26.9753
 20
94.487111
 30
0.0
 11
26.636
 21
94.248911
 31
0.0
  0
LINE
  5
C24
330
1D
100
AcDbEntity
  8
0
100
AcDbLine
 10
25.944
 20
91.978911
 30
0.0
 11
25.7818
 21
92.137211
 31
0.0
  0
LINE
  5
C25
330
1D
100
AcDbEntity
  8
0
100
AcDbLine
 10
27.1407
 20
92.474611
 30
0.0
 11
26.5545
 21
92.197611
 31
0.0
  0
LINE
  5
C26
330
1D
100
AcDbEntity
  8
0
100
AcDbLine
 10
25.81108576333
 20
92.474949910021
 30
0.0
 11
25.4809
 21
93.706911
 31
0.0
  0
LINE
  5
C27
330
1D
100
AcDbEntity
  8
0
100
AcDbLine
 10
26.5545
 20
92.197611
 30
0.0
 11
25.944
 21
91.978911
 31
0.0
  0
LINE
  5
C28
330
1D
100
AcDbEntity
  8
0
100
AcDbLine
 10
27.5304
 20
92.699611
 30
0.0
 11
27.3329
 21
92.810511
 31
0.0
  0
LINE
  5
C29
330
1D
100
AcDbEntity
  8
0
100
AcDbLine
 10
27.1434
 20
92.701211
 30
0.0
 11
27.1425
 21
92.612211
 31
0.0
  0
LINE
  5
C2A
330
1D
100
AcDbEntity
  8
0
100
AcDbLine
 10
26.2278
 20
92.605511
 30
0.0
 11
25.457
 21
92.364011
 31
0.0
  0
LINE
  5
C2B
330
1D
100
AcDbEntity
  8
0
100
AcDbLine
 10
27.1425
 20
92.612211
 30
0.0
 11
27.1407
 21
92.474611
 31
0.0
  0
LINE
  5
C2C
330
1D
100
AcDbEntity
  8
0
100
AcDbLine
 10
27.273711835084
 20
93.144322441947
 30
0.0
 11
26.636
 21
94.248911
 31
0.0
  0
LINE
  5
C2D
330
1D
100
AcDbEntity
  8
0
100
AcDbLine
 10
26.888248700546
 20
92.91198371487
 30
0.0
 11
26.2463
 21
94.023911
 31
0.0
  0
LINE
  5
C2E
330
1D
100
AcDbEntity
  8
0
100
AcDbLine
 10
26.9605
 20
92.945511
 30
0.0
 11
26.2278
 21
92.605511
 31
0.0
  0
LINE
  5
C2F
330
1D
100
AcDbEntity
  8
0
100
AcDbLine
 10
25.8703
 20
93.849211
 30
0.0
 11
25.4809
 21
93.706911
 31
0.0
  0
LINE
  5
C30
330
1D
100
AcDbEntity
  8
0
100
AcDbLine
 10
26.2656
 20
94.217511
 30
0.0
 11
26.2463
 21
94.023911
 31
0.0
  0
LINE
  5
C31
330
1D
100
AcDbEntity
  8
0
100
AcDbLine
 10
26.2463
 20
94.023911
 30
0.0
 11
25.8703
 21
93.849211
 31
0.0
  0
LINE
  5
C32
330
1D
100
AcDbEntity
  8
0
100
AcDbLine
 10
25.5706
 20
92.080711
 30
0.0
 11
25.5094
 21
91.862511
 31
0.0
  0
LINE
  5
C33
330
1D
100
AcDbEntity
  8
0
100
AcDbLine
 10
25.4809
 20
93.706911
 30
0.0
 11
25.3276
 21
93.832511
 31
0.0
  0
LINE
  5
C34
330
1D
100
AcDbEntity
  8
0
100
AcDbLine
 10
26.6841
 20
94.830911
 30
0.0
 11
26.1275
 21
94.470411
 31
0.0
  0
LINE
  5
C35
330
1D
100
AcDbEntity
  8
0
100
AcDbLine
 10
26.966034256688
 20
95.080377691794
 30
0.0
 11
26.0715
 21
95.975011
 31
0.0
  0
LINE
  5
C36
330
1D
100
AcDbEntity
  8
0
100
AcDbLine
 10
26.3897
 20
96.293111
 30
0.0
 11
26.1723
 21
96.346911
 31
0.0
  0
LINE
  5
C37
330
1D
100
AcDbEntity
  8
0
100
AcDbLine
 10
27.2933
 20
94.753111
 30
0.0
 11
26.9753
 21
94.487111
 31
0.0
  0
LINE
  5
C38
330
1D
100
AcDbEntity
  8
0
100
AcDbLine
 10
27.2933
 20
94.753111
 30
0.0
 11
27.2611
 21
94.948811
 31
0.0
  0
LINE
  5
C39
330
1D
100
AcDbEntity
  8
0
100
AcDbLine
 10
27.1808
 20
95.270411
 30
0.0
 11
26.6841
 21
94.830911
 31
0.0
  0
LINE
  5
C3A
330
1D
100
AcDbEntity
  8
0
100
AcDbLine
 10
27.286356852578
 20
95.396553422982
 30
0.0
 11
26.3897
 21
96.293111
 31
0.0
  0
LINE
  5
C3B
330
1D
100
AcDbEntity
  8
0
100
AcDbLine
 10
26.6904
 20
96.702311
 30
0.0
 11
26.3897
 21
96.293111
 31
0.0
  0
LINE
  5
C3C
330
1D
100
AcDbEntity
  8
0
100
AcDbLine
 10
25.8041
 20
95.767211
 30
0.0
 11
25.5162
 21
95.589211
 31
0.0
  0
LINE
  5
C3D
330
1D
100
AcDbEntity
  8
0
100
AcDbLine
 10
26.0715
 20
95.975011
 30
0.0
 11
25.8041
 21
95.767211
 31
0.0
  0
LINE
  5
C3E
330
1D
100
AcDbEntity
  8
0
100
AcDbLine
 10
26.0715
 20
95.975011
 30
0.0
 11
26.0177
 21
96.192311
 31
0.0
  0
LINE
  5
C3F
330
1D
100
AcDbEntity
  8
0
100
AcDbLine
 10
25.5162
 20
95.589211
 30
0.0
 11
25.1054
 21
95.401611
 31
0.0
  0
LINE
  5
C40
330
1D
100
AcDbEntity
  8
0
100
AcDbLine
 10
25.7078
 20
96.321911
 30
0.0
 11
25.2765
 21
96.028011
 31
0.0
  0
LINE
  5
C41
330
1D
100
AcDbEntity
  8
0
100
AcDbLine
 10
26.0735
 20
96.694311
 30
0.0
 11
25.7078
 21
96.321911
 31
0.0
  0
LINE
  5
C42
330
1D
100
AcDbEntity
  8
0
100
AcDbLine
 10
24.1094
 20
95.401811
 30
0.0
 11
24.1094
 21
93.935698164404
 31
0.0
  0
LINE
  5
C43
330
1D
100
AcDbEntity
  8
0
100
AcDbLine
 10
25.0463
 20
93.590411
 30
0.0
 11
24.6379
 21
93.518911
 31
0.0
  0
LINE
  5
C44
330
1D
100
AcDbEntity
  8
0
100
AcDbLine
 10
24.6379
 20
93.518911
 30
0.0
 11
24.225
 21
93.482311
 31
0.0
  0
LINE
  5
C45
330
1D
100
AcDbEntity
  8
0
100
AcDbLine
 10
24.225
 20
93.482311
 30
0.0
 11
24.1094
 21
93.643311
 31
0.0
  0
LINE
  5
C46
330
1D
100
AcDbEntity
  8
0
100
AcDbLine
 10
24.225
 20
93.482311
 30
0.0
 11
24.225
 21
92.206826813608
 31
0.0
  0
LINE
  5
C47
330
1D
100
AcDbEntity
  8
0
100
AcDbLine
 10
24.8851
 20
94.016311
 30
0.0
 11
24.2271
 21
93.932911
 31
0.0
  0
LINE
  5
C48
330
1D
100
AcDbEntity
  8
0
100
AcDbLine
 10
24.6721
 20
95.274411
 30
0.0
 11
24.225
 21
95.210111
 31
0.0
  0
LINE
  5
C49
330
1D
100
AcDbEntity
  8
0
100
AcDbLine
 10
24.225
 20
95.210111
 30
0.0
 11
24.1094
 21
95.401811
 31
0.0
  0
LINE
  5
C4A
330
1D
100
AcDbEntity
  8
0
100
AcDbLine
 10
24.796
 20
95.824011
 30
0.0
 11
24.2851
 21
95.717511
 31
0.0
  0
LINE
  5
C4B
330
1D
100
AcDbEntity
  8
0
100
AcDbLine
 10
26.651793734432
 20
98.139611
 30
0.0
 11
24.8714
 21
98.139611
 31
0.0
  0
LINE
  5
C4C
330
1D
100
AcDbEntity
  8
0
100
AcDbLine
 10
26.647741233953
 20
98.589611
 30
0.0
 11
24.8714
 21
98.589611
 31
0.0
  0
LINE
  5
C4D
330
1D
100
AcDbEntity
  8
0
100
AcDbLine
 10
26.03421677015
 20
100.080827645798
 30
0.0
 11
24.7753
 21
98.821711
 31
0.0
  0
LINE
  5
C4E
330
1D
100
AcDbEntity
  8
0
100
AcDbLine
 10
25.712924491457
 20
100.395735491456
 30
0.0
 11
24.4571
 21
99.139911
 31
0.0
  0
LINE
  5
C4F
330
1D
100
AcDbEntity
  8
0
100
AcDbLine
 10
25.2336
 20
100.723611
 30
0.0
 11
24.7496
 21
100.919611
 31
0.0
  0
LINE
  5
C50
330
1D
100
AcDbEntity
  8
0
100
AcDbLine
 10
25.2103
 20
101.286611
 30
0.0
 11
24.727
 21
101.442611
 31
0.0
  0
LINE
  5
C51
330
1D
100
AcDbEntity
  8
0
100
AcDbLine
 10
27.0778
 20
99.091611
 30
0.0
 11
26.9218
 21
99.574911
 31
0.0
  0
LINE
  5
C52
330
1D
100
AcDbEntity
  8
0
100
AcDbLine
 10
26.5407
 20
99.160611
 30
0.0
 11
26.3366
 21
99.641011
 31
0.0
  0
LINE
  5
C53
330
1D
100
AcDbEntity
  8
0
100
AcDbLine
 10
26.6519
 20
98.127811
 30
0.0
 11
26.5548
 21
97.615011
 31
0.0
  0
LINE
  5
C54
330
1D
100
AcDbEntity
  8
0
100
AcDbLine
 10
27.1545
 20
98.139611
 30
0.0
 11
27.0778
 21
97.637611
 31
0.0
  0
LINE
  5
C55
330
1D
100
AcDbEntity
  8
0
100
AcDbLine
 10
26.5548
 20
97.615011
 30
0.0
 11
26.3594
 21
97.131011
 31
0.0
  0
LINE
  5
C56
330
1D
100
AcDbEntity
  8
0
100
AcDbLine
 10
27.0778
 20
97.637611
 30
0.0
 11
26.9218
 21
97.154311
 31
0.0
  0
LINE
  5
C57
330
1D
100
AcDbEntity
  8
0
100
AcDbLine
 10
26.6519
 20
98.127811
 30
0.0
 11
26.6472
 21
98.649711
 31
0.0
  0
LINE
  5
C58
330
1D
100
AcDbEntity
  8
0
100
AcDbLine
 10
27.1545
 20
98.139611
 30
0.0
 11
26.9628
 21
98.255211
 31
0.0
  0
LINE
  5
C59
330
1D
100
AcDbEntity
  8
0
100
AcDbLine
 10
27.1545
 20
98.589611
 30
0.0
 11
26.9628
 21
98.474011
 31
0.0
  0
LINE
  5
C5A
330
1D
100
AcDbEntity
  8
0
100
AcDbLine
 10
27.1545
 20
98.589611
 30
0.0
 11
27.0778
 21
99.091611
 31
0.0
  0
LINE
  5
C5B
330
1D
100
AcDbEntity
  8
0
100
AcDbLine
 10
26.6472
 20
98.649711
 30
0.0
 11
26.5407
 21
99.160611
 31
0.0
  0
LINE
  5
C5C
330
1D
100
AcDbEntity
  8
0
100
AcDbLine
 10
26.96792897568
 20
101.650940714361
 30
0.0
 11
26.0715
 21
100.754611
 31
0.0
  0
LINE
  5
C5D
330
1D
100
AcDbEntity
  8
0
100
AcDbLine
 10
26.3897
 20
100.435611
 30
0.0
 11
26.1723
 21
100.382611
 31
0.0
  0
LINE
  5
C5E
330
1D
100
AcDbEntity
  8
0
100
AcDbLine
 10
26.3366
 20
99.641011
 30
0.0
 11
26.0426
 21
100.072611
 31
0.0
  0
LINE
  5
C5F
330
1D
100
AcDbEntity
  8
0
100
AcDbLine
 10
27.3232
 20
101.305611
 30
0.0
 11
26.8479
 21
101.767611
 31
0.0
  0
LINE
  5
C60
330
1D
100
AcDbEntity
  8
0
100
AcDbLine
 10
27.290594836718
 20
101.337303794943
 30
0.0
 11
26.3897
 21
100.435611
 31
0.0
  0
LINE
  5
C61
330
1D
100
AcDbEntity
  8
0
100
AcDbLine
 10
26.9218
 20
99.574911
 30
0.0
 11
26.6904
 21
100.026611
 31
0.0
  0
LINE
  5
C62
330
1D
100
AcDbEntity
  8
0
100
AcDbLine
 10
26.6904
 20
100.026611
 30
0.0
 11
26.3897
 21
100.435611
 31
0.0
  0
LINE
  5
C63
330
1D
100
AcDbEntity
  8
0
100
AcDbLine
 10
26.0426
 20
100.072611
 30
0.0
 11
25.6702
 21
100.437611
 31
0.0
  0
LINE
  5
C64
330
1D
100
AcDbEntity
  8
0
100
AcDbLine
 10
26.0715
 20
100.754611
 30
0.0
 11
26.0177
 21
100.536611
 31
0.0
  0
LINE
  5
C65
330
1D
100
AcDbEntity
  8
0
100
AcDbLine
 10
26.0715
 20
100.754611
 30
0.0
 11
25.6623
 21
101.054611
 31
0.0
  0
LINE
  5
C66
330
1D
100
AcDbEntity
  8
0
100
AcDbLine
 10
25.6702
 20
100.437611
 30
0.0
 11
25.2336
 21
100.723611
 31
0.0
  0
LINE
  5
C67
330
1D
100
AcDbEntity
  8
0
100
AcDbLine
 10
25.6623
 20
101.054611
 30
0.0
 11
25.2103
 21
101.286611
 31
0.0
  0
LINE
  5
C68
330
1D
100
AcDbEntity
  8
0
100
AcDbLine
 10
24.225
 20
101.016498909561
 30
0.0
 11
24.225
 21
99.236011
 31
0.0
  0
LINE
  5
C69
330
1D
100
AcDbEntity
  8
0
100
AcDbLine
 10
24.8714
 20
98.139611
 30
0.0
 11
24.7753
 21
97.907511
 31
0.0
  0
LINE
  5
C6A
330
1D
100
AcDbEntity
  8
0
100
AcDbLine
 10
24.4315
 20
97.574811
 30
0.0
 11
24.225
 21
97.493211
 31
0.0
  0
LINE
  5
C6B
330
1D
100
AcDbEntity
  8
0
100
AcDbLine
 10
24.4571
 20
97.589311
 30
0.0
 11
24.4041
 21
97.777311
 31
0.0
  0
LINE
  5
C6C
330
1D
100
AcDbEntity
  8
0
100
AcDbLine
 10
24.225
 20
97.493211
 30
0.0
 11
24.1296
 21
97.663611
 31
0.0
  0
LINE
  5
C6D
330
1D
100
AcDbEntity
  8
0
100
AcDbLine
 10
24.1296
 20
97.663611
 30
0.0
 11
24.1094
 21
97.739211
 31
0.0
  0
LINE
  5
C6E
330
1D
100
AcDbEntity
  8
0
100
AcDbLine
 10
24.4041
 20
97.777311
 30
0.0
 11
24.3649
 21
97.845111
 31
0.0
  0
LINE
  5
C6F
330
1D
100
AcDbEntity
  8
0
100
AcDbLine
 10
24.7753
 20
97.907511
 30
0.0
 11
24.5873
 21
97.960511
 31
0.0
  0
LINE
  5
C70
330
1D
100
AcDbEntity
  8
0
100
AcDbLine
 10
24.5873
 20
97.960511
 30
0.0
 11
24.5195
 21
97.999711
 31
0.0
  0
LINE
  5
C71
330
1D
100
AcDbEntity
  8
0
100
AcDbLine
 10
24.8714
 20
98.139611
 30
0.0
 11
24.701
 21
98.235011
 31
0.0
  0
LINE
  5
C72
330
1D
100
AcDbEntity
  8
0
100
AcDbLine
 10
24.701
 20
98.235011
 30
0.0
 11
24.6254
 21
98.255211
 31
0.0
  0
LINE
  5
C73
330
1D
100
AcDbEntity
  8
0
100
AcDbLine
 10
24.8714
 20
98.589611
 30
0.0
 11
24.701
 21
98.494211
 31
0.0
  0
LINE
  5
C74
330
1D
100
AcDbEntity
  8
0
100
AcDbLine
 10
24.8714
 20
98.589611
 30
0.0
 11
24.7753
 21
98.821711
 31
0.0
  0
LINE
  5
C75
330
1D
100
AcDbEntity
  8
0
100
AcDbLine
 10
24.701
 20
98.494211
 30
0.0
 11
24.6254
 21
98.474011
 31
0.0
  0
LINE
  5
C76
330
1D
100
AcDbEntity
  8
0
100
AcDbLine
 10
24.7753
 20
98.821711
 30
0.0
 11
24.5873
 21
98.768711
 31
0.0
  0
LINE
  5
C77
330
1D
100
AcDbEntity
  8
0
100
AcDbLine
 10
24.5873
 20
98.768711
 30
0.0
 11
24.5195
 21
98.729511
 31
0.0
  0
LINE
  5
C78
330
1D
100
AcDbEntity
  8
0
100
AcDbLine
 10
24.4571
 20
99.139911
 30
0.0
 11
24.4041
 21
98.951911
 31
0.0
  0
LINE
  5
C79
330
1D
100
AcDbEntity
  8
0
100
AcDbLine
 10
24.4571
 20
99.139911
 30
0.0
 11
24.225
 21
99.236011
 31
0.0
  0
LINE
  5
C7A
330
1D
100
AcDbEntity
  8
0
100
AcDbLine
 10
24.225
 20
99.236011
 30
0.0
 11
24.1296
 21
99.065611
 31
0.0
  0
LINE
  5
C7B
330
1D
100
AcDbEntity
  8
0
100
AcDbLine
 10
24.4041
 20
98.951911
 30
0.0
 11
24.3649
 21
98.884211
 31
0.0
  0
LINE
  5
C7C
330
1D
100
AcDbEntity
  8
0
100
AcDbLine
 10
24.1296
 20
99.065611
 30
0.0
 11
24.1094
 21
98.990011
 31
0.0
  0
LINE
  5
C7D
330
1D
100
AcDbEntity
  8
0
100
AcDbLine
 10
24.7496
 20
100.919611
 30
0.0
 11
24.2367
 21
101.016611
 31
0.0
  0
LINE
  5
C7E
330
1D
100
AcDbEntity
  8
0
100
AcDbLine
 10
24.727
 20
101.442611
 30
0.0
 11
24.225
 21
101.518611
 31
0.0
  0
LINE
  5
C7F
330
1D
100
AcDbEntity
  8
0
100
AcDbLine
 10
24.225
 20
101.518611
 30
0.0
 11
24.1093
 21
101.327611
 31
0.0
  0
LINE
  5
C80
330
1D
100
AcDbEntity
  8
0
100
AcDbLine
 10
27.0727
 20
107.009611
 30
0.0
 11
26.1728
 21
107.278611
 31
0.0
  0
LINE
  5
C81
330
1D
100
AcDbEntity
  8
0
100
AcDbLine
 10
27.0727
 20
107.009611
 30
0.0
 11
26.1728
 21
107.278611
 31
0.0
  0
LINE
  5
C82
330
1D
100
AcDbEntity
  8
0
100
AcDbLine
 10
26.6301
 20
106.867611
 30
0.0
 11
25.768
 21
107.087611
 31
0.0
  0
LINE
  5
C83
330
1D
100
AcDbEntity
  8
0
100
AcDbLine
 10
25.0893
 20
102.666611
 30
0.0
 11
24.4359
 21
102.780611
 31
0.0
  0
LINE
  5
C84
330
1D
100
AcDbEntity
  8
0
100
AcDbLine
 10
25.1163
 20
102.953611
 30
0.0
 11
25.0463
 21
103.138611
 31
0.0
  0
LINE
  5
C85
330
1D
100
AcDbEntity
  8
0
100
AcDbLine
 10
25.7385
 20
104.289611
 30
0.0
 11
24.9502
 21
104.465611
 31
0.0
  0
LINE
  5
C86
330
1D
100
AcDbEntity
  8
0
100
AcDbLine
 10
25.376282974956
 20
104.370481476224
 30
0.0
 11
25.0463
 21
103.138611
 31
0.0
  0
LINE
  5
C87
330
1D
100
AcDbEntity
  8
0
100
AcDbLine
 10
25.5093
 20
104.866611
 30
0.0
 11
24.8713
 21
104.982611
 31
0.0
  0
LINE
  5
C88
330
1D
100
AcDbEntity
  8
0
100
AcDbLine
 10
25.5499
 20
106.085611
 30
0.0
 11
24.6433
 21
106.213611
 31
0.0
  0
LINE
  5
C89
330
1D
100
AcDbEntity
  8
0
100
AcDbLine
 10
25.4475
 20
106.638611
 30
0.0
 11
24.5122
 21
106.748611
 31
0.0
  0
LINE
  5
C8A
330
1D
100
AcDbEntity
  8
0
100
AcDbLine
 10
27.1408
 20
104.254611
 30
0.0
 11
26.5545
 21
104.531611
 31
0.0
  0
LINE
  5
C8B
330
1D
100
AcDbEntity
  8
0
100
AcDbLine
 10
26.883871825819
 20
103.809957046273
 30
0.0
 11
26.2463
 21
102.705611
 31
0.0
  0
LINE
  5
C8C
330
1D
100
AcDbEntity
  8
0
100
AcDbLine
 10
26.4971
 20
104.012611
 30
0.0
 11
25.7385
 21
104.289611
 31
0.0
  0
LINE
  5
C8D
330
1D
100
AcDbEntity
  8
0
100
AcDbLine
 10
27.5304
 20
104.029611
 30
0.0
 11
27.3329
 21
103.918611
 31
0.0
  0
LINE
  5
C8E
330
1D
100
AcDbEntity
  8
0
100
AcDbLine
 10
27.2933
 20
101.975611
 30
0.0
 11
26.9753
 21
102.241611
 31
0.0
  0
LINE
  5
C8F
330
1D
100
AcDbEntity
  8
0
100
AcDbLine
 10
27.277674923417
 20
103.592064072378
 30
0.0
 11
26.636
 21
102.480611
 31
0.0
  0
LINE
  5
C90
330
1D
100
AcDbEntity
  8
0
100
AcDbLine
 10
27.2128
 20
103.637611
 30
0.0
 11
26.4971
 21
104.012611
 31
0.0
  0
LINE
  5
C91
330
1D
100
AcDbEntity
  8
0
100
AcDbLine
 10
26.9753
 20
102.241611
 30
0.0
 11
26.636
 21
102.480611
 31
0.0
  0
LINE
  5
C92
330
1D
100
AcDbEntity
  8
0
100
AcDbLine
 10
26.636
 20
102.480611
 30
0.0
 11
26.4554
 21
102.398611
 31
0.0
  0
LINE
  5
C93
330
1D
100
AcDbEntity
  8
0
100
AcDbLine
 10
27.1434
 20
104.027611
 30
0.0
 11
27.1408
 21
104.254611
 31
0.0
  0
LINE
  5
C94
330
1D
100
AcDbEntity
  8
0
100
AcDbLine
 10
26.3088
 20
102.154611
 30
0.0
 11
25.7183
 21
102.455611
 31
0.0
  0
LINE
  5
C95
330
1D
100
AcDbEntity
  8
0
100
AcDbLine
 10
25.8703
 20
102.879611
 30
0.0
 11
25.481
 21
103.022611
 31
0.0
  0
LINE
  5
C96
330
1D
100
AcDbEntity
  8
0
100
AcDbLine
 10
26.2463
 20
102.705611
 30
0.0
 11
25.8703
 21
102.879611
 31
0.0
  0
LINE
  5
C97
330
1D
100
AcDbEntity
  8
0
100
AcDbLine
 10
26.2659
 20
102.507611
 30
0.0
 11
26.2463
 21
102.705611
 31
0.0
  0
LINE
  5
C98
330
1D
100
AcDbEntity
  8
0
100
AcDbLine
 10
25.813339854899
 20
104.262283502232
 30
0.0
 11
25.481
 21
103.022611
 31
0.0
  0
LINE
  5
C99
330
1D
100
AcDbEntity
  8
0
100
AcDbLine
 10
25.7183
 20
102.455611
 30
0.0
 11
25.0893
 21
102.666611
 31
0.0
  0
LINE
  5
C9A
330
1D
100
AcDbEntity
  8
0
100
AcDbLine
 10
25.481
 20
103.022611
 30
0.0
 11
25.3276
 21
102.896611
 31
0.0
  0
LINE
  5
C9B
330
1D
100
AcDbEntity
  8
0
100
AcDbLine
 10
27.4657
 20
106.561611
 30
0.0
 11
26.6301
 21
106.867611
 31
0.0
  0
LINE
  5
C9C
330
1D
100
AcDbEntity
  8
0
100
AcDbLine
 10
27.2888
 20
105.519611
 30
0.0
 11
26.4358
 21
105.853611
 31
0.0
  0
LINE
  5
C9D
330
1D
100
AcDbEntity
  8
0
100
AcDbLine
 10
26.5545
 20
104.531611
 30
0.0
 11
25.944
 21
104.750611
 31
0.0
  0
LINE
  5
C9E
330
1D
100
AcDbEntity
  8
0
100
AcDbLine
 10
26.4358
 20
105.853611
 30
0.0
 11
25.5499
 21
106.085611
 31
0.0
  0
LINE
  5
C9F
330
1D
100
AcDbEntity
  8
0
100
AcDbLine
 10
27.2526
 20
106.109611
 30
0.0
 11
26.3649
 21
106.424611
 31
0.0
  0
LINE
  5
CA0
330
1D
100
AcDbEntity
  8
0
100
AcDbLine
 10
26.252521191714
 20
105.901608159411
 30
0.0
 11
25.944
 21
104.750611
 31
0.0
  0
LINE
  5
CA1
330
1D
100
AcDbEntity
  8
0
100
AcDbLine
 10
25.817055394684
 20
106.015648192046
 30
0.0
 11
25.5093
 21
104.866611
 31
0.0
  0
LINE
  5
CA2
330
1D
100
AcDbEntity
  8
0
100
AcDbLine
 10
25.944
 20
104.750611
 30
0.0
 11
25.7818
 21
104.591611
 31
0.0
  0
LINE
  5
CA3
330
1D
100
AcDbEntity
  8
0
100
AcDbLine
 10
26.3649
 20
106.424611
 30
0.0
 11
25.4475
 21
106.638611
 31
0.0
  0
LINE
  5
CA4
330
1D
100
AcDbEntity
  8
0
100
AcDbLine
 10
25.5706
 20
104.648611
 30
0.0
 11
25.5093
 21
104.866611
 31
0.0
  0
LINE
  5
CA5
330
1D
100
AcDbEntity
  8
0
100
AcDbLine
 10
24.9502
 20
104.465611
 30
0.0
 11
24.1457
 21
104.537611
 31
0.0
  0
LINE
  5
CA6
330
1D
100
AcDbEntity
  8
0
100
AcDbLine
 10
24.225
 20
104.530513921069
 30
0.0
 11
24.225
 21
103.246611
 31
0.0
  0
LINE
  5
CA7
330
1D
100
AcDbEntity
  8
0
100
AcDbLine
 10
25.0463
 20
103.138611
 30
0.0
 11
24.638
 21
103.210611
 31
0.0
  0
LINE
  5
CA8
330
1D
100
AcDbEntity
  8
0
100
AcDbLine
 10
24.638
 20
103.210611
 30
0.0
 11
24.225
 21
103.246611
 31
0.0
  0
LINE
  5
CA9
330
1D
100
AcDbEntity
  8
0
100
AcDbLine
 10
24.225
 20
103.246611
 30
0.0
 11
24.1094
 21
103.085611
 31
0.0
  0
LINE
  5
CAA
330
1D
100
AcDbEntity
  8
0
100
AcDbLine
 10
24.8713
 20
104.982611
 30
0.0
 11
24.225
 21
105.035611
 31
0.0
  0
LINE
  5
CAB
330
1D
100
AcDbEntity
  8
0
100
AcDbLine
 10
24.225
 20
105.035611
 30
0.0
 11
24.1093
 21
104.840611
 31
0.0
  0
LINE
  5
CAC
330
1D
100
AcDbEntity
  8
0
100
AcDbLine
 10
24.225
 20
106.223205036697
 30
0.0
 11
24.225
 21
105.035611
 31
0.0
  0
LINE
  5
CB0
330
1D
100
AcDbEntity
  8
0
100
AcDbLine
 10
26.2543
 20
110.354611
 30
0.0
 11
24.9885
 21
110.524611
 31
0.0
  0
LINE
  5
CB2
330
1D
100
AcDbEntity
  8
0
100
AcDbLine
 10
25.768
 20
107.087611
 30
0.0
 11
24.8886
 21
107.220611
 31
0.0
  0
LINE
  5
CBA
330
1D
100
AcDbEntity
  8
0
100
AcDbLine
 10
26.1728
 20
107.278611
 30
0.0
 11
25.25
 21
107.453611
 31
0.0
  0
LINE
  5
CBB
330
1D
100
AcDbEntity
  8
0
100
AcDbLine
 10
25.25
 20
107.877611
 30
0.0
 11
25.25
 21
107.453611
 31
0.0
  0
LINE
  5
CBC
330
1D
100
AcDbEntity
  8
0
100
AcDbLine
 10
25.25
 20
107.630611
 30
0.0
 11
25.25
 21
107.842611
 31
0.0
  0
LINE
  5
CBD
330
1D
100
AcDbEntity
  8
0
100
AcDbLine
 10
25.25
 20
107.589611
 30
0.0
 11
25.25
 21
107.529611
 31
0.0
  0
LINE
  5
CBE
330
1D
100
AcDbEntity
  8
0
100
AcDbLine
 10
25.25
 20
107.529611
 30
0.0
 11
25.25
 21
107.589611
 31
0.0
  0
LINE
  5
CBF
330
1D
100
AcDbEntity
  8
0
100
AcDbLine
 10
25.25
 20
107.529611
 30
0.0
 11
25.25
 21
107.352611
 31
0.0
  0
LINE
  5
CC0
330
1D
100
AcDbEntity
  8
0
100
AcDbLine
 10
25.25
 20
107.412611
 30
0.0
 11
25.25
 21
107.352611
 31
0.0
  0
LINE
  5
CC1
330
1D
100
AcDbEntity
  8
0
100
AcDbLine
 10
25.25
 20
107.352611
 30
0.0
 11
25.25
 21
107.529611
 31
0.0
  0
LINE
  5
CC2
330
1D
100
AcDbEntity
  8
0
100
AcDbLine
 10
25.25
 20
107.352611
 30
0.0
 11
25.25
 21
107.412611
 31
0.0
  0
LINE
  5
CC8
330
1D
100
AcDbEntity
  8
0
100
AcDbLine
 10
27.4953
 20
110.053611
 30
0.0
 11
26.2543
 21
110.354611
 31
0.0
  0
LINE
  5
CD3
330
1D
100
AcDbEntity
  8
0
100
AcDbLine
 10
27.0919
 20
115.492611
 30
0.0
 11
26.3573
 21
115.510611
 31
0.0
  0
LINE
  5
CD4
330
1D
100
AcDbEntity
  8
0
100
AcDbLine
 10
46.3316
 20
142.793611
 30
0.0
 11
46.3228
 21
143.389611
 31
0.0
  0
LINE
  5
CD5
330
1D
100
AcDbEntity
  8
0
100
AcDbLine
 10
46.3316
 20
142.793611
 30
0.0
 11
46.2397
 21
138.622611
 31
0.0
  0
LINE
  5
CD6
330
1D
100
AcDbEntity
  8
0
100
AcDbLine
 10
46.244
 20
134.125611
 30
0.0
 11
46.2397
 21
138.622611
 31
0.0
  0
LINE
  5
CD7
330
1D
100
AcDbEntity
  8
0
100
AcDbLine
 10
38.427
 20
162.798611
 30
0.0
 11
36.9532
 21
162.945611
 31
0.0
  0
LINE
  5
CD8
330
1D
100
AcDbEntity
  8
0
100
AcDbLine
 10
45.3785
 20
151.294611
 30
0.0
 11
45.1283
 21
153.320611
 31
0.0
  0
LINE
  5
CD9
330
1D
100
AcDbEntity
  8
0
100
AcDbLine
 10
46.3228
 20
143.389611
 30
0.0
 11
46.3167
 21
143.490611
 31
0.0
  0
LINE
  5
CDA
330
1D
100
AcDbEntity
  8
0
100
AcDbLine
 10
45.8532
 20
147.570611
 30
0.0
 11
45.3785
 21
151.294611
 31
0.0
  0
LINE
  5
CDB
330
1D
100
AcDbEntity
  8
0
100
AcDbLine
 10
46.1053
 20
145.755611
 30
0.0
 11
45.8532
 21
147.570611
 31
0.0
  0
LINE
  5
CDC
330
1D
100
AcDbEntity
  8
0
100
AcDbLine
 10
46.1969
 20
145.006611
 30
0.0
 11
46.1053
 21
145.755611
 31
0.0
  0
LINE
  5
CDD
330
1D
100
AcDbEntity
  8
0
100
AcDbLine
 10
46.2718
 20
144.166611
 30
0.0
 11
46.1969
 21
145.006611
 31
0.0
  0
LINE
  5
CDE
330
1D
100
AcDbEntity
  8
0
100
AcDbLine
 10
46.3167
 20
143.490611
 30
0.0
 11
46.2718
 21
144.166611
 31
0.0
  0
LINE
  5
CDF
330
1D
100
AcDbEntity
  8
0
100
AcDbLine
 10
42.9558
 20
161.286611
 30
0.0
 11
42.6695
 21
161.497611
 31
0.0
  0
LINE
  5
CE0
330
1D
100
AcDbEntity
  8
0
100
AcDbLine
 10
43.7833
 20
160.246611
 30
0.0
 11
43.6971
 21
160.410611
 31
0.0
  0
LINE
  5
CE1
330
1D
100
AcDbEntity
  8
0
100
AcDbLine
 10
43.6971
 20
160.410611
 30
0.0
 11
43.3475
 21
160.877611
 31
0.0
  0
LINE
  5
CE2
330
1D
100
AcDbEntity
  8
0
100
AcDbLine
 10
43.934
 20
159.925611
 30
0.0
 11
43.7833
 21
160.246611
 31
0.0
  0
LINE
  5
CE3
330
1D
100
AcDbEntity
  8
0
100
AcDbLine
 10
43.3475
 20
160.877611
 30
0.0
 11
43.1939
 21
161.064611
 31
0.0
  0
LINE
  5
CE4
330
1D
100
AcDbEntity
  8
0
100
AcDbLine
 10
43.1939
 20
161.064611
 30
0.0
 11
42.9558
 21
161.286611
 31
0.0
  0
LINE
  5
CE5
330
1D
100
AcDbEntity
  8
0
100
AcDbLine
 10
44.5331
 20
157.243611
 30
0.0
 11
44.2021
 21
158.925611
 31
0.0
  0
LINE
  5
CE6
330
1D
100
AcDbEntity
  8
0
100
AcDbLine
 10
44.8704
 20
155.208611
 30
0.0
 11
44.5331
 21
157.243611
 31
0.0
  0
LINE
  5
CE7
330
1D
100
AcDbEntity
  8
0
100
AcDbLine
 10
45.1283
 20
153.320611
 30
0.0
 11
44.8704
 21
155.208611
 31
0.0
  0
LINE
  5
CE8
330
1D
100
AcDbEntity
  8
0
100
AcDbLine
 10
44.2021
 20
158.925611
 30
0.0
 11
43.934
 21
159.925611
 31
0.0
  0
LINE
  5
CE9
330
1D
100
AcDbEntity
  8
0
100
AcDbLine
 10
42.1558
 20
161.822611
 30
0.0
 11
41.775
 21
162.005611
 31
0.0
  0
LINE
  5
CEA
330
1D
100
AcDbEntity
  8
0
100
AcDbLine
 10
41.775
 20
162.005611
 30
0.0
 11
41.3476
 21
162.171611
 31
0.0
  0
LINE
  5
CEB
330
1D
100
AcDbEntity
  8
0
100
AcDbLine
 10
41.3476
 20
162.171611
 30
0.0
 11
40.764
 21
162.354611
 31
0.0
  0
LINE
  5
CEC
330
1D
100
AcDbEntity
  8
0
100
AcDbLine
 10
42.4855
 20
161.624611
 30
0.0
 11
42.1558
 21
161.822611
 31
0.0
  0
LINE
  5
CED
330
1D
100
AcDbEntity
  8
0
100
AcDbLine
 10
42.6695
 20
161.497611
 30
0.0
 11
42.4855
 21
161.624611
 31
0.0
  0
LINE
  5
CEE
330
1D
100
AcDbEntity
  8
0
100
AcDbLine
 10
40.764
 20
162.354611
 30
0.0
 11
40.3297
 21
162.470611
 31
0.0
  0
LINE
  5
CEF
330
1D
100
AcDbEntity
  8
0
100
AcDbLine
 10
39.7824
 20
162.587611
 30
0.0
 11
39.1301
 21
162.700611
 31
0.0
  0
LINE
  5
CF0
330
1D
100
AcDbEntity
  8
0
100
AcDbLine
 10
39.1301
 20
162.700611
 30
0.0
 11
38.427
 21
162.798611
 31
0.0
  0
LINE
  5
CF1
330
1D
100
AcDbEntity
  8
0
100
AcDbLine
 10
40.3297
 20
162.470611
 30
0.0
 11
39.7824
 21
162.587611
 31
0.0
  0
LINE
  5
CF2
330
1D
100
AcDbEntity
  8
0
100
AcDbLine
 10
36.9532
 20
162.945611
 30
0.0
 11
35.3298
 21
163.047611
 31
0.0
  0
LINE
  5
CF3
330
1D
100
AcDbEntity
  8
0
100
AcDbLine
 10
35.3298
 20
163.047611
 30
0.0
 11
34.6427
 21
163.078611
 31
0.0
  0
LINE
  5
CF4
330
1D
100
AcDbEntity
  8
0
100
AcDbLine
 10
34.6427
 20
163.078611
 30
0.0
 11
33.4062
 21
163.121611
 31
0.0
  0
LINE
  5
CF5
330
1D
100
AcDbEntity
  8
0
100
AcDbLine
 10
33.4062
 20
163.121611
 30
0.0
 11
31.6986
 21
163.162611
 31
0.0
  0
LINE
  5
CF6
330
1D
100
AcDbEntity
  8
0
100
AcDbLine
 10
31.6986
 20
163.162611
 30
0.0
 11
27.8556
 21
163.217611
 31
0.0
  0
LINE
  5
CF7
330
1D
100
AcDbEntity
  8
0
100
AcDbLine
 10
26.255424327683
 20
126.977321268312
 30
0.0
 11
26.045020257931
 21
127.522737408499
 31
0.0
  0
LINE
  5
CF8
330
1D
100
AcDbEntity
  8
0
100
AcDbLine
 10
26.2746
 20
124.414611
 30
0.0
 11
25.7732
 21
123.684611
 31
0.0
  0
LINE
  5
CF9
330
1D
100
AcDbEntity
  8
0
100
AcDbLine
 10
26.400230508957
 20
124.7988119383
 30
0.0
 11
26.2746
 21
124.414611
 31
0.0
  0
LINE
  5
CFA
330
1D
100
AcDbEntity
  8
0
100
AcDbLine
 10
25.267513277953
 20
123.292576283977
 30
0.0
 11
25.1209
 21
123.209611
 31
0.0
  0
LINE
  5
CFB
330
1D
100
AcDbEntity
  8
0
100
AcDbLine
 10
25.1209
 20
123.209611
 30
0.0
 11
24.8709
 21
123.100611
 31
0.0
  0
LINE
  5
CFC
330
1D
100
AcDbEntity
  8
0
100
AcDbLine
 10
24.8709
 20
123.100611
 30
0.0
 11
24.6103
 21
123.018611
 31
0.0
  0
LINE
  5
CFD
330
1D
100
AcDbEntity
  8
0
100
AcDbLine
 10
24.6103
 20
123.018611
 30
0.0
 11
24.342
 21
122.965611
 31
0.0
  0
LINE
  5
CFE
330
1D
100
AcDbEntity
  8
0
100
AcDbLine
 10
24.342
 20
122.965611
 30
0.0
 11
24.1138
 21
122.944611
 31
0.0
  0
LINE
  5
CFF
330
1D
100
AcDbEntity
  8
0
100
AcDbLine
 10
25.7732
 20
123.684611
 30
0.0
 11
25.267513277954
 21
123.292576283978
 31
0.0
  0
LINE
  5
D00
330
1D
100
AcDbEntity
  8
0
100
AcDbLine
 10
26.400230508957
 20
124.7988119383
 30
0.0
 11
26.465526355183
 21
125.359535656562
 31
0.0
  0
LINE
  5
D01
330
1D
100
AcDbEntity
  8
0
100
AcDbLine
 10
26.465526355183
 20
125.359535656562
 30
0.0
 11
26.444516152433
 21
126.262974374812
 31
0.0
  0
LINE
  5
D02
330
1D
100
AcDbEntity
  8
0
100
AcDbLine
 10
26.444516152433
 20
126.262974374812
 30
0.0
 11
26.255424327683
 21
126.977321268312
 31
0.0
  0
LINE
  5
D03
330
1D
100
AcDbEntity
  8
0
100
AcDbLine
 10
26.045020257931
 20
127.522737408499
 30
0.0
 11
25.8917
 21
127.766611
 31
0.0
  0
LINE
  5
D04
330
1D
100
AcDbEntity
  8
0
100
AcDbLine
 10
25.8917
 20
127.766611
 30
0.0
 11
25.2464
 21
128.299611
 31
0.0
  0
LINE
  5
D05
330
1D
100
AcDbEntity
  8
0
100
AcDbLine
 10
25.2464
 20
128.299611
 30
0.0
 11
24.646
 21
128.550611
 31
0.0
  0
LINE
  5
D06
330
1D
100
AcDbEntity
  8
0
100
AcDbLine
 10
20.1444
 20
163.217611
 30
0.0
 11
27.8556
 21
163.217611
 31
0.0
  0
LINE
  5
D07
330
1D
100
AcDbEntity
  8
0
100
AcDbLine
 10
23.354
 20
128.550611
 30
0.0
 11
24.04784745754
 21
128.652223305472
 31
0.0
  0
LINE
  5
D08
330
1D
100
AcDbEntity
  8
0
100
AcDbLine
 10
24.04784745754
 20
128.652223305472
 30
0.0
 11
24.646
 21
128.550611
 31
0.0
  0
LINE
  5
D09
330
1D
100
AcDbEntity
  8
0
100
AcDbLine
 10
23.8862
 20
122.944611
 30
0.0
 11
24.1138
 21
122.944611
 31
0.0
  0
LINE
  5
D0A
330
1D
100
AcDbEntity
  8
0
100
AcDbLine
 10
21.6427
 20
115.510611
 30
0.0
 11
26.3573
 21
115.510611
 31
0.0
  0
LINE
  5
D0B
330
1D
100
AcDbEntity
  8
0
100
AcDbLine
 10
21.3158
 20
116.360611
 30
0.0
 11
26.6842
 21
116.360611
 31
0.0
  0
LINE
  5
D0E
330
1D
100
AcDbEntity
  8
0
100
AcDbLine
 10
23.7122
 20
86.167811
 30
0.0
 11
24.2878
 21
86.167811
 31
0.0
  0
LINE
  5
D0F
330
1D
100
AcDbEntity
  8
0
100
AcDbLine
 10
23.0115
 20
110.524611
 30
0.0
 11
24.019355531139
 21
110.577880677106
 31
0.0
  0
LINE
  5
D10
330
1D
100
AcDbEntity
  8
0
100
AcDbLine
 10
24.019355531139
 20
110.577880677106
 30
0.0
 11
24.9885
 21
110.524611
 31
0.0
  0
LINE
  5
D11
330
1D
100
AcDbEntity
  8
0
100
AcDbLine
 10
23.3567
 20
106.213611
 30
0.0
 11
24.6433
 21
106.213611
 31
0.0
  0
LINE
  5
D12
330
1D
100
AcDbEntity
  8
0
100
AcDbLine
 10
23.4878
 20
106.748611
 30
0.0
 11
24.5122
 21
106.748611
 31
0.0
  0
LINE
  5
D13
330
1D
100
AcDbEntity
  8
0
100
AcDbLine
 10
23.1114
 20
107.220611
 30
0.0
 11
24.005010359644
 21
107.289134094021
 31
0.0
  0
LINE
  5
D14
330
1D
100
AcDbEntity
  8
0
100
AcDbLine
 10
24.005010359644
 20
107.289134094021
 30
0.0
 11
24.8886
 21
107.220611
 31
0.0
  0
LINE
  5
D15
330
1D
100
AcDbEntity
  8
0
100
AcDbLine
 10
22.5431
 20
83.039611
 30
0.0
 11
25.4569
 21
83.039611
 31
0.0
  0
LINE
  5
D16
330
1D
100
AcDbEntity
  8
0
100
AcDbLine
 10
23.7277
 20
90.494411
 30
0.0
 11
24.2722
 21
90.494311
 31
0.0
  0
LINE
  5
D17
330
1D
100
AcDbEntity
  8
0
100
AcDbLine
 10
23.57
 20
89.975611
 30
0.0
 11
24.43
 21
89.975611
 31
0.0
  0
LINE
  5
D18
330
1D
100
AcDbEntity
  8
0
100
AcDbLine
 10
23.1115
 20
89.509011
 30
0.0
 11
23.953326883177
 21
89.459625538633
 31
0.0
  0
LINE
  5
D19
330
1D
100
AcDbEntity
  8
0
100
AcDbLine
 10
23.953326883177
 20
89.459625538633
 30
0.0
 11
24.8885
 21
89.509011
 31
0.0
  0
ENDSEC
  0
SECTION
  2
OBJECTS
  0
DICTIONARY
  5
C
330
0
100
AcDbDictionary
281
     1
  3
ACAD_GROUP
350
D
  3
ACAD_LAYOUT
350
1A
  3
ACAD_MLEADERSTYLE
350
D1C
  3
ACAD_MLINESTYLE
350
17
  3
ACAD_PLOTSETTINGS
350
19
  3
ACAD_PLOTSTYLENAME
350
E
  3
ACAD_SCALELIST
350
95A
  3
AcDbVariableDictionary
350
D1A
  3
DWGPROPS
350
D1F
  0
DICTIONARY
  5
D
102
{ACAD_REACTORS
330
C
102
}
330
C
100
AcDbDictionary
281
     1
  0
DICTIONARY
  5
1A
102
{ACAD_REACTORS
330
C
102
}
330
C
100
AcDbDictionary
281
     1
  3
Layout1
350
1C
  3
Model
350
1E
  0
DICTIONARY
  5
D1C
102
{ACAD_REACTORS
330
C
102
}
330
C
100
AcDbDictionary
281
     1
  0
DICTIONARY
  5
17
102
{ACAD_REACTORS
330
C
102
}
330
C
100
AcDbDictionary
281
     1
  3
Standard
350
18
  0
DICTIONARY
  5
19
102
{ACAD_REACTORS
330
C
102
}
330
C
100
AcDbDictionary
281
     1
  0
ACDBDICTIONARYWDFLT
  5
E
102
{ACAD_REACTORS
330
C
102
}
330
C
100
AcDbDictionary
281
     1
  3
Normal
350
F
100
AcDbDictionaryWithDefault
340
F
  0
DICTIONARY
  5
95A
102
{ACAD_REACTORS
330
C
102
}
330
C
100
AcDbDictionary
281
     1
  3
A0
350
95B
  3
A1
350
95C
  3
A2
350
95D
  3
A3
350
95E
  3
A4
350
95F
  3
A5
350
960
  3
A6
350
961
  3
A7
350
962
  3
A8
350
963
  3
A9
350
964
  3
B0
350
965
  3
B1
350
966
  3
B2
350
967
  3
B3
350
968
  3
B4
350
969
  3
B5
350
96A
  3
B6
350
96B
  3
B7
350
96C
  3
B8
350
96D
  3
B9
350
96E
  3
C0
350
96F
  3
C1
350
970
  3
C2
350
971
  3
C3
350
972
  3
C4
350
973
  3
C5
350
974
  3
C6
350
975
  3
C7
350
976
  3
C8
350
977
  3
C9
350
978
  3
D0
350
979
  3
D1
350
97A
  3
D2
350
97B
  0
DICTIONARY
  5
D1A
102
{ACAD_REACTORS
330
C
102
}
330
C
100
AcDbDictionary
281
     1
  3
CANNOSCALE
350
D1D
  0
XRECORD
  5
D1F
102
{ACAD_REACTORS
330
C
102
}
330
C
100
AcDbXrecord
280
     1
  1
DWGPROPS COOKIE
  2

  3

  4

  6

  7

  8
MARTIN
  9

300
=
301
=
302
=
303
=
304
=
305
=
306
=
307
=
308
=
309
=
 40
0.0
 41
2456645.899774665
 42
2456645.910306713
  1

 90
        0
  0
LAYOUT
  5
1C
102
{ACAD_REACTORS
330
1A
102
}
330
1A
100
AcDbPlotSettings
  1

  2
none_device
  4

  6

 40
0.0
 41
0.0
 42
0.0
 43
0.0
 44
0.0
 45
0.0
 46
0.0
 47
0.0
 48
0.0
 49
0.0
140
0.0
141
0.0
142
1.0
143
1.0
 70
   688
 72
     0
 73
     0
 74
     5
  7

 75
    16
147
1.0
148
0.0
149
0.0
100
AcDbLayout
  1
Layout1
 70
     1
 71
     1
 10
0.0
 20
0.0
 11
12.0
 21
9.0
 12
0.0
 22
0.0
 32
0.0
 14
1.000000000000E+20
 24
1.000000000000E+20
 34
1.000000000000E+20
 15
-1.000000000000E+20
 25
-1.000000000000E+20
 35
-1.000000000000E+20
146
0.0
 13
0.0
 23
0.0
 33
0.0
 16
1.0
 26
0.0
 36
0.0
 17
0.0
 27
1.0
 37
0.0
 76
     0
330
1B
  0
LAYOUT
  5
1E
102
{ACAD_REACTORS
330
1A
102
}
330
1A
100
AcDbPlotSettings
  1

  2
none_device
  4

  6

 40
0.0
 41
0.0
 42
0.0
 43
0.0
 44
0.0
 45
0.0
 46
0.0
 47
0.0
 48
0.0
 49
0.0
140
0.0
141
0.0
142
1.0
143
1.0
 70
  1712
 72
     0
 73
     0
 74
     0
  7

 75
     0
147
1.0
148
0.0
149
0.0
100
AcDbLayout
  1
Model
 70
     1
 71
     0
 10
0.0
 20
0.0
 11
12.0
 21
9.0
 12
0.0
 22
0.0
 32
0.0
 14
-0.0388
 24
-0.235611
 34
0.0
 15
48.0388
 25
163.217611
 35
0.0
146
0.0
 13
0.0
 23
0.0
 33
0.0
 16
1.0
 26
0.0
 36
0.0
 17
0.0
 27
1.0
 37
0.0
 76
     0
330
1D
331
955
  0
MLINESTYLE
  5
18
102
{ACAD_REACTORS
330
17
102
}
330
17
100
AcDbMlineStyle
  2
Standard
 70
     0
  3

 62
   256
 51
90.0
 52
90.0
 71
     2
 49
0.5
 62
   256
  6
BYLAYER
 49
-0.5
 62
   256
  6
BYLAYER
  0
ACDBPLACEHOLDER
  5
F
102
{ACAD_REACTORS
330
E
102
}
330
E
  0
SCALE
  5
95B
102
{ACAD_REACTORS
330
95A
102
}
330
95A
100
AcDbScale
 70
     0
300
1:1
140
1.0
141
1.0
290
     1
  0
SCALE
  5
95C
102
{ACAD_REACTORS
330
95A
102
}
330
95A
100
AcDbScale
 70
     0
300
1:2
140
1.0
141
2.0
290
     0
  0
SCALE
  5
95D
102
{ACAD_REACTORS
330
95A
102
}
330
95A
100
AcDbScale
 70
     0
300
1:4
140
1.0
141
4.0
290
     0
  0
SCALE
  5
95E
102
{ACAD_REACTORS
330
95A
102
}
330
95A
100
AcDbScale
 70
     0
300
1:5
140
1.0
141
5.0
290
     0
  0
SCALE
  5
95F
102
{ACAD_REACTORS
330
95A
102
}
330
95A
100
AcDbScale
 70
     0
300
1:8
140
1.0
141
8.0
290
     0
  0
SCALE
  5
960
102
{ACAD_REACTORS
330
95A
102
}
330
95A
100
AcDbScale
 70
     0
300
1:10
140
1.0
141
10.0
290
     0
  0
SCALE
  5
961
102
{ACAD_REACTORS
330
95A
102
}
330
95A
100
AcDbScale
 70
     0
300
1:16
140
1.0
141
16.0
290
     0
  0
SCALE
  5
962
102
{ACAD_REACTORS
330
95A
102
}
330
95A
100
AcDbScale
 70
     0
300
1:20
140
1.0
141
20.0
290
     0
  0
SCALE
  5
963
102
{ACAD_REACTORS
330
95A
102
}
330
95A
100
AcDbScale
 70
     0
300
1:30
140
1.0
141
30.0
290
     0
  0
SCALE
  5
964
102
{ACAD_REACTORS
330
95A
102
}
330
95A
100
AcDbScale
 70
     0
300
1:40
140
1.0
141
40.0
290
     0
  0
SCALE
  5
965
102
{ACAD_REACTORS
330
95A
102
}
330
95A
100
AcDbScale
 70
     0
300
1:50
140
1.0
141
50.0
290
     0
  0
SCALE
  5
966
102
{ACAD_REACTORS
330
95A
102
}
330
95A
100
AcDbScale
 70
     0
300
1:100
140
1.0
141
100.0
290
     0
  0
SCALE
  5
967
102
{ACAD_REACTORS
330
95A
102
}
330
95A
100
AcDbScale
 70
     0
300
2:1
140
2.0
141
1.0
290
     0
  0
SCALE
  5
968
102
{ACAD_REACTORS
330
95A
102
}
330
95A
100
AcDbScale
 70
     0
300
4:1
140
4.0
141
1.0
290
     0
  0
SCALE
  5
969
102
{ACAD_REACTORS
330
95A
102
}
330
95A
100
AcDbScale
 70
     0
300
8:1
140
8.0
141
1.0
290
     0
  0
SCALE
  5
96A
102
{ACAD_REACTORS
330
95A
102
}
330
95A
100
AcDbScale
 70
     0
300
10:1
140
10.0
141
1.0
290
     0
  0
SCALE
  5
96B
102
{ACAD_REACTORS
330
95A
102
}
330
95A
100
AcDbScale
 70
     0
300
100:1
140
100.0
141
1.0
290
     0
  0
SCALE
  5
96C
102
{ACAD_REACTORS
330
95A
102
}
330
95A
100
AcDbScale
 70
     0
300
1/128" = 1'-0"
140
0.0078125
141
12.0
290
     0
  0
SCALE
  5
96D
102
{ACAD_REACTORS
330
95A
102
}
330
95A
100
AcDbScale
 70
     0
300
1/64" = 1'-0"
140
0.015625
141
12.0
290
     0
  0
SCALE
  5
96E
102
{ACAD_REACTORS
330
95A
102
}
330
95A
100
AcDbScale
 70
     0
300
1/32" = 1'-0"
140
0.03125
141
12.0
290
     0
  0
SCALE
  5
96F
102
{ACAD_REACTORS
330
95A
102
}
330
95A
100
AcDbScale
 70
     0
300
1/16" = 1'-0"
140
0.0625
141
12.0
290
     0
  0
SCALE
  5
970
102
{ACAD_REACTORS
330
95A
102
}
330
95A
100
AcDbScale
 70
     0
300
3/32" = 1'-0"
140
0.09375
141
12.0
290
     0
  0
SCALE
  5
971
102
{ACAD_REACTORS
330
95A
102
}
330
95A
100
AcDbScale
 70
     0
300
1/8" = 1'-0"
140
0.125
141
12.0
290
     0
  0
SCALE
  5
972
102
{ACAD_REACTORS
330
95A
102
}
330
95A
100
AcDbScale
 70
     0
300
3/16" = 1'-0"
140
0.1875
141
12.0
290
     0
  0
SCALE
  5
973
102
{ACAD_REACTORS
330
95A
102
}
330
95A
100
AcDbScale
 70
     0
300
1/4" = 1'-0"
140
0.25
141
12.0
290
     0
  0
SCALE
  5
974
102
{ACAD_REACTORS
330
95A
102
}
330
95A
100
AcDbScale
 70
     0
300
3/8" = 1'-0"
140
0.375
141
12.0
290
     0
  0
SCALE
  5
975
102
{ACAD_REACTORS
330
95A
102
}
330
95A
100
AcDbScale
 70
     0
300
1/2" = 1'-0"
140
0.5
141
12.0
290
     0
  0
SCALE
  5
976
102
{ACAD_REACTORS
330
95A
102
}
330
95A
100
AcDbScale
 70
     0
300
3/4" = 1'-0"
140
0.75
141
12.0
290
     0
  0
SCALE
  5
977
102
{ACAD_REACTORS
330
95A
102
}
330
95A
100
AcDbScale
 70
     0
300
1" = 1'-0"
140
1.0
141
12.0
290
     0
  0
SCALE
  5
978
102
{ACAD_REACTORS
330
95A
102
}
330
95A
100
AcDbScale
 70
     0
300
1-1/2" = 1'-0"
140
1.5
141
12.0
290
     0
  0
SCALE
  5
979
102
{ACAD_REACTORS
330
95A
102
}
330
95A
100
AcDbScale
 70
     0
300
3" = 1'-0"
140
3.0
141
12.0
290
     0
  0
SCALE
  5
97A
102
{ACAD_REACTORS
330
95A
102
}
330
95A
100
AcDbScale
 70
     0
300
6" = 1'-0"
140
6.0
141
12.0
290
     0
  0
SCALE
  5
97B
102
{ACAD_REACTORS
330
95A
102
}
330
95A
100
AcDbScale
 70
     0
300
1'-0" = 1'-0"
140
12.0
141
12.0
290
     0
  0
DICTIONARYVAR
  5
D1D
102
{ACAD_REACTORS
330
D1A
102
}
330
D1A
100
DictionaryVariables
280
     0
  1
1:1
  0
ENDSEC
  0
SECTION
  2
THUMBNAILIMAGE
 90
    16364
310
28000000B40000005500000001000800000000000000000000000000000000000000000000000000FFFFFF000000FF0000FFFF0000FF0000FFFF0000FF000000FF00FF000000000080808000C0C0C0000000FF007F7FFF000000A5005252A50000007F003F3F7F0000004C0026264C000000260013132600003FFF007F9FFF
310
000029A5005267A500001F7F003F4F7F0000134C00262F4C000009260013172600007FFF007FBFFF000052A500527CA500003F7F003F5F7F0000264C0026394C0000132600131C260000BFFF007FDFFF00007CA5005291A500005F7F003F6F7F0000394C0026424C00001C26001321260000FFFF007FFFFF0000A5A50052A5
310
A500007F7F003F7F7F00004C4C00264C4C00002626001326260000FFBF007FFFDF0000A57C0052A59100007F5F003F7F6F00004C3900264C420000261C001326210000FF7F007FFFBF0000A5520052A57C00007F3F003F7F5F00004C2600264C39000026130013261C0000FF3F007FFF9F0000A5290052A56700007F1F003F
310
7F4F00004C1300264C2F00002609001326170000FF00007FFF7F0000A5000052A55200007F00003F7F3F00004C0000264C260000260000132613003FFF00009FFF7F0029A5000067A552001F7F00004F7F3F00134C00002F4C260009260000172613007FFF0000BFFF7F0052A500007CA552003F7F00005F7F3F00264C0000
310
394C2600132600001C261300BFFF0000DFFF7F007CA5000091A552005F7F00006F7F3F00394C0000424C26001C26000021261300FFFF0000FFFF7F00A5A50000A5A552007F7F00007F7F3F004C4C00004C4C26002626000026261300FFBF0000FFDF7F00A57C0000A59152007F5F00007F6F3F004C3900004C422600261C00
310
0026211300FF7F0000FFBF7F00A5520000A57C52007F3F00007F5F3F004C2600004C39260026130000261C1300FF3F0000FF9F7F00A5290000A56752007F1F00007F4F3F004C1300004C2F26002609000026171300FF000000FF7F7F00A5000000A55252007F0000007F3F3F004C0000004C2626002600000026131300FF00
310
3F00FF7F9F00A5002900A55267007F001F007F3F4F004C0013004C262F002600090026131700FF007F00FF7FBF00A5005200A5527C007F003F007F3F5F004C0026004C2639002600130026131C00FF00BF00FF7FDF00A5007C00A55291007F005F007F3F6F004C0039004C26420026001C0026132100FF00FF00FF7FFF00A5
310
00A500A552A5007F007F007F3F7F004C004C004C264C002600260026132600BF00FF00DF7FFF007C00A5009152A5005F007F006F3F7F0039004C0042264C001C002600211326007F00FF00BF7FFF005200A5007C52A5003F007F005F3F7F0026004C0039264C00130026001C1326003F00FF009F7FFF002900A5006752A500
310
1F007F004F3F7F0013004C002F264C000900260017132600000000002D2D2D005B5B5B0089898900B7B7B700B3B3B30000000000000000000000000000000000000000000000000000000000000000000000000000000000000000000000000000000000000000000000000000000000000000000000000000000000000007
310
07070707070707070707070707070707070707070707070700000000000000000000000000000000000000000000000000000000000000000000000000000000000000000000000000000000000000000000000000000000000000000000000000000000000000000000000000000000000000000000000000000000000000
310
00000000000000000000000000000000000000000000000000000000000000000000000000000000000000000000000000000000070000000000000000000000000000000000000000000000070000000000000000000000000000000000000000000000000000000000000000000000000000000000000000000000000000
310
00000000000000000000000000000000000000000000000000000000000000000000000000000000000000000000000000000000000000000000000000000000000000000000000000000000000000000000000000000000000000000000000000000000000000000007000000000000000000000000000000000000000000
310
00000700000000000000000000000000000000000000000000000000000000000000000000000000000000000000000000000000000000000000000000000000000000000000000000000000000000000000000000000000000000000000000000000000000000000000000000000000000000000000000000000000000000
310
00000000000000000000000000000000000000000000000000000000000000070000000000000000000000000000000000000000000000070000000000000000000000000000000000000000000000000000000000000000000000000000000000000000000000000000000000000000000000000000000000000000000000
310
00000000000000000000000000000000000000000000000000000000000000000000000000000000000000000000000000000000000000000000000000000000000000000000000000000000000000000000000007000000000000000000000000000000000000000000000007000000000000000000000000000000000000
310
00000000000000000000000000000000000000000000000000000000000000000000000000000000000000000000000000000000000000000000000000000000000000000000000000000000000000000000000000000000000000000000000000000000000000000000000000000000000000000000000000000000000000
310
00000000000000000000070000000000000000000000000000000000000000000000070000000000000000000000000000000000000000000000000000000000000000000000000000000000000000000000000000000000000000000000000000000000000000000000000000000000000000000000000000000000000000
310
00000000000000000000000000000000000000000000000000000000000000000000000000000000000000000000000000000000000000000000000000000007000000000000000000000000000000000000000000000007000000000000000000000000000000000000000000000000000000000000000000000000000000
310
00000000000000000000000000000000000000000000000000000000000000000000000000000000000000000000000000000000000000000000000000000000000000000000000000000000000000000000000000000000000000000000000000000000000000000000000000000000000000000700000000000000000000
310
00000000000000000000000000070000000000000000000000000000000000000000000000000000000000000000000000000000000000000000000000000000000000000000000000000000000000000000000000000000000000000000000000000000000000000000000000000000000000000000000000000000000000
310
00000000000000000000000000000000000000000000000000000000000000000000000000000000000007000000000000000000000000000000000000000000000007000000000000000000000000000000000000000000000000000000000000000000000000000000000000000000000000000000000000000000000000
310
00000000000000000000000000000000000000000000000000000000000000000000000000000000000000000000000000000000000000000000000000000000000000000000000000000000000000000000000000000000000000000000000700000000000000000000000000000000000000000000000700000000000000
310
00000000000000000000000000000000000000000000000000000000000000000000000000000000000000000000000000000000000000000000000000000000000000000000000000000000000000000000000000000000000000000000000000000000000000000000000000000000000000000000000000000000000000
310
00000000000000000000000000000000000000000007000000000000000000000000000000000000000000000007000000000000000000000000000000000000000000000000000000000000000000000000000000000000000000000000000000000000000000000000000000000000000000000000000000000000000000
310
00000000000000000000000000000000000000000000000000000000000000000000000000000000000000000000000000000000000000000000000000000000000000000000000000000700000000000000000000000000000000000000000000000700000000000000000000000000000000000000000000000000000000
310
00000000000000000000000000000000000000000000000000000000000000000000000000000000000000000000000000000000000000000000000000000000000000000000000000000000000000000000000000000000000000000000000000000000000000000000000000000000000000000000000000000000000000
310
07000000000000000000000000000000000000000000000007000000000000000000000000000000000000000000000000000000000000000000000000000000000000000000000000000000000000000000000000000000000000000000000000000000000000000000000000000000000000000000000000000000000000
310
00000000000000000000000000000000000000000000000000000000000000000000000000000000000000000000000000000000000700000000000000000000000000000000000000000000000700000000000000000000000000000000000000000000000000000000000000000000000000000000000000000000000000
310
00000000000000000000000000000000000000000000000000000000000000000000000000000000000000000000000000000000000000000000000000000000000000000000000000000000000000000000000000000000000000000000000000000000000000000000070000000000000000000000000000000000000000
310
00000007000000000000000000000000000000000000000000000000000000000000000000000000000000000000000000000000000000000000000000000000000000000000000000000000000000000000000000000000000000000000000000000000000000000000000000000000000000000000000000000000000000
310
00000000000000000000000000000000000000000000000000000000000000000700000000000000000000000000000000000000000000000700000000000000000000000000000000000000000000000000000000000000000000000000000000000000000000000000000000000000000000000000000000000000000000
310
00000000000000000000000000000000000000000000000000000000000000000000000000000000000000000000000000000000000000000000000000000000000000000000000000000000000000000000000000070000000000000000000000000000000000000000000000070000000000000000000000000000000000
310
00000000000000000000000000000000000000000000000000000000000000000000000000000000000000000000000000000000000000000000000000000000000000000000000000000000000000000000000000000000000000000000000000000000000000000000000000000000000000000000000000000000000000
310
00000000000000000000000700000000000000000000000000000000000000000000000700000000000000000000000000000000000000000000000000000000000000000000000000000000000000000000000000000000000000000000000000000000000000000000000000000000000000000000000000000000000000
310
00000000000000000000000000000000000000000000000000000000000000000000000000000000000000000000000000000000000000000000000000000000070000000000000000000000000000000000000000000000070000000000000000000000000000000000000000000000000000000000000000000000000000
310
00000000000000000000000000000000000000000000000000000000000000000000000000000000000000000000000000000000000000000000000000000000000000000000000000000000000000000000000000000000000000000000000000000000000000000000000000000000000000000007000000000000000000
310
00000000000000000000000000000700000000000000000000000000000000000000000000000000000000000000000000000000000000000000000000000000000000000000000000000000000000000000000000000000000000000000000000000000000000000000000000000000000000000000000000000000000000
310
00000000000000000000000000000000000000000000000000000000000000000000000000000000000000070000000000000000000000000000000000000000000000070000000000000000000000000000000000000000000000000000000000000000000000000000000000000000000000000000000000000000000000
310
00000000000000000000000000000000000000000000000000000000000000000000000000000000000000000000000000000000000000000000000000000000000000000000000000000000000000000000000000000000000000000000000007000000000000000000000000000000000000000000000007000000000000
310
00000000000000000000000000000000000000000000000000000000000000000000000000000000000000000000000000000000000000000000000000000000000000000000000000000000000000000000000000000000000000000000000000000000000000000000000000000000000000000000000000000000000000
310
00000000000000000000000000000000000000000000070000000000000000000000000000000000000000000000070000000000000000000000000000000000000000000000000000000000000000000000000000000000000000000000000000000000000000000000000000000000000000000000000000000000000000
310
00000000000000000000000000000000000000000000000000000000000000000000000000000000000000000000000000000000000000000000000000000000000000000000000000000007000000000000000000000000000000000000000000000007000000000000000000000000000000000000000000000000000000
310
00000000000000000000000000000000000000000000000000000000000000000000000000000000000000000000000000000000000000000000000000000000000000000000000000000000000000000000000000000000000000000000000000000000000000000000000000000000000000000000000000000000000000
310
00070000000000000000000000000000000000000000000000070000000000000000000000000000000000000000000000000000000000000000000000000000000000000000000000000000000000000000000000000000000000000000000000000000000000000000000000000000000000000000000000000000000000
310
00000000000000000000000000000000000000000000000000000000000000000000000000000000000000000000000000000000000007000000000000000000000000000000000000000000000007000000000000000000000000000000000000000000000000000000000000000000000000000000000000000000000000
310
00000000000000000000000000000000000000000000000000000000000000000000000000000000000000000000000000000000000000000000000000000000000000000000000000000000000000000000000000000000000000000000000000000000000000000000000700000000000000000000000000000000000000
310
00000000070000000000000000000000000000000000000000000000000000000000000000000000000000000000000000000000000000000000000000000000000000000000000000000000000000000000000000000000000000000000000000000000000000000000000000000000000000000000000000000000000000
310
00000000000000000000000000000000000000000000000000000000000000000007000000000000000000000000000000000000000000000007000000000000000000000000000000000000000000000000000000000000000000000000000000000000000000000000000000000000000000000000000000000000000000
310
00000000000000000000000000000000000000000000000000000000000000000000000000000000000000000000000000000000000000000000000000000000000000000000000000000000000000000000000000000700000000000000000000000000000000000000000000000700000000000000000000000000000000
310
00000000000000000000000000000000000000000000000000000000000000000000000000000000000000000000000000000000000000000000000000000000000000000000000000000000000000000000000000000000000000000000000000000000000000000000000000000000000000000000000000000000000000
310
00000000000000000000000007000000000000000000000000000000000000000000000007000000000000000000000000000000000000000000000000000000000000000000000000000000000000000000000000000000000000000000000000000000000000000000000000000000000000000000000000000000000000
310
00000000000000000000000000000000000000000000000000000000000000000000000000000000000000000000000000000000000000000000000000000000000700000000000000000000000000000000000000000000000700000000000000000000000000000000000000000000000000000000000000000000000000
310
00000000000000000000000000000000000000000000000000000000000000000000000000000000000000000000000000000000000000000000000000000000000000000000000000000000000000000000000000000000000000000000000000000000000000000000000000000000000000000000070000000000000000
310
00000000000000000000000000000007000000000000000000000000000000000000000000000000000000000000000000000000000000000000000000000000000000000000000000000000000000000000000000000000000000000000000000000000000000000000000000000000000000000000000000000000000000
310
00000000000000000000000000000000000000000000000000000000000000000000000000000000000000000700000000000000000000000000000000000000000000000700000000000000000000000000000000000000000000000000000000000000000000000000000000000000000000000000000000000000000000
310
00000000000000000000000000000000000000000000000000000000000000000000000000000000000000000000000000000000000000000000000000000000000000000000000000000000000000000000000000000000000000000000000000070000000000000000000000000000000000000000000000070000000000
310
00000000000000000000000000000000000000000000000000000000000000000000000000000000000000000000000000000000000000000000000000000000000000000000000000000000000000000000000000000000000000000000000000000000000000000000000000000000000000000000000000000000000000
310
00000000000000000000000000000000000000000000000700000000000000000000000000000000000000000000000700000000000000000000000000000000000000000000000000000000000000000000000000000000000000000000000000000000000000000000000000000000000000000000000000000000000000
310
00000000000000000000000000000000000000000000000000000000000000000000000000000000000000000000000000000000000000000000000000000000000000000000000000000000070000000000000000000000000000000000000000000000070000000000000000000000000000000000000000000000000000
310
00000000000000000000000000000000000000000000000000000000000000000000000000000000000000000000000000000000000000000000000000000000000000000000000000000000000000000000000000000000000000000000000000000000000000000000000000000000000000000000000000000000000000
310
00000700000000000000000000000000000000000000000000000700000000000000000000000000000000000000000000000000000000000000000000000000000000000000000000000000000000000000000000000000000000000000000000000000000000000000000000000000000000000000000000000000000000
310
00000000000000000000000000000000000000000000000000000000000000000000000000000000000000000000000000000000000000070000000000000000000000000000000000000000000000070000000000000000000000000000000000000000000000000000000000000000000000000000000000000000000000
310
00000000000000000000000000000000000000000000000000000000000000000000000000000000000000000000000000000000000000000000000000000000000000000000000000000000000000000000000000000000000000000000000000000000000000000000000007000000000000000000000000000000000000
310
00000000000700000000000000000000000000000000000000000000000000000000000000000000000000000000000000000000000000000000000000000000000000000000000000000000000000000000000000000000000000000000000000000000000000000000000000000000000000000000000000000000000000
310
00000000000000000000000000000000000000000000000000000000000000000000070000000000000000000000000000000000000000000000070000000000000000000000000000000000000000000000000000000000000000000000000000000000000000000000000000000000000000000000000000000000000000
310
00000000000000000000000000000000000000000000000000000000000000000000000000000000000000000000000000000000000000000000000000000000000000000000000000000000000000000000000000000007000000000000000000000000000000000000000000000007000000000000000000000000000000
310
00000000000000000000000000000000000000000000000000000000000000000000000000000000000000000000000000000000000000000000000000000000000000000000000000000000000000000000000000000000000000000000000000000000000000000000000000000000000000000000000000000000000000
310
00000000000000000000000000070000000000000000000000000000000000000000000000070000000000000000000000000000000000000000000000000000000000000000000000000000000000000000000000000000000000000000000000000000000000000000000000000000000000000000000000000000000000
310
00000000000000000000000000000000000000000000000000000000000000000000000000000000000000000000000000000000000000000000000000000000000000070000000000000000000707070000000000000000000700000000000000000000000000000000000000000000000000000000000000000000000000
310
00000000000000000000000000000000000000000000000000000000000000000000000000000000000000000000000000000000000000000000000000000000000000000000000000000000000000000000000000000000000000000000000000000000000000000000000000000000000000000000000007000000000007
310
07070700000007070707000000000007000000000000000000000000000000000000000000000000000000000000000000000000000000000000000000000000000000000000000000000000000000000000000000000000000000000000000000000000000000000000000000000000000000000000000000000000000000
310
00000000000000000000000000000000000000000000000000000000000000000000000000000000000000000000070000000000000007070707070707000000000000000700000000000000000000000000000000000000000000000000000000000000000000000000000000000000000000000000000000000000000000
310
00000000000000000000000000000000000000000000000000000000000000000000000000000000000000000000000000000000000000000000000000000000000000000000000000000000000000000000000000000000000000000000000000000007000000070000070700070007000707000007000000070000000000
310
00000000000000000000000000000000000000000000000000000000000000000000000000000000000000000000000000000000000000000000000000000000000000000000000000000000000000000000000000000000000000000000000000000000000000000000000000000000000000000000000000000000000000
310
00000000000000000000000000000000000000000000000000070000070000070707070707070707070700000700000700000000000000000000000000000000000000000000000000000000000000000000000000000000000000000000000000000000000000000000000000000000000000000000000000000000000000
310
00000000000000000000000000000000000000000000000000000000000000000000000000000000000000000000000000000000000000000000000000000000000000000000000000000000000007000700000007070707070707070707070000000700070000000000000000000000000000000000000000000000000000
310
00000000000000000000000000000000000000000000000000000000000000000000000000000000000000000000000000000000000000000000000000000000000000000000000000000000000000000000000000000000000000000000000000000000000000000000000000000000000000000000000000000000000000
310
00000000070007000007000707070707070707070007000007000700000000000000000000000000000000000000000000000000000000000000000000000000000000000000000000000000000000000000000000000000000000000000000000000000000000000000000000000000000000000000000000000000000000
310
00000000000000000000000000000000000000000000000000000000000000000000000000000000000000000000000000000000000000000007070000000707070707070707070707070700000007070000000000000000000000000000000000000000000000000000000000000000000000000000000000000000000000
310
00000000000000000000000000000000000000000000000000000000000000000000000000000000000000000000000000000000000000000000000000000000000000000000000000000000000000000000000000000000000000000000000000000000000000000000000000000707000000070707070707070707070707
310
07000000070700000000000000000000000000000000000000000000000000000000000000000000000000000000000000000000000000000000000000000000000000000000000000000000000000000000000000000000000000000000000000000000000000000000000000000000000000000000000000000000000000
310
00000000000000000000000000000000000000000000000000000000000000000000000007000000000707070707070707070707070700000007070000000000000000000000000000000000000000000000000000000000000000000000000000000000000000000000000000000000000000000000000000000000000000
310
00000000000000000000000000000000000000000000000000000000000000000000000000000000000000000000000000000000000000000000000000000000000000000000000000000000000000000000000000000000000700000000070007070707070707070700070000000007000000000000000000000000000000
310
00000000000000000000000000000000000000000000000000000000000000000000000000000000000000000000000000000000000000000000000000000000000000000000000000000000000000000000000000000000000000000000000000000000000000000000000000000000000000000000000000000000000000
310
00000000000000000000000000000007000000000707070707070707070707070700000000070000000000000000000000000000000000000000000000000000000000000000000000000000000000000000000000000000000000000000000000000000000000000000000000000000000000000000000000000000000000
310
00000000000000000000000000000000000000000000000000000000000000000000000000000000000000000000000000000000000000000000000000000000000000000000000000000700070707070707070007000000000000000000000000000000000000000000000000000000000000000000000000000000000000
310
00000000000000000000000000000000000000000000000000000000000000000000000000000000000000000000000000000000000000000000000000000000000000000000000000000000000000000000000000000000000000000000000000000000000000000000000000000000000000000000000000070000000000
310
00070007070707070007000000000000070000000000000000000000000000000000000000000000000000000000000000000000000000000000000000000000000000000000000000000000000000000000000000000000000000000000000000000000000000000000000000000000000000000000000000000000000000
310
00000000000000000000000000000000000000000000000000000000000000000000000000000000000000000000000700000000000000070707070707070000000000000007000000000000000000000000000000000000000000000000000000000000000000000000000000000000000000000000000000000000000000
310
00000000000000000000000000000000000000000000000000000000000000000000000000000000000000000000000000000000000000000000000000000000000000000000000000000000000000000000000000000000000000000000000000000000070000000000000000000000000000000000000000000700000000
310
00000000000000000000000000000000000000000000000000000000000000000000000000000000000000000000000000000000000000000000000000000000000000000000000000000000000000000000000000000000000000000000000000000000000000000000000000000000000000000000000000000000000000
310
00000000000000000000000000000000000000000000000000000707070707000000000000000000000000000707070707000000000000000000000000000000000000000000000000000000000000000000000000000000000000000000000000000000000000000000000000000000000000000000000000000000000000
310
00000000000000000000000000000000000000000000000000000000000000000000000000000000000000000000000000000000000000000000000000000000000000000000000000000000000000070707070707070707070707000707070707070707070700000000000000000000000000000000000000000000000000
310
00000000000000000000000000000000000000000000000000000000000000000000000000000000000000000000000000000000000000000000000000000000000000000000000000000000000000000000000000000000000000000000000000000000000000000000000000000000000000000000000000000000000000
310
00000000000700000000000000000000000000000000000000000007000000000000000000000000000000000000000000000000000000000000000000000000000000000000000000000000000000000000000000000000000000000000000000000000000000000000000000000000000000000000000000000000000000
310
00000000000000000000000000000000000000000000000000000000000000000000000000000000000000000000000000000000000000000000070000000000000000000000000000000000000000000700000000000000000000000000000000000000000000000000000000000000000000000000000000000000000000
310
00000000000000000000000000000000000000000000000000000000000000000000000000000000000000000000000000000000000000000000000000000000000000000000000000000000000000000000000000000000000000000000000000000000000000000000000000000007000000000000000000000000000000
310
00000000000007000000000000000000000000000000000000000000000000000000000000000000000000000000000000000000000000000000000000000000000000000000000000000000000000000000000000000000000000000000000000000000000000000000000000000000000000000000000000000000000000
310
00000000000000000000000000000000000000000000000000000000000000000000000000070000000000000000000707070000000000000000000700000000000000000000000000000000000000000000000000000000000000000000000000000000000000000000000000000000000000000000000000000000000000
310
00000000000000000000000000000000000000000000000000000000000000000000000000000000000000000000000000000000000000000000000000000000000000000000000000000000000000000000000000000000000007000000000000000000070007000000000000000000070000000000000000000000000000
310
00000000000000000000000000000000000000000000000000000000000000000000000000000000000000000000000000000000000000000000000000000000000000000000000000000000000000000000000000000000000000000000000000000000000000000000000000000000000000000000000000000000000000
310
00000000000000000000000000000000070000000000000000000707070000000000000000000700000000000000000000000000000000000000000000000000000000000000000000000000000000000000000000000000000000000000000000000000000000000000000000000000000000000000000000000000000000
310
00000000000000000000000000000000000000000000000000000000000000000000000000000000000000000000000000000000000000000000000000000000000000000007000000000000000000000700000000000000000000070000000000000000000000000000000000000000000000000000000000000000000000
310
00000000000000000000000000000000000000000000000000000000000000000000000000000000000000000000000000000000000000000000000000000000000000000000000000000000000000000000000000000000000000000000000000000000000000000000000000000000000000000000000000000700000000
310
00000000000000000000000000000000000700000000000000000000000000000000000000000000000000000000000000000000000000000000000000000000000000000000000000000000000000000000000000000000000000000000000000000000000000000000000000000000000000000000000000000000000000
310
00000000000000000000000000000000000000000000000000000000000000000000000000000000000000000000000007000000000000000000000000000000000000000000070000000000000000000000000000000000000000000000000000000000000000000000000000000000000000000000000000000000000000
310
00000000000000000000000000000000000000000000000000000000000000000000000000000000000000000000000000000000000000000000000000000000000000000000000000000000000000000000000000000000000000000000000000000000000700000000000000000000000000000000000000000007000000
310
00000000000000000000000000000000000000000000000000000000000000000000000000000000000000000000000000000000000000000000000000000000000000000000000000000000000000000000000000000000000000000000000000000000000000000000000000000000000000000000000000000000000000
310
00000000000000000000000000000000000000000000000000000007000000000000000000000000000000000000000000070000000000000000000000000000000000000000000000000000000000000000000000000000000000000000000000000000000000000000000000000000000000000000000000000000000000
310
00000000000000000000000000000000000000000000000000000000000000000000000000000000000000000000000000000000000000000000000000000000000000000000000000000000000000000000000000000000000000000000000000000000000000000000000000000000000000000000000000000000000000
310
00000000000000000000000000000000000000000000000000000000000000000000000000000000000000000000000000000000000000000000000000000000000000000000000000000000000000000000000000000000000000000000000000000000000000000000000000000000000000000000000000000000000000
310
00000000000007000000000000000000000000000000000000000000070000000000000000000000000000000000000000000000000000000000000000000000000000000000000000000000000000000000000000000000000000000000000000000000000000000000000000000000000000000000000000000000000000
310
00000000000000000000000000000000000000000000000000000000000000000000000000000000000000000000000000000000000000000000000700000000000000000000000000000000000000000007000000000000000000000000000000000000000000000000000000000000000000000000000000000000000000
310
00000000000000000000000000000000000000000000000000000000000000000000000000000000000000000000000000000000000000000000000000000000000000000000000000000000000000000000000000000000000000000000000000000000000000000000000000000000070000000000000000000000000000
310
00000000000000070000000000000000000000000000000000000000000000000000000000000000000000000000000000000000000000000000000000000000000000000000000000000000000000000000000000000000000000000000000000000000000000000000000000000000000000000000000000000000000000
310
00000000000000000000000000000000000000000000000000000000000000000000000000000700000000000000000000000000000000000000000007000000000000000000000000000000000000000000000000000000000000000000000000000000000000000000000000000000000000000000000000000000000000
310
00000000000000000000000000000000000000000000000000000000000000000000000000000000000000000000000000000000000000000000000000000000000000000000000000000000000000000000000000000000000000070000000000000000000000000000000000000000000700000000000000000000000000
310
00000000000000000000000000000000000000000000000000000000000000000000000000000000000000000000000000000000000000000000000000000000000000000000000000000000000000000000000000000000000000000000000000000000000000000000000000000000000000000000000000000000000000
310
00000000000000000000000000000000000700000000000000000000000000000000000000000007000000000000000000000000000000000000000000000000000000000000000000000000000000000000000000000000000000000000000000000000000000000000000000000000000000000000000000000000000000
310
00000000000000000000000000000000000000000000000000000000000000000000000000000000000000000000000000000000000000000000000000000000000000000000070000000000000000000000000000000000000000000700000000000000000000000000000000000000000000000000000000000000000000
310
00000000000000000000000000000000000000000000000000000000000000000000000000000000000000000000000000000000000000000000000000000000000000000000000000000000000000000000000000000000000000000000000000000000000000000000000000000000000000000000000000000007000000
310
00000000000000000000000000000000000007000000000000000000000000000000000000000000000000000000000000000000000000000000000000000000000000000000000000000000000000000000000000000000000000000000000000000000000000000000000000000000000000000000000000000000000000
310
00000000000000000000000000000000000000000000000000000000000000000000000000000000000000000000000000000700000000000000000000000000000000000000070000000000000000000000000000000000000000000000000000000000000000000000000000000000000000000000000000000000000000
310
00000000000000000000000000000000000000000000000000000000000000000000000000000000000000000000000000000000000000000000000000000000000000000000000000000000000000000000000000000000000000000000000000000000000000070000000000000000000000000000000000000007000000
310
00000000000000000000000000000000000000000000000000000000000000000000000000000000000000000000000000000000000000000000000000000000000000000000000000000000000000000000000000000000000000000000000000000000000000000000000000000000000000000000000000000000000000
310
00000000000000000000000000000000000000000000000000000000000707000000000000000000000000000000000007070000000000000000000000000000000000000000000000000000000000000000000000000000000000000000000000000000000000000000000000000000000000000000000000000000000000
310
00000000000000000000000000000000000000000000000000000000000000000000000000000000000000000000000000000000000000000000000000000000000000000000000000000000000000000000000707070707070707070707000707070707070700000000000000000000000000000000000000000000000000
310
00000000000000000000000000000000000000000000000000000000000000000000000000000000000000000000000000000000000000000000000000000000000000000000000000000000000000000000000000000000000000000000000000000000000000000000000000000000000000000000000000000000000000
310
000000000000000000000000000000000000000000000000000000000000000000000000000000000000000000000000000000000000000000000000000000000000000000000000000000000000000000000000000000000000000000000000000000000000000000000000
  0
ENDSEC
  0
EOF
