  0
SECTION
  2
HEADER
  9
$ACADVER
  1
AC1015
  9
$ACADMAINTVER
 70
     6
  9
$DWGCODEPAGE
  3
ANSI_1252
  9
$INSBASE
 10
0.0
 20
0.0
 30
0.0
  9
$EXTMIN
 10
0.007
 20
0.022
 30
0.0
  9
$EXTMAX
 10
251.993
 20
225.978
 30
0.0
  9
$LIMMIN
 10
0.0
 20
0.0
  9
$LIMMAX
 10
12.0
 20
9.0
  9
$ORTHOMODE
 70
     0
  9
$REGENMODE
 70
     1
  9
$FILLMODE
 70
     1
  9
$QTEXTMODE
 70
     0
  9
$MIRRTEXT
 70
     1
  9
$LTSCALE
 40
1.0
  9
$ATTMODE
 70
     1
  9
$TEXTSIZE
 40
0.2
  9
$TRACEWID
 40
0.05
  9
$TEXTSTYLE
  7
Standard
  9
$CLAYER
  8
0
  9
$CELTYPE
  6
ByBlock
  9
$CECOLOR
 62
   256
  9
$CELTSCALE
 40
1.0
  9
$DISPSILH
 70
     0
  9
$DIMSCALE
 40
1.0
  9
$DIMASZ
 40
0.18
  9
$DIMEXO
 40
0.0625
  9
$DIMDLI
 40
0.38
  9
$DIMRND
 40
0.0
  9
$DIMDLE
 40
0.0
  9
$DIMEXE
 40
0.18
  9
$DIMTP
 40
0.0
  9
$DIMTM
 40
0.0
  9
$DIMTXT
 40
0.18
  9
$DIMCEN
 40
0.09
  9
$DIMTSZ
 40
0.0
  9
$DIMTOL
 70
     0
  9
$DIMLIM
 70
     0
  9
$DIMTIH
 70
     1
  9
$DIMTOH
 70
     1
  9
$DIMSE1
 70
     0
  9
$DIMSE2
 70
     0
  9
$DIMTAD
 70
     0
  9
$DIMZIN
 70
     0
  9
$DIMBLK
  1

  9
$DIMASO
 70
     1
  9
$DIMSHO
 70
     1
  9
$DIMPOST
  1

  9
$DIMAPOST
  1

  9
$DIMALT
 70
     0
  9
$DIMALTD
 70
     2
  9
$DIMALTF
 40
25.4
  9
$DIMLFAC
 40
1.0
  9
$DIMTOFL
 70
     0
  9
$DIMTVP
 40
0.0
  9
$DIMTIX
 70
     0
  9
$DIMSOXD
 70
     0
  9
$DIMSAH
 70
     0
  9
$DIMBLK1
  1

  9
$DIMBLK2
  1

  9
$DIMSTYLE
  2
Standard
  9
$DIMCLRD
 70
     0
  9
$DIMCLRE
 70
     0
  9
$DIMCLRT
 70
     0
  9
$DIMTFAC
 40
1.0
  9
$DIMGAP
 40
0.09
  9
$DIMJUST
 70
     0
  9
$DIMSD1
 70
     0
  9
$DIMSD2
 70
     0
  9
$DIMTOLJ
 70
     1
  9
$DIMTZIN
 70
     0
  9
$DIMALTZ
 70
     0
  9
$DIMALTTZ
 70
     0
  9
$DIMUPT
 70
     0
  9
$DIMDEC
 70
     4
  9
$DIMTDEC
 70
     4
  9
$DIMALTU
 70
     2
  9
$DIMALTTD
 70
     2
  9
$DIMTXSTY
  7
Standard
  9
$DIMAUNIT
 70
     0
  9
$DIMADEC
 70
     0
  9
$DIMALTRND
 40
0.0
  9
$DIMAZIN
 70
     0
  9
$DIMDSEP
 70
    46
  9
$DIMATFIT
 70
     3
  9
$DIMFRAC
 70
     0
  9
$DIMLDRBLK
  1

  9
$DIMLUNIT
 70
     2
  9
$DIMLWD
 70
    -2
  9
$DIMLWE
 70
    -2
  9
$DIMTMOVE
 70
     2
  9
$LUNITS
 70
     2
  9
$LUPREC
 70
     4
  9
$SKETCHINC
 40
0.1
  9
$FILLETRAD
 40
0.5
  9
$AUNITS
 70
     0
  9
$AUPREC
 70
     0
  9
$MENU
  1
.
  9
$ELEVATION
 40
0.0
  9
$PELEVATION
 40
0.0
  9
$THICKNESS
 40
0.0
  9
$LIMCHECK
 70
     0
  9
$CHAMFERA
 40
0.5
  9
$CHAMFERB
 40
0.5
  9
$CHAMFERC
 40
1.0
  9
$CHAMFERD
 40
0.0
  9
$SKPOLY
 70
     0
  9
$TDCREATE
 40
2456646.37138581
  9
$TDUCREATE
 40
2456646.329719143
  9
$TDUPDATE
 40
2456646.375490625
  9
$TDUUPDATE
 40
2456646.333823958
  9
$TDINDWG
 40
0.0041046412
  9
$TDUSRTIMER
 40
0.0041046412
  9
$USRTIMER
 70
     1
  9
$ANGBASE
 50
0.0
  9
$ANGDIR
 70
     0
  9
$PDMODE
 70
     0
  9
$PDSIZE
 40
0.0
  9
$PLINEWID
 40
0.0
  9
$SPLFRAME
 70
     0
  9
$SPLINETYPE
 70
     6
  9
$SPLINESEGS
 70
     8
  9
$HANDSEED
  5
406
  9
$SURFTAB1
 70
     6
  9
$SURFTAB2
 70
     6
  9
$SURFTYPE
 70
     6
  9
$SURFU
 70
     6
  9
$SURFV
 70
     6
  9
$UCSBASE
  2

  9
$UCSNAME
  2

  9
$UCSORG
 10
0.0
 20
0.0
 30
0.0
  9
$UCSXDIR
 10
1.0
 20
0.0
 30
0.0
  9
$UCSYDIR
 10
0.0
 20
1.0
 30
0.0
  9
$UCSORTHOREF
  2

  9
$UCSORTHOVIEW
 70
     0
  9
$UCSORGTOP
 10
0.0
 20
0.0
 30
0.0
  9
$UCSORGBOTTOM
 10
0.0
 20
0.0
 30
0.0
  9
$UCSORGLEFT
 10
0.0
 20
0.0
 30
0.0
  9
$UCSORGRIGHT
 10
0.0
 20
0.0
 30
0.0
  9
$UCSORGFRONT
 10
0.0
 20
0.0
 30
0.0
  9
$UCSORGBACK
 10
0.0
 20
0.0
 30
0.0
  9
$PUCSBASE
  2

  9
$PUCSNAME
  2

  9
$PUCSORG
 10
0.0
 20
0.0
 30
0.0
  9
$PUCSXDIR
 10
1.0
 20
0.0
 30
0.0
  9
$PUCSYDIR
 10
0.0
 20
1.0
 30
0.0
  9
$PUCSORTHOREF
  2

  9
$PUCSORTHOVIEW
 70
     0
  9
$PUCSORGTOP
 10
0.0
 20
0.0
 30
0.0
  9
$PUCSORGBOTTOM
 10
0.0
 20
0.0
 30
0.0
  9
$PUCSORGLEFT
 10
0.0
 20
0.0
 30
0.0
  9
$PUCSORGRIGHT
 10
0.0
 20
0.0
 30
0.0
  9
$PUCSORGFRONT
 10
0.0
 20
0.0
 30
0.0
  9
$PUCSORGBACK
 10
0.0
 20
0.0
 30
0.0
  9
$USERI1
 70
     0
  9
$USERI2
 70
     0
  9
$USERI3
 70
     0
  9
$USERI4
 70
     0
  9
$USERI5
 70
     0
  9
$USERR1
 40
0.0
  9
$USERR2
 40
0.0
  9
$USERR3
 40
0.0
  9
$USERR4
 40
0.0
  9
$USERR5
 40
0.0
  9
$WORLDVIEW
 70
     1
  9
$SHADEDGE
 70
     3
  9
$SHADEDIF
 70
    70
  9
$TILEMODE
 70
     1
  9
$MAXACTVP
 70
    64
  9
$PINSBASE
 10
0.0
 20
0.0
 30
0.0
  9
$PLIMCHECK
 70
     0
  9
$PEXTMIN
 10
1.000000000000E+20
 20
1.000000000000E+20
 30
1.000000000000E+20
  9
$PEXTMAX
 10
-1.000000000000E+20
 20
-1.000000000000E+20
 30
-1.000000000000E+20
  9
$PLIMMIN
 10
0.0
 20
0.0
  9
$PLIMMAX
 10
12.0
 20
9.0
  9
$UNITMODE
 70
     0
  9
$VISRETAIN
 70
     1
  9
$PLINEGEN
 70
     0
  9
$PSLTSCALE
 70
     1
  9
$TREEDEPTH
 70
  3020
  9
$CMLSTYLE
  2
Standard
  9
$CMLJUST
 70
     0
  9
$CMLSCALE
 40
1.0
  9
$PROXYGRAPHICS
 70
     1
  9
$MEASUREMENT
 70
     0
  9
$CELWEIGHT
370
    -1
  9
$ENDCAPS
280
     0
  9
$JOINSTYLE
280
     0
  9
$LWDISPLAY
290
     0
  9
$INSUNITS
 70
     0
  9
$HYPERLINKBASE
  1

  9
$STYLESHEET
  1

  9
$XEDIT
290
     1
  9
$CEPSNTYPE
380
     0
  9
$PSTYLEMODE
290
     1
  9
$FINGERPRINTGUID
  2
{23CB539F-60AD-42DD-98E9-9705BF6DCA00}
  9
$VERSIONGUID
  2
{FAEB1C32-E019-11D5-929B-00C0DF256EC4}
  9
$EXTNAMES
290
     1
  9
$PSVPSCALE
 40
0.0
  9
$OLESTARTUP
290
     0
  0
ENDSEC
  0
SECTION
  2
CLASSES
  0
CLASS
  1
ACDBDICTIONARYWDFLT
  2
AcDbDictionaryWithDefault
  3
ObjectDBX Classes
 90
        0
280
     0
281
     0
  0
CLASS
  1
SCALE
  2
AcDbScale
  3
ObjectDBX Classes
 90
     1153
280
     0
281
     0
  0
CLASS
  1
DICTIONARYVAR
  2
AcDbDictionaryVar
  3
ObjectDBX Classes
 90
        0
280
     0
281
     0
  0
CLASS
  1
ACDBPLACEHOLDER
  2
AcDbPlaceHolder
  3
ObjectDBX Classes
 90
        0
280
     0
281
     0
  0
CLASS
  1
LAYOUT
  2
AcDbLayout
  3
ObjectDBX Classes
 90
        0
280
     0
281
     0
  0
ENDSEC
  0
SECTION
  2
TABLES
  0
TABLE
  2
VPORT
  5
8
330
0
100
AcDbSymbolTable
 70
     1
  0
VPORT
  5
3D9
330
8
100
AcDbSymbolTableRecord
100
AcDbViewportTableRecord
  2
*Active
 70
     0
 10
0.0
 20
0.0
 11
1.0
 21
1.0
 12
125.9965
 22
112.989
 13
0.0
 23
0.0
 14
0.5
 24
0.5
 15
0.5
 25
0.5
 16
0.0
 26
0.0
 36
1.0
 17
0.0
 27
0.0
 37
0.0
 40
230.49756
 41
1.319001386963
 42
50.0
 43
0.0
 44
0.0
 50
0.0
 51
0.0
 71
    16
 72
   100
 73
     1
 74
     3
 75
     0
 76
     0
 77
     0
 78
     0
281
     0
 65
     1
110
0.0
120
0.0
130
0.0
111
1.0
121
0.0
131
0.0
112
0.0
122
1.0
132
0.0
 79
     0
146
0.0
  0
ENDTAB
  0
TABLE
  2
LTYPE
  5
5
330
0
100
AcDbSymbolTable
 70
     1
  0
LTYPE
  5
14
330
5
100
AcDbSymbolTableRecord
100
AcDbLinetypeTableRecord
  2
ByBlock
 70
     0
  3

 72
    65
 73
     0
 40
0.0
  0
LTYPE
  5
15
330
5
100
AcDbSymbolTableRecord
100
AcDbLinetypeTableRecord
  2
ByLayer
 70
     0
  3

 72
    65
 73
     0
 40
0.0
  0
LTYPE
  5
16
330
5
100
AcDbSymbolTableRecord
100
AcDbLinetypeTableRecord
  2
Continuous
 70
     0
  3
Solid line
 72
    65
 73
     0
 40
0.0
  0
ENDTAB
  0
TABLE
  2
LAYER
  5
2
330
0
100
AcDbSymbolTable
 70
     1
  0
LAYER
  5
10
330
2
100
AcDbSymbolTableRecord
100
AcDbLayerTableRecord
  2
0
 70
     0
 62
     7
  6
Continuous
370
    -3
390
F
  0
ENDTAB
  0
TABLE
  2
STYLE
  5
3
330
0
100
AcDbSymbolTable
 70
     1
  0
STYLE
  5
11
330
3
100
AcDbSymbolTableRecord
100
AcDbTextStyleTableRecord
  2
Standard
 70
     0
 40
0.0
 41
1.0
 50
0.0
 71
     0
 42
0.2
  3
txt
  4

  0
ENDTAB
  0
TABLE
  2
VIEW
  5
6
330
0
100
AcDbSymbolTable
 70
     0
  0
ENDTAB
  0
TABLE
  2
UCS
  5
7
330
0
100
AcDbSymbolTable
 70
     0
  0
ENDTAB
  0
TABLE
  2
APPID
  5
9
330
0
100
AcDbSymbolTable
 70
     1
  0
APPID
  5
12
330
9
100
AcDbSymbolTableRecord
100
AcDbRegAppTableRecord
  2
ACAD
 70
     0
  0
ENDTAB
  0
TABLE
  2
DIMSTYLE
  5
A
330
0
100
AcDbSymbolTable
 70
     1
100
AcDbDimStyleTable
  0
DIMSTYLE
105
20
330
A
100
AcDbSymbolTableRecord
100
AcDbDimStyleTableRecord
  2
Standard
 70
     0
340
11
  0
ENDTAB
  0
TABLE
  2
BLOCK_RECORD
  5
1
330
0
100
AcDbSymbolTable
 70
     0
  0
BLOCK_RECORD
  5
1D
330
1
100
AcDbSymbolTableRecord
100
AcDbBlockTableRecord
  2
*Model_Space
340
1E
  0
BLOCK_RECORD
  5
1B
330
1
100
AcDbSymbolTableRecord
100
AcDbBlockTableRecord
  2
*Paper_Space
340
1C
  0
ENDTAB
  0
ENDSEC
  0
SECTION
  2
BLOCKS
  0
BLOCK
  5
3DC
330
1D
100
AcDbEntity
  8
0
100
AcDbBlockBegin
  2
*Model_Space
 70
     0
 10
0.0
 20
0.0
 30
0.0
  3
*Model_Space
  1
*Model_Space
  0
ENDBLK
  5
3DD
330
1D
100
AcDbEntity
  8
0
100
AcDbBlockEnd
  0
BLOCK
  5
3DA
330
1B
100
AcDbEntity
 67
     1
  8
0
100
AcDbBlockBegin
  2
*Paper_Space
 70
     0
 10
0.0
 20
0.0
 30
0.0
  3
*Paper_Space
  1
*Paper_Space
  0
ENDBLK
  5
3DB
330
1B
100
AcDbEntity
 67
     1
  8
0
100
AcDbBlockEnd
  0
ENDSEC
  0
SECTION
  2
ENTITIES
  0
LINE
  5
21
330
1D
100
AcDbEntity
  8
0
100
AcDbLine
 10
26.6136
 20
0.022
 30
0.0
 11
29.0813
 21
0.022
 31
0.0
  0
LINE
  5
22
330
1D
100
AcDbEntity
  8
0
100
AcDbLine
 10
31.5217
 20
0.022
 30
0.0
 11
33.9114
 21
0.022
 31
0.0
  0
LINE
  5
23
330
1D
100
AcDbEntity
  8
0
100
AcDbLine
 10
29.0813
 20
0.022
 30
0.0
 11
31.5217
 21
0.022
 31
0.0
  0
LINE
  5
24
330
1D
100
AcDbEntity
  8
0
100
AcDbLine
 10
24.14
 20
0.022
 30
0.0
 11
26.6136
 21
0.022
 31
0.0
  0
LINE
  5
25
330
1D
100
AcDbEntity
  8
0
100
AcDbLine
 10
21.683
 20
0.022
 30
0.0
 11
24.14
 21
0.022
 31
0.0
  0
LINE
  5
26
330
1D
100
AcDbEntity
  8
0
100
AcDbLine
 10
33.9114
 20
0.022
 30
0.0
 11
36.23
 21
0.022
 31
0.0
  0
LINE
  5
27
330
1D
100
AcDbEntity
  8
0
100
AcDbLine
 10
28.1786
 20
0.022
 30
0.0
 11
30.5599
 21
0.022
 31
0.0
  0
LINE
  5
28
330
1D
100
AcDbEntity
  8
0
100
AcDbLine
 10
25.777
 20
0.022
 30
0.0
 11
28.1786
 21
0.022
 31
0.0
  0
LINE
  5
29
330
1D
100
AcDbEntity
  8
0
100
AcDbLine
 10
30.5599
 20
0.022
 30
0.0
 11
32.8976
 21
0.022
 31
0.0
  0
LINE
  5
2A
330
1D
100
AcDbEntity
  8
0
100
AcDbLine
 10
23.376
 20
0.022
 30
0.0
 11
25.777
 21
0.022
 31
0.0
  0
LINE
  5
2B
330
1D
100
AcDbEntity
  8
0
100
AcDbLine
 10
21.001
 20
0.022
 30
0.0
 11
23.376
 21
0.022
 31
0.0
  0
LINE
  5
2C
330
1D
100
AcDbEntity
  8
0
100
AcDbLine
 10
19.265
 20
0.022
 30
0.0
 11
21.683
 21
0.022
 31
0.0
  0
LINE
  5
2D
330
1D
100
AcDbEntity
  8
0
100
AcDbLine
 10
16.909
 20
0.022
 30
0.0
 11
19.265
 21
0.022
 31
0.0
  0
LINE
  5
2E
330
1D
100
AcDbEntity
  8
0
100
AcDbLine
 10
0.066
 20
0.022
 30
0.0
 11
0.359
 21
0.022
 31
0.0
  0
LINE
  5
2F
330
1D
100
AcDbEntity
  8
0
100
AcDbLine
 10
0.359
 20
0.022
 30
0.0
 11
0.885
 21
0.022
 31
0.0
  0
LINE
  5
30
330
1D
100
AcDbEntity
  8
0
100
AcDbLine
 10
0.007
 20
0.022
 30
0.0
 11
0.066
 21
0.022
 31
0.0
  0
LINE
  5
31
330
1D
100
AcDbEntity
  8
0
100
AcDbLine
 10
0.007
 20
0.022
 30
0.0
 11
0.066
 21
0.022
 31
0.0
  0
LINE
  5
32
330
1D
100
AcDbEntity
  8
0
100
AcDbLine
 10
0.007
 20
0.022
 30
0.0
 11
0.185
 21
0.022
 31
0.0
  0
LINE
  5
33
330
1D
100
AcDbEntity
  8
0
100
AcDbLine
 10
0.007
 20
0.022
 30
0.0
 11
0.007
 21
5.522
 31
0.0
  0
LINE
  5
34
330
1D
100
AcDbEntity
  8
0
100
AcDbLine
 10
0.007
 20
0.022
 30
0.0
 11
0.185
 21
0.022
 31
0.0
  0
LINE
  5
35
330
1D
100
AcDbEntity
  8
0
100
AcDbLine
 10
0.595
 20
0.022
 30
0.0
 11
1.236
 21
0.022
 31
0.0
  0
LINE
  5
36
330
1D
100
AcDbEntity
  8
0
100
AcDbLine
 10
0.185
 20
0.022
 30
0.0
 11
0.595
 21
0.022
 31
0.0
  0
LINE
  5
37
330
1D
100
AcDbEntity
  8
0
100
AcDbLine
 10
0.066
 20
0.022
 30
0.0
 11
0.359
 21
0.022
 31
0.0
  0
LINE
  5
38
330
1D
100
AcDbEntity
  8
0
100
AcDbLine
 10
35.1687
 20
0.022
 30
0.0
 11
37.3517
 21
0.022
 31
0.0
  0
LINE
  5
39
330
1D
100
AcDbEntity
  8
0
100
AcDbLine
 10
32.8976
 20
0.022
 30
0.0
 11
35.1687
 21
0.022
 31
0.0
  0
LINE
  5
3A
330
1D
100
AcDbEntity
  8
0
100
AcDbLine
 10
18.674
 20
0.022
 30
0.0
 11
21.001
 21
0.022
 31
0.0
  0
LINE
  5
3B
330
1D
100
AcDbEntity
  8
0
100
AcDbLine
 10
16.418
 20
0.022
 30
0.0
 11
18.674
 21
0.022
 31
0.0
  0
LINE
  5
3C
330
1D
100
AcDbEntity
  8
0
100
AcDbLine
 10
14.634
 20
0.022
 30
0.0
 11
16.909
 21
0.022
 31
0.0
  0
LINE
  5
3D
330
1D
100
AcDbEntity
  8
0
100
AcDbLine
 10
12.463
 20
0.022
 30
0.0
 11
14.634
 21
0.022
 31
0.0
  0
LINE
  5
3E
330
1D
100
AcDbEntity
  8
0
100
AcDbLine
 10
38.4557
 20
0.022
 30
0.0
 11
40.5691
 21
0.022
 31
0.0
  0
LINE
  5
3F
330
1D
100
AcDbEntity
  8
0
100
AcDbLine
 10
1.638
 20
0.022
 30
0.0
 11
2.611
 21
0.022
 31
0.0
  0
LINE
  5
40
330
1D
100
AcDbEntity
  8
0
100
AcDbLine
 10
10.285
 20
0.022
 30
0.0
 11
12.204
 21
0.022
 31
0.0
  0
LINE
  5
41
330
1D
100
AcDbEntity
  8
0
100
AcDbLine
 10
14.254
 20
0.022
 30
0.0
 11
16.418
 21
0.022
 31
0.0
  0
LINE
  5
42
330
1D
100
AcDbEntity
  8
0
100
AcDbLine
 10
12.204
 20
0.022
 30
0.0
 11
14.254
 21
0.022
 31
0.0
  0
LINE
  5
43
330
1D
100
AcDbEntity
  8
0
100
AcDbLine
 10
10.415
 20
0.022
 30
0.0
 11
12.463
 21
0.022
 31
0.0
  0
LINE
  5
44
330
1D
100
AcDbEntity
  8
0
100
AcDbLine
 10
8.518
 20
0.022
 30
0.0
 11
10.285
 21
0.022
 31
0.0
  0
LINE
  5
45
330
1D
100
AcDbEntity
  8
0
100
AcDbLine
 10
8.507
 20
0.022
 30
0.0
 11
10.415
 21
0.022
 31
0.0
  0
LINE
  5
46
330
1D
100
AcDbEntity
  8
0
100
AcDbLine
 10
6.921
 20
0.022
 30
0.0
 11
8.518
 21
0.022
 31
0.0
  0
LINE
  5
47
330
1D
100
AcDbEntity
  8
0
100
AcDbLine
 10
6.757
 20
0.022
 30
0.0
 11
8.507
 21
0.022
 31
0.0
  0
LINE
  5
48
330
1D
100
AcDbEntity
  8
0
100
AcDbLine
 10
5.505
 20
0.022
 30
0.0
 11
6.921
 21
0.022
 31
0.0
  0
LINE
  5
49
330
1D
100
AcDbEntity
  8
0
100
AcDbLine
 10
5.183
 20
0.022
 30
0.0
 11
6.757
 21
0.022
 31
0.0
  0
LINE
  5
4A
330
1D
100
AcDbEntity
  8
0
100
AcDbLine
 10
4.289
 20
0.022
 30
0.0
 11
5.505
 21
0.022
 31
0.0
  0
LINE
  5
4B
330
1D
100
AcDbEntity
  8
0
100
AcDbLine
 10
3.796
 20
0.022
 30
0.0
 11
5.183
 21
0.022
 31
0.0
  0
LINE
  5
4C
330
1D
100
AcDbEntity
  8
0
100
AcDbLine
 10
3.28
 20
0.022
 30
0.0
 11
4.289
 21
0.022
 31
0.0
  0
LINE
  5
4D
330
1D
100
AcDbEntity
  8
0
100
AcDbLine
 10
2.611
 20
0.022
 30
0.0
 11
3.796
 21
0.022
 31
0.0
  0
LINE
  5
4E
330
1D
100
AcDbEntity
  8
0
100
AcDbLine
 10
2.491
 20
0.022
 30
0.0
 11
3.28
 21
0.022
 31
0.0
  0
LINE
  5
4F
330
1D
100
AcDbEntity
  8
0
100
AcDbLine
 10
1.236
 20
0.022
 30
0.0
 11
2.101
 21
0.022
 31
0.0
  0
LINE
  5
50
330
1D
100
AcDbEntity
  8
0
100
AcDbLine
 10
1.501
 20
0.022
 30
0.0
 11
1.597
 21
0.022
 31
0.0
  0
LINE
  5
51
330
1D
100
AcDbEntity
  8
0
100
AcDbLine
 10
1.501
 20
0.022
 30
0.0
 11
1.641
 21
0.022
 31
0.0
  0
LINE
  5
52
330
1D
100
AcDbEntity
  8
0
100
AcDbLine
 10
2.101
 20
0.022
 30
0.0
 11
3.183
 21
0.022
 31
0.0
  0
LINE
  5
53
330
1D
100
AcDbEntity
  8
0
100
AcDbLine
 10
2.015
 20
0.022
 30
0.0
 11
2.621
 21
0.022
 31
0.0
  0
LINE
  5
54
330
1D
100
AcDbEntity
  8
0
100
AcDbLine
 10
3.452
 20
0.022
 30
0.0
 11
4.5
 21
0.022
 31
0.0
  0
LINE
  5
55
330
1D
100
AcDbEntity
  8
0
100
AcDbLine
 10
2.621
 20
0.022
 30
0.0
 11
3.452
 21
0.022
 31
0.0
  0
LINE
  5
56
330
1D
100
AcDbEntity
  8
0
100
AcDbLine
 10
1.641
 20
0.022
 30
0.0
 11
2.015
 21
0.022
 31
0.0
  0
LINE
  5
57
330
1D
100
AcDbEntity
  8
0
100
AcDbLine
 10
1.597
 20
0.022
 30
0.0
 11
1.928
 21
0.022
 31
0.0
  0
LINE
  5
58
330
1D
100
AcDbEntity
  8
0
100
AcDbLine
 10
1.928
 20
0.022
 30
0.0
 11
2.491
 21
0.022
 31
0.0
  0
LINE
  5
59
330
1D
100
AcDbEntity
  8
0
100
AcDbLine
 10
46.2463
 20
0.022
 30
0.0
 11
47.5004
 21
0.022
 31
0.0
  0
LINE
  5
5A
330
1D
100
AcDbEntity
  8
0
100
AcDbLine
 10
46.0456
 20
0.022
 30
0.0
 11
47.5289
 21
0.022
 31
0.0
  0
LINE
  5
5B
330
1D
100
AcDbEntity
  8
0
100
AcDbLine
 10
44.7962
 20
0.022
 30
0.0
 11
46.2463
 21
0.022
 31
0.0
  0
LINE
  5
5C
330
1D
100
AcDbEntity
  8
0
100
AcDbLine
 10
44.3814
 20
0.022
 30
0.0
 11
46.0456
 21
0.022
 31
0.0
  0
LINE
  5
5D
330
1D
100
AcDbEntity
  8
0
100
AcDbLine
 10
43.1653
 20
0.022
 30
0.0
 11
44.7962
 21
0.022
 31
0.0
  0
LINE
  5
5E
330
1D
100
AcDbEntity
  8
0
100
AcDbLine
 10
42.5498
 20
0.022
 30
0.0
 11
44.3814
 21
0.022
 31
0.0
  0
LINE
  5
5F
330
1D
100
AcDbEntity
  8
0
100
AcDbLine
 10
41.3694
 20
0.022
 30
0.0
 11
43.1653
 21
0.022
 31
0.0
  0
LINE
  5
60
330
1D
100
AcDbEntity
  8
0
100
AcDbLine
 10
40.5691
 20
0.022
 30
0.0
 11
42.5498
 21
0.022
 31
0.0
  0
LINE
  5
61
330
1D
100
AcDbEntity
  8
0
100
AcDbLine
 10
39.4252
 20
0.022
 30
0.0
 11
41.3694
 21
0.022
 31
0.0
  0
LINE
  5
62
330
1D
100
AcDbEntity
  8
0
100
AcDbLine
 10
37.3517
 20
0.022
 30
0.0
 11
39.4252
 21
0.022
 31
0.0
  0
LINE
  5
63
330
1D
100
AcDbEntity
  8
0
100
AcDbLine
 10
47.5289
 20
0.022
 30
0.0
 11
48.8175
 21
0.022
 31
0.0
  0
LINE
  5
64
330
1D
100
AcDbEntity
  8
0
100
AcDbLine
 10
48.8175
 20
0.022
 30
0.0
 11
49.8984
 21
0.022
 31
0.0
  0
LINE
  5
65
330
1D
100
AcDbEntity
  8
0
100
AcDbLine
 10
47.7114
 20
0.022
 30
0.0
 11
48.7196
 21
0.022
 31
0.0
  0
LINE
  5
66
330
1D
100
AcDbEntity
  8
0
100
AcDbLine
 10
48.7196
 20
0.022
 30
0.0
 11
49.5089
 21
0.022
 31
0.0
  0
LINE
  5
67
330
1D
100
AcDbEntity
  8
0
100
AcDbLine
 10
49.3788
 20
0.022
 30
0.0
 11
49.9848
 21
0.022
 31
0.0
  0
LINE
  5
68
330
1D
100
AcDbEntity
  8
0
100
AcDbLine
 10
48.5483
 20
0.022
 30
0.0
 11
49.3788
 21
0.022
 31
0.0
  0
LINE
  5
69
330
1D
100
AcDbEntity
  8
0
100
AcDbLine
 10
47.5004
 20
0.022
 30
0.0
 11
48.5483
 21
0.022
 31
0.0
  0
LINE
  5
6A
330
1D
100
AcDbEntity
  8
0
100
AcDbLine
 10
4.5
 20
0.022
 30
0.0
 11
5.754
 21
0.022
 31
0.0
  0
LINE
  5
6B
330
1D
100
AcDbEntity
  8
0
100
AcDbLine
 10
3.183
 20
0.022
 30
0.0
 11
4.471
 21
0.022
 31
0.0
  0
LINE
  5
6C
330
1D
100
AcDbEntity
  8
0
100
AcDbLine
 10
5.754
 20
0.022
 30
0.0
 11
7.204
 21
0.022
 31
0.0
  0
LINE
  5
6D
330
1D
100
AcDbEntity
  8
0
100
AcDbLine
 10
4.471
 20
0.022
 30
0.0
 11
5.954
 21
0.022
 31
0.0
  0
LINE
  5
6E
330
1D
100
AcDbEntity
  8
0
100
AcDbLine
 10
7.204
 20
0.022
 30
0.0
 11
8.835
 21
0.022
 31
0.0
  0
LINE
  5
6F
330
1D
100
AcDbEntity
  8
0
100
AcDbLine
 10
5.954
 20
0.022
 30
0.0
 11
7.619
 21
0.022
 31
0.0
  0
LINE
  5
70
330
1D
100
AcDbEntity
  8
0
100
AcDbLine
 10
8.835
 20
0.022
 30
0.0
 11
10.631
 21
0.022
 31
0.0
  0
LINE
  5
71
330
1D
100
AcDbEntity
  8
0
100
AcDbLine
 10
7.619
 20
0.022
 30
0.0
 11
9.45
 21
0.022
 31
0.0
  0
LINE
  5
72
330
1D
100
AcDbEntity
  8
0
100
AcDbLine
 10
45.0794
 20
0.022
 30
0.0
 11
46.4946
 21
0.022
 31
0.0
  0
LINE
  5
73
330
1D
100
AcDbEntity
  8
0
100
AcDbLine
 10
46.4946
 20
0.022
 30
0.0
 11
47.7114
 21
0.022
 31
0.0
  0
LINE
  5
74
330
1D
100
AcDbEntity
  8
0
100
AcDbLine
 10
41.7145
 20
0.022
 30
0.0
 11
43.4818
 21
0.022
 31
0.0
  0
LINE
  5
75
330
1D
100
AcDbEntity
  8
0
100
AcDbLine
 10
43.4818
 20
0.022
 30
0.0
 11
45.0794
 21
0.022
 31
0.0
  0
LINE
  5
76
330
1D
100
AcDbEntity
  8
0
100
AcDbLine
 10
45.242
 20
0.022
 30
0.0
 11
46.817
 21
0.022
 31
0.0
  0
LINE
  5
77
330
1D
100
AcDbEntity
  8
0
100
AcDbLine
 10
46.817
 20
0.022
 30
0.0
 11
48.2038
 21
0.022
 31
0.0
  0
LINE
  5
78
330
1D
100
AcDbEntity
  8
0
100
AcDbLine
 10
48.2038
 20
0.022
 30
0.0
 11
49.3891
 21
0.022
 31
0.0
  0
LINE
  5
79
330
1D
100
AcDbEntity
  8
0
100
AcDbLine
 10
12.575
 20
0.022
 30
0.0
 11
14.648
 21
0.022
 31
0.0
  0
LINE
  5
7A
330
1D
100
AcDbEntity
  8
0
100
AcDbLine
 10
39.7964
 20
0.022
 30
0.0
 11
41.7145
 21
0.022
 31
0.0
  0
LINE
  5
7B
330
1D
100
AcDbEntity
  8
0
100
AcDbLine
 10
37.7459
 20
0.022
 30
0.0
 11
39.7964
 21
0.022
 31
0.0
  0
LINE
  5
7C
330
1D
100
AcDbEntity
  8
0
100
AcDbLine
 10
41.5856
 20
0.022
 30
0.0
 11
43.4929
 21
0.022
 31
0.0
  0
LINE
  5
7D
330
1D
100
AcDbEntity
  8
0
100
AcDbLine
 10
43.4929
 20
0.022
 30
0.0
 11
45.242
 21
0.022
 31
0.0
  0
LINE
  5
7E
330
1D
100
AcDbEntity
  8
0
100
AcDbLine
 10
10.631
 20
0.022
 30
0.0
 11
12.575
 21
0.022
 31
0.0
  0
LINE
  5
7F
330
1D
100
AcDbEntity
  8
0
100
AcDbLine
 10
9.45
 20
0.022
 30
0.0
 11
11.431
 21
0.022
 31
0.0
  0
LINE
  5
80
330
1D
100
AcDbEntity
  8
0
100
AcDbLine
 10
49.3891
 20
0.022
 30
0.0
 11
50.3624
 21
0.022
 31
0.0
  0
LINE
  5
81
330
1D
100
AcDbEntity
  8
0
100
AcDbLine
 10
50.3592
 20
0.022
 30
0.0
 11
50.4988
 21
0.022
 31
0.0
  0
LINE
  5
82
330
1D
100
AcDbEntity
  8
0
100
AcDbLine
 10
49.9848
 20
0.022
 30
0.0
 11
50.3592
 21
0.022
 31
0.0
  0
LINE
  5
83
330
1D
100
AcDbEntity
  8
0
100
AcDbLine
 10
49.8984
 20
0.022
 30
0.0
 11
50.7636
 21
0.022
 31
0.0
  0
LINE
  5
84
330
1D
100
AcDbEntity
  8
0
100
AcDbLine
 10
50.0721
 20
0.022
 30
0.0
 11
50.4029
 21
0.022
 31
0.0
  0
LINE
  5
85
330
1D
100
AcDbEntity
  8
0
100
AcDbLine
 10
49.5089
 20
0.022
 30
0.0
 11
50.0721
 21
0.022
 31
0.0
  0
LINE
  5
86
330
1D
100
AcDbEntity
  8
0
100
AcDbLine
 10
14.648
 20
0.022
 30
0.0
 11
16.831
 21
0.022
 31
0.0
  0
LINE
  5
87
330
1D
100
AcDbEntity
  8
0
100
AcDbLine
 10
16.831
 20
0.022
 30
0.0
 11
19.102
 21
0.022
 31
0.0
  0
LINE
  5
88
330
1D
100
AcDbEntity
  8
0
100
AcDbLine
 10
13.544
 20
0.022
 30
0.0
 11
15.77
 21
0.022
 31
0.0
  0
LINE
  5
89
330
1D
100
AcDbEntity
  8
0
100
AcDbLine
 10
33.326
 20
0.022
 30
0.0
 11
35.582
 21
0.022
 31
0.0
  0
LINE
  5
8A
330
1D
100
AcDbEntity
  8
0
100
AcDbLine
 10
35.582
 20
0.022
 30
0.0
 11
37.7459
 21
0.022
 31
0.0
  0
LINE
  5
8B
330
1D
100
AcDbEntity
  8
0
100
AcDbLine
 10
19.102
 20
0.022
 30
0.0
 11
21.44
 21
0.022
 31
0.0
  0
LINE
  5
8C
330
1D
100
AcDbEntity
  8
0
100
AcDbLine
 10
15.77
 20
0.022
 30
0.0
 11
18.088
 21
0.022
 31
0.0
  0
LINE
  5
8D
330
1D
100
AcDbEntity
  8
0
100
AcDbLine
 10
21.44
 20
0.022
 30
0.0
 11
23.821
 21
0.022
 31
0.0
  0
LINE
  5
8E
330
1D
100
AcDbEntity
  8
0
100
AcDbLine
 10
18.088
 20
0.022
 30
0.0
 11
20.478
 21
0.022
 31
0.0
  0
LINE
  5
8F
330
1D
100
AcDbEntity
  8
0
100
AcDbLine
 10
23.821
 20
0.022
 30
0.0
 11
26.2233
 21
0.022
 31
0.0
  0
LINE
  5
90
330
1D
100
AcDbEntity
  8
0
100
AcDbLine
 10
26.2233
 20
0.022
 30
0.0
 11
28.6236
 21
0.022
 31
0.0
  0
LINE
  5
91
330
1D
100
AcDbEntity
  8
0
100
AcDbLine
 10
28.6236
 20
0.022
 30
0.0
 11
30.9986
 21
0.022
 31
0.0
  0
LINE
  5
92
330
1D
100
AcDbEntity
  8
0
100
AcDbLine
 10
30.9986
 20
0.022
 30
0.0
 11
33.326
 21
0.022
 31
0.0
  0
LINE
  5
93
330
1D
100
AcDbEntity
  8
0
100
AcDbLine
 10
20.478
 20
0.022
 30
0.0
 11
22.919
 21
0.022
 31
0.0
  0
LINE
  5
94
330
1D
100
AcDbEntity
  8
0
100
AcDbLine
 10
22.919
 20
0.022
 30
0.0
 11
25.386
 21
0.022
 31
0.0
  0
LINE
  5
95
330
1D
100
AcDbEntity
  8
0
100
AcDbLine
 10
25.386
 20
0.022
 30
0.0
 11
27.8599
 21
0.022
 31
0.0
  0
LINE
  5
96
330
1D
100
AcDbEntity
  8
0
100
AcDbLine
 10
27.8599
 20
0.022
 30
0.0
 11
30.3164
 21
0.022
 31
0.0
  0
LINE
  5
97
330
1D
100
AcDbEntity
  8
0
100
AcDbLine
 10
30.3164
 20
0.022
 30
0.0
 11
32.7345
 21
0.022
 31
0.0
  0
LINE
  5
98
330
1D
100
AcDbEntity
  8
0
100
AcDbLine
 10
32.7345
 20
0.022
 30
0.0
 11
35.091
 21
0.022
 31
0.0
  0
LINE
  5
99
330
1D
100
AcDbEntity
  8
0
100
AcDbLine
 10
35.091
 20
0.022
 30
0.0
 11
37.3656
 21
0.022
 31
0.0
  0
LINE
  5
9A
330
1D
100
AcDbEntity
  8
0
100
AcDbLine
 10
37.3656
 20
0.022
 30
0.0
 11
39.5362
 21
0.022
 31
0.0
  0
LINE
  5
9B
330
1D
100
AcDbEntity
  8
0
100
AcDbLine
 10
39.5362
 20
0.022
 30
0.0
 11
41.5856
 21
0.022
 31
0.0
  0
LINE
  5
9C
330
1D
100
AcDbEntity
  8
0
100
AcDbLine
 10
11.431
 20
0.022
 30
0.0
 11
13.544
 21
0.022
 31
0.0
  0
LINE
  5
9D
330
1D
100
AcDbEntity
  8
0
100
AcDbLine
 10
0.885
 20
0.022
 30
0.0
 11
1.638
 21
0.022
 31
0.0
  0
LINE
  5
9E
330
1D
100
AcDbEntity
  8
0
100
AcDbLine
 10
36.23
 20
0.022
 30
0.0
 11
38.4557
 21
0.022
 31
0.0
  0
LINE
  5
9F
330
1D
100
AcDbEntity
  8
0
100
AcDbLine
 10
50.7636
 20
0.022
 30
0.0
 11
51.4049
 21
0.022
 31
0.0
  0
LINE
  5
A0
330
1D
100
AcDbEntity
  8
0
100
AcDbLine
 10
51.4049
 20
0.022
 30
0.0
 11
51.8153
 21
0.022
 31
0.0
  0
LINE
  5
A1
330
1D
100
AcDbEntity
  8
0
100
AcDbLine
 10
50.4029
 20
0.022
 30
0.0
 11
50.4988
 21
0.022
 31
0.0
  0
LINE
  5
A2
330
1D
100
AcDbEntity
  8
0
100
AcDbLine
 10
51.6411
 20
0.022
 30
0.0
 11
51.9338
 21
0.022
 31
0.0
  0
LINE
  5
A3
330
1D
100
AcDbEntity
  8
0
100
AcDbLine
 10
51.8153
 20
0.022
 30
0.0
 11
51.9925
 21
0.022
 31
0.0
  0
LINE
  5
A4
330
1D
100
AcDbEntity
  8
0
100
AcDbLine
 10
100.066
 20
0.022
 30
0.0
 11
100.361
 21
0.022
 31
0.0
  0
LINE
  5
A5
330
1D
100
AcDbEntity
  8
0
100
AcDbLine
 10
100.361
 20
0.022
 30
0.0
 11
100.887
 21
0.022
 31
0.0
  0
LINE
  5
A6
330
1D
100
AcDbEntity
  8
0
100
AcDbLine
 10
100.887
 20
0.022
 30
0.0
 11
101.641
 21
0.022
 31
0.0
  0
LINE
  5
A7
330
1D
100
AcDbEntity
  8
0
100
AcDbLine
 10
101.641
 20
0.022
 30
0.0
 11
102.616
 21
0.022
 31
0.0
  0
LINE
  5
A8
330
1D
100
AcDbEntity
  8
0
100
AcDbLine
 10
102.616
 20
0.022
 30
0.0
 11
103.802
 21
0.022
 31
0.0
  0
LINE
  5
A9
330
1D
100
AcDbEntity
  8
0
100
AcDbLine
 10
103.802
 20
0.022
 30
0.0
 11
105.189
 21
0.022
 31
0.0
  0
LINE
  5
AA
330
1D
100
AcDbEntity
  8
0
100
AcDbLine
 10
105.189
 20
0.022
 30
0.0
 11
106.765
 21
0.022
 31
0.0
  0
LINE
  5
AB
330
1D
100
AcDbEntity
  8
0
100
AcDbLine
 10
106.765
 20
0.022
 30
0.0
 11
108.515
 21
0.022
 31
0.0
  0
LINE
  5
AC
330
1D
100
AcDbEntity
  8
0
100
AcDbLine
 10
108.515
 20
0.022
 30
0.0
 11
110.423
 21
0.022
 31
0.0
  0
LINE
  5
AD
330
1D
100
AcDbEntity
  8
0
100
AcDbLine
 10
110.423
 20
0.022
 30
0.0
 11
112.472
 21
0.022
 31
0.0
  0
LINE
  5
AE
330
1D
100
AcDbEntity
  8
0
100
AcDbLine
 10
112.472
 20
0.022
 30
0.0
 11
114.644
 21
0.022
 31
0.0
  0
LINE
  5
AF
330
1D
100
AcDbEntity
  8
0
100
AcDbLine
 10
114.644
 20
0.022
 30
0.0
 11
116.919
 21
0.022
 31
0.0
  0
LINE
  5
B0
330
1D
100
AcDbEntity
  8
0
100
AcDbLine
 10
116.919
 20
0.022
 30
0.0
 11
119.276
 21
0.022
 31
0.0
  0
LINE
  5
B1
330
1D
100
AcDbEntity
  8
0
100
AcDbLine
 10
119.276
 20
0.022
 30
0.0
 11
121.693
 21
0.022
 31
0.0
  0
LINE
  5
B2
330
1D
100
AcDbEntity
  8
0
100
AcDbLine
 10
121.693
 20
0.022
 30
0.0
 11
124.151
 21
0.022
 31
0.0
  0
LINE
  5
B3
330
1D
100
AcDbEntity
  8
0
100
AcDbLine
 10
124.151
 20
0.022
 30
0.0
 11
126.624
 21
0.022
 31
0.0
  0
LINE
  5
B4
330
1D
100
AcDbEntity
  8
0
100
AcDbLine
 10
100.593
 20
0.022
 30
0.0
 11
101.233
 21
0.022
 31
0.0
  0
LINE
  5
B5
330
1D
100
AcDbEntity
  8
0
100
AcDbLine
 10
100.183
 20
0.022
 30
0.0
 11
100.593
 21
0.022
 31
0.0
  0
LINE
  5
B6
330
1D
100
AcDbEntity
  8
0
100
AcDbLine
 10
100.007
 20
0.022
 30
0.0
 11
100.066
 21
0.022
 31
0.0
  0
LINE
  5
B7
330
1D
100
AcDbEntity
  8
0
100
AcDbLine
 10
100.007
 20
0.022
 30
0.0
 11
100.007
 21
5.522
 31
0.0
  0
LINE
  5
B8
330
1D
100
AcDbEntity
  8
0
100
AcDbLine
 10
100.007
 20
0.022
 30
0.0
 11
100.183
 21
0.022
 31
0.0
  0
LINE
  5
B9
330
1D
100
AcDbEntity
  8
0
100
AcDbLine
 10
51.9925
 20
0.022
 30
0.0
 11
51.9925
 21
5.522
 31
0.0
  0
LINE
  5
BA
330
1D
100
AcDbEntity
  8
0
100
AcDbLine
 10
51.9338
 20
0.022
 30
0.0
 11
51.9925
 21
0.022
 31
0.0
  0
LINE
  5
BB
330
1D
100
AcDbEntity
  8
0
100
AcDbLine
 10
111.422
 20
0.022
 30
0.0
 11
113.535
 21
0.022
 31
0.0
  0
LINE
  5
BC
330
1D
100
AcDbEntity
  8
0
100
AcDbLine
 10
109.442
 20
0.022
 30
0.0
 11
111.422
 21
0.022
 31
0.0
  0
LINE
  5
BD
330
1D
100
AcDbEntity
  8
0
100
AcDbLine
 10
107.611
 20
0.022
 30
0.0
 11
109.442
 21
0.022
 31
0.0
  0
LINE
  5
BE
330
1D
100
AcDbEntity
  8
0
100
AcDbLine
 10
105.948
 20
0.022
 30
0.0
 11
107.611
 21
0.022
 31
0.0
  0
LINE
  5
BF
330
1D
100
AcDbEntity
  8
0
100
AcDbLine
 10
104.465
 20
0.022
 30
0.0
 11
105.948
 21
0.022
 31
0.0
  0
LINE
  5
C0
330
1D
100
AcDbEntity
  8
0
100
AcDbLine
 10
103.178
 20
0.022
 30
0.0
 11
104.465
 21
0.022
 31
0.0
  0
LINE
  5
C1
330
1D
100
AcDbEntity
  8
0
100
AcDbLine
 10
102.097
 20
0.022
 30
0.0
 11
103.178
 21
0.022
 31
0.0
  0
LINE
  5
C2
330
1D
100
AcDbEntity
  8
0
100
AcDbLine
 10
101.233
 20
0.022
 30
0.0
 11
102.097
 21
0.022
 31
0.0
  0
LINE
  5
C3
330
1D
100
AcDbEntity
  8
0
100
AcDbLine
 10
125.376
 20
0.022
 30
0.0
 11
127.849
 21
0.022
 31
0.0
  0
LINE
  5
C4
330
1D
100
AcDbEntity
  8
0
100
AcDbLine
 10
122.908
 20
0.022
 30
0.0
 11
125.376
 21
0.022
 31
0.0
  0
LINE
  5
C5
330
1D
100
AcDbEntity
  8
0
100
AcDbLine
 10
120.468
 20
0.022
 30
0.0
 11
122.908
 21
0.022
 31
0.0
  0
LINE
  5
C6
330
1D
100
AcDbEntity
  8
0
100
AcDbLine
 10
118.078
 20
0.022
 30
0.0
 11
120.468
 21
0.022
 31
0.0
  0
LINE
  5
C7
330
1D
100
AcDbEntity
  8
0
100
AcDbLine
 10
115.76
 20
0.022
 30
0.0
 11
118.078
 21
0.022
 31
0.0
  0
LINE
  5
C8
330
1D
100
AcDbEntity
  8
0
100
AcDbLine
 10
113.535
 20
0.022
 30
0.0
 11
115.76
 21
0.022
 31
0.0
  0
LINE
  5
C9
330
1D
100
AcDbEntity
  8
0
100
AcDbLine
 10
51.1152
 20
0.022
 30
0.0
 11
51.6411
 21
0.022
 31
0.0
  0
LINE
  5
CA
330
1D
100
AcDbEntity
  8
0
100
AcDbLine
 10
50.3624
 20
0.022
 30
0.0
 11
51.1152
 21
0.022
 31
0.0
  0
LINE
  5
CB
330
1D
100
AcDbEntity
  8
0
100
AcDbLine
 10
0.007
 20
5.522
 30
0.0
 11
0.075
 21
5.772
 31
0.0
  0
LINE
  5
CC
330
1D
100
AcDbEntity
  8
0
100
AcDbLine
 10
0.258
 20
5.95501
 30
0.0
 11
0.507
 21
6.022
 31
0.0
  0
LINE
  5
CD
330
1D
100
AcDbEntity
  8
0
100
AcDbLine
 10
0.075
 20
5.772
 30
0.0
 11
0.258
 21
5.95501
 31
0.0
  0
LINE
  5
CE
330
1D
100
AcDbEntity
  8
0
100
AcDbLine
 10
0.007
 20
5.522
 30
0.0
 11
0.007
 21
0.022
 31
0.0
  0
LINE
  5
CF
330
1D
100
AcDbEntity
  8
0
100
AcDbLine
 10
0.007
 20
5.522
 30
0.0
 11
0.075
 21
5.772
 31
0.0
  0
LINE
  5
D0
330
1D
100
AcDbEntity
  8
0
100
AcDbLine
 10
0.507
 20
6.022
 30
0.0
 11
0.681
 21
6.022
 31
0.0
  0
LINE
  5
D1
330
1D
100
AcDbEntity
  8
0
100
AcDbLine
 10
49.8937
 20
6.022
 30
0.0
 11
50.6322
 21
6.022
 31
0.0
  0
LINE
  5
D2
330
1D
100
AcDbEntity
  8
0
100
AcDbLine
 10
48.9393
 20
6.022
 30
0.0
 11
49.8937
 21
6.022
 31
0.0
  0
LINE
  5
D3
330
1D
100
AcDbEntity
  8
0
100
AcDbLine
 10
100.007
 20
5.522
 30
0.0
 11
100.074
 21
5.772
 31
0.0
  0
LINE
  5
D4
330
1D
100
AcDbEntity
  8
0
100
AcDbLine
 10
100.007
 20
5.522
 30
0.0
 11
100.007
 21
0.022
 31
0.0
  0
LINE
  5
D5
330
1D
100
AcDbEntity
  8
0
100
AcDbLine
 10
51.4928
 20
6.022
 30
0.0
 11
51.7423
 21
5.95501
 31
0.0
  0
LINE
  5
D6
330
1D
100
AcDbEntity
  8
0
100
AcDbLine
 10
100.074
 20
5.772
 30
0.0
 11
100.257
 21
5.95501
 31
0.0
  0
LINE
  5
D7
330
1D
100
AcDbEntity
  8
0
100
AcDbLine
 10
100.507
 20
6.022
 30
0.0
 11
100.68
 21
6.022
 31
0.0
  0
LINE
  5
D8
330
1D
100
AcDbEntity
  8
0
100
AcDbLine
 10
100.257
 20
5.95501
 30
0.0
 11
100.507
 21
6.022
 31
0.0
  0
LINE
  5
D9
330
1D
100
AcDbEntity
  8
0
100
AcDbLine
 10
113.591
 20
6.022
 30
0.0
 11
113.591
 21
152.609382352941
 31
0.0
  0
LINE
  5
DA
330
1D
100
AcDbEntity
  8
0
100
AcDbLine
 10
102.557
 20
6.022
 30
0.0
 11
103.617
 21
6.022
 31
0.0
  0
LINE
  5
DB
330
1D
100
AcDbEntity
  8
0
100
AcDbLine
 10
101.082
 20
6.022
 30
0.0
 11
101.709
 21
6.022
 31
0.0
  0
LINE
  5
DC
330
1D
100
AcDbEntity
  8
0
100
AcDbLine
 10
101.709
 20
6.022
 30
0.0
 11
102.557
 21
6.022
 31
0.0
  0
LINE
  5
DD
330
1D
100
AcDbEntity
  8
0
100
AcDbLine
 10
100.68
 20
6.022
 30
0.0
 11
101.082
 21
6.022
 31
0.0
  0
LINE
  5
DE
330
1D
100
AcDbEntity
  8
0
100
AcDbLine
 10
51.9255
 20
5.772
 30
0.0
 11
51.9925
 21
5.522
 31
0.0
  0
LINE
  5
DF
330
1D
100
AcDbEntity
  8
0
100
AcDbLine
 10
51.7423
 20
5.95501
 30
0.0
 11
51.9255
 21
5.772
 31
0.0
  0
LINE
  5
E0
330
1D
100
AcDbEntity
  8
0
100
AcDbLine
 10
51.9925
 20
5.522
 30
0.0
 11
51.9925
 21
0.022
 31
0.0
  0
LINE
  5
E1
330
1D
100
AcDbEntity
  8
0
100
AcDbLine
 10
51.4351
 20
6.022
 30
0.0
 11
51.4928
 21
6.022
 31
0.0
  0
LINE
  5
E2
330
1D
100
AcDbEntity
  8
0
100
AcDbLine
 10
51.148
 20
6.022
 30
0.0
 11
51.4351
 21
6.022
 31
0.0
  0
LINE
  5
E3
330
1D
100
AcDbEntity
  8
0
100
AcDbLine
 10
50.6322
 20
6.022
 30
0.0
 11
51.148
 21
6.022
 31
0.0
  0
LINE
  5
E4
330
1D
100
AcDbEntity
  8
0
100
AcDbLine
 10
2.561
 20
6.022
 30
0.0
 11
3.622
 21
6.022
 31
0.0
  0
LINE
  5
E5
330
1D
100
AcDbEntity
  8
0
100
AcDbLine
 10
1.084
 20
6.022
 30
0.0
 11
1.712
 21
6.022
 31
0.0
  0
LINE
  5
E6
330
1D
100
AcDbEntity
  8
0
100
AcDbLine
 10
9.768
 20
6.022
 30
0.0
 11
11.711
 21
6.022
 31
0.0
  0
LINE
  5
E7
330
1D
100
AcDbEntity
  8
0
100
AcDbLine
 10
12.003
 20
6.022
 30
0.0
 11
12.003
 21
7.022
 31
0.0
  0
LINE
  5
E8
330
1D
100
AcDbEntity
  8
0
100
AcDbLine
 10
39.9971
 20
6.022
 30
0.0
 11
39.9971
 21
7.022
 31
0.0
  0
LINE
  5
E9
330
1D
100
AcDbEntity
  8
0
100
AcDbLine
 10
46.4171
 20
6.022
 30
0.0
 11
47.777
 21
6.022
 31
0.0
  0
LINE
  5
EA
330
1D
100
AcDbEntity
  8
0
100
AcDbLine
 10
44.8724
 20
6.022
 30
0.0
 11
46.4171
 21
6.022
 31
0.0
  0
LINE
  5
EB
330
1D
100
AcDbEntity
  8
0
100
AcDbLine
 10
104.879
 20
6.022
 30
0.0
 11
106.334
 21
6.022
 31
0.0
  0
LINE
  5
EC
330
1D
100
AcDbEntity
  8
0
100
AcDbLine
 10
111.702
 20
6.022
 30
0.0
 11
113.775
 21
6.022
 31
0.0
  0
LINE
  5
ED
330
1D
100
AcDbEntity
  8
0
100
AcDbLine
 10
113.775
 20
6.022
 30
0.0
 11
115.957
 21
6.022
 31
0.0
  0
LINE
  5
EE
330
1D
100
AcDbEntity
  8
0
100
AcDbLine
 10
107.965
 20
6.022
 30
0.0
 11
109.76
 21
6.022
 31
0.0
  0
LINE
  5
EF
330
1D
100
AcDbEntity
  8
0
100
AcDbLine
 10
109.76
 20
6.022
 30
0.0
 11
111.702
 21
6.022
 31
0.0
  0
LINE
  5
F0
330
1D
100
AcDbEntity
  8
0
100
AcDbLine
 10
106.334
 20
6.022
 30
0.0
 11
107.965
 21
6.022
 31
0.0
  0
LINE
  5
F1
330
1D
100
AcDbEntity
  8
0
100
AcDbLine
 10
103.617
 20
6.022
 30
0.0
 11
104.879
 21
6.022
 31
0.0
  0
LINE
  5
F2
330
1D
100
AcDbEntity
  8
0
100
AcDbLine
 10
47.777
 20
6.022
 30
0.0
 11
48.9393
 21
6.022
 31
0.0
  0
LINE
  5
F3
330
1D
100
AcDbEntity
  8
0
100
AcDbLine
 10
41.2855
 20
6.022
 30
0.0
 11
43.1564
 21
6.022
 31
0.0
  0
LINE
  5
F4
330
1D
100
AcDbEntity
  8
0
100
AcDbLine
 10
39.2759
 20
6.022
 30
0.0
 11
41.2855
 21
6.022
 31
0.0
  0
LINE
  5
F5
330
1D
100
AcDbEntity
  8
0
100
AcDbLine
 10
43.1564
 20
6.022
 30
0.0
 11
44.8724
 21
6.022
 31
0.0
  0
LINE
  5
F6
330
1D
100
AcDbEntity
  8
0
100
AcDbLine
 10
37.1466
 20
6.022
 30
0.0
 11
39.2759
 21
6.022
 31
0.0
  0
LINE
  5
F7
330
1D
100
AcDbEntity
  8
0
100
AcDbLine
 10
34.9161
 20
6.022
 30
0.0
 11
37.1466
 21
6.022
 31
0.0
  0
LINE
  5
F8
330
1D
100
AcDbEntity
  8
0
100
AcDbLine
 10
15.966
 20
6.022
 30
0.0
 11
18.241
 21
6.022
 31
0.0
  0
LINE
  5
F9
330
1D
100
AcDbEntity
  8
0
100
AcDbLine
 10
13.783
 20
6.022
 30
0.0
 11
15.966
 21
6.022
 31
0.0
  0
LINE
  5
FA
330
1D
100
AcDbEntity
  8
0
100
AcDbLine
 10
11.711
 20
6.022
 30
0.0
 11
13.783
 21
6.022
 31
0.0
  0
LINE
  5
FB
330
1D
100
AcDbEntity
  8
0
100
AcDbLine
 10
12.003
 20
7.022
 30
0.0
 11
12.094
 21
7.022
 31
0.0
  0
LINE
  5
FC
330
1D
100
AcDbEntity
  8
0
100
AcDbLine
 10
12.003
 20
7.022
 30
0.0
 11
12.003
 21
6.022
 31
0.0
  0
LINE
  5
FD
330
1D
100
AcDbEntity
  8
0
100
AcDbLine
 10
12.094
 20
7.022
 30
0.0
 11
12.31
 21
7.022
 31
0.0
  0
LINE
  5
FE
330
1D
100
AcDbEntity
  8
0
100
AcDbLine
 10
12.31
 20
7.022
 30
0.0
 11
12.65
 21
7.022
 31
0.0
  0
LINE
  5
FF
330
1D
100
AcDbEntity
  8
0
100
AcDbLine
 10
12.65
 20
7.022
 30
0.0
 11
13.112
 21
7.022
 31
0.0
  0
LINE
  5
100
330
1D
100
AcDbEntity
  8
0
100
AcDbLine
 10
12.777
 20
7.522
 30
0.0
 11
13.075
 21
7.522
 31
0.0
  0
LINE
  5
101
330
1D
100
AcDbEntity
  8
0
100
AcDbLine
 10
12.49
 20
7.522
 30
0.0
 11
12.943
 21
7.522
 31
0.0
  0
LINE
  5
102
330
1D
100
AcDbEntity
  8
0
100
AcDbLine
 10
12.704
 20
7.522
 30
0.0
 11
12.858
 21
7.522
 31
0.0
  0
LINE
  5
103
330
1D
100
AcDbEntity
  8
0
100
AcDbLine
 10
12.704
 20
7.522
 30
0.0
 11
12.777
 21
7.522
 31
0.0
  0
LINE
  5
104
330
1D
100
AcDbEntity
  8
0
100
AcDbLine
 10
13.15
 20
7.022
 30
0.0
 11
13.15
 21
7.522
 31
0.0
  0
LINE
  5
105
330
1D
100
AcDbEntity
  8
0
100
AcDbLine
 10
13.69
 20
7.022
 30
0.0
 11
14.379
 21
7.022
 31
0.0
  0
LINE
  5
106
330
1D
100
AcDbEntity
  8
0
100
AcDbLine
 10
13.112
 20
7.022
 30
0.0
 11
13.69
 21
7.022
 31
0.0
  0
LINE
  5
107
330
1D
100
AcDbEntity
  8
0
100
AcDbLine
 10
17.049
 20
7.022
 30
0.0
 11
18.113
 21
7.022
 31
0.0
  0
LINE
  5
108
330
1D
100
AcDbEntity
  8
0
100
AcDbLine
 10
16.066
 20
7.022
 30
0.0
 11
17.049
 21
7.022
 31
0.0
  0
LINE
  5
109
330
1D
100
AcDbEntity
  8
0
100
AcDbLine
 10
18.113
 20
7.022
 30
0.0
 11
19.248
 21
7.022
 31
0.0
  0
LINE
  5
10A
330
1D
100
AcDbEntity
  8
0
100
AcDbLine
 10
15.174
 20
7.022
 30
0.0
 11
16.066
 21
7.022
 31
0.0
  0
LINE
  5
10B
330
1D
100
AcDbEntity
  8
0
100
AcDbLine
 10
14.379
 20
7.022
 30
0.0
 11
15.174
 21
7.022
 31
0.0
  0
LINE
  5
10C
330
1D
100
AcDbEntity
  8
0
100
AcDbLine
 10
13.075
 20
7.522
 30
0.0
 11
13.15
 21
7.522
 31
0.0
  0
LINE
  5
10D
330
1D
100
AcDbEntity
  8
0
100
AcDbLine
 10
12.943
 20
7.522
 30
0.0
 11
13.15
 21
7.522
 31
0.0
  0
LINE
  5
10E
330
1D
100
AcDbEntity
  8
0
100
AcDbLine
 10
13.238
 20
7.522
 30
0.0
 11
13.836
 21
7.522
 31
0.0
  0
LINE
  5
10F
330
1D
100
AcDbEntity
  8
0
100
AcDbLine
 10
12.858
 20
7.522
 30
0.0
 11
13.238
 21
7.522
 31
0.0
  0
LINE
  5
110
330
1D
100
AcDbEntity
  8
0
100
AcDbLine
 10
12.259
 20
7.522
 30
0.0
 11
12.49
 21
7.522
 31
0.0
  0
LINE
  5
111
330
1D
100
AcDbEntity
  8
0
100
AcDbLine
 10
12.093
 20
7.522
 30
0.0
 11
12.259
 21
7.522
 31
0.0
  0
LINE
  5
112
330
1D
100
AcDbEntity
  8
0
100
AcDbLine
 10
13.15
 20
7.522
 30
0.0
 11
13.15
 21
7.022
 31
0.0
  0
LINE
  5
113
330
1D
100
AcDbEntity
  8
0
100
AcDbLine
 10
14.642
 20
7.522
 30
0.0
 11
15.643
 21
7.522
 31
0.0
  0
LINE
  5
114
330
1D
100
AcDbEntity
  8
0
100
AcDbLine
 10
13.836
 20
7.522
 30
0.0
 11
14.642
 21
7.522
 31
0.0
  0
LINE
  5
115
330
1D
100
AcDbEntity
  8
0
100
AcDbLine
 10
15.643
 20
7.522
 30
0.0
 11
16.82
 21
7.522
 31
0.0
  0
LINE
  5
116
330
1D
100
AcDbEntity
  8
0
100
AcDbLine
 10
18.155
 20
7.522
 30
0.0
 11
19.623
 21
7.522
 31
0.0
  0
LINE
  5
117
330
1D
100
AcDbEntity
  8
0
100
AcDbLine
 10
16.82
 20
7.522
 30
0.0
 11
18.155
 21
7.522
 31
0.0
  0
LINE
  5
118
330
1D
100
AcDbEntity
  8
0
100
AcDbLine
 10
16.059
 20
7.522
 30
0.0
 11
17.116
 21
7.522
 31
0.0
  0
LINE
  5
119
330
1D
100
AcDbEntity
  8
0
100
AcDbLine
 10
11.966
 20
7.522
 30
0.0
 11
12.093
 21
7.522
 31
0.0
  0
LINE
  5
11A
330
1D
100
AcDbEntity
  8
0
100
AcDbLine
 10
11.546
 20
7.75123
 30
0.0
 11
11.727
 21
7.58303
 31
0.0
  0
LINE
  5
11B
330
1D
100
AcDbEntity
  8
0
100
AcDbLine
 10
11.727
 20
7.58303
 30
0.0
 11
11.966
 21
7.522
 31
0.0
  0
LINE
  5
11C
330
1D
100
AcDbEntity
  8
0
100
AcDbLine
 10
20.585
 20
6.022
 30
0.0
 11
22.978
 21
6.022
 31
0.0
  0
LINE
  5
11D
330
1D
100
AcDbEntity
  8
0
100
AcDbLine
 10
22.978
 20
6.022
 30
0.0
 11
25.398
 21
6.022
 31
0.0
  0
LINE
  5
11E
330
1D
100
AcDbEntity
  8
0
100
AcDbLine
 10
25.398
 20
6.022
 30
0.0
 11
27.824
 21
6.022
 31
0.0
  0
LINE
  5
11F
330
1D
100
AcDbEntity
  8
0
100
AcDbLine
 10
27.824
 20
6.022
 30
0.0
 11
30.2334
 21
6.022
 31
0.0
  0
LINE
  5
120
330
1D
100
AcDbEntity
  8
0
100
AcDbLine
 10
32.6047
 20
6.022
 30
0.0
 11
34.9161
 21
6.022
 31
0.0
  0
LINE
  5
121
330
1D
100
AcDbEntity
  8
0
100
AcDbLine
 10
35.3816
 20
7.022
 30
0.0
 11
36.3268
 21
7.022
 31
0.0
  0
LINE
  5
122
330
1D
100
AcDbEntity
  8
0
100
AcDbLine
 10
37.1786
 20
7.022
 30
0.0
 11
37.9294
 21
7.022
 31
0.0
  0
LINE
  5
123
330
1D
100
AcDbEntity
  8
0
100
AcDbLine
 10
36.3268
 20
7.022
 30
0.0
 11
37.1786
 21
7.022
 31
0.0
  0
LINE
  5
124
330
1D
100
AcDbEntity
  8
0
100
AcDbLine
 10
37.9294
 20
7.022
 30
0.0
 11
38.5718
 21
7.022
 31
0.0
  0
LINE
  5
125
330
1D
100
AcDbEntity
  8
0
100
AcDbLine
 10
20.445
 20
7.022
 30
0.0
 11
21.692
 21
7.022
 31
0.0
  0
LINE
  5
126
330
1D
100
AcDbEntity
  8
0
100
AcDbLine
 10
19.248
 20
7.022
 30
0.0
 11
20.445
 21
7.022
 31
0.0
  0
LINE
  5
127
330
1D
100
AcDbEntity
  8
0
100
AcDbLine
 10
34.3512
 20
7.022
 30
0.0
 11
35.3816
 21
7.022
 31
0.0
  0
LINE
  5
128
330
1D
100
AcDbEntity
  8
0
100
AcDbLine
 10
33.2455
 20
7.022
 30
0.0
 11
34.3512
 21
7.022
 31
0.0
  0
LINE
  5
129
330
1D
100
AcDbEntity
  8
0
100
AcDbLine
 10
32.0741
 20
7.022
 30
0.0
 11
33.2455
 21
7.022
 31
0.0
  0
LINE
  5
12A
330
1D
100
AcDbEntity
  8
0
100
AcDbLine
 10
30.8474
 20
7.022
 30
0.0
 11
32.0741
 21
7.022
 31
0.0
  0
LINE
  5
12B
330
1D
100
AcDbEntity
  8
0
100
AcDbLine
 10
29.5769
 20
7.022
 30
0.0
 11
30.8474
 21
7.022
 31
0.0
  0
LINE
  5
12C
330
1D
100
AcDbEntity
  8
0
100
AcDbLine
 10
28.274
 20
7.022
 30
0.0
 11
29.5769
 21
7.022
 31
0.0
  0
LINE
  5
12D
330
1D
100
AcDbEntity
  8
0
100
AcDbLine
 10
26.9506
 20
7.022
 30
0.0
 11
28.274
 21
7.022
 31
0.0
  0
LINE
  5
12E
330
1D
100
AcDbEntity
  8
0
100
AcDbLine
 10
25.619
 20
7.022
 30
0.0
 11
26.9506
 21
7.022
 31
0.0
  0
LINE
  5
12F
330
1D
100
AcDbEntity
  8
0
100
AcDbLine
 10
24.29
 20
7.022
 30
0.0
 11
25.619
 21
7.022
 31
0.0
  0
LINE
  5
130
330
1D
100
AcDbEntity
  8
0
100
AcDbLine
 10
22.977
 20
7.022
 30
0.0
 11
24.29
 21
7.022
 31
0.0
  0
LINE
  5
131
330
1D
100
AcDbEntity
  8
0
100
AcDbLine
 10
21.692
 20
7.022
 30
0.0
 11
22.977
 21
7.022
 31
0.0
  0
LINE
  5
132
330
1D
100
AcDbEntity
  8
0
100
AcDbLine
 10
38.5718
 20
7.022
 30
0.0
 11
39.1002
 21
7.022
 31
0.0
  0
LINE
  5
133
330
1D
100
AcDbEntity
  8
0
100
AcDbLine
 10
38.8498
 20
7.022
 30
0.0
 11
38.8498
 21
7.522
 31
0.0
  0
LINE
  5
134
330
1D
100
AcDbEntity
  8
0
100
AcDbLine
 10
38.9243
 20
7.522
 30
0.0
 11
39.2237
 21
7.522
 31
0.0
  0
LINE
  5
135
330
1D
100
AcDbEntity
  8
0
100
AcDbLine
 10
39.1002
 20
7.022
 30
0.0
 11
39.5103
 21
7.022
 31
0.0
  0
LINE
  5
136
330
1D
100
AcDbEntity
  8
0
100
AcDbLine
 10
39.0409
 20
7.522
 30
0.0
 11
39.4991
 21
7.522
 31
0.0
  0
LINE
  5
137
330
1D
100
AcDbEntity
  8
0
100
AcDbLine
 10
38.8498
 20
7.522
 30
0.0
 11
39.1415
 21
7.522
 31
0.0
  0
LINE
  5
138
330
1D
100
AcDbEntity
  8
0
100
AcDbLine
 10
38.8498
 20
7.522
 30
0.0
 11
39.0409
 21
7.522
 31
0.0
  0
LINE
  5
139
330
1D
100
AcDbEntity
  8
0
100
AcDbLine
 10
39.1415
 20
7.522
 30
0.0
 11
39.2961
 21
7.522
 31
0.0
  0
LINE
  5
13A
330
1D
100
AcDbEntity
  8
0
100
AcDbLine
 10
39.2237
 20
7.522
 30
0.0
 11
39.2961
 21
7.522
 31
0.0
  0
LINE
  5
13B
330
1D
100
AcDbEntity
  8
0
100
AcDbLine
 10
39.5103
 20
7.022
 30
0.0
 11
39.7982
 21
7.022
 31
0.0
  0
LINE
  5
13C
330
1D
100
AcDbEntity
  8
0
100
AcDbLine
 10
39.7982
 20
7.022
 30
0.0
 11
39.961
 21
7.022
 31
0.0
  0
LINE
  5
13D
330
1D
100
AcDbEntity
  8
0
100
AcDbLine
 10
39.9971
 20
7.022
 30
0.0
 11
39.9971
 21
6.022
 31
0.0
  0
LINE
  5
13E
330
1D
100
AcDbEntity
  8
0
100
AcDbLine
 10
39.9688
 20
7.522
 30
0.0
 11
40.0336
 21
7.522
 31
0.0
  0
LINE
  5
13F
330
1D
100
AcDbEntity
  8
0
100
AcDbLine
 10
39.7916
 20
7.522
 30
0.0
 11
39.9688
 21
7.522
 31
0.0
  0
LINE
  5
140
330
1D
100
AcDbEntity
  8
0
100
AcDbLine
 10
39.4991
 20
7.522
 30
0.0
 11
39.7916
 21
7.522
 31
0.0
  0
LINE
  5
141
330
1D
100
AcDbEntity
  8
0
100
AcDbLine
 10
22.862
 20
7.522
 30
0.0
 11
24.576
 21
7.522
 31
0.0
  0
LINE
  5
142
330
1D
100
AcDbEntity
  8
0
100
AcDbLine
 10
21.202
 20
7.522
 30
0.0
 11
22.862
 21
7.522
 31
0.0
  0
LINE
  5
143
330
1D
100
AcDbEntity
  8
0
100
AcDbLine
 10
19.623
 20
7.522
 30
0.0
 11
21.202
 21
7.522
 31
0.0
  0
LINE
  5
144
330
1D
100
AcDbEntity
  8
0
100
AcDbLine
 10
26.314
 20
7.522
 30
0.0
 11
28.0469
 21
7.522
 31
0.0
  0
LINE
  5
145
330
1D
100
AcDbEntity
  8
0
100
AcDbLine
 10
24.576
 20
7.522
 30
0.0
 11
26.314
 21
7.522
 31
0.0
  0
LINE
  5
146
330
1D
100
AcDbEntity
  8
0
100
AcDbLine
 10
32.9198
 20
7.522
 30
0.0
 11
34.3435
 21
7.522
 31
0.0
  0
LINE
  5
147
330
1D
100
AcDbEntity
  8
0
100
AcDbLine
 10
31.378
 20
7.522
 30
0.0
 11
32.9198
 21
7.522
 31
0.0
  0
LINE
  5
148
330
1D
100
AcDbEntity
  8
0
100
AcDbLine
 10
29.7446
 20
7.522
 30
0.0
 11
31.378
 21
7.522
 31
0.0
  0
LINE
  5
149
330
1D
100
AcDbEntity
  8
0
100
AcDbLine
 10
28.0469
 20
7.522
 30
0.0
 11
29.7446
 21
7.522
 31
0.0
  0
LINE
  5
14A
330
1D
100
AcDbEntity
  8
0
100
AcDbLine
 10
38.8498
 20
7.522
 30
0.0
 11
38.8498
 21
7.022
 31
0.0
  0
LINE
  5
14B
330
1D
100
AcDbEntity
  8
0
100
AcDbLine
 10
38.4044
 20
7.522
 30
0.0
 11
38.9243
 21
7.522
 31
0.0
  0
LINE
  5
14C
330
1D
100
AcDbEntity
  8
0
100
AcDbLine
 10
37.6721
 20
7.522
 30
0.0
 11
38.4044
 21
7.522
 31
0.0
  0
LINE
  5
14D
330
1D
100
AcDbEntity
  8
0
100
AcDbLine
 10
36.7397
 20
7.522
 30
0.0
 11
37.6721
 21
7.522
 31
0.0
  0
LINE
  5
14E
330
1D
100
AcDbEntity
  8
0
100
AcDbLine
 10
40.273
 20
7.58303
 30
0.0
 11
40.4539
 21
7.75123
 31
0.0
  0
LINE
  5
14F
330
1D
100
AcDbEntity
  8
0
100
AcDbLine
 10
35.624
 20
7.522
 30
0.0
 11
36.7397
 21
7.522
 31
0.0
  0
LINE
  5
150
330
1D
100
AcDbEntity
  8
0
100
AcDbLine
 10
34.3435
 20
7.522
 30
0.0
 11
35.624
 21
7.522
 31
0.0
  0
LINE
  5
151
330
1D
100
AcDbEntity
  8
0
100
AcDbLine
 10
40.0336
 20
7.522
 30
0.0
 11
40.273
 21
7.58303
 31
0.0
  0
LINE
  5
152
330
1D
100
AcDbEntity
  8
0
100
AcDbLine
 10
40.4539
 20
7.75123
 30
0.0
 11
40.5322
 21
7.98553
 31
0.0
  0
LINE
  5
153
330
1D
100
AcDbEntity
  8
0
100
AcDbLine
 10
30.2334
 20
6.022
 30
0.0
 11
32.6047
 21
6.022
 31
0.0
  0
LINE
  5
154
330
1D
100
AcDbEntity
  8
0
100
AcDbLine
 10
18.241
 20
6.022
 30
0.0
 11
20.585
 21
6.022
 31
0.0
  0
LINE
  5
155
330
1D
100
AcDbEntity
  8
0
100
AcDbLine
 10
7.973
 20
6.022
 30
0.0
 11
9.768
 21
6.022
 31
0.0
  0
LINE
  5
156
330
1D
100
AcDbEntity
  8
0
100
AcDbLine
 10
3.622
 20
6.022
 30
0.0
 11
7.973
 21
6.022
 31
0.0
  0
LINE
  5
157
330
1D
100
AcDbEntity
  8
0
100
AcDbLine
 10
1.712
 20
6.022
 30
0.0
 11
2.561
 21
6.022
 31
0.0
  0
LINE
  5
158
330
1D
100
AcDbEntity
  8
0
100
AcDbLine
 10
0.681
 20
6.022
 30
0.0
 11
1.084
 21
6.022
 31
0.0
  0
LINE
  5
159
330
1D
100
AcDbEntity
  8
0
100
AcDbLine
 10
11.468
 20
7.98554
 30
0.0
 11
11.546
 21
7.75123
 31
0.0
  0
LINE
  5
15A
330
1D
100
AcDbEntity
  8
0
100
AcDbLine
 10
8.607
 20
47.9998
 30
0.0
 11
8.773
 21
48.3226
 31
0.0
  0
LINE
  5
15B
330
1D
100
AcDbEntity
  8
0
100
AcDbLine
 10
8.773
 20
48.3226
 30
0.0
 11
9.043
 21
48.565
 31
0.0
  0
LINE
  5
15C
330
1D
100
AcDbEntity
  8
0
100
AcDbLine
 10
11.167
 20
48.9912
 30
0.0
 11
11.962
 21
49.0972
 31
0.0
  0
LINE
  5
15D
330
1D
100
AcDbEntity
  8
0
100
AcDbLine
 10
11.962
 20
49.0972
 30
0.0
 11
12.755
 21
49.1984
 31
0.0
  0
LINE
  5
15E
330
1D
100
AcDbEntity
  8
0
100
AcDbLine
 10
9.604
 20
48.7321
 30
0.0
 11
11.167
 21
48.9912
 31
0.0
  0
LINE
  5
15F
330
1D
100
AcDbEntity
  8
0
100
AcDbLine
 10
9.381
 20
48.6951
 30
0.0
 11
9.604
 21
48.7321
 31
0.0
  0
LINE
  5
160
330
1D
100
AcDbEntity
  8
0
100
AcDbLine
 10
9.381
 20
48.6951
 30
0.0
 11
9.574559519149
 21
48.725255088202
 31
0.0
  0
LINE
  5
161
330
1D
100
AcDbEntity
  8
0
100
AcDbLine
 10
37.572578320304
 20
49.362799878824
 30
0.0
 11
39.2449
 21
49.1983
 31
0.0
  0
LINE
  5
162
330
1D
100
AcDbEntity
  8
0
100
AcDbLine
 10
39.2449
 20
49.1983
 30
0.0
 11
42.222136426424
 21
48.756892353531
 31
0.0
  0
LINE
  5
165
330
1D
100
AcDbEntity
  8
0
100
AcDbLine
 10
35.7753
 20
49.5054
 30
0.0
 11
37.1639
 21
49.403
 31
0.0
  0
LINE
  5
166
330
1D
100
AcDbEntity
  8
0
100
AcDbLine
 10
37.1639
 20
49.403
 30
0.0
 11
37.572578320304
 21
49.362799878824
 31
0.0
  0
LINE
  5
167
330
1D
100
AcDbEntity
  8
0
100
AcDbLine
 10
32.9931
 20
49.6509
 30
0.0
 11
35.7753
 21
49.5054
 31
0.0
  0
LINE
  5
168
330
1D
100
AcDbEntity
  8
0
100
AcDbLine
 10
16.225
 20
49.5054
 30
0.0
 11
19.006
 21
49.6509
 31
0.0
  0
LINE
  5
169
330
1D
100
AcDbEntity
  8
0
100
AcDbLine
 10
14.836
 20
49.403
 30
0.0
 11
16.225
 21
49.5054
 31
0.0
  0
LINE
  5
16A
330
1D
100
AcDbEntity
  8
0
100
AcDbLine
 10
14.327
 20
49.3558
 30
0.0
 11
14.836
 21
49.403
 31
0.0
  0
LINE
  5
16B
330
1D
100
AcDbEntity
  8
0
100
AcDbLine
 10
12.755
 20
49.1984
 30
0.0
 11
14.327
 21
49.3558
 31
0.0
  0
LINE
  5
16C
330
1D
100
AcDbEntity
  8
0
100
AcDbLine
 10
26.0
 20
49.7966
 30
0.0
 11
29.4963
 21
49.7602
 31
0.0
  0
LINE
  5
16D
330
1D
100
AcDbEntity
  8
0
100
AcDbLine
 10
22.503
 20
49.7602
 30
0.0
 11
26.0
 21
49.7966
 31
0.0
  0
LINE
  5
16E
330
1D
100
AcDbEntity
  8
0
100
AcDbLine
 10
32.9277
 20
49.6517
 30
0.0
 11
32.9931
 21
49.6509
 31
0.0
  0
LINE
  5
16F
330
1D
100
AcDbEntity
  8
0
100
AcDbLine
 10
29.4963
 20
49.7602
 30
0.0
 11
32.9277
 21
49.6517
 31
0.0
  0
LINE
  5
170
330
1D
100
AcDbEntity
  8
0
100
AcDbLine
 10
19.006
 20
49.6509
 30
0.0
 11
22.503
 21
49.7602
 31
0.0
  0
LINE
  5
171
330
1D
100
AcDbEntity
  8
0
100
AcDbLine
 10
9.043
 20
48.565
 30
0.0
 11
9.381
 21
48.6951
 31
0.0
  0
LINE
  5
172
330
1D
100
AcDbEntity
  8
0
100
AcDbLine
 10
8.567
 20
47.6394
 30
0.0
 11
8.607
 21
47.9998
 31
0.0
  0
LINE
  5
173
330
1D
100
AcDbEntity
  8
0
100
AcDbLine
 10
8.567
 20
47.6394
 30
0.0
 11
11.468
 21
7.98554
 31
0.0
  0
LINE
  5
174
330
1D
100
AcDbEntity
  8
0
100
AcDbLine
 10
8.567
 20
47.6394
 30
0.0
 11
11.468
 21
7.98554
 31
0.0
  0
LINE
  5
178
330
1D
100
AcDbEntity
  8
0
100
AcDbLine
 10
42.222136426424
 20
48.756892353531
 30
0.0
 11
42.6188
 21
48.6951
 31
0.0
  0
LINE
  5
17A
330
1D
100
AcDbEntity
  8
0
100
AcDbLine
 10
43.227
 20
48.3226
 30
0.0
 11
43.3928
 21
47.9998
 31
0.0
  0
LINE
  5
17B
330
1D
100
AcDbEntity
  8
0
100
AcDbLine
 10
113.591
 20
152.609382352941
 30
0.0
 11
113.591
 21
6.022
 31
0.0
  0
LINE
  5
17C
330
1D
100
AcDbEntity
  8
0
100
AcDbLine
 10
113.657
 20
152.259
 30
0.0
 11
113.695
 21
152.106
 31
0.0
  0
LINE
  5
17D
330
1D
100
AcDbEntity
  8
0
100
AcDbLine
 10
113.695
 20
152.106
 30
0.0
 11
113.957
 21
151.397
 31
0.0
  0
LINE
  5
17E
330
1D
100
AcDbEntity
  8
0
100
AcDbLine
 10
113.957
 20
151.397
 30
0.0
 11
114.343
 21
150.708
 31
0.0
  0
LINE
  5
17F
330
1D
100
AcDbEntity
  8
0
100
AcDbLine
 10
114.946
 20
149.939
 30
0.0
 11
115.56
 21
149.314
 31
0.0
  0
LINE
  5
180
330
1D
100
AcDbEntity
  8
0
100
AcDbLine
 10
114.849
 20
150.045
 30
0.0
 11
114.946
 21
149.939
 31
0.0
  0
LINE
  5
181
330
1D
100
AcDbEntity
  8
0
100
AcDbLine
 10
114.343
 20
150.708
 30
0.0
 11
114.849
 21
150.045
 31
0.0
  0
LINE
  5
182
330
1D
100
AcDbEntity
  8
0
100
AcDbLine
 10
113.521
 20
152.981
 30
0.0
 11
113.657
 21
152.259
 31
0.0
  0
LINE
  5
183
330
1D
100
AcDbEntity
  8
0
100
AcDbLine
 10
115.421
 20
152.399
 30
0.0
 11
115.593
 21
151.747
 31
0.0
  0
LINE
  5
184
330
1D
100
AcDbEntity
  8
0
100
AcDbLine
 10
113.512
 20
153.707
 30
0.0
 11
113.521
 21
152.981
 31
0.0
  0
LINE
  5
185
330
1D
100
AcDbEntity
  8
0
100
AcDbLine
 10
113.512
 20
153.707
 30
0.0
 11
113.512
 21
169.517
 31
0.0
  0
LINE
  5
186
330
1D
100
AcDbEntity
  8
0
100
AcDbLine
 10
113.512
 20
169.517
 30
0.0
 11
113.632
 21
170.24
 31
0.0
  0
LINE
  5
187
330
1D
100
AcDbEntity
  8
0
100
AcDbLine
 10
113.512
 20
169.517
 30
0.0
 11
113.512
 21
153.707
 31
0.0
  0
LINE
  5
188
330
1D
100
AcDbEntity
  8
0
100
AcDbLine
 10
113.591
 20
169.992975
 30
0.0
 11
113.591
 21
174.4
 31
0.0
  0
LINE
  5
189
330
1D
100
AcDbEntity
  8
0
100
AcDbLine
 10
113.591
 20
169.992975
 30
0.0
 11
113.591
 21
170.23
 31
0.0
  0
LINE
  5
18A
330
1D
100
AcDbEntity
  8
0
100
AcDbLine
 10
113.591
 20
174.4
 30
0.0
 11
113.591
 21
179.213
 31
0.0
  0
LINE
  5
18B
330
1D
100
AcDbEntity
  8
0
100
AcDbLine
 10
113.591
 20
174.4
 30
0.0
 11
113.591
 21
169.992975
 31
0.0
  0
LINE
  5
18C
330
1D
100
AcDbEntity
  8
0
100
AcDbLine
 10
113.591
 20
195.624
 30
0.0
 11
113.591
 21
199.73
 31
0.0
  0
LINE
  5
18D
330
1D
100
AcDbEntity
  8
0
100
AcDbLine
 10
113.591
 20
195.624
 30
0.0
 11
113.591
 21
170.23
 31
0.0
  0
LINE
  5
18E
330
1D
100
AcDbEntity
  8
0
100
AcDbLine
 10
113.591
 20
199.73
 30
0.0
 11
113.591
 21
195.624
 31
0.0
  0
LINE
  5
18F
330
1D
100
AcDbEntity
  8
0
100
AcDbLine
 10
113.591
 20
199.73
 30
0.0
 11
113.591
 21
203.437
 31
0.0
  0
LINE
  5
190
330
1D
100
AcDbEntity
  8
0
100
AcDbLine
 10
113.591
 20
196.577
 30
0.0
 11
113.591
 21
192.637
 31
0.0
  0
LINE
  5
191
330
1D
100
AcDbEntity
  8
0
100
AcDbLine
 10
113.591
 20
196.577
 30
0.0
 11
113.591
 21
200.16
 31
0.0
  0
LINE
  5
192
330
1D
100
AcDbEntity
  8
0
100
AcDbLine
 10
113.591
 20
192.637
 30
0.0
 11
113.591
 21
188.392
 31
0.0
  0
LINE
  5
193
330
1D
100
AcDbEntity
  8
0
100
AcDbLine
 10
113.591
 20
192.637
 30
0.0
 11
113.591
 21
196.577
 31
0.0
  0
LINE
  5
194
330
1D
100
AcDbEntity
  8
0
100
AcDbLine
 10
113.591
 20
188.392
 30
0.0
 11
113.591
 21
192.637
 31
0.0
  0
LINE
  5
195
330
1D
100
AcDbEntity
  8
0
100
AcDbLine
 10
113.591
 20
188.392
 30
0.0
 11
113.591
 21
183.897
 31
0.0
  0
LINE
  5
196
330
1D
100
AcDbEntity
  8
0
100
AcDbLine
 10
113.591
 20
183.897
 30
0.0
 11
113.591
 21
179.213
 31
0.0
  0
LINE
  5
197
330
1D
100
AcDbEntity
  8
0
100
AcDbLine
 10
113.591
 20
183.897
 30
0.0
 11
113.591
 21
188.392
 31
0.0
  0
LINE
  5
198
330
1D
100
AcDbEntity
  8
0
100
AcDbLine
 10
113.591
 20
179.213
 30
0.0
 11
113.591
 21
183.897
 31
0.0
  0
LINE
  5
199
330
1D
100
AcDbEntity
  8
0
100
AcDbLine
 10
113.591
 20
179.213
 30
0.0
 11
113.591
 21
174.4
 31
0.0
  0
LINE
  5
19A
330
1D
100
AcDbEntity
  8
0
100
AcDbLine
 10
113.591
 20
200.16
 30
0.0
 11
113.591
 21
203.337
 31
0.0
  0
LINE
  5
19B
330
1D
100
AcDbEntity
  8
0
100
AcDbLine
 10
113.591
 20
200.16
 30
0.0
 11
113.591
 21
196.577
 31
0.0
  0
LINE
  5
19C
330
1D
100
AcDbEntity
  8
0
100
AcDbLine
 10
113.591
 20
203.437
 30
0.0
 11
113.591
 21
199.73
 31
0.0
  0
LINE
  5
19D
330
1D
100
AcDbEntity
  8
0
100
AcDbLine
 10
113.591
 20
203.437
 30
0.0
 11
113.591
 21
206.695
 31
0.0
  0
LINE
  5
19E
330
1D
100
AcDbEntity
  8
0
100
AcDbLine
 10
113.591
 20
203.337
 30
0.0
 11
113.591
 21
206.067
 31
0.0
  0
LINE
  5
19F
330
1D
100
AcDbEntity
  8
0
100
AcDbLine
 10
113.591
 20
203.337
 30
0.0
 11
113.591
 21
200.16
 31
0.0
  0
LINE
  5
1A0
330
1D
100
AcDbEntity
  8
0
100
AcDbLine
 10
113.591
 20
206.067
 30
0.0
 11
113.591
 21
208.314
 31
0.0
  0
LINE
  5
1A1
330
1D
100
AcDbEntity
  8
0
100
AcDbLine
 10
113.591
 20
206.067
 30
0.0
 11
113.591
 21
203.337
 31
0.0
  0
LINE
  5
1A2
330
1D
100
AcDbEntity
  8
0
100
AcDbLine
 10
113.591
 20
208.314
 30
0.0
 11
113.591
 21
210.048
 31
0.0
  0
LINE
  5
1A3
330
1D
100
AcDbEntity
  8
0
100
AcDbLine
 10
113.591
 20
208.314
 30
0.0
 11
113.591
 21
206.067
 31
0.0
  0
LINE
  5
1A4
330
1D
100
AcDbEntity
  8
0
100
AcDbLine
 10
113.591
 20
211.247
 30
0.0
 11
113.591
 21
210.048
 31
0.0
  0
LINE
  5
1A5
330
1D
100
AcDbEntity
  8
0
100
AcDbLine
 10
113.591
 20
211.247
 30
0.0
 11
113.591
 21
211.894
 31
0.0
  0
LINE
  5
1A6
330
1D
100
AcDbEntity
  8
0
100
AcDbLine
 10
113.591
 20
210.048
 30
0.0
 11
113.591
 21
211.247
 31
0.0
  0
LINE
  5
1A7
330
1D
100
AcDbEntity
  8
0
100
AcDbLine
 10
113.591
 20
210.048
 30
0.0
 11
113.591
 21
208.314
 31
0.0
  0
LINE
  5
1A8
330
1D
100
AcDbEntity
  8
0
100
AcDbLine
 10
113.591
 20
206.695
 30
0.0
 11
113.591
 21
209.463
 31
0.0
  0
LINE
  5
1A9
330
1D
100
AcDbEntity
  8
0
100
AcDbLine
 10
113.591
 20
206.695
 30
0.0
 11
113.591
 21
203.437
 31
0.0
  0
LINE
  5
1AA
330
1D
100
AcDbEntity
  8
0
100
AcDbLine
 10
113.591
 20
209.463
 30
0.0
 11
113.591
 21
211.701
 31
0.0
  0
LINE
  5
1AB
330
1D
100
AcDbEntity
  8
0
100
AcDbLine
 10
113.591
 20
209.463
 30
0.0
 11
113.591
 21
206.695
 31
0.0
  0
LINE
  5
1AC
330
1D
100
AcDbEntity
  8
0
100
AcDbLine
 10
113.591
 20
213.383
 30
0.0
 11
113.591
 21
211.701
 31
0.0
  0
LINE
  5
1AD
330
1D
100
AcDbEntity
  8
0
100
AcDbLine
 10
113.591
 20
213.383
 30
0.0
 11
113.591
 21
214.485
 31
0.0
  0
LINE
  5
1AE
330
1D
100
AcDbEntity
  8
0
100
AcDbLine
 10
113.591
 20
211.981
 30
0.0
 11
113.591
 21
211.894
 31
0.0
  0
LINE
  5
1AF
330
1D
100
AcDbEntity
  8
0
100
AcDbLine
 10
113.591
 20
211.894
 30
0.0
 11
113.591
 21
211.981
 31
0.0
  0
LINE
  5
1B0
330
1D
100
AcDbEntity
  8
0
100
AcDbLine
 10
113.591
 20
211.894
 30
0.0
 11
113.591
 21
211.247
 31
0.0
  0
LINE
  5
1B1
330
1D
100
AcDbEntity
  8
0
100
AcDbLine
 10
113.591
 20
214.993
 30
0.0
 11
113.591
 21
214.485
 31
0.0
  0
LINE
  5
1B2
330
1D
100
AcDbEntity
  8
0
100
AcDbLine
 10
113.591
 20
214.993
 30
0.0
 11
114.312
 21
217.917
 31
0.0
  0
LINE
  5
1B3
330
1D
100
AcDbEntity
  8
0
100
AcDbLine
 10
113.591
 20
214.485
 30
0.0
 11
113.591
 21
214.993
 31
0.0
  0
LINE
  5
1B4
330
1D
100
AcDbEntity
  8
0
100
AcDbLine
 10
113.591
 20
214.485
 30
0.0
 11
113.591
 21
213.383
 31
0.0
  0
LINE
  5
1B5
330
1D
100
AcDbEntity
  8
0
100
AcDbLine
 10
113.591
 20
211.701
 30
0.0
 11
113.591
 21
209.463
 31
0.0
  0
LINE
  5
1B6
330
1D
100
AcDbEntity
  8
0
100
AcDbLine
 10
113.591
 20
211.701
 30
0.0
 11
113.591
 21
213.383
 31
0.0
  0
LINE
  5
1B7
330
1D
100
AcDbEntity
  8
0
100
AcDbLine
 10
113.632
 20
170.24
 30
0.0
 11
113.878
 21
170.952
 31
0.0
  0
LINE
  5
1B8
330
1D
100
AcDbEntity
  8
0
100
AcDbLine
 10
113.878
 20
170.952
 30
0.0
 11
114.249
 21
171.647
 31
0.0
  0
LINE
  5
1B9
330
1D
100
AcDbEntity
  8
0
100
AcDbLine
 10
114.249
 20
171.647
 30
0.0
 11
114.741
 21
172.316
 31
0.0
  0
LINE
  5
1BA
330
1D
100
AcDbEntity
  8
0
100
AcDbLine
 10
114.312
 20
217.917
 30
0.0
 11
115.713
 21
220.582
 31
0.0
  0
LINE
  5
1BB
330
1D
100
AcDbEntity
  8
0
100
AcDbLine
 10
114.741
 20
172.316
 30
0.0
 11
115.348
 21
172.953
 31
0.0
  0
LINE
  5
1BC
330
1D
100
AcDbEntity
  8
0
100
AcDbLine
 10
115.348
 20
172.953
 30
0.0
 11
116.064
 21
173.552
 31
0.0
  0
LINE
  5
1BF
330
1D
100
AcDbEntity
  8
0
100
AcDbLine
 10
113.591
 20
170.23
 30
0.0
 11
113.591
 21
169.992975
 31
0.0
  0
LINE
  5
1C1
330
1D
100
AcDbEntity
  8
0
100
AcDbLine
 10
113.591
 20
170.23
 30
0.0
 11
113.591
 21
195.624
 31
0.0
  0
LINE
  5
1C2
330
1D
100
AcDbEntity
  8
0
100
AcDbLine
 10
115.373
 20
153.059
 30
0.0
 11
115.45
 21
153.717
 31
0.0
  0
LINE
  5
1C3
330
1D
100
AcDbEntity
  8
0
100
AcDbLine
 10
115.373
 20
153.059
 30
0.0
 11
115.421
 21
152.399
 31
0.0
  0
LINE
  5
1C4
330
1D
100
AcDbEntity
  8
0
100
AcDbLine
 10
115.56
 20
149.314
 30
0.0
 11
116.282
 21
148.728
 31
0.0
  0
LINE
  5
1C5
330
1D
100
AcDbEntity
  8
0
100
AcDbLine
 10
115.713
 20
220.582
 30
0.0
 11
117.711
 21
222.837
 31
0.0
  0
LINE
  5
1C7
330
1D
100
AcDbEntity
  8
0
100
AcDbLine
 10
115.651
 20
154.367
 30
0.0
 11
115.972
 21
155.001
 31
0.0
  0
LINE
  5
1C8
330
1D
100
AcDbEntity
  8
0
100
AcDbLine
 10
115.593
 20
151.747
 30
0.0
 11
115.887
 21
151.109
 31
0.0
  0
LINE
  5
1C9
330
1D
100
AcDbEntity
  8
0
100
AcDbLine
 10
115.45
 20
153.717
 30
0.0
 11
115.651
 21
154.367
 31
0.0
  0
LINE
  5
1CA
330
1D
100
AcDbEntity
  8
0
100
AcDbLine
 10
42.957
 20
48.565
 30
0.0
 11
43.227
 21
48.3226
 31
0.0
  0
LINE
  5
1CB
330
1D
100
AcDbEntity
  8
0
100
AcDbLine
 10
42.6188
 20
48.6951
 30
0.0
 11
42.957
 21
48.565
 31
0.0
  0
LINE
  5
1CC
330
1D
100
AcDbEntity
  8
0
100
AcDbLine
 10
43.3928
 20
47.9998
 30
0.0
 11
43.4324
 21
47.6391
 31
0.0
  0
LINE
  5
1CD
330
1D
100
AcDbEntity
  8
0
100
AcDbLine
 10
40.5322
 20
7.98553
 30
0.0
 11
43.4324
 21
47.6391
 31
0.0
  0
LINE
  5
1CE
330
1D
100
AcDbEntity
  8
0
100
AcDbLine
 10
40.5322
 20
7.98553
 30
0.0
 11
43.4324
 21
47.6391
 31
0.0
  0
LINE
  5
1CF
330
1D
100
AcDbEntity
  8
0
100
AcDbLine
 10
122.381
 20
146.328
 30
0.0
 11
123.594
 21
146.152
 31
0.0
  0
LINE
  5
1D0
330
1D
100
AcDbEntity
  8
0
100
AcDbLine
 10
121.205
 20
146.572
 30
0.0
 11
122.381
 21
146.328
 31
0.0
  0
LINE
  5
1D1
330
1D
100
AcDbEntity
  8
0
100
AcDbLine
 10
120.077
 20
146.884
 30
0.0
 11
121.205
 21
146.572
 31
0.0
  0
LINE
  5
1D2
330
1D
100
AcDbEntity
  8
0
100
AcDbLine
 10
120.575
 20
6.022
 30
0.0
 11
122.968
 21
6.022
 31
0.0
  0
LINE
  5
1D3
330
1D
100
AcDbEntity
  8
0
100
AcDbLine
 10
118.231
 20
6.022
 30
0.0
 11
120.575
 21
6.022
 31
0.0
  0
LINE
  5
1D4
330
1D
100
AcDbEntity
  8
0
100
AcDbLine
 10
115.957
 20
6.022
 30
0.0
 11
118.231
 21
6.022
 31
0.0
  0
LINE
  5
1D5
330
1D
100
AcDbEntity
  8
0
100
AcDbLine
 10
122.968
 20
6.022
 30
0.0
 11
125.388
 21
6.022
 31
0.0
  0
LINE
  5
1D6
330
1D
100
AcDbEntity
  8
0
100
AcDbLine
 10
125.388
 20
6.022
 30
0.0
 11
127.814
 21
6.022
 31
0.0
  0
LINE
  5
1D7
330
1D
100
AcDbEntity
  8
0
100
AcDbLine
 10
124.833
 20
146.048
 30
0.0
 11
126.083
 21
146.017
 31
0.0
  0
LINE
  5
1D8
330
1D
100
AcDbEntity
  8
0
100
AcDbLine
 10
123.594
 20
146.152
 30
0.0
 11
124.833
 21
146.048
 31
0.0
  0
LINE
  5
1D9
330
1D
100
AcDbEntity
  8
0
100
AcDbLine
 10
126.083
 20
146.017
 30
0.0
 11
127.332
 21
146.058
 31
0.0
  0
LINE
  5
1DA
330
1D
100
AcDbEntity
  8
0
100
AcDbLine
 10
119.011
 20
147.26
 30
0.0
 11
120.077
 21
146.884
 31
0.0
  0
LINE
  5
1DB
330
1D
100
AcDbEntity
  8
0
100
AcDbLine
 10
118.017
 20
147.696
 30
0.0
 11
119.011
 21
147.26
 31
0.0
  0
LINE
  5
1DC
330
1D
100
AcDbEntity
  8
0
100
AcDbLine
 10
117.104
 20
148.187
 30
0.0
 11
118.017
 21
147.696
 31
0.0
  0
LINE
  5
1DD
330
1D
100
AcDbEntity
  8
0
100
AcDbLine
 10
123.029
 20
147.13
 30
0.0
 11
124.15
 21
146.98
 31
0.0
  0
LINE
  5
1DE
330
1D
100
AcDbEntity
  8
0
100
AcDbLine
 10
121.943
 20
147.349
 30
0.0
 11
123.029
 21
147.13
 31
0.0
  0
LINE
  5
1DF
330
1D
100
AcDbEntity
  8
0
100
AcDbLine
 10
120.905
 20
147.633
 30
0.0
 11
121.943
 21
147.349
 31
0.0
  0
LINE
  5
1E0
330
1D
100
AcDbEntity
  8
0
100
AcDbLine
 10
119.926
 20
147.981
 30
0.0
 11
120.905
 21
147.633
 31
0.0
  0
LINE
  5
1E1
330
1D
100
AcDbEntity
  8
0
100
AcDbLine
 10
116.282
 20
148.728
 30
0.0
 11
117.104
 21
148.187
 31
0.0
  0
LINE
  5
1E2
330
1D
100
AcDbEntity
  8
0
100
AcDbLine
 10
118.194
 20
148.846
 30
0.0
 11
119.019
 21
148.386
 31
0.0
  0
LINE
  5
1E3
330
1D
100
AcDbEntity
  8
0
100
AcDbLine
 10
117.46
 20
149.355
 30
0.0
 11
118.194
 21
148.846
 31
0.0
  0
LINE
  5
1E4
330
1D
100
AcDbEntity
  8
0
100
AcDbLine
 10
116.826
 20
149.906
 30
0.0
 11
117.46
 21
149.355
 31
0.0
  0
LINE
  5
1E5
330
1D
100
AcDbEntity
  8
0
100
AcDbLine
 10
115.972
 20
155.001
 30
0.0
 11
116.411
 21
155.611
 31
0.0
  0
LINE
  5
1E6
330
1D
100
AcDbEntity
  8
0
100
AcDbLine
 10
115.972
 20
155.001
 30
0.0
 11
116.460556165996
 21
155.662980108898
 31
0.0
  0
LINE
  5
1E7
330
1D
100
AcDbEntity
  8
0
100
AcDbLine
 10
115.972
 20
155.001
 30
0.0
 11
116.460556165996
 21
155.662980108898
 31
0.0
  0
LINE
  5
1E8
330
1D
100
AcDbEntity
  8
0
100
AcDbLine
 10
116.411
 20
155.611
 30
0.0
 11
116.963
 21
156.19
 31
0.0
  0
LINE
  5
1E9
330
1D
100
AcDbEntity
  8
0
100
AcDbLine
 10
116.963
 20
156.19
 30
0.0
 11
117.621
 21
156.732
 31
0.0
  0
LINE
  5
1EA
330
1D
100
AcDbEntity
  8
0
100
AcDbLine
 10
117.621
 20
156.732
 30
0.0
 11
118.377
 21
157.23
 31
0.0
  0
LINE
  5
1EB
330
1D
100
AcDbEntity
  8
0
100
AcDbLine
 10
116.3
 20
150.493
 30
0.0
 11
116.826
 21
149.906
 31
0.0
  0
LINE
  5
1EC
330
1D
100
AcDbEntity
  8
0
100
AcDbLine
 10
115.887
 20
151.109
 30
0.0
 11
116.3
 21
150.493
 31
0.0
  0
LINE
  5
1ED
330
1D
100
AcDbEntity
  8
0
100
AcDbLine
 10
119.019
 20
148.386
 30
0.0
 11
119.926
 21
147.981
 31
0.0
  0
LINE
  5
1EE
330
1D
100
AcDbEntity
  8
0
100
AcDbLine
 10
124.15
 20
146.98
 30
0.0
 11
125.292
 21
146.901
 31
0.0
  0
LINE
  5
1EF
330
1D
100
AcDbEntity
  8
0
100
AcDbLine
 10
125.292
 20
146.901
 30
0.0
 11
126.443
 21
146.892
 31
0.0
  0
LINE
  5
1F0
330
1D
100
AcDbEntity
  8
0
100
AcDbLine
 10
126.443
 20
146.892
 30
0.0
 11
127.588
 21
146.956
 31
0.0
  0
LINE
  5
1F1
330
1D
100
AcDbEntity
  8
0
100
AcDbLine
 10
119.222
 20
157.678
 30
0.0
 11
120.147
 21
158.07
 31
0.0
  0
LINE
  5
1F2
330
1D
100
AcDbEntity
  8
0
100
AcDbLine
 10
116.064
 20
173.552
 30
0.0
 11
116.883
 21
174.107
 31
0.0
  0
LINE
  5
1F4
330
1D
100
AcDbEntity
  8
0
100
AcDbLine
 10
116.883
 20
174.107
 30
0.0
 11
117.028
 21
174.192
 31
0.0
  0
LINE
  5
1F7
330
1D
100
AcDbEntity
  8
0
100
AcDbLine
 10
117.711
 20
222.837
 30
0.0
 11
120.191
 21
224.547
 31
0.0
  0
LINE
  5
1FB
330
1D
100
AcDbEntity
  8
0
100
AcDbLine
 10
120.191
 20
224.547
 30
0.0
 11
123.009
 21
225.615
 31
0.0
  0
LINE
  5
1FD
330
1D
100
AcDbEntity
  8
0
100
AcDbLine
 10
121.074
 20
175.83
 30
0.0
 11
122.239
 21
176.083
 31
0.0
  0
LINE
  5
1FE
330
1D
100
AcDbEntity
  8
0
100
AcDbLine
 10
119.959
 20
175.511
 30
0.0
 11
121.074
 21
175.83
 31
0.0
  0
LINE
  5
1FF
330
1D
100
AcDbEntity
  8
0
100
AcDbLine
 10
118.906
 20
175.129
 30
0.0
 11
119.959
 21
175.511
 31
0.0
  0
LINE
  5
200
330
1D
100
AcDbEntity
  8
0
100
AcDbLine
 10
117.926
 20
174.688
 30
0.0
 11
118.906
 21
175.129
 31
0.0
  0
LINE
  5
201
330
1D
100
AcDbEntity
  8
0
100
AcDbLine
 10
117.028
 20
174.192
 30
0.0
 11
117.926
 21
174.688
 31
0.0
  0
LINE
  5
203
330
1D
100
AcDbEntity
  8
0
100
AcDbLine
 10
122.19
 20
158.673
 30
0.0
 11
123.285
 21
158.876
 31
0.0
  0
LINE
  5
204
330
1D
100
AcDbEntity
  8
0
100
AcDbLine
 10
121.14
 20
158.403
 30
0.0
 11
122.19
 21
158.673
 31
0.0
  0
LINE
  5
205
330
1D
100
AcDbEntity
  8
0
100
AcDbLine
 10
120.147
 20
158.07
 30
0.0
 11
121.14
 21
158.403
 31
0.0
  0
LINE
  5
208
330
1D
100
AcDbEntity
  8
0
100
AcDbLine
 10
123.285
 20
158.876
 30
0.0
 11
124.412
 21
159.01
 31
0.0
  0
LINE
  5
20B
330
1D
100
AcDbEntity
  8
0
100
AcDbLine
 10
125.558
 20
159.073
 30
0.0
 11
126.708
 21
159.065
 31
0.0
  0
LINE
  5
20C
330
1D
100
AcDbEntity
  8
0
100
AcDbLine
 10
124.412
 20
159.01
 30
0.0
 11
125.558
 21
159.073
 31
0.0
  0
LINE
  5
20D
330
1D
100
AcDbEntity
  8
0
100
AcDbLine
 10
123.443
 20
176.267
 30
0.0
 11
124.673
 21
176.38
 31
0.0
  0
LINE
  5
20E
330
1D
100
AcDbEntity
  8
0
100
AcDbLine
 10
123.009
 20
225.615
 30
0.0
 11
126.0
 21
225.978
 31
0.0
  0
LINE
  5
20F
330
1D
100
AcDbEntity
  8
0
100
AcDbLine
 10
126.0
 20
225.978
 30
0.0
 11
128.991
 21
225.615
 31
0.0
  0
LINE
  5
211
330
1D
100
AcDbEntity
  8
0
100
AcDbLine
 10
125.917
 20
176.42
 30
0.0
 11
127.162
 21
176.389
 31
0.0
  0
LINE
  5
212
330
1D
100
AcDbEntity
  8
0
100
AcDbLine
 10
124.673
 20
176.38
 30
0.0
 11
125.917
 21
176.42
 31
0.0
  0
LINE
  5
213
330
1D
100
AcDbEntity
  8
0
100
AcDbLine
 10
122.239
 20
176.083
 30
0.0
 11
123.443
 21
176.267
 31
0.0
  0
LINE
  5
214
330
1D
100
AcDbEntity
  8
0
100
AcDbLine
 10
118.377
 20
157.23
 30
0.0
 11
119.222
 21
157.678
 31
0.0
  0
LINE
  5
215
330
1D
100
AcDbEntity
  8
0
100
AcDbLine
 10
126.624
 20
0.022
 30
0.0
 11
129.092
 21
0.022
 31
0.0
  0
LINE
  5
216
330
1D
100
AcDbEntity
  8
0
100
AcDbLine
 10
129.092
 20
0.022
 30
0.0
 11
131.532
 21
0.022
 31
0.0
  0
LINE
  5
217
330
1D
100
AcDbEntity
  8
0
100
AcDbLine
 10
127.849
 20
0.022
 30
0.0
 11
130.307
 21
0.022
 31
0.0
  0
LINE
  5
218
330
1D
100
AcDbEntity
  8
0
100
AcDbLine
 10
127.814
 20
6.022
 30
0.0
 11
130.224
 21
6.022
 31
0.0
  0
LINE
  5
219
330
1D
100
AcDbEntity
  8
0
100
AcDbLine
 10
128.568
 20
146.172
 30
0.0
 11
129.777
 21
146.356
 31
0.0
  0
LINE
  5
21A
330
1D
100
AcDbEntity
  8
0
100
AcDbLine
 10
127.332
 20
146.058
 30
0.0
 11
128.568
 21
146.172
 31
0.0
  0
LINE
  5
21B
330
1D
100
AcDbEntity
  8
0
100
AcDbLine
 10
128.715
 20
147.089
 30
0.0
 11
129.81
 21
147.292
 31
0.0
  0
LINE
  5
21C
330
1D
100
AcDbEntity
  8
0
100
AcDbLine
 10
127.588
 20
146.956
 30
0.0
 11
128.715
 21
147.089
 31
0.0
  0
LINE
  5
21D
330
1D
100
AcDbEntity
  8
0
100
AcDbLine
 10
131.532
 20
0.022
 30
0.0
 11
133.922
 21
0.022
 31
0.0
  0
LINE
  5
21E
330
1D
100
AcDbEntity
  8
0
100
AcDbLine
 10
133.922
 20
0.022
 30
0.0
 11
136.24
 21
0.022
 31
0.0
  0
LINE
  5
21F
330
1D
100
AcDbEntity
  8
0
100
AcDbLine
 10
136.24
 20
0.022
 30
0.0
 11
138.465
 21
0.022
 31
0.0
  0
LINE
  5
220
330
1D
100
AcDbEntity
  8
0
100
AcDbLine
 10
138.465
 20
0.022
 30
0.0
 11
140.578
 21
0.022
 31
0.0
  0
LINE
  5
221
330
1D
100
AcDbEntity
  8
0
100
AcDbLine
 10
140.578
 20
0.022
 30
0.0
 11
142.558
 21
0.022
 31
0.0
  0
LINE
  5
222
330
1D
100
AcDbEntity
  8
0
100
AcDbLine
 10
142.558
 20
0.022
 30
0.0
 11
144.389
 21
0.022
 31
0.0
  0
LINE
  5
223
330
1D
100
AcDbEntity
  8
0
100
AcDbLine
 10
144.389
 20
0.022
 30
0.0
 11
146.052
 21
0.022
 31
0.0
  0
LINE
  5
224
330
1D
100
AcDbEntity
  8
0
100
AcDbLine
 10
146.052
 20
0.022
 30
0.0
 11
147.535
 21
0.022
 31
0.0
  0
LINE
  5
225
330
1D
100
AcDbEntity
  8
0
100
AcDbLine
 10
147.535
 20
0.022
 30
0.0
 11
148.822
 21
0.022
 31
0.0
  0
LINE
  5
226
330
1D
100
AcDbEntity
  8
0
100
AcDbLine
 10
148.822
 20
0.022
 30
0.0
 11
149.903
 21
0.022
 31
0.0
  0
LINE
  5
227
330
1D
100
AcDbEntity
  8
0
100
AcDbLine
 10
149.903
 20
0.022
 30
0.0
 11
150.767
 21
0.022
 31
0.0
  0
LINE
  5
228
330
1D
100
AcDbEntity
  8
0
100
AcDbLine
 10
150.767
 20
0.022
 30
0.0
 11
151.407
 21
0.022
 31
0.0
  0
LINE
  5
229
330
1D
100
AcDbEntity
  8
0
100
AcDbLine
 10
151.407
 20
0.022
 30
0.0
 11
151.817
 21
0.022
 31
0.0
  0
LINE
  5
22A
330
1D
100
AcDbEntity
  8
0
100
AcDbLine
 10
151.817
 20
0.022
 30
0.0
 11
151.993
 21
0.022
 31
0.0
  0
LINE
  5
22B
330
1D
100
AcDbEntity
  8
0
100
AcDbLine
 10
151.993
 20
0.022
 30
0.0
 11
151.993
 21
5.522
 31
0.0
  0
LINE
  5
22C
330
1D
100
AcDbEntity
  8
0
100
AcDbLine
 10
200.185
 20
0.022
 30
0.0
 11
200.595
 21
0.022
 31
0.0
  0
LINE
  5
22D
330
1D
100
AcDbEntity
  8
0
100
AcDbLine
 10
151.934
 20
0.022
 30
0.0
 11
151.993
 21
0.022
 31
0.0
  0
LINE
  5
22E
330
1D
100
AcDbEntity
  8
0
100
AcDbLine
 10
151.639
 20
0.022
 30
0.0
 11
151.934
 21
0.022
 31
0.0
  0
LINE
  5
22F
330
1D
100
AcDbEntity
  8
0
100
AcDbLine
 10
151.113
 20
0.022
 30
0.0
 11
151.639
 21
0.022
 31
0.0
  0
LINE
  5
230
330
1D
100
AcDbEntity
  8
0
100
AcDbLine
 10
150.359
 20
0.022
 30
0.0
 11
151.113
 21
0.022
 31
0.0
  0
LINE
  5
231
330
1D
100
AcDbEntity
  8
0
100
AcDbLine
 10
149.384
 20
0.022
 30
0.0
 11
150.359
 21
0.022
 31
0.0
  0
LINE
  5
232
330
1D
100
AcDbEntity
  8
0
100
AcDbLine
 10
148.198
 20
0.022
 30
0.0
 11
149.384
 21
0.022
 31
0.0
  0
LINE
  5
233
330
1D
100
AcDbEntity
  8
0
100
AcDbLine
 10
146.811
 20
0.022
 30
0.0
 11
148.198
 21
0.022
 31
0.0
  0
LINE
  5
234
330
1D
100
AcDbEntity
  8
0
100
AcDbLine
 10
145.235
 20
0.022
 30
0.0
 11
146.811
 21
0.022
 31
0.0
  0
LINE
  5
235
330
1D
100
AcDbEntity
  8
0
100
AcDbLine
 10
143.486
 20
0.022
 30
0.0
 11
145.235
 21
0.022
 31
0.0
  0
LINE
  5
236
330
1D
100
AcDbEntity
  8
0
100
AcDbLine
 10
141.577
 20
0.022
 30
0.0
 11
143.486
 21
0.022
 31
0.0
  0
LINE
  5
237
330
1D
100
AcDbEntity
  8
0
100
AcDbLine
 10
139.528
 20
0.022
 30
0.0
 11
141.577
 21
0.022
 31
0.0
  0
LINE
  5
238
330
1D
100
AcDbEntity
  8
0
100
AcDbLine
 10
137.356
 20
0.022
 30
0.0
 11
139.528
 21
0.022
 31
0.0
  0
LINE
  5
239
330
1D
100
AcDbEntity
  8
0
100
AcDbLine
 10
135.081
 20
0.022
 30
0.0
 11
137.356
 21
0.022
 31
0.0
  0
LINE
  5
23A
330
1D
100
AcDbEntity
  8
0
100
AcDbLine
 10
151.993
 20
5.522
 30
0.0
 11
151.993
 21
0.022
 31
0.0
  0
LINE
  5
23B
330
1D
100
AcDbEntity
  8
0
100
AcDbLine
 10
132.724
 20
0.022
 30
0.0
 11
135.081
 21
0.022
 31
0.0
  0
LINE
  5
23C
330
1D
100
AcDbEntity
  8
0
100
AcDbLine
 10
130.307
 20
0.022
 30
0.0
 11
132.724
 21
0.022
 31
0.0
  0
LINE
  5
23D
330
1D
100
AcDbEntity
  8
0
100
AcDbLine
 10
138.409
 20
6.022
 30
0.0
 11
138.409
 21
152.601025
 31
0.0
  0
LINE
  5
23E
330
1D
100
AcDbEntity
  8
0
100
AcDbLine
 10
151.493
 20
6.022
 30
0.0
 11
151.743
 21
5.95501
 31
0.0
  0
LINE
  5
23F
330
1D
100
AcDbEntity
  8
0
100
AcDbLine
 10
151.434
 20
6.022
 30
0.0
 11
151.493
 21
6.022
 31
0.0
  0
LINE
  5
240
330
1D
100
AcDbEntity
  8
0
100
AcDbLine
 10
151.926
 20
5.772
 30
0.0
 11
151.993
 21
5.522
 31
0.0
  0
LINE
  5
241
330
1D
100
AcDbEntity
  8
0
100
AcDbLine
 10
151.743
 20
5.95501
 30
0.0
 11
151.926
 21
5.772
 31
0.0
  0
LINE
  5
242
330
1D
100
AcDbEntity
  8
0
100
AcDbLine
 10
151.146
 20
6.022
 30
0.0
 11
151.434
 21
6.022
 31
0.0
  0
LINE
  5
243
330
1D
100
AcDbEntity
  8
0
100
AcDbLine
 10
150.63
 20
6.022
 30
0.0
 11
151.146
 21
6.022
 31
0.0
  0
LINE
  5
244
330
1D
100
AcDbEntity
  8
0
100
AcDbLine
 10
149.89
 20
6.022
 30
0.0
 11
150.63
 21
6.022
 31
0.0
  0
LINE
  5
245
330
1D
100
AcDbEntity
  8
0
100
AcDbLine
 10
148.935
 20
6.022
 30
0.0
 11
149.89
 21
6.022
 31
0.0
  0
LINE
  5
246
330
1D
100
AcDbEntity
  8
0
100
AcDbLine
 10
200.008
 20
5.522
 30
0.0
 11
200.008
 21
0.022
 31
0.0
  0
LINE
  5
247
330
1D
100
AcDbEntity
  8
0
100
AcDbLine
 10
200.008
 20
5.522
 30
0.0
 11
200.074
 21
5.772
 31
0.0
  0
LINE
  5
248
330
1D
100
AcDbEntity
  8
0
100
AcDbLine
 10
200.258
 20
5.95501
 30
0.0
 11
200.507
 21
6.022
 31
0.0
  0
LINE
  5
249
330
1D
100
AcDbEntity
  8
0
100
AcDbLine
 10
200.074
 20
5.772
 30
0.0
 11
200.258
 21
5.95501
 31
0.0
  0
LINE
  5
24A
330
1D
100
AcDbEntity
  8
0
100
AcDbLine
 10
200.066
 20
0.022
 30
0.0
 11
200.359
 21
0.022
 31
0.0
  0
LINE
  5
24B
330
1D
100
AcDbEntity
  8
0
100
AcDbLine
 10
200.008
 20
0.022
 30
0.0
 11
200.066
 21
0.022
 31
0.0
  0
LINE
  5
24C
330
1D
100
AcDbEntity
  8
0
100
AcDbLine
 10
200.008
 20
0.022
 30
0.0
 11
200.185
 21
0.022
 31
0.0
  0
LINE
  5
24D
330
1D
100
AcDbEntity
  8
0
100
AcDbLine
 10
200.008
 20
0.022
 30
0.0
 11
200.008
 21
5.522
 31
0.0
  0
LINE
  5
24E
330
1D
100
AcDbEntity
  8
0
100
AcDbLine
 10
200.359
 20
0.022
 30
0.0
 11
200.885
 21
0.022
 31
0.0
  0
LINE
  5
24F
330
1D
100
AcDbEntity
  8
0
100
AcDbLine
 10
200.507
 20
6.022
 30
0.0
 11
200.565
 21
6.022
 31
0.0
  0
LINE
  5
250
330
1D
100
AcDbEntity
  8
0
100
AcDbLine
 10
201.236
 20
0.022
 30
0.0
 11
202.102
 21
0.022
 31
0.0
  0
LINE
  5
251
330
1D
100
AcDbEntity
  8
0
100
AcDbLine
 10
201.501
 20
0.022
 30
0.0
 11
201.597
 21
0.022
 31
0.0
  0
LINE
  5
252
330
1D
100
AcDbEntity
  8
0
100
AcDbLine
 10
201.501
 20
0.022
 30
0.0
 11
201.641
 21
0.022
 31
0.0
  0
LINE
  5
253
330
1D
100
AcDbEntity
  8
0
100
AcDbLine
 10
201.641
 20
0.022
 30
0.0
 11
202.015
 21
0.022
 31
0.0
  0
LINE
  5
254
330
1D
100
AcDbEntity
  8
0
100
AcDbLine
 10
202.015
 20
0.022
 30
0.0
 11
202.621
 21
0.022
 31
0.0
  0
LINE
  5
255
330
1D
100
AcDbEntity
  8
0
100
AcDbLine
 10
202.102
 20
0.022
 30
0.0
 11
203.182
 21
0.022
 31
0.0
  0
LINE
  5
256
330
1D
100
AcDbEntity
  8
0
100
AcDbLine
 10
201.597
 20
0.022
 30
0.0
 11
201.928
 21
0.022
 31
0.0
  0
LINE
  5
257
330
1D
100
AcDbEntity
  8
0
100
AcDbLine
 10
201.928
 20
0.022
 30
0.0
 11
202.491
 21
0.022
 31
0.0
  0
LINE
  5
258
330
1D
100
AcDbEntity
  8
0
100
AcDbLine
 10
200.595
 20
0.022
 30
0.0
 11
201.236
 21
0.022
 31
0.0
  0
LINE
  5
259
330
1D
100
AcDbEntity
  8
0
100
AcDbLine
 10
201.638
 20
0.022
 30
0.0
 11
202.611
 21
0.022
 31
0.0
  0
LINE
  5
25A
330
1D
100
AcDbEntity
  8
0
100
AcDbLine
 10
200.885
 20
0.022
 30
0.0
 11
201.638
 21
0.022
 31
0.0
  0
LINE
  5
25B
330
1D
100
AcDbEntity
  8
0
100
AcDbLine
 10
200.565
 20
6.022
 30
0.0
 11
200.852
 21
6.022
 31
0.0
  0
LINE
  5
25C
330
1D
100
AcDbEntity
  8
0
100
AcDbLine
 10
201.368
 20
6.022
 30
0.0
 11
202.106
 21
6.022
 31
0.0
  0
LINE
  5
25D
330
1D
100
AcDbEntity
  8
0
100
AcDbLine
 10
202.491
 20
0.022
 30
0.0
 11
203.28
 21
0.022
 31
0.0
  0
LINE
  5
25E
330
1D
100
AcDbEntity
  8
0
100
AcDbLine
 10
202.611
 20
0.022
 30
0.0
 11
203.796
 21
0.022
 31
0.0
  0
LINE
  5
25F
330
1D
100
AcDbEntity
  8
0
100
AcDbLine
 10
202.621
 20
0.022
 30
0.0
 11
203.452
 21
0.022
 31
0.0
  0
LINE
  5
260
330
1D
100
AcDbEntity
  8
0
100
AcDbLine
 10
202.106
 20
6.022
 30
0.0
 11
203.061
 21
6.022
 31
0.0
  0
LINE
  5
261
330
1D
100
AcDbEntity
  8
0
100
AcDbLine
 10
200.852
 20
6.022
 30
0.0
 11
201.368
 21
6.022
 31
0.0
  0
LINE
  5
262
330
1D
100
AcDbEntity
  8
0
100
AcDbLine
 10
222.919
 20
0.022
 30
0.0
 11
225.386
 21
0.022
 31
0.0
  0
LINE
  5
263
330
1D
100
AcDbEntity
  8
0
100
AcDbLine
 10
225.386
 20
0.022
 30
0.0
 11
227.86
 21
0.022
 31
0.0
  0
LINE
  5
264
330
1D
100
AcDbEntity
  8
0
100
AcDbLine
 10
227.86
 20
0.022
 30
0.0
 11
230.317
 21
0.022
 31
0.0
  0
LINE
  5
265
330
1D
100
AcDbEntity
  8
0
100
AcDbLine
 10
218.089
 20
0.022
 30
0.0
 11
220.478
 21
0.022
 31
0.0
  0
LINE
  5
266
330
1D
100
AcDbEntity
  8
0
100
AcDbLine
 10
220.478
 20
0.022
 30
0.0
 11
222.919
 21
0.022
 31
0.0
  0
LINE
  5
267
330
1D
100
AcDbEntity
  8
0
100
AcDbLine
 10
223.821
 20
0.022
 30
0.0
 11
226.223
 21
0.022
 31
0.0
  0
LINE
  5
268
330
1D
100
AcDbEntity
  8
0
100
AcDbLine
 10
226.223
 20
0.022
 30
0.0
 11
228.624
 21
0.022
 31
0.0
  0
LINE
  5
269
330
1D
100
AcDbEntity
  8
0
100
AcDbLine
 10
228.624
 20
0.022
 30
0.0
 11
230.999
 21
0.022
 31
0.0
  0
LINE
  5
26A
330
1D
100
AcDbEntity
  8
0
100
AcDbLine
 10
230.317
 20
0.022
 30
0.0
 11
232.735
 21
0.022
 31
0.0
  0
LINE
  5
26B
330
1D
100
AcDbEntity
  8
0
100
AcDbLine
 10
232.735
 20
0.022
 30
0.0
 11
235.091
 21
0.022
 31
0.0
  0
LINE
  5
26C
330
1D
100
AcDbEntity
  8
0
100
AcDbLine
 10
221.44
 20
0.022
 30
0.0
 11
223.821
 21
0.022
 31
0.0
  0
LINE
  5
26D
330
1D
100
AcDbEntity
  8
0
100
AcDbLine
 10
215.77
 20
0.022
 30
0.0
 11
218.089
 21
0.022
 31
0.0
  0
LINE
  5
26E
330
1D
100
AcDbEntity
  8
0
100
AcDbLine
 10
219.102
 20
0.022
 30
0.0
 11
221.44
 21
0.022
 31
0.0
  0
LINE
  5
26F
330
1D
100
AcDbEntity
  8
0
100
AcDbLine
 10
230.999
 20
0.022
 30
0.0
 11
233.326
 21
0.022
 31
0.0
  0
LINE
  5
270
330
1D
100
AcDbEntity
  8
0
100
AcDbLine
 10
233.326
 20
0.022
 30
0.0
 11
235.582
 21
0.022
 31
0.0
  0
LINE
  5
271
330
1D
100
AcDbEntity
  8
0
100
AcDbLine
 10
235.091
 20
0.022
 30
0.0
 11
237.366
 21
0.022
 31
0.0
  0
LINE
  5
272
330
1D
100
AcDbEntity
  8
0
100
AcDbLine
 10
237.366
 20
0.022
 30
0.0
 11
239.537
 21
0.022
 31
0.0
  0
LINE
  5
273
330
1D
100
AcDbEntity
  8
0
100
AcDbLine
 10
204.5
 20
0.022
 30
0.0
 11
205.754
 21
0.022
 31
0.0
  0
LINE
  5
274
330
1D
100
AcDbEntity
  8
0
100
AcDbLine
 10
203.182
 20
0.022
 30
0.0
 11
204.471
 21
0.022
 31
0.0
  0
LINE
  5
275
330
1D
100
AcDbEntity
  8
0
100
AcDbLine
 10
204.471
 20
0.022
 30
0.0
 11
205.954
 21
0.022
 31
0.0
  0
LINE
  5
276
330
1D
100
AcDbEntity
  8
0
100
AcDbLine
 10
205.754
 20
0.022
 30
0.0
 11
207.204
 21
0.022
 31
0.0
  0
LINE
  5
277
330
1D
100
AcDbEntity
  8
0
100
AcDbLine
 10
205.954
 20
0.022
 30
0.0
 11
207.619
 21
0.022
 31
0.0
  0
LINE
  5
278
330
1D
100
AcDbEntity
  8
0
100
AcDbLine
 10
207.204
 20
0.022
 30
0.0
 11
208.835
 21
0.022
 31
0.0
  0
LINE
  5
279
330
1D
100
AcDbEntity
  8
0
100
AcDbLine
 10
207.619
 20
0.022
 30
0.0
 11
209.45
 21
0.022
 31
0.0
  0
LINE
  5
27A
330
1D
100
AcDbEntity
  8
0
100
AcDbLine
 10
208.835
 20
0.022
 30
0.0
 11
210.631
 21
0.022
 31
0.0
  0
LINE
  5
27B
330
1D
100
AcDbEntity
  8
0
100
AcDbLine
 10
209.45
 20
0.022
 30
0.0
 11
211.431
 21
0.022
 31
0.0
  0
LINE
  5
27C
330
1D
100
AcDbEntity
  8
0
100
AcDbLine
 10
210.631
 20
0.022
 30
0.0
 11
212.575
 21
0.022
 31
0.0
  0
LINE
  5
27D
330
1D
100
AcDbEntity
  8
0
100
AcDbLine
 10
211.431
 20
0.022
 30
0.0
 11
213.544
 21
0.022
 31
0.0
  0
LINE
  5
27E
330
1D
100
AcDbEntity
  8
0
100
AcDbLine
 10
214.648
 20
0.022
 30
0.0
 11
216.831
 21
0.022
 31
0.0
  0
LINE
  5
27F
330
1D
100
AcDbEntity
  8
0
100
AcDbLine
 10
216.831
 20
0.022
 30
0.0
 11
219.102
 21
0.022
 31
0.0
  0
LINE
  5
280
330
1D
100
AcDbEntity
  8
0
100
AcDbLine
 10
235.582
 20
0.022
 30
0.0
 11
237.746
 21
0.022
 31
0.0
  0
LINE
  5
281
330
1D
100
AcDbEntity
  8
0
100
AcDbLine
 10
237.746
 20
0.022
 30
0.0
 11
239.796
 21
0.022
 31
0.0
  0
LINE
  5
282
330
1D
100
AcDbEntity
  8
0
100
AcDbLine
 10
212.575
 20
0.022
 30
0.0
 11
214.648
 21
0.022
 31
0.0
  0
LINE
  5
283
330
1D
100
AcDbEntity
  8
0
100
AcDbLine
 10
203.28
 20
0.022
 30
0.0
 11
204.289
 21
0.022
 31
0.0
  0
LINE
  5
284
330
1D
100
AcDbEntity
  8
0
100
AcDbLine
 10
206.921
 20
0.022
 30
0.0
 11
208.518
 21
0.022
 31
0.0
  0
LINE
  5
285
330
1D
100
AcDbEntity
  8
0
100
AcDbLine
 10
205.505
 20
0.022
 30
0.0
 11
206.921
 21
0.022
 31
0.0
  0
LINE
  5
286
330
1D
100
AcDbEntity
  8
0
100
AcDbLine
 10
204.289
 20
0.022
 30
0.0
 11
205.505
 21
0.022
 31
0.0
  0
LINE
  5
287
330
1D
100
AcDbEntity
  8
0
100
AcDbLine
 10
210.286
 20
0.022
 30
0.0
 11
212.204
 21
0.022
 31
0.0
  0
LINE
  5
288
330
1D
100
AcDbEntity
  8
0
100
AcDbLine
 10
208.518
 20
0.022
 30
0.0
 11
210.286
 21
0.022
 31
0.0
  0
LINE
  5
289
330
1D
100
AcDbEntity
  8
0
100
AcDbLine
 10
237.352
 20
0.022
 30
0.0
 11
239.425
 21
0.022
 31
0.0
  0
LINE
  5
28A
330
1D
100
AcDbEntity
  8
0
100
AcDbLine
 10
214.254
 20
0.022
 30
0.0
 11
216.418
 21
0.022
 31
0.0
  0
LINE
  5
28B
330
1D
100
AcDbEntity
  8
0
100
AcDbLine
 10
212.204
 20
0.022
 30
0.0
 11
214.254
 21
0.022
 31
0.0
  0
LINE
  5
28C
330
1D
100
AcDbEntity
  8
0
100
AcDbLine
 10
235.169
 20
0.022
 30
0.0
 11
237.352
 21
0.022
 31
0.0
  0
LINE
  5
28D
330
1D
100
AcDbEntity
  8
0
100
AcDbLine
 10
232.898
 20
0.022
 30
0.0
 11
235.169
 21
0.022
 31
0.0
  0
LINE
  5
28E
330
1D
100
AcDbEntity
  8
0
100
AcDbLine
 10
236.23
 20
0.022
 30
0.0
 11
238.456
 21
0.022
 31
0.0
  0
LINE
  5
28F
330
1D
100
AcDbEntity
  8
0
100
AcDbLine
 10
230.56
 20
0.022
 30
0.0
 11
232.898
 21
0.022
 31
0.0
  0
LINE
  5
290
330
1D
100
AcDbEntity
  8
0
100
AcDbLine
 10
223.376
 20
0.022
 30
0.0
 11
225.777
 21
0.022
 31
0.0
  0
LINE
  5
291
330
1D
100
AcDbEntity
  8
0
100
AcDbLine
 10
221.001
 20
0.022
 30
0.0
 11
223.376
 21
0.022
 31
0.0
  0
LINE
  5
292
330
1D
100
AcDbEntity
  8
0
100
AcDbLine
 10
218.674
 20
0.022
 30
0.0
 11
221.001
 21
0.022
 31
0.0
  0
LINE
  5
293
330
1D
100
AcDbEntity
  8
0
100
AcDbLine
 10
216.418
 20
0.022
 30
0.0
 11
218.674
 21
0.022
 31
0.0
  0
LINE
  5
294
330
1D
100
AcDbEntity
  8
0
100
AcDbLine
 10
233.912
 20
0.022
 30
0.0
 11
236.23
 21
0.022
 31
0.0
  0
LINE
  5
295
330
1D
100
AcDbEntity
  8
0
100
AcDbLine
 10
228.179
 20
0.022
 30
0.0
 11
230.56
 21
0.022
 31
0.0
  0
LINE
  5
296
330
1D
100
AcDbEntity
  8
0
100
AcDbLine
 10
231.522
 20
0.022
 30
0.0
 11
233.912
 21
0.022
 31
0.0
  0
LINE
  5
297
330
1D
100
AcDbEntity
  8
0
100
AcDbLine
 10
225.777
 20
0.022
 30
0.0
 11
228.179
 21
0.022
 31
0.0
  0
LINE
  5
298
330
1D
100
AcDbEntity
  8
0
100
AcDbLine
 10
229.081
 20
0.022
 30
0.0
 11
231.522
 21
0.022
 31
0.0
  0
LINE
  5
299
330
1D
100
AcDbEntity
  8
0
100
AcDbLine
 10
226.614
 20
0.022
 30
0.0
 11
229.081
 21
0.022
 31
0.0
  0
LINE
  5
29A
330
1D
100
AcDbEntity
  8
0
100
AcDbLine
 10
224.14
 20
0.022
 30
0.0
 11
226.614
 21
0.022
 31
0.0
  0
LINE
  5
29B
330
1D
100
AcDbEntity
  8
0
100
AcDbLine
 10
221.684
 20
0.022
 30
0.0
 11
224.14
 21
0.022
 31
0.0
  0
LINE
  5
29C
330
1D
100
AcDbEntity
  8
0
100
AcDbLine
 10
219.266
 20
0.022
 30
0.0
 11
221.684
 21
0.022
 31
0.0
  0
LINE
  5
29D
330
1D
100
AcDbEntity
  8
0
100
AcDbLine
 10
216.909
 20
0.022
 30
0.0
 11
219.266
 21
0.022
 31
0.0
  0
LINE
  5
29E
330
1D
100
AcDbEntity
  8
0
100
AcDbLine
 10
214.634
 20
0.022
 30
0.0
 11
216.909
 21
0.022
 31
0.0
  0
LINE
  5
29F
330
1D
100
AcDbEntity
  8
0
100
AcDbLine
 10
212.464
 20
0.022
 30
0.0
 11
214.634
 21
0.022
 31
0.0
  0
LINE
  5
2A0
330
1D
100
AcDbEntity
  8
0
100
AcDbLine
 10
210.414
 20
0.022
 30
0.0
 11
212.464
 21
0.022
 31
0.0
  0
LINE
  5
2A1
330
1D
100
AcDbEntity
  8
0
100
AcDbLine
 10
208.507
 20
0.022
 30
0.0
 11
210.414
 21
0.022
 31
0.0
  0
LINE
  5
2A2
330
1D
100
AcDbEntity
  8
0
100
AcDbLine
 10
206.758
 20
0.022
 30
0.0
 11
208.507
 21
0.022
 31
0.0
  0
LINE
  5
2A3
330
1D
100
AcDbEntity
  8
0
100
AcDbLine
 10
205.183
 20
0.022
 30
0.0
 11
206.758
 21
0.022
 31
0.0
  0
LINE
  5
2A4
330
1D
100
AcDbEntity
  8
0
100
AcDbLine
 10
203.796
 20
0.022
 30
0.0
 11
205.183
 21
0.022
 31
0.0
  0
LINE
  5
2A5
330
1D
100
AcDbEntity
  8
0
100
AcDbLine
 10
203.452
 20
0.022
 30
0.0
 11
204.5
 21
0.022
 31
0.0
  0
LINE
  5
2A6
330
1D
100
AcDbEntity
  8
0
100
AcDbLine
 10
239.537
 20
0.022
 30
0.0
 11
241.585
 21
0.022
 31
0.0
  0
LINE
  5
2A7
330
1D
100
AcDbEntity
  8
0
100
AcDbLine
 10
239.796
 20
0.022
 30
0.0
 11
241.715
 21
0.022
 31
0.0
  0
LINE
  5
2A8
330
1D
100
AcDbEntity
  8
0
100
AcDbLine
 10
241.715
 20
0.022
 30
0.0
 11
243.482
 21
0.022
 31
0.0
  0
LINE
  5
2A9
330
1D
100
AcDbEntity
  8
0
100
AcDbLine
 10
241.585
 20
0.022
 30
0.0
 11
243.493
 21
0.022
 31
0.0
  0
LINE
  5
2AA
330
1D
100
AcDbEntity
  8
0
100
AcDbLine
 10
243.493
 20
0.022
 30
0.0
 11
245.243
 21
0.022
 31
0.0
  0
LINE
  5
2AB
330
1D
100
AcDbEntity
  8
0
100
AcDbLine
 10
243.482
 20
0.022
 30
0.0
 11
245.079
 21
0.022
 31
0.0
  0
LINE
  5
2AC
330
1D
100
AcDbEntity
  8
0
100
AcDbLine
 10
245.079
 20
0.022
 30
0.0
 11
246.495
 21
0.022
 31
0.0
  0
LINE
  5
2AD
330
1D
100
AcDbEntity
  8
0
100
AcDbLine
 10
245.243
 20
0.022
 30
0.0
 11
246.817
 21
0.022
 31
0.0
  0
LINE
  5
2AE
330
1D
100
AcDbEntity
  8
0
100
AcDbLine
 10
246.817
 20
0.022
 30
0.0
 11
248.204
 21
0.022
 31
0.0
  0
LINE
  5
2AF
330
1D
100
AcDbEntity
  8
0
100
AcDbLine
 10
246.495
 20
0.022
 30
0.0
 11
247.711
 21
0.022
 31
0.0
  0
LINE
  5
2B0
330
1D
100
AcDbEntity
  8
0
100
AcDbLine
 10
247.711
 20
0.022
 30
0.0
 11
248.72
 21
0.022
 31
0.0
  0
LINE
  5
2B1
330
1D
100
AcDbEntity
  8
0
100
AcDbLine
 10
248.204
 20
0.022
 30
0.0
 11
249.389
 21
0.022
 31
0.0
  0
LINE
  5
2B2
330
1D
100
AcDbEntity
  8
0
100
AcDbLine
 10
249.389
 20
0.022
 30
0.0
 11
250.362
 21
0.022
 31
0.0
  0
LINE
  5
2B3
330
1D
100
AcDbEntity
  8
0
100
AcDbLine
 10
248.72
 20
0.022
 30
0.0
 11
249.509
 21
0.022
 31
0.0
  0
LINE
  5
2B4
330
1D
100
AcDbEntity
  8
0
100
AcDbLine
 10
249.379
 20
0.022
 30
0.0
 11
249.985
 21
0.022
 31
0.0
  0
LINE
  5
2B5
330
1D
100
AcDbEntity
  8
0
100
AcDbLine
 10
248.548
 20
0.022
 30
0.0
 11
249.379
 21
0.022
 31
0.0
  0
LINE
  5
2B6
330
1D
100
AcDbEntity
  8
0
100
AcDbLine
 10
249.985
 20
0.022
 30
0.0
 11
250.359
 21
0.022
 31
0.0
  0
LINE
  5
2B7
330
1D
100
AcDbEntity
  8
0
100
AcDbLine
 10
239.425
 20
0.022
 30
0.0
 11
241.369
 21
0.022
 31
0.0
  0
LINE
  5
2B8
330
1D
100
AcDbEntity
  8
0
100
AcDbLine
 10
247.5
 20
0.022
 30
0.0
 11
248.548
 21
0.022
 31
0.0
  0
LINE
  5
2B9
330
1D
100
AcDbEntity
  8
0
100
AcDbLine
 10
246.246
 20
0.022
 30
0.0
 11
247.5
 21
0.022
 31
0.0
  0
LINE
  5
2BA
330
1D
100
AcDbEntity
  8
0
100
AcDbLine
 10
248.817
 20
0.022
 30
0.0
 11
249.899
 21
0.022
 31
0.0
  0
LINE
  5
2BB
330
1D
100
AcDbEntity
  8
0
100
AcDbLine
 10
247.529
 20
0.022
 30
0.0
 11
248.817
 21
0.022
 31
0.0
  0
LINE
  5
2BC
330
1D
100
AcDbEntity
  8
0
100
AcDbLine
 10
244.796
 20
0.022
 30
0.0
 11
246.246
 21
0.022
 31
0.0
  0
LINE
  5
2BD
330
1D
100
AcDbEntity
  8
0
100
AcDbLine
 10
246.046
 20
0.022
 30
0.0
 11
247.529
 21
0.022
 31
0.0
  0
LINE
  5
2BE
330
1D
100
AcDbEntity
  8
0
100
AcDbLine
 10
243.165
 20
0.022
 30
0.0
 11
244.796
 21
0.022
 31
0.0
  0
LINE
  5
2BF
330
1D
100
AcDbEntity
  8
0
100
AcDbLine
 10
244.381
 20
0.022
 30
0.0
 11
246.046
 21
0.022
 31
0.0
  0
LINE
  5
2C0
330
1D
100
AcDbEntity
  8
0
100
AcDbLine
 10
241.369
 20
0.022
 30
0.0
 11
243.165
 21
0.022
 31
0.0
  0
LINE
  5
2C1
330
1D
100
AcDbEntity
  8
0
100
AcDbLine
 10
242.55
 20
0.022
 30
0.0
 11
244.381
 21
0.022
 31
0.0
  0
LINE
  5
2C2
330
1D
100
AcDbEntity
  8
0
100
AcDbLine
 10
240.569
 20
0.022
 30
0.0
 11
242.55
 21
0.022
 31
0.0
  0
LINE
  5
2C3
330
1D
100
AcDbEntity
  8
0
100
AcDbLine
 10
249.899
 20
0.022
 30
0.0
 11
250.764
 21
0.022
 31
0.0
  0
LINE
  5
2C4
330
1D
100
AcDbEntity
  8
0
100
AcDbLine
 10
250.072
 20
0.022
 30
0.0
 11
250.403
 21
0.022
 31
0.0
  0
LINE
  5
2C5
330
1D
100
AcDbEntity
  8
0
100
AcDbLine
 10
249.509
 20
0.022
 30
0.0
 11
250.072
 21
0.022
 31
0.0
  0
LINE
  5
2C6
330
1D
100
AcDbEntity
  8
0
100
AcDbLine
 10
238.456
 20
0.022
 30
0.0
 11
240.569
 21
0.022
 31
0.0
  0
LINE
  5
2C7
330
1D
100
AcDbEntity
  8
0
100
AcDbLine
 10
213.544
 20
0.022
 30
0.0
 11
215.77
 21
0.022
 31
0.0
  0
LINE
  5
2C8
330
1D
100
AcDbEntity
  8
0
100
AcDbLine
 10
203.061
 20
6.022
 30
0.0
 11
204.223
 21
6.022
 31
0.0
  0
LINE
  5
2C9
330
1D
100
AcDbEntity
  8
0
100
AcDbLine
 10
250.359
 20
0.022
 30
0.0
 11
250.499
 21
0.022
 31
0.0
  0
LINE
  5
2CA
330
1D
100
AcDbEntity
  8
0
100
AcDbLine
 10
250.764
 20
0.022
 30
0.0
 11
251.405
 21
0.022
 31
0.0
  0
LINE
  5
2CB
330
1D
100
AcDbEntity
  8
0
100
AcDbLine
 10
250.403
 20
0.022
 30
0.0
 11
250.499
 21
0.022
 31
0.0
  0
LINE
  5
2CC
330
1D
100
AcDbEntity
  8
0
100
AcDbLine
 10
250.362
 20
0.022
 30
0.0
 11
251.115
 21
0.022
 31
0.0
  0
LINE
  5
2CD
330
1D
100
AcDbEntity
  8
0
100
AcDbLine
 10
250.288
 20
6.022
 30
0.0
 11
250.916
 21
6.022
 31
0.0
  0
LINE
  5
2CE
330
1D
100
AcDbEntity
  8
0
100
AcDbLine
 10
134.907
 20
6.022
 30
0.0
 11
137.137
 21
6.022
 31
0.0
  0
LINE
  5
2CF
330
1D
100
AcDbEntity
  8
0
100
AcDbLine
 10
147.771
 20
6.022
 30
0.0
 11
148.935
 21
6.022
 31
0.0
  0
LINE
  5
2D0
330
1D
100
AcDbEntity
  8
0
100
AcDbLine
 10
146.411
 20
6.022
 30
0.0
 11
147.771
 21
6.022
 31
0.0
  0
LINE
  5
2D1
330
1D
100
AcDbEntity
  8
0
100
AcDbLine
 10
144.865
 20
6.022
 30
0.0
 11
146.411
 21
6.022
 31
0.0
  0
LINE
  5
2D2
330
1D
100
AcDbEntity
  8
0
100
AcDbLine
 10
143.149
 20
6.022
 30
0.0
 11
144.865
 21
6.022
 31
0.0
  0
LINE
  5
2D3
330
1D
100
AcDbEntity
  8
0
100
AcDbLine
 10
141.278
 20
6.022
 30
0.0
 11
143.149
 21
6.022
 31
0.0
  0
LINE
  5
2D4
330
1D
100
AcDbEntity
  8
0
100
AcDbLine
 10
139.267
 20
6.022
 30
0.0
 11
141.278
 21
6.022
 31
0.0
  0
LINE
  5
2D5
330
1D
100
AcDbEntity
  8
0
100
AcDbLine
 10
137.137
 20
6.022
 30
0.0
 11
139.267
 21
6.022
 31
0.0
  0
LINE
  5
2D6
330
1D
100
AcDbEntity
  8
0
100
AcDbLine
 10
204.223
 20
6.022
 30
0.0
 11
205.583
 21
6.022
 31
0.0
  0
LINE
  5
2D7
330
1D
100
AcDbEntity
  8
0
100
AcDbLine
 10
205.583
 20
6.022
 30
0.0
 11
207.128
 21
6.022
 31
0.0
  0
LINE
  5
2D8
330
1D
100
AcDbEntity
  8
0
100
AcDbLine
 10
212.003
 20
6.022
 30
0.0
 11
212.003
 21
7.022
 31
0.0
  0
LINE
  5
2D9
330
1D
100
AcDbEntity
  8
0
100
AcDbLine
 10
208.844
 20
6.022
 30
0.0
 11
210.714
 21
6.022
 31
0.0
  0
LINE
  5
2DA
330
1D
100
AcDbEntity
  8
0
100
AcDbLine
 10
210.714
 20
6.022
 30
0.0
 11
212.724
 21
6.022
 31
0.0
  0
LINE
  5
2DB
330
1D
100
AcDbEntity
  8
0
100
AcDbLine
 10
207.128
 20
6.022
 30
0.0
 11
208.844
 21
6.022
 31
0.0
  0
LINE
  5
2DC
330
1D
100
AcDbEntity
  8
0
100
AcDbLine
 10
212.724
 20
6.022
 30
0.0
 11
214.853
 21
6.022
 31
0.0
  0
LINE
  5
2DD
330
1D
100
AcDbEntity
  8
0
100
AcDbLine
 10
214.853
 20
6.022
 30
0.0
 11
217.084
 21
6.022
 31
0.0
  0
LINE
  5
2DE
330
1D
100
AcDbEntity
  8
0
100
AcDbLine
 10
217.084
 20
6.022
 30
0.0
 11
219.395
 21
6.022
 31
0.0
  0
LINE
  5
2DF
330
1D
100
AcDbEntity
  8
0
100
AcDbLine
 10
239.997
 20
6.022
 30
0.0
 11
239.997
 21
7.022
 31
0.0
  0
LINE
  5
2E0
330
1D
100
AcDbEntity
  8
0
100
AcDbLine
 10
236.034
 20
6.022
 30
0.0
 11
238.217
 21
6.022
 31
0.0
  0
LINE
  5
2E1
330
1D
100
AcDbEntity
  8
0
100
AcDbLine
 10
240.289
 20
6.022
 30
0.0
 11
242.232
 21
6.022
 31
0.0
  0
LINE
  5
2E2
330
1D
100
AcDbEntity
  8
0
100
AcDbLine
 10
238.217
 20
6.022
 30
0.0
 11
240.289
 21
6.022
 31
0.0
  0
LINE
  5
2E3
330
1D
100
AcDbEntity
  8
0
100
AcDbLine
 10
245.66
 20
6.022
 30
0.0
 11
247.115
 21
6.022
 31
0.0
  0
LINE
  5
2E4
330
1D
100
AcDbEntity
  8
0
100
AcDbLine
 10
244.027
 20
6.022
 30
0.0
 11
245.66
 21
6.022
 31
0.0
  0
LINE
  5
2E5
330
1D
100
AcDbEntity
  8
0
100
AcDbLine
 10
130.224
 20
6.022
 30
0.0
 11
132.595
 21
6.022
 31
0.0
  0
LINE
  5
2E6
330
1D
100
AcDbEntity
  8
0
100
AcDbLine
 10
132.595
 20
6.022
 30
0.0
 11
134.907
 21
6.022
 31
0.0
  0
LINE
  5
2E7
330
1D
100
AcDbEntity
  8
0
100
AcDbLine
 10
229.022
 20
6.022
 30
0.0
 11
231.415
 21
6.022
 31
0.0
  0
LINE
  5
2E8
330
1D
100
AcDbEntity
  8
0
100
AcDbLine
 10
226.602
 20
6.022
 30
0.0
 11
229.022
 21
6.022
 31
0.0
  0
LINE
  5
2E9
330
1D
100
AcDbEntity
  8
0
100
AcDbLine
 10
224.176
 20
6.022
 30
0.0
 11
226.602
 21
6.022
 31
0.0
  0
LINE
  5
2EA
330
1D
100
AcDbEntity
  8
0
100
AcDbLine
 10
221.767
 20
6.022
 30
0.0
 11
224.176
 21
6.022
 31
0.0
  0
LINE
  5
2EB
330
1D
100
AcDbEntity
  8
0
100
AcDbLine
 10
219.395
 20
6.022
 30
0.0
 11
221.767
 21
6.022
 31
0.0
  0
LINE
  5
2EC
330
1D
100
AcDbEntity
  8
0
100
AcDbLine
 10
212.003
 20
7.022
 30
0.0
 11
212.003
 21
6.022
 31
0.0
  0
LINE
  5
2ED
330
1D
100
AcDbEntity
  8
0
100
AcDbLine
 10
212.039
 20
7.022
 30
0.0
 11
212.202
 21
7.022
 31
0.0
  0
LINE
  5
2EE
330
1D
100
AcDbEntity
  8
0
100
AcDbLine
 10
212.202
 20
7.022
 30
0.0
 11
212.49
 21
7.022
 31
0.0
  0
LINE
  5
2EF
330
1D
100
AcDbEntity
  8
0
100
AcDbLine
 10
211.966
 20
7.522
 30
0.0
 11
212.031
 21
7.522
 31
0.0
  0
LINE
  5
2F0
330
1D
100
AcDbEntity
  8
0
100
AcDbLine
 10
212.031
 20
7.522
 30
0.0
 11
212.208
 21
7.522
 31
0.0
  0
LINE
  5
2F1
330
1D
100
AcDbEntity
  8
0
100
AcDbLine
 10
212.49
 20
7.022
 30
0.0
 11
212.9
 21
7.022
 31
0.0
  0
LINE
  5
2F2
330
1D
100
AcDbEntity
  8
0
100
AcDbLine
 10
212.776
 20
7.522
 30
0.0
 11
213.076
 21
7.522
 31
0.0
  0
LINE
  5
2F3
330
1D
100
AcDbEntity
  8
0
100
AcDbLine
 10
212.501
 20
7.522
 30
0.0
 11
212.959
 21
7.522
 31
0.0
  0
LINE
  5
2F4
330
1D
100
AcDbEntity
  8
0
100
AcDbLine
 10
212.9
 20
7.022
 30
0.0
 11
213.428
 21
7.022
 31
0.0
  0
LINE
  5
2F5
330
1D
100
AcDbEntity
  8
0
100
AcDbLine
 10
213.428
 20
7.022
 30
0.0
 11
214.071
 21
7.022
 31
0.0
  0
LINE
  5
2F6
330
1D
100
AcDbEntity
  8
0
100
AcDbLine
 10
214.071
 20
7.022
 30
0.0
 11
214.821
 21
7.022
 31
0.0
  0
LINE
  5
2F7
330
1D
100
AcDbEntity
  8
0
100
AcDbLine
 10
214.821
 20
7.022
 30
0.0
 11
215.673
 21
7.022
 31
0.0
  0
LINE
  5
2F8
330
1D
100
AcDbEntity
  8
0
100
AcDbLine
 10
215.673
 20
7.022
 30
0.0
 11
216.618
 21
7.022
 31
0.0
  0
LINE
  5
2F9
330
1D
100
AcDbEntity
  8
0
100
AcDbLine
 10
216.618
 20
7.022
 30
0.0
 11
217.649
 21
7.022
 31
0.0
  0
LINE
  5
2FA
330
1D
100
AcDbEntity
  8
0
100
AcDbLine
 10
213.15
 20
7.022
 30
0.0
 11
213.15
 21
7.522
 31
0.0
  0
LINE
  5
2FB
330
1D
100
AcDbEntity
  8
0
100
AcDbLine
 10
217.649
 20
7.022
 30
0.0
 11
218.755
 21
7.022
 31
0.0
  0
LINE
  5
2FC
330
1D
100
AcDbEntity
  8
0
100
AcDbLine
 10
218.755
 20
7.022
 30
0.0
 11
219.926
 21
7.022
 31
0.0
  0
LINE
  5
2FD
330
1D
100
AcDbEntity
  8
0
100
AcDbLine
 10
219.926
 20
7.022
 30
0.0
 11
221.153
 21
7.022
 31
0.0
  0
LINE
  5
2FE
330
1D
100
AcDbEntity
  8
0
100
AcDbLine
 10
221.153
 20
7.022
 30
0.0
 11
222.423
 21
7.022
 31
0.0
  0
LINE
  5
2FF
330
1D
100
AcDbEntity
  8
0
100
AcDbLine
 10
222.423
 20
7.022
 30
0.0
 11
223.726
 21
7.022
 31
0.0
  0
LINE
  5
300
330
1D
100
AcDbEntity
  8
0
100
AcDbLine
 10
223.726
 20
7.022
 30
0.0
 11
225.049
 21
7.022
 31
0.0
  0
LINE
  5
301
330
1D
100
AcDbEntity
  8
0
100
AcDbLine
 10
225.049
 20
7.022
 30
0.0
 11
226.381
 21
7.022
 31
0.0
  0
LINE
  5
302
330
1D
100
AcDbEntity
  8
0
100
AcDbLine
 10
226.381
 20
7.022
 30
0.0
 11
227.71
 21
7.022
 31
0.0
  0
LINE
  5
303
330
1D
100
AcDbEntity
  8
0
100
AcDbLine
 10
227.71
 20
7.022
 30
0.0
 11
229.023
 21
7.022
 31
0.0
  0
LINE
  5
304
330
1D
100
AcDbEntity
  8
0
100
AcDbLine
 10
229.023
 20
7.022
 30
0.0
 11
230.308
 21
7.022
 31
0.0
  0
LINE
  5
305
330
1D
100
AcDbEntity
  8
0
100
AcDbLine
 10
230.308
 20
7.022
 30
0.0
 11
231.555
 21
7.022
 31
0.0
  0
LINE
  5
306
330
1D
100
AcDbEntity
  8
0
100
AcDbLine
 10
231.555
 20
7.022
 30
0.0
 11
232.752
 21
7.022
 31
0.0
  0
LINE
  5
307
330
1D
100
AcDbEntity
  8
0
100
AcDbLine
 10
232.752
 20
7.022
 30
0.0
 11
233.887
 21
7.022
 31
0.0
  0
LINE
  5
308
330
1D
100
AcDbEntity
  8
0
100
AcDbLine
 10
213.076
 20
7.522
 30
0.0
 11
213.596
 21
7.522
 31
0.0
  0
LINE
  5
309
330
1D
100
AcDbEntity
  8
0
100
AcDbLine
 10
212.959
 20
7.522
 30
0.0
 11
213.15
 21
7.522
 31
0.0
  0
LINE
  5
30A
330
1D
100
AcDbEntity
  8
0
100
AcDbLine
 10
212.859
 20
7.522
 30
0.0
 11
213.15
 21
7.522
 31
0.0
  0
LINE
  5
30B
330
1D
100
AcDbEntity
  8
0
100
AcDbLine
 10
213.15
 20
7.522
 30
0.0
 11
213.15
 21
7.022
 31
0.0
  0
LINE
  5
30C
330
1D
100
AcDbEntity
  8
0
100
AcDbLine
 10
213.596
 20
7.522
 30
0.0
 11
214.328
 21
7.522
 31
0.0
  0
LINE
  5
30D
330
1D
100
AcDbEntity
  8
0
100
AcDbLine
 10
214.328
 20
7.522
 30
0.0
 11
215.26
 21
7.522
 31
0.0
  0
LINE
  5
30E
330
1D
100
AcDbEntity
  8
0
100
AcDbLine
 10
215.26
 20
7.522
 30
0.0
 11
216.376
 21
7.522
 31
0.0
  0
LINE
  5
30F
330
1D
100
AcDbEntity
  8
0
100
AcDbLine
 10
217.656
 20
7.522
 30
0.0
 11
219.08
 21
7.522
 31
0.0
  0
LINE
  5
310
330
1D
100
AcDbEntity
  8
0
100
AcDbLine
 10
219.08
 20
7.522
 30
0.0
 11
220.622
 21
7.522
 31
0.0
  0
LINE
  5
311
330
1D
100
AcDbEntity
  8
0
100
AcDbLine
 10
227.424
 20
7.522
 30
0.0
 11
229.138
 21
7.522
 31
0.0
  0
LINE
  5
312
330
1D
100
AcDbEntity
  8
0
100
AcDbLine
 10
229.138
 20
7.522
 30
0.0
 11
230.798
 21
7.522
 31
0.0
  0
LINE
  5
313
330
1D
100
AcDbEntity
  8
0
100
AcDbLine
 10
230.798
 20
7.522
 30
0.0
 11
232.377
 21
7.522
 31
0.0
  0
LINE
  5
314
330
1D
100
AcDbEntity
  8
0
100
AcDbLine
 10
232.377
 20
7.522
 30
0.0
 11
233.845
 21
7.522
 31
0.0
  0
LINE
  5
315
330
1D
100
AcDbEntity
  8
0
100
AcDbLine
 10
223.953
 20
7.522
 30
0.0
 11
225.686
 21
7.522
 31
0.0
  0
LINE
  5
316
330
1D
100
AcDbEntity
  8
0
100
AcDbLine
 10
225.686
 20
7.522
 30
0.0
 11
227.424
 21
7.522
 31
0.0
  0
LINE
  5
317
330
1D
100
AcDbEntity
  8
0
100
AcDbLine
 10
220.622
 20
7.522
 30
0.0
 11
222.255
 21
7.522
 31
0.0
  0
LINE
  5
318
330
1D
100
AcDbEntity
  8
0
100
AcDbLine
 10
222.255
 20
7.522
 30
0.0
 11
223.953
 21
7.522
 31
0.0
  0
LINE
  5
319
330
1D
100
AcDbEntity
  8
0
100
AcDbLine
 10
216.376
 20
7.522
 30
0.0
 11
217.656
 21
7.522
 31
0.0
  0
LINE
  5
31A
330
1D
100
AcDbEntity
  8
0
100
AcDbLine
 10
212.704
 20
7.522
 30
0.0
 11
212.776
 21
7.522
 31
0.0
  0
LINE
  5
31B
330
1D
100
AcDbEntity
  8
0
100
AcDbLine
 10
212.704
 20
7.522
 30
0.0
 11
212.859
 21
7.522
 31
0.0
  0
LINE
  5
31C
330
1D
100
AcDbEntity
  8
0
100
AcDbLine
 10
212.208
 20
7.522
 30
0.0
 11
212.501
 21
7.522
 31
0.0
  0
LINE
  5
31D
330
1D
100
AcDbEntity
  8
0
100
AcDbLine
 10
211.546
 20
7.75123
 30
0.0
 11
211.727
 21
7.58303
 31
0.0
  0
LINE
  5
31E
330
1D
100
AcDbEntity
  8
0
100
AcDbLine
 10
211.727
 20
7.58303
 30
0.0
 11
211.966
 21
7.522
 31
0.0
  0
LINE
  5
31F
330
1D
100
AcDbEntity
  8
0
100
AcDbLine
 10
211.468
 20
7.98553
 30
0.0
 11
211.546
 21
7.75123
 31
0.0
  0
LINE
  5
320
330
1D
100
AcDbEntity
  8
0
100
AcDbLine
 10
231.415
 20
6.022
 30
0.0
 11
233.759
 21
6.022
 31
0.0
  0
LINE
  5
321
330
1D
100
AcDbEntity
  8
0
100
AcDbLine
 10
234.951
 20
7.022
 30
0.0
 11
235.934
 21
7.022
 31
0.0
  0
LINE
  5
322
330
1D
100
AcDbEntity
  8
0
100
AcDbLine
 10
235.934
 20
7.022
 30
0.0
 11
236.826
 21
7.022
 31
0.0
  0
LINE
  5
323
330
1D
100
AcDbEntity
  8
0
100
AcDbLine
 10
236.826
 20
7.022
 30
0.0
 11
237.621
 21
7.022
 31
0.0
  0
LINE
  5
324
330
1D
100
AcDbEntity
  8
0
100
AcDbLine
 10
238.31
 20
7.022
 30
0.0
 11
238.888
 21
7.022
 31
0.0
  0
LINE
  5
325
330
1D
100
AcDbEntity
  8
0
100
AcDbLine
 10
237.621
 20
7.022
 30
0.0
 11
238.31
 21
7.022
 31
0.0
  0
LINE
  5
326
330
1D
100
AcDbEntity
  8
0
100
AcDbLine
 10
233.887
 20
7.022
 30
0.0
 11
234.951
 21
7.022
 31
0.0
  0
LINE
  5
327
330
1D
100
AcDbEntity
  8
0
100
AcDbLine
 10
238.888
 20
7.022
 30
0.0
 11
239.35
 21
7.022
 31
0.0
  0
LINE
  5
328
330
1D
100
AcDbEntity
  8
0
100
AcDbLine
 10
238.85
 20
7.022
 30
0.0
 11
238.85
 21
7.522
 31
0.0
  0
LINE
  5
329
330
1D
100
AcDbEntity
  8
0
100
AcDbLine
 10
238.925
 20
7.522
 30
0.0
 11
239.223
 21
7.522
 31
0.0
  0
LINE
  5
32A
330
1D
100
AcDbEntity
  8
0
100
AcDbLine
 10
239.057
 20
7.522
 30
0.0
 11
239.51
 21
7.522
 31
0.0
  0
LINE
  5
32B
330
1D
100
AcDbEntity
  8
0
100
AcDbLine
 10
238.85
 20
7.522
 30
0.0
 11
239.057
 21
7.522
 31
0.0
  0
LINE
  5
32C
330
1D
100
AcDbEntity
  8
0
100
AcDbLine
 10
238.85
 20
7.522
 30
0.0
 11
238.925
 21
7.522
 31
0.0
  0
LINE
  5
32D
330
1D
100
AcDbEntity
  8
0
100
AcDbLine
 10
239.35
 20
7.022
 30
0.0
 11
239.69
 21
7.022
 31
0.0
  0
LINE
  5
32E
330
1D
100
AcDbEntity
  8
0
100
AcDbLine
 10
239.223
 20
7.522
 30
0.0
 11
239.296
 21
7.522
 31
0.0
  0
LINE
  5
32F
330
1D
100
AcDbEntity
  8
0
100
AcDbLine
 10
239.142
 20
7.522
 30
0.0
 11
239.296
 21
7.522
 31
0.0
  0
LINE
  5
330
330
1D
100
AcDbEntity
  8
0
100
AcDbLine
 10
238.762
 20
7.522
 30
0.0
 11
239.142
 21
7.522
 31
0.0
  0
LINE
  5
331
330
1D
100
AcDbEntity
  8
0
100
AcDbLine
 10
239.69
 20
7.022
 30
0.0
 11
239.906
 21
7.022
 31
0.0
  0
LINE
  5
332
330
1D
100
AcDbEntity
  8
0
100
AcDbLine
 10
239.906
 20
7.022
 30
0.0
 11
239.997
 21
7.022
 31
0.0
  0
LINE
  5
333
330
1D
100
AcDbEntity
  8
0
100
AcDbLine
 10
239.51
 20
7.522
 30
0.0
 11
239.741
 21
7.522
 31
0.0
  0
LINE
  5
334
330
1D
100
AcDbEntity
  8
0
100
AcDbLine
 10
239.741
 20
7.522
 30
0.0
 11
239.907
 21
7.522
 31
0.0
  0
LINE
  5
335
330
1D
100
AcDbEntity
  8
0
100
AcDbLine
 10
239.997
 20
7.022
 30
0.0
 11
239.997
 21
6.022
 31
0.0
  0
LINE
  5
336
330
1D
100
AcDbEntity
  8
0
100
AcDbLine
 10
239.907
 20
7.522
 30
0.0
 11
240.005
 21
7.522
 31
0.0
  0
LINE
  5
337
330
1D
100
AcDbEntity
  8
0
100
AcDbLine
 10
233.845
 20
7.522
 30
0.0
 11
235.18
 21
7.522
 31
0.0
  0
LINE
  5
338
330
1D
100
AcDbEntity
  8
0
100
AcDbLine
 10
236.357
 20
7.522
 30
0.0
 11
237.358
 21
7.522
 31
0.0
  0
LINE
  5
339
330
1D
100
AcDbEntity
  8
0
100
AcDbLine
 10
238.85
 20
7.522
 30
0.0
 11
238.85
 21
7.022
 31
0.0
  0
LINE
  5
33A
330
1D
100
AcDbEntity
  8
0
100
AcDbLine
 10
237.358
 20
7.522
 30
0.0
 11
238.164
 21
7.522
 31
0.0
  0
LINE
  5
33B
330
1D
100
AcDbEntity
  8
0
100
AcDbLine
 10
238.164
 20
7.522
 30
0.0
 11
238.762
 21
7.522
 31
0.0
  0
LINE
  5
33C
330
1D
100
AcDbEntity
  8
0
100
AcDbLine
 10
235.18
 20
7.522
 30
0.0
 11
236.357
 21
7.522
 31
0.0
  0
LINE
  5
33D
330
1D
100
AcDbEntity
  8
0
100
AcDbLine
 10
240.273
 20
7.58303
 30
0.0
 11
240.454
 21
7.75123
 31
0.0
  0
LINE
  5
33E
330
1D
100
AcDbEntity
  8
0
100
AcDbLine
 10
240.034
 20
7.522
 30
0.0
 11
240.273
 21
7.58303
 31
0.0
  0
LINE
  5
33F
330
1D
100
AcDbEntity
  8
0
100
AcDbLine
 10
240.532
 20
7.98554
 30
0.0
 11
243.433
 21
47.6394
 31
0.0
  0
LINE
  5
340
330
1D
100
AcDbEntity
  8
0
100
AcDbLine
 10
240.532
 20
7.98554
 30
0.0
 11
243.433
 21
47.6394
 31
0.0
  0
LINE
  5
341
330
1D
100
AcDbEntity
  8
0
100
AcDbLine
 10
240.454
 20
7.75123
 30
0.0
 11
240.532
 21
7.98554
 31
0.0
  0
LINE
  5
342
330
1D
100
AcDbEntity
  8
0
100
AcDbLine
 10
233.759
 20
6.022
 30
0.0
 11
236.034
 21
6.022
 31
0.0
  0
LINE
  5
343
330
1D
100
AcDbEntity
  8
0
100
AcDbLine
 10
242.232
 20
6.022
 30
0.0
 11
244.027
 21
6.022
 31
0.0
  0
LINE
  5
344
330
1D
100
AcDbEntity
  8
0
100
AcDbLine
 10
248.378
 20
6.022
 30
0.0
 11
249.439
 21
6.022
 31
0.0
  0
LINE
  5
345
330
1D
100
AcDbEntity
  8
0
100
AcDbLine
 10
247.115
 20
6.022
 30
0.0
 11
248.378
 21
6.022
 31
0.0
  0
LINE
  5
346
330
1D
100
AcDbEntity
  8
0
100
AcDbLine
 10
249.439
 20
6.022
 30
0.0
 11
250.288
 21
6.022
 31
0.0
  0
LINE
  5
347
330
1D
100
AcDbEntity
  8
0
100
AcDbLine
 10
251.493
 20
6.022
 30
0.0
 11
251.742
 21
5.95501
 31
0.0
  0
LINE
  5
348
330
1D
100
AcDbEntity
  8
0
100
AcDbLine
 10
251.405
 20
0.022
 30
0.0
 11
251.815
 21
0.022
 31
0.0
  0
LINE
  5
349
330
1D
100
AcDbEntity
  8
0
100
AcDbLine
 10
251.115
 20
0.022
 30
0.0
 11
251.641
 21
0.022
 31
0.0
  0
LINE
  5
34A
330
1D
100
AcDbEntity
  8
0
100
AcDbLine
 10
251.993
 20
0.022
 30
0.0
 11
251.993
 21
5.522
 31
0.0
  0
LINE
  5
34B
330
1D
100
AcDbEntity
  8
0
100
AcDbLine
 10
251.934
 20
0.022
 30
0.0
 11
251.993
 21
0.022
 31
0.0
  0
LINE
  5
34C
330
1D
100
AcDbEntity
  8
0
100
AcDbLine
 10
251.925
 20
5.772
 30
0.0
 11
251.993
 21
5.522
 31
0.0
  0
LINE
  5
34D
330
1D
100
AcDbEntity
  8
0
100
AcDbLine
 10
251.742
 20
5.95501
 30
0.0
 11
251.925
 21
5.772
 31
0.0
  0
LINE
  5
34E
330
1D
100
AcDbEntity
  8
0
100
AcDbLine
 10
251.993
 20
5.522
 30
0.0
 11
251.993
 21
0.022
 31
0.0
  0
LINE
  5
34F
330
1D
100
AcDbEntity
  8
0
100
AcDbLine
 10
251.815
 20
0.022
 30
0.0
 11
251.993
 21
0.022
 31
0.0
  0
LINE
  5
350
330
1D
100
AcDbEntity
  8
0
100
AcDbLine
 10
251.641
 20
0.022
 30
0.0
 11
251.934
 21
0.022
 31
0.0
  0
LINE
  5
351
330
1D
100
AcDbEntity
  8
0
100
AcDbLine
 10
251.319
 20
6.022
 30
0.0
 11
251.493
 21
6.022
 31
0.0
  0
LINE
  5
352
330
1D
100
AcDbEntity
  8
0
100
AcDbLine
 10
250.916
 20
6.022
 30
0.0
 11
251.319
 21
6.022
 31
0.0
  0
LINE
  5
353
330
1D
100
AcDbEntity
  8
0
100
AcDbLine
 10
208.607
 20
47.9998
 30
0.0
 11
208.773
 21
48.3226
 31
0.0
  0
LINE
  5
354
330
1D
100
AcDbEntity
  8
0
100
AcDbLine
 10
132.067
 20
146.931
 30
0.0
 11
133.125
 21
147.314
 31
0.0
  0
LINE
  5
355
330
1D
100
AcDbEntity
  8
0
100
AcDbLine
 10
130.948
 20
146.61
 30
0.0
 11
132.067
 21
146.931
 31
0.0
  0
LINE
  5
356
330
1D
100
AcDbEntity
  8
0
100
AcDbLine
 10
129.777
 20
146.356
 30
0.0
 11
130.948
 21
146.61
 31
0.0
  0
LINE
  5
357
330
1D
100
AcDbEntity
  8
0
100
AcDbLine
 10
131.853
 20
147.895
 30
0.0
 11
132.778
 21
148.288
 31
0.0
  0
LINE
  5
358
330
1D
100
AcDbEntity
  8
0
100
AcDbLine
 10
130.86
 20
147.562
 30
0.0
 11
131.853
 21
147.895
 31
0.0
  0
LINE
  5
359
330
1D
100
AcDbEntity
  8
0
100
AcDbLine
 10
129.81
 20
147.292
 30
0.0
 11
130.86
 21
147.562
 31
0.0
  0
LINE
  5
35A
330
1D
100
AcDbEntity
  8
0
100
AcDbLine
 10
135.011
 20
148.255
 30
0.0
 11
135.819
 21
148.803
 31
0.0
  0
LINE
  5
35B
330
1D
100
AcDbEntity
  8
0
100
AcDbLine
 10
134.109
 20
147.757
 30
0.0
 11
135.011
 21
148.255
 31
0.0
  0
LINE
  5
35C
330
1D
100
AcDbEntity
  8
0
100
AcDbLine
 10
133.125
 20
147.314
 30
0.0
 11
134.109
 21
147.757
 31
0.0
  0
LINE
  5
35D
330
1D
100
AcDbEntity
  8
0
100
AcDbLine
 10
136.527
 20
149.395
 30
0.0
 11
137.127
 21
150.025
 31
0.0
  0
LINE
  5
35E
330
1D
100
AcDbEntity
  8
0
100
AcDbLine
 10
135.819
 20
148.803
 30
0.0
 11
136.527
 21
149.395
 31
0.0
  0
LINE
  5
35F
330
1D
100
AcDbEntity
  8
0
100
AcDbLine
 10
137.127
 20
150.025
 30
0.0
 11
137.225
 21
150.131
 31
0.0
  0
LINE
  5
360
330
1D
100
AcDbEntity
  8
0
100
AcDbLine
 10
135.037
 20
149.775
 30
0.0
 11
135.589
 21
150.354
 31
0.0
  0
LINE
  5
361
330
1D
100
AcDbEntity
  8
0
100
AcDbLine
 10
134.379
 20
149.233
 30
0.0
 11
135.037
 21
149.775
 31
0.0
  0
LINE
  5
362
330
1D
100
AcDbEntity
  8
0
100
AcDbLine
 10
133.623
 20
148.736
 30
0.0
 11
134.379
 21
149.233
 31
0.0
  0
LINE
  5
363
330
1D
100
AcDbEntity
  8
0
100
AcDbLine
 10
132.778
 20
148.288
 30
0.0
 11
133.623
 21
148.736
 31
0.0
  0
LINE
  5
364
330
1D
100
AcDbEntity
  8
0
100
AcDbLine
 10
208.773
 20
48.3226
 30
0.0
 11
209.043
 21
48.565
 31
0.0
  0
LINE
  5
365
330
1D
100
AcDbEntity
  8
0
100
AcDbLine
 10
209.613126189648
 20
48.733612857158
 30
0.0
 11
211.167
 21
48.9912
 31
0.0
  0
LINE
  5
366
330
1D
100
AcDbEntity
  8
0
100
AcDbLine
 10
211.167
 20
48.9912
 30
0.0
 11
211.962
 21
49.0972
 31
0.0
  0
LINE
  5
367
330
1D
100
AcDbEntity
  8
0
100
AcDbLine
 10
209.604
 20
48.7322
 30
0.0
 11
211.261971111325
 21
48.988840990515
 31
0.0
  0
LINE
  5
368
330
1D
100
AcDbEntity
  8
0
100
AcDbLine
 10
216.225
 20
49.5054
 30
0.0
 11
219.007
 21
49.6509
 31
0.0
  0
LINE
  5
369
330
1D
100
AcDbEntity
  8
0
100
AcDbLine
 10
219.007
 20
49.6509
 30
0.0
 11
219.072
 21
49.6517
 31
0.0
  0
LINE
  5
36A
330
1D
100
AcDbEntity
  8
0
100
AcDbLine
 10
214.836
 20
49.403
 30
0.0
 11
216.225
 21
49.5054
 31
0.0
  0
LINE
  5
36B
330
1D
100
AcDbEntity
  8
0
100
AcDbLine
 10
214.426534737961
 20
49.36272247038
 30
0.0
 11
214.836
 21
49.403
 31
0.0
  0
LINE
  5
36C
330
1D
100
AcDbEntity
  8
0
100
AcDbLine
 10
212.755
 20
49.1983
 30
0.0
 11
214.074619309484
 21
49.328105897478
 31
0.0
  0
LINE
  5
36D
330
1D
100
AcDbEntity
  8
0
100
AcDbLine
 10
211.962
 20
49.0972
 30
0.0
 11
212.755
 21
49.1983
 31
0.0
  0
LINE
  5
36E
330
1D
100
AcDbEntity
  8
0
100
AcDbLine
 10
211.266817328216
 20
48.989591147073
 30
0.0
 11
211.962
 21
49.0972
 31
0.0
  0
LINE
  5
36F
330
1D
100
AcDbEntity
  8
0
100
AcDbLine
 10
209.381
 20
48.6951
 30
0.0
 11
209.604
 21
48.7322
 31
0.0
  0
LINE
  5
370
330
1D
100
AcDbEntity
  8
0
100
AcDbLine
 10
209.381
 20
48.6951
 30
0.0
 11
209.776220862837
 21
48.756672378515
 31
0.0
  0
LINE
  5
371
330
1D
100
AcDbEntity
  8
0
100
AcDbLine
 10
209.381
 20
48.6951
 30
0.0
 11
209.602703297512
 21
48.731884852054
 31
0.0
  0
LINE
  5
372
330
1D
100
AcDbEntity
  8
0
100
AcDbLine
 10
209.381
 20
48.6951
 30
0.0
 11
209.602703297512
 21
48.731884852054
 31
0.0
  0
LINE
  5
373
330
1D
100
AcDbEntity
  8
0
100
AcDbLine
 10
240.038
 20
49.0972
 30
0.0
 11
240.833
 21
48.9912
 31
0.0
  0
LINE
  5
374
330
1D
100
AcDbEntity
  8
0
100
AcDbLine
 10
239.245
 20
49.1984
 30
0.0
 11
240.038
 21
49.0972
 31
0.0
  0
LINE
  5
375
330
1D
100
AcDbEntity
  8
0
100
AcDbLine
 10
240.833
 20
48.9912
 30
0.0
 11
242.396
 21
48.7321
 31
0.0
  0
LINE
  5
376
330
1D
100
AcDbEntity
  8
0
100
AcDbLine
 10
242.425440480851
 20
48.725255088202
 30
0.0
 11
242.619
 21
48.6951
 31
0.0
  0
LINE
  5
377
330
1D
100
AcDbEntity
  8
0
100
AcDbLine
 10
242.396
 20
48.7321
 30
0.0
 11
242.619
 21
48.6951
 31
0.0
  0
LINE
  5
378
330
1D
100
AcDbEntity
  8
0
100
AcDbLine
 10
222.504
 20
49.7602
 30
0.0
 11
226.0
 21
49.7966
 31
0.0
  0
LINE
  5
379
330
1D
100
AcDbEntity
  8
0
100
AcDbLine
 10
232.994
 20
49.6509
 30
0.0
 11
235.775
 21
49.5054
 31
0.0
  0
LINE
  5
37A
330
1D
100
AcDbEntity
  8
0
100
AcDbLine
 10
235.775
 20
49.5054
 30
0.0
 11
237.164
 21
49.403
 31
0.0
  0
LINE
  5
37B
330
1D
100
AcDbEntity
  8
0
100
AcDbLine
 10
237.164
 20
49.403
 30
0.0
 11
237.673
 21
49.3558
 31
0.0
  0
LINE
  5
37C
330
1D
100
AcDbEntity
  8
0
100
AcDbLine
 10
237.673
 20
49.3558
 30
0.0
 11
239.245
 21
49.1984
 31
0.0
  0
LINE
  5
37D
330
1D
100
AcDbEntity
  8
0
100
AcDbLine
 10
219.072
 20
49.6517
 30
0.0
 11
222.504
 21
49.7602
 31
0.0
  0
LINE
  5
37E
330
1D
100
AcDbEntity
  8
0
100
AcDbLine
 10
226.0
 20
49.7966
 30
0.0
 11
229.497
 21
49.7602
 31
0.0
  0
LINE
  5
37F
330
1D
100
AcDbEntity
  8
0
100
AcDbLine
 10
229.497
 20
49.7602
 30
0.0
 11
232.994
 21
49.6509
 31
0.0
  0
LINE
  5
380
330
1D
100
AcDbEntity
  8
0
100
AcDbLine
 10
243.227
 20
48.3226
 30
0.0
 11
243.393
 21
47.9998
 31
0.0
  0
LINE
  5
381
330
1D
100
AcDbEntity
  8
0
100
AcDbLine
 10
242.957
 20
48.565
 30
0.0
 11
243.227
 21
48.3226
 31
0.0
  0
LINE
  5
382
330
1D
100
AcDbEntity
  8
0
100
AcDbLine
 10
242.619
 20
48.6951
 30
0.0
 11
242.957
 21
48.565
 31
0.0
  0
LINE
  5
383
330
1D
100
AcDbEntity
  8
0
100
AcDbLine
 10
243.393
 20
47.9998
 30
0.0
 11
243.433
 21
47.6394
 31
0.0
  0
LINE
  5
384
330
1D
100
AcDbEntity
  8
0
100
AcDbLine
 10
209.043
 20
48.565
 30
0.0
 11
209.381
 21
48.6951
 31
0.0
  0
LINE
  5
385
330
1D
100
AcDbEntity
  8
0
100
AcDbLine
 10
208.568
 20
47.6391
 30
0.0
 11
211.468
 21
7.98553
 31
0.0
  0
LINE
  5
386
330
1D
100
AcDbEntity
  8
0
100
AcDbLine
 10
208.568
 20
47.6391
 30
0.0
 11
211.468
 21
7.98553
 31
0.0
  0
LINE
  5
387
330
1D
100
AcDbEntity
  8
0
100
AcDbLine
 10
208.568
 20
47.6391
 30
0.0
 11
208.607
 21
47.9998
 31
0.0
  0
LINE
  5
388
330
1D
100
AcDbEntity
  8
0
100
AcDbLine
 10
126.708
 20
159.065
 30
0.0
 11
127.85
 21
158.985
 31
0.0
  0
LINE
  5
389
330
1D
100
AcDbEntity
  8
0
100
AcDbLine
 10
127.85
 20
158.985
 30
0.0
 11
128.971
 21
158.835
 31
0.0
  0
LINE
  5
38C
330
1D
100
AcDbEntity
  8
0
100
AcDbLine
 10
128.395
 20
176.286
 30
0.0
 11
129.603
 21
176.111
 31
0.0
  0
LINE
  5
38D
330
1D
100
AcDbEntity
  8
0
100
AcDbLine
 10
127.162
 20
176.389
 30
0.0
 11
128.395
 21
176.286
 31
0.0
  0
LINE
  5
38E
330
1D
100
AcDbEntity
  8
0
100
AcDbLine
 10
128.971
 20
158.835
 30
0.0
 11
130.057
 21
158.617
 31
0.0
  0
LINE
  5
38F
330
1D
100
AcDbEntity
  8
0
100
AcDbLine
 10
132.074
 20
157.985
 30
0.0
 11
132.981
 21
157.579
 31
0.0
  0
LINE
  5
390
330
1D
100
AcDbEntity
  8
0
100
AcDbLine
 10
132.981
 20
157.579
 30
0.0
 11
133.806
 21
157.119
 31
0.0
  0
LINE
  5
391
330
1D
100
AcDbEntity
  8
0
100
AcDbLine
 10
131.095
 20
158.332
 30
0.0
 11
132.074
 21
157.985
 31
0.0
  0
LINE
  5
392
330
1D
100
AcDbEntity
  8
0
100
AcDbLine
 10
130.057
 20
158.617
 30
0.0
 11
131.095
 21
158.332
 31
0.0
  0
LINE
  5
393
330
1D
100
AcDbEntity
  8
0
100
AcDbLine
 10
131.897
 20
175.557
 30
0.0
 11
132.959
 21
175.183
 31
0.0
  0
LINE
  5
396
330
1D
100
AcDbEntity
  8
0
100
AcDbLine
 10
130.775
 20
175.867
 30
0.0
 11
131.897
 21
175.557
 31
0.0
  0
LINE
  5
399
330
1D
100
AcDbEntity
  8
0
100
AcDbLine
 10
132.959
 20
175.183
 30
0.0
 11
133.949
 21
174.749
 31
0.0
  0
LINE
  5
39A
330
1D
100
AcDbEntity
  8
0
100
AcDbLine
 10
128.991
 20
225.615
 30
0.0
 11
131.809
 21
224.547
 31
0.0
  0
LINE
  5
39B
330
1D
100
AcDbEntity
  8
0
100
AcDbLine
 10
131.809
 20
224.547
 30
0.0
 11
134.289
 21
222.837
 31
0.0
  0
LINE
  5
39D
330
1D
100
AcDbEntity
  8
0
100
AcDbLine
 10
129.603
 20
176.111
 30
0.0
 11
130.775
 21
175.867
 31
0.0
  0
LINE
  5
39E
330
1D
100
AcDbEntity
  8
0
100
AcDbLine
 10
135.589
 20
150.354
 30
0.0
 11
136.028
 21
150.964
 31
0.0
  0
LINE
  5
39F
330
1D
100
AcDbEntity
  8
0
100
AcDbLine
 10
133.806
 20
157.119
 30
0.0
 11
134.54
 21
156.611
 31
0.0
  0
LINE
  5
3A0
330
1D
100
AcDbEntity
  8
0
100
AcDbLine
 10
134.54
 20
156.611
 30
0.0
 11
135.174
 21
156.06
 31
0.0
  0
LINE
  5
3A1
330
1D
100
AcDbEntity
  8
0
100
AcDbLine
 10
135.174
 20
156.06
 30
0.0
 11
135.7
 21
155.473
 31
0.0
  0
LINE
  5
3A2
330
1D
100
AcDbEntity
  8
0
100
AcDbLine
 10
135.7
 20
155.473
 30
0.0
 11
136.113
 21
154.857
 31
0.0
  0
LINE
  5
3A3
330
1D
100
AcDbEntity
  8
0
100
AcDbLine
 10
136.113
 20
154.857
 30
0.0
 11
136.407
 21
154.218
 31
0.0
  0
LINE
  5
3A4
330
1D
100
AcDbEntity
  8
0
100
AcDbLine
 10
136.028
 20
150.964
 30
0.0
 11
136.35
 21
151.598
 31
0.0
  0
LINE
  5
3A5
330
1D
100
AcDbEntity
  8
0
100
AcDbLine
 10
138.085
 20
151.49
 30
0.0
 11
138.331
 21
152.2
 31
0.0
  0
LINE
  5
3A6
330
1D
100
AcDbEntity
  8
0
100
AcDbLine
 10
137.715
 20
150.798
 30
0.0
 11
138.085
 21
151.49
 31
0.0
  0
LINE
  5
3A7
330
1D
100
AcDbEntity
  8
0
100
AcDbLine
 10
137.225
 20
150.131
 30
0.0
 11
137.715
 21
150.798
 31
0.0
  0
LINE
  5
3A8
330
1D
100
AcDbEntity
  8
0
100
AcDbLine
 10
136.407
 20
154.218
 30
0.0
 11
136.579
 21
153.566
 31
0.0
  0
LINE
  5
3A9
330
1D
100
AcDbEntity
  8
0
100
AcDbLine
 10
138.331
 20
152.2
 30
0.0
 11
138.368
 21
152.354
 31
0.0
  0
LINE
  5
3AA
330
1D
100
AcDbEntity
  8
0
100
AcDbLine
 10
138.409
 20
152.601025
 30
0.0
 11
138.409
 21
6.022
 31
0.0
  0
LINE
  5
3AB
330
1D
100
AcDbEntity
  8
0
100
AcDbLine
 10
138.488
 20
153.077
 30
0.0
 11
138.488
 21
168.887
 31
0.0
  0
LINE
  5
3AC
330
1D
100
AcDbEntity
  8
0
100
AcDbLine
 10
138.368
 20
152.354
 30
0.0
 11
138.488
 21
153.077
 31
0.0
  0
LINE
  5
3AD
330
1D
100
AcDbEntity
  8
0
100
AcDbLine
 10
136.579
 20
153.566
 30
0.0
 11
136.627
 21
152.906
 31
0.0
  0
LINE
  5
3AE
330
1D
100
AcDbEntity
  8
0
100
AcDbLine
 10
136.55
 20
152.248
 30
0.0
 11
136.627
 21
152.906
 31
0.0
  0
LINE
  5
3AF
330
1D
100
AcDbEntity
  8
0
100
AcDbLine
 10
136.35
 20
151.598
 30
0.0
 11
136.55
 21
152.248
 31
0.0
  0
LINE
  5
3B2
330
1D
100
AcDbEntity
  8
0
100
AcDbLine
 10
137.692
 20
171.737
 30
0.0
 11
138.08
 21
171.045
 31
0.0
  0
LINE
  5
3B3
330
1D
100
AcDbEntity
  8
0
100
AcDbLine
 10
138.08
 20
171.045
 30
0.0
 11
138.343
 21
170.335
 31
0.0
  0
LINE
  5
3B4
330
1D
100
AcDbEntity
  8
0
100
AcDbLine
 10
136.564
 20
173.035
 30
0.0
 11
137.185
 21
172.402
 31
0.0
  0
LINE
  5
3B5
330
1D
100
AcDbEntity
  8
0
100
AcDbLine
 10
137.185
 20
172.402
 30
0.0
 11
137.692
 21
171.737
 31
0.0
  0
LINE
  5
3B7
330
1D
100
AcDbEntity
  8
0
100
AcDbLine
 10
138.409
 20
170.23
 30
0.0
 11
138.409
 21
195.623
 31
0.0
  0
LINE
  5
3B8
330
1D
100
AcDbEntity
  8
0
100
AcDbLine
 10
138.409
 20
170.23
 30
0.0
 11
138.409
 21
169.987175182482
 31
0.0
  0
LINE
  5
3B9
330
1D
100
AcDbEntity
  8
0
100
AcDbLine
 10
138.343
 20
170.335
 30
0.0
 11
138.48
 21
169.613
 31
0.0
  0
LINE
  5
3BB
330
1D
100
AcDbEntity
  8
0
100
AcDbLine
 10
135.002
 20
174.176
 30
0.0
 11
135.833
 21
173.628
 31
0.0
  0
LINE
  5
3BC
330
1D
100
AcDbEntity
  8
0
100
AcDbLine
 10
135.833
 20
173.628
 30
0.0
 11
136.564
 21
173.035
 31
0.0
  0
LINE
  5
3BE
330
1D
100
AcDbEntity
  8
0
100
AcDbLine
 10
134.858
 20
174.26
 30
0.0
 11
134.912074368783
 21
174.224369089518
 31
0.0
  0
LINE
  5
3BF
330
1D
100
AcDbEntity
  8
0
100
AcDbLine
 10
134.858
 20
174.26
 30
0.0
 11
135.002
 21
174.176
 31
0.0
  0
LINE
  5
3C1
330
1D
100
AcDbEntity
  8
0
100
AcDbLine
 10
138.409
 20
195.623
 30
0.0
 11
138.409
 21
199.73
 31
0.0
  0
LINE
  5
3C2
330
1D
100
AcDbEntity
  8
0
100
AcDbLine
 10
138.409
 20
195.623
 30
0.0
 11
138.409
 21
170.23
 31
0.0
  0
LINE
  5
3C3
330
1D
100
AcDbEntity
  8
0
100
AcDbLine
 10
138.409
 20
199.73
 30
0.0
 11
138.409
 21
195.623
 31
0.0
  0
LINE
  5
3C4
330
1D
100
AcDbEntity
  8
0
100
AcDbLine
 10
138.409
 20
199.73
 30
0.0
 11
138.409
 21
203.437
 31
0.0
  0
LINE
  5
3C5
330
1D
100
AcDbEntity
  8
0
100
AcDbLine
 10
138.409
 20
203.437
 30
0.0
 11
138.409
 21
206.695
 31
0.0
  0
LINE
  5
3C6
330
1D
100
AcDbEntity
  8
0
100
AcDbLine
 10
138.409
 20
203.437
 30
0.0
 11
138.409
 21
199.73
 31
0.0
  0
LINE
  5
3C7
330
1D
100
AcDbEntity
  8
0
100
AcDbLine
 10
138.409
 20
206.695
 30
0.0
 11
138.409
 21
209.463
 31
0.0
  0
LINE
  5
3C8
330
1D
100
AcDbEntity
  8
0
100
AcDbLine
 10
138.409
 20
206.695
 30
0.0
 11
138.409
 21
203.437
 31
0.0
  0
LINE
  5
3C9
330
1D
100
AcDbEntity
  8
0
100
AcDbLine
 10
138.409
 20
209.463
 30
0.0
 11
138.409
 21
211.701
 31
0.0
  0
LINE
  5
3CA
330
1D
100
AcDbEntity
  8
0
100
AcDbLine
 10
138.409
 20
209.463
 30
0.0
 11
138.409
 21
206.695
 31
0.0
  0
LINE
  5
3CB
330
1D
100
AcDbEntity
  8
0
100
AcDbLine
 10
138.409
 20
214.993
 30
0.0
 11
138.409
 21
214.485
 31
0.0
  0
LINE
  5
3CC
330
1D
100
AcDbEntity
  8
0
100
AcDbLine
 10
137.688
 20
217.917
 30
0.0
 11
138.409
 21
214.993
 31
0.0
  0
LINE
  5
3CD
330
1D
100
AcDbEntity
  8
0
100
AcDbLine
 10
136.287
 20
220.582
 30
0.0
 11
137.688
 21
217.917
 31
0.0
  0
LINE
  5
3CE
330
1D
100
AcDbEntity
  8
0
100
AcDbLine
 10
134.289
 20
222.837
 30
0.0
 11
136.287
 21
220.582
 31
0.0
  0
LINE
  5
3CF
330
1D
100
AcDbEntity
  8
0
100
AcDbLine
 10
138.409
 20
214.485
 30
0.0
 11
138.409
 21
213.383
 31
0.0
  0
LINE
  5
3D0
330
1D
100
AcDbEntity
  8
0
100
AcDbLine
 10
138.409
 20
214.485
 30
0.0
 11
138.409
 21
214.993
 31
0.0
  0
LINE
  5
3D1
330
1D
100
AcDbEntity
  8
0
100
AcDbLine
 10
138.409
 20
213.383
 30
0.0
 11
138.409
 21
211.701
 31
0.0
  0
LINE
  5
3D2
330
1D
100
AcDbEntity
  8
0
100
AcDbLine
 10
138.409
 20
213.383
 30
0.0
 11
138.409
 21
214.485
 31
0.0
  0
LINE
  5
3D3
330
1D
100
AcDbEntity
  8
0
100
AcDbLine
 10
138.409
 20
211.701
 30
0.0
 11
138.409
 21
213.383
 31
0.0
  0
LINE
  5
3D4
330
1D
100
AcDbEntity
  8
0
100
AcDbLine
 10
138.409
 20
211.701
 30
0.0
 11
138.409
 21
209.463
 31
0.0
  0
LINE
  5
3D5
330
1D
100
AcDbEntity
  8
0
100
AcDbLine
 10
133.949
 20
174.749
 30
0.0
 11
134.858
 21
174.26
 31
0.0
  0
LINE
  5
3D6
330
1D
100
AcDbEntity
  8
0
100
AcDbLine
 10
138.488
 20
168.887
 30
0.0
 11
138.488
 21
153.077
 31
0.0
  0
LINE
  5
3D7
330
1D
100
AcDbEntity
  8
0
100
AcDbLine
 10
138.48
 20
169.613
 30
0.0
 11
138.488
 21
168.887
 31
0.0
  0
LINE
  5
3D8
330
1D
100
AcDbEntity
  8
0
100
AcDbLine
 10
138.409
 20
169.987175182482
 30
0.0
 11
138.409
 21
170.23
 31
0.0
  0
ENDSEC
  0
SECTION
  2
OBJECTS
  0
DICTIONARY
  5
C
330
0
100
AcDbDictionary
281
     1
  3
ACAD_GROUP
350
D
  3
ACAD_LAYOUT
350
1A
  3
ACAD_MLEADERSTYLE
350
402
  3
ACAD_MLINESTYLE
350
17
  3
ACAD_PLOTSETTINGS
350
19
  3
ACAD_PLOTSTYLENAME
350
E
  3
ACAD_SCALELIST
350
3DE
  3
AcDbVariableDictionary
350
400
  3
DWGPROPS
350
405
  0
DICTIONARY
  5
D
102
{ACAD_REACTORS
330
C
102
}
330
C
100
AcDbDictionary
281
     1
  0
DICTIONARY
  5
1A
102
{ACAD_REACTORS
330
C
102
}
330
C
100
AcDbDictionary
281
     1
  3
Layout1
350
1C
  3
Model
350
1E
  0
DICTIONARY
  5
402
102
{ACAD_REACTORS
330
C
102
}
330
C
100
AcDbDictionary
281
     1
  0
DICTIONARY
  5
17
102
{ACAD_REACTORS
330
C
102
}
330
C
100
AcDbDictionary
281
     1
  3
Standard
350
18
  0
DICTIONARY
  5
19
102
{ACAD_REACTORS
330
C
102
}
330
C
100
AcDbDictionary
281
     1
  0
ACDBDICTIONARYWDFLT
  5
E
102
{ACAD_REACTORS
330
C
102
}
330
C
100
AcDbDictionary
281
     1
  3
Normal
350
F
100
AcDbDictionaryWithDefault
340
F
  0
DICTIONARY
  5
3DE
102
{ACAD_REACTORS
330
C
102
}
330
C
100
AcDbDictionary
281
     1
  3
A0
350
3DF
  3
A1
350
3E0
  3
A2
350
3E1
  3
A3
350
3E2
  3
A4
350
3E3
  3
A5
350
3E4
  3
A6
350
3E5
  3
A7
350
3E6
  3
A8
350
3E7
  3
A9
350
3E8
  3
B0
350
3E9
  3
B1
350
3EA
  3
B2
350
3EB
  3
B3
350
3EC
  3
B4
350
3ED
  3
B5
350
3EE
  3
B6
350
3EF
  3
B7
350
3F0
  3
B8
350
3F1
  3
B9
350
3F2
  3
C0
350
3F3
  3
C1
350
3F4
  3
C2
350
3F5
  3
C3
350
3F6
  3
C4
350
3F7
  3
C5
350
3F8
  3
C6
350
3F9
  3
C7
350
3FA
  3
C8
350
3FB
  3
C9
350
3FC
  3
D0
350
3FD
  3
D1
350
3FE
  3
D2
350
3FF
  0
DICTIONARY
  5
400
102
{ACAD_REACTORS
330
C
102
}
330
C
100
AcDbDictionary
281
     1
  3
CANNOSCALE
350
403
  0
XRECORD
  5
405
102
{ACAD_REACTORS
330
C
102
}
330
C
100
AcDbXrecord
280
     1
  1
DWGPROPS COOKIE
  2

  3

  4

  6

  7

  8
MARTIN
  9

300
=
301
=
302
=
303
=
304
=
305
=
306
=
307
=
308
=
309
=
 40
0.0
 41
2456646.329719143
 42
2456646.333823958
  1

 90
        0
  0
LAYOUT
  5
1C
102
{ACAD_REACTORS
330
1A
102
}
330
1A
100
AcDbPlotSettings
  1

  2
none_device
  4

  6

 40
0.0
 41
0.0
 42
0.0
 43
0.0
 44
0.0
 45
0.0
 46
0.0
 47
0.0
 48
0.0
 49
0.0
140
0.0
141
0.0
142
1.0
143
1.0
 70
   688
 72
     0
 73
     0
 74
     5
  7

 75
    16
147
1.0
148
0.0
149
0.0
100
AcDbLayout
  1
Layout1
 70
     1
 71
     1
 10
0.0
 20
0.0
 11
12.0
 21
9.0
 12
0.0
 22
0.0
 32
0.0
 14
1.000000000000E+20
 24
1.000000000000E+20
 34
1.000000000000E+20
 15
-1.000000000000E+20
 25
-1.000000000000E+20
 35
-1.000000000000E+20
146
0.0
 13
0.0
 23
0.0
 33
0.0
 16
1.0
 26
0.0
 36
0.0
 17
0.0
 27
1.0
 37
0.0
 76
     0
330
1B
  0
LAYOUT
  5
1E
102
{ACAD_REACTORS
330
1A
102
}
330
1A
100
AcDbPlotSettings
  1

  2
none_device
  4

  6

 40
0.0
 41
0.0
 42
0.0
 43
0.0
 44
0.0
 45
0.0
 46
0.0
 47
0.0
 48
0.0
 49
0.0
140
0.0
141
0.0
142
1.0
143
1.0
 70
  1712
 72
     0
 73
     0
 74
     0
  7

 75
     0
147
1.0
148
0.0
149
0.0
100
AcDbLayout
  1
Model
 70
     1
 71
     0
 10
0.0
 20
0.0
 11
12.0
 21
9.0
 12
0.0
 22
0.0
 32
0.0
 14
0.007
 24
0.022
 34
0.0
 15
251.993
 25
225.978
 35
0.0
146
0.0
 13
0.0
 23
0.0
 33
0.0
 16
1.0
 26
0.0
 36
0.0
 17
0.0
 27
1.0
 37
0.0
 76
     0
330
1D
331
3D9
  0
MLINESTYLE
  5
18
102
{ACAD_REACTORS
330
17
102
}
330
17
100
AcDbMlineStyle
  2
Standard
 70
     0
  3

 62
   256
 51
90.0
 52
90.0
 71
     2
 49
0.5
 62
   256
  6
BYLAYER
 49
-0.5
 62
   256
  6
BYLAYER
  0
ACDBPLACEHOLDER
  5
F
102
{ACAD_REACTORS
330
E
102
}
330
E
  0
SCALE
  5
3DF
102
{ACAD_REACTORS
330
3DE
102
}
330
3DE
100
AcDbScale
 70
     0
300
1:1
140
1.0
141
1.0
290
     1
  0
SCALE
  5
3E0
102
{ACAD_REACTORS
330
3DE
102
}
330
3DE
100
AcDbScale
 70
     0
300
1:2
140
1.0
141
2.0
290
     0
  0
SCALE
  5
3E1
102
{ACAD_REACTORS
330
3DE
102
}
330
3DE
100
AcDbScale
 70
     0
300
1:4
140
1.0
141
4.0
290
     0
  0
SCALE
  5
3E2
102
{ACAD_REACTORS
330
3DE
102
}
330
3DE
100
AcDbScale
 70
     0
300
1:5
140
1.0
141
5.0
290
     0
  0
SCALE
  5
3E3
102
{ACAD_REACTORS
330
3DE
102
}
330
3DE
100
AcDbScale
 70
     0
300
1:8
140
1.0
141
8.0
290
     0
  0
SCALE
  5
3E4
102
{ACAD_REACTORS
330
3DE
102
}
330
3DE
100
AcDbScale
 70
     0
300
1:10
140
1.0
141
10.0
290
     0
  0
SCALE
  5
3E5
102
{ACAD_REACTORS
330
3DE
102
}
330
3DE
100
AcDbScale
 70
     0
300
1:16
140
1.0
141
16.0
290
     0
  0
SCALE
  5
3E6
102
{ACAD_REACTORS
330
3DE
102
}
330
3DE
100
AcDbScale
 70
     0
300
1:20
140
1.0
141
20.0
290
     0
  0
SCALE
  5
3E7
102
{ACAD_REACTORS
330
3DE
102
}
330
3DE
100
AcDbScale
 70
     0
300
1:30
140
1.0
141
30.0
290
     0
  0
SCALE
  5
3E8
102
{ACAD_REACTORS
330
3DE
102
}
330
3DE
100
AcDbScale
 70
     0
300
1:40
140
1.0
141
40.0
290
     0
  0
SCALE
  5
3E9
102
{ACAD_REACTORS
330
3DE
102
}
330
3DE
100
AcDbScale
 70
     0
300
1:50
140
1.0
141
50.0
290
     0
  0
SCALE
  5
3EA
102
{ACAD_REACTORS
330
3DE
102
}
330
3DE
100
AcDbScale
 70
     0
300
1:100
140
1.0
141
100.0
290
     0
  0
SCALE
  5
3EB
102
{ACAD_REACTORS
330
3DE
102
}
330
3DE
100
AcDbScale
 70
     0
300
2:1
140
2.0
141
1.0
290
     0
  0
SCALE
  5
3EC
102
{ACAD_REACTORS
330
3DE
102
}
330
3DE
100
AcDbScale
 70
     0
300
4:1
140
4.0
141
1.0
290
     0
  0
SCALE
  5
3ED
102
{ACAD_REACTORS
330
3DE
102
}
330
3DE
100
AcDbScale
 70
     0
300
8:1
140
8.0
141
1.0
290
     0
  0
SCALE
  5
3EE
102
{ACAD_REACTORS
330
3DE
102
}
330
3DE
100
AcDbScale
 70
     0
300
10:1
140
10.0
141
1.0
290
     0
  0
SCALE
  5
3EF
102
{ACAD_REACTORS
330
3DE
102
}
330
3DE
100
AcDbScale
 70
     0
300
100:1
140
100.0
141
1.0
290
     0
  0
SCALE
  5
3F0
102
{ACAD_REACTORS
330
3DE
102
}
330
3DE
100
AcDbScale
 70
     0
300
1/128" = 1'-0"
140
0.0078125
141
12.0
290
     0
  0
SCALE
  5
3F1
102
{ACAD_REACTORS
330
3DE
102
}
330
3DE
100
AcDbScale
 70
     0
300
1/64" = 1'-0"
140
0.015625
141
12.0
290
     0
  0
SCALE
  5
3F2
102
{ACAD_REACTORS
330
3DE
102
}
330
3DE
100
AcDbScale
 70
     0
300
1/32" = 1'-0"
140
0.03125
141
12.0
290
     0
  0
SCALE
  5
3F3
102
{ACAD_REACTORS
330
3DE
102
}
330
3DE
100
AcDbScale
 70
     0
300
1/16" = 1'-0"
140
0.0625
141
12.0
290
     0
  0
SCALE
  5
3F4
102
{ACAD_REACTORS
330
3DE
102
}
330
3DE
100
AcDbScale
 70
     0
300
3/32" = 1'-0"
140
0.09375
141
12.0
290
     0
  0
SCALE
  5
3F5
102
{ACAD_REACTORS
330
3DE
102
}
330
3DE
100
AcDbScale
 70
     0
300
1/8" = 1'-0"
140
0.125
141
12.0
290
     0
  0
SCALE
  5
3F6
102
{ACAD_REACTORS
330
3DE
102
}
330
3DE
100
AcDbScale
 70
     0
300
3/16" = 1'-0"
140
0.1875
141
12.0
290
     0
  0
SCALE
  5
3F7
102
{ACAD_REACTORS
330
3DE
102
}
330
3DE
100
AcDbScale
 70
     0
300
1/4" = 1'-0"
140
0.25
141
12.0
290
     0
  0
SCALE
  5
3F8
102
{ACAD_REACTORS
330
3DE
102
}
330
3DE
100
AcDbScale
 70
     0
300
3/8" = 1'-0"
140
0.375
141
12.0
290
     0
  0
SCALE
  5
3F9
102
{ACAD_REACTORS
330
3DE
102
}
330
3DE
100
AcDbScale
 70
     0
300
1/2" = 1'-0"
140
0.5
141
12.0
290
     0
  0
SCALE
  5
3FA
102
{ACAD_REACTORS
330
3DE
102
}
330
3DE
100
AcDbScale
 70
     0
300
3/4" = 1'-0"
140
0.75
141
12.0
290
     0
  0
SCALE
  5
3FB
102
{ACAD_REACTORS
330
3DE
102
}
330
3DE
100
AcDbScale
 70
     0
300
1" = 1'-0"
140
1.0
141
12.0
290
     0
  0
SCALE
  5
3FC
102
{ACAD_REACTORS
330
3DE
102
}
330
3DE
100
AcDbScale
 70
     0
300
1-1/2" = 1'-0"
140
1.5
141
12.0
290
     0
  0
SCALE
  5
3FD
102
{ACAD_REACTORS
330
3DE
102
}
330
3DE
100
AcDbScale
 70
     0
300
3" = 1'-0"
140
3.0
141
12.0
290
     0
  0
SCALE
  5
3FE
102
{ACAD_REACTORS
330
3DE
102
}
330
3DE
100
AcDbScale
 70
     0
300
6" = 1'-0"
140
6.0
141
12.0
290
     0
  0
SCALE
  5
3FF
102
{ACAD_REACTORS
330
3DE
102
}
330
3DE
100
AcDbScale
 70
     0
300
1'-0" = 1'-0"
140
12.0
141
12.0
290
     0
  0
DICTIONARYVAR
  5
403
102
{ACAD_REACTORS
330
400
102
}
330
400
100
DictionaryVariables
280
     0
  1
1:1
  0
ENDSEC
  0
SECTION
  2
THUMBNAILIMAGE
 90
    16364
310
28000000B40000005500000001000800000000000000000000000000000000000000000000000000FFFFFF000000FF0000FFFF0000FF0000FFFF0000FF000000FF00FF000000000080808000C0C0C0000000FF007F7FFF000000A5005252A50000007F003F3F7F0000004C0026264C000000260013132600003FFF007F9FFF
310
000029A5005267A500001F7F003F4F7F0000134C00262F4C000009260013172600007FFF007FBFFF000052A500527CA500003F7F003F5F7F0000264C0026394C0000132600131C260000BFFF007FDFFF00007CA5005291A500005F7F003F6F7F0000394C0026424C00001C26001321260000FFFF007FFFFF0000A5A50052A5
310
A500007F7F003F7F7F00004C4C00264C4C00002626001326260000FFBF007FFFDF0000A57C0052A59100007F5F003F7F6F00004C3900264C420000261C001326210000FF7F007FFFBF0000A5520052A57C00007F3F003F7F5F00004C2600264C39000026130013261C0000FF3F007FFF9F0000A5290052A56700007F1F003F
310
7F4F00004C1300264C2F00002609001326170000FF00007FFF7F0000A5000052A55200007F00003F7F3F00004C0000264C260000260000132613003FFF00009FFF7F0029A5000067A552001F7F00004F7F3F00134C00002F4C260009260000172613007FFF0000BFFF7F0052A500007CA552003F7F00005F7F3F00264C0000
310
394C2600132600001C261300BFFF0000DFFF7F007CA5000091A552005F7F00006F7F3F00394C0000424C26001C26000021261300FFFF0000FFFF7F00A5A50000A5A552007F7F00007F7F3F004C4C00004C4C26002626000026261300FFBF0000FFDF7F00A57C0000A59152007F5F00007F6F3F004C3900004C422600261C00
310
0026211300FF7F0000FFBF7F00A5520000A57C52007F3F00007F5F3F004C2600004C39260026130000261C1300FF3F0000FF9F7F00A5290000A56752007F1F00007F4F3F004C1300004C2F26002609000026171300FF000000FF7F7F00A5000000A55252007F0000007F3F3F004C0000004C2626002600000026131300FF00
310
3F00FF7F9F00A5002900A55267007F001F007F3F4F004C0013004C262F002600090026131700FF007F00FF7FBF00A5005200A5527C007F003F007F3F5F004C0026004C2639002600130026131C00FF00BF00FF7FDF00A5007C00A55291007F005F007F3F6F004C0039004C26420026001C0026132100FF00FF00FF7FFF00A5
310
00A500A552A5007F007F007F3F7F004C004C004C264C002600260026132600BF00FF00DF7FFF007C00A5009152A5005F007F006F3F7F0039004C0042264C001C002600211326007F00FF00BF7FFF005200A5007C52A5003F007F005F3F7F0026004C0039264C00130026001C1326003F00FF009F7FFF002900A5006752A500
310
1F007F004F3F7F0013004C002F264C000900260017132600000000002D2D2D005B5B5B0089898900B7B7B700B3B3B30000000000000000000000000000000000000000000000000000000000000000000000000000000000000000000707070707070707070707070707070707070707000000000000000000000000000000
310
00070707070707070707070707070707070707070707000000000000000000000000000000000707070707070707070707070707070707070707000000000000000000000000000000000000000000000000000000000000000000000000000000000000000000000000000000000000000000000000000000000000000000
310
00000000000000000000000000000000000007000000000000000000000000000000000000070000000000000000000000000000000007000000000000000000000000000000000000000700000000000000000000000000000000070000000000000000000000000000000000000700000000000000000000000000000000
310
00000000000000000000000000000000000000000000000000000000000000000000000000000000000000000000000000000000000000000000000000000000000000000000000707070707070707070707070707070707070707000000000000000000000000000000000707070707070707070707070707070707070707
310
07000000000000000000000000000000000707070707070707070707070707070707070707000000000000000000000000000000000000000000000000000000000000000000000000000000000000000000000000000000000000000000000000000000000000000000000000000000000000000000000000000000000000
310
00070707070707070707070700000000000000000000000000000000000000000000000000000700000000000000000007000000000000000000000000000000000000000000000000000007070707070707070707070000000000000000000000000000000000000000000000000000000000000000000000000000000000
310
00000000000000000000000000000000000000000000000000000000000000000000000000000000000000000000000000000000000007000000000000000000070000000000000000000000000000000000000000000000000000070000000000000000000700000000000000000000000000000000000000000000000000
310
00070000000000000000000700000000000000000000000000000000000000000000000000000000000000000000000000000000000000000000000000000000000000000000000000000000000000000000000000000000000000000000000000000000000000000000000700000000000000000007000000000000000000
310
00000000000000000000000000000000000700000000000000000007000000000000000000000000000000000000000000000000000007000000000000000000070000000000000000000000000000000000000000000000000000000000000000000000000000000000000000000000000000000000000000000000000000
310
00000000000000000000000000000000000000000000000000000000000000000007000000000000000000070000000000000000000000000000000000000000000000000000070000000000000000000700000000000000000000000000000000000000000000000000000700000000000000000007000000000000000000
310
00000000000000000000000000000000000000000000000000000000000000000000000000000000000000000000000000000000000000000000000000000000000000000000000000000000000000000000000000000700000000000000000000070000000000000000000000000000000000000000000000000007000000
310
00000000000007000000000000000000000000000000000000000000000000000700000000000000000000070000000000000000000000000000000000000000000000000000000000000000000000000000000000000000000000000000000000000000000000000000000000000000000000000000000000000000000000
310
00000000000000000000000007000000000000000000000700000000000000000000000000000000000000000000000000070000000000000000000700000000000000000000000000000000000000000000000000070000000000000000000007000000000000000000000000000000000000000000000000000000000000
310
00000000000000000000000000000000000000000000000000000000000000000000000000000000000000000000000000000000000000000000000000000000000700000000000000000000070000000000000000000000000000000000000000000000000007000000000000000000070000000000000000000000000000
310
00000000000000000000000700000000000000000000070000000000000000000000000000000000000000000000000000000000000000000000000000000000000000000000000000000000000000000000000000000000000000000000000000000000000000000000000000000000000000000007000000000000000000
310
00000700000000000000000000000000000000000000000000000000070000000000000000000700000000000000000000000000000000000000000000000000070000000000000000000007000000000000000000000000000000000000000000000000000000000000000000000000000000000000000000000000000000
310
00000000000000000000000000000000000000000000000000000000000000000000000000000000000000070000000000000000000000070000000000000000000000000000000000000000000000000007000000000000000000070000000000000000000000000000000000000000000000000007000000000000000000
310
00000700000000000000000000000000000000000000000000000000000000000000000000000000000000000000000000000000000000000000000000000000000000000000000000000000000000000000000000000000000000000000000007000000000000000000000007000000000000000000000000000000000000
310
00000000000000070000000000000000000700000000000000000000000000000000000000000000000000070000000000000000000000070000000000000000000000000000000000000000000000000000000000000000000000000000000000000000000000000000000000000000000000000000000000000000000000
310
00000000000000000000000000000000000000000000070000000000000000000000070000000000000000000000000000000000000000000000000007000000000000000000070000000000000000000000000000000000000000000000000007000000000000000000000007000000000000000000000000000000000000
310
00000000000000000000000000000000000000000000000000000000000000000000000000000000000000000000000000000000000000000000000000000000000000000000000000000007000000000000000000000000070000000000000000000000000000000000000000000000000700000000000000000007000000
310
00000000000000000000000000000000000000000007000000000000000000000000070000000000000000000000000000000000000000000000000000000000000000000000000000000000000000000000000000000000000000000000000000000000000000000000000000000000000000000000000000000000000000
310
00070000000000000000000000000700000000000000000000000000000000000000000000000007000000000000000000070000000000000000000000000000000000000000000000000700000000000000000000000007000000000000000000000000000000000000000000000000000000000000000000000000000000
310
00000000000000000000000000000000000000000000000000000000000000000000000000000000000000000000000000000000000007000000000000000000000000070000000000000000000000000000000000000000000000000700000000000000000007000000000000000000000000000000000000000000000000
310
07000000000000000000000000070000000000000000000000000000000000000000000000000000000000000000000000000000000000000000000000000000000000000000000000000000000000000000000000000000000000000000000000000000000000000000000700000000000000000000000000000000000000
310
00000000000000000000000000000000000007000000000000000000070000000000000000000000000000000000000000000000000700000000000000000000000000000000000000000000000000000000000000000000000000000000000000000000000000000000000000000000000000000000000000000000000000
310
00000000000000000000000000000000000000000000000000000000000000000007070707070707070707070707070000000000000000000000000000000000000000000000000700000000000000000007000000000000000000000000000000000000000000000000070707070707070707070707070700000000000000
310
00000000000000000000000000000000000000000000000000000000000000000000000000000000000000000000000000000000000000000000000000000000000000000000000000000000000000000000000000000000000000000000000000000000000000000000000000000000000000000000000000000000070000
310
00000000000000070000000000000000000000000000000000000000000000000000000000000000000000000000000000000000000000000000000000000000000000000000000000000000000000000000000000000000000000000000000000000000000000000000000000000000000000000000000000000000000000
310
00000000000000000000000000000000000000000000000000000000000000000000000000000000000000000000000000000700000000000000000007000000000000000000000000000000000000000000000000000000000000000000000000000000000000000000000000000000000000000000000000000000000000
310
00000000000000000000000000000000000000000000000000000000000000000000000000000000000000000000000000000000000000000000000000000000000000000000000000000000000000000000000000000000000000000000000000000000000000070000000000000000000700000000000000000000000000
310
00000000000000000000000000000000000000000000000000000000000000000000000000000000000000000000000000000000000000000000000000000000000000000000000000000000000000000000000000000000000000000000000000000000000000000000000000000000000000000000000000000000000000
310
00000000000000000000000000000000000000000000000000000000000700000000000000000007000000000000000000000000000000000000000000000000000000000000000000000000000000000000000000000000000000000000000000000000000000000000000000000000000000000000000000000000000000
310
00000000000000000000000000000000000000000000000000000000000000000000000000000000000000000000000000000000000000000000000000000000000000000000000000000000000000000000070000000000000000000700000000000000000000000000000000000000000000000000000000000000000000
310
00000000000000000000000000000000000000000000000000000000000000000000000000000000000000000000000000000000000000000000000000000000000000000000000000000000000000000000000000000000000000000000000000000000000000000000000000000000000000000000000000000000000000
310
00000000000000000700000000000000000007000000000000000000000000000000000000000000000000000000000000000000000000000000000000000000000000000000000000000000000000000000000000000000000000000000000000000000000000000000000000000000000000000000000000000000000000
310
00000000000000000000000000000000000000000000000000000000000000000000000000000000000000000000000000000000000000000000000000070000000000000000000700000000000000000000000000000000000000000000000000000000000000000000000000000000000000000000000000000000000000
310
00000000000000000000000000000000000000000000000000000000000000000000000000000000000000000000000000000000000000000000000000000000000000000000000000000000000000000000000000000000000000000000000000000000000000000000000000000000000007000000000000000000070000
310
00000000000000000000000000000000000000000000000000000000000000000000000000000000000000000000000000000000000000000000000000000000000000000000000000000000000000000000000000000000000000000000000000000000000000000000000000000000000000000000000000000000000000
310
00000000000000000000000000000000000000000000000000000000000000000000000000000000070000000000000000000700000000000000000000000000000000000000000000000000000000000000000000000000000000000000000000000000000000000000000000000000000000000000000000000000000000
310
00000000000000000000000000000000000000000000000000000000000000000000000000000000000000000000000000000000000000000000000000000000000000000000000000000000000000000000000000000000000000000007000000000000000000070000000000000000000000000000000000000000000000
310
00000000000000000000000000000000000000000000000000000000000000000000000000000000000000000000000000000000000000000000000000000000000000000000000000000000000000000000000000000000000000000000000000000000000000000000000000000000000000000000000000000000000000
310
00000000000000000000000000000000000000070000000000000000000700000000000000000000000000000000000000000000000000000000000000000000000000000000000000000000000000000000000000000000000000000000000000000000000000000000000000000000000000000000000000000000000000
310
00000000000000000000000000000000000000000000000000000000000000000000000000000000000000000000000000000000000000000000000000000000000000000000000007000000000000000000070000000000000000000000000000000000000000000000000000000000000000000000000000000000000000
310
00000000000000000000000000000000000000000000000000000000000000000000000000000000000000000000000000000000000000000000000000000000000000000000000000000000000000000000000000000000000000000000000000000000000000000000000000000000000000000000000000000000000700
310
00000000000000000700000000000000000000000000000000000000000000000000000000000000000000000000000000000000000000000000000000000000000000000000000000000000000000000000000000000000000000000000000000000000000000000000000000000000000000000000000000000000000000
310
00000000000000000000000000000000000000000000000000000000000000000000000000000000000000000000000000000007000000000000000000070000000000000000000000000000000000000000000000000000000000000000000000000000000000000000000000000000000000000000000000000000000000
310
00000000000000000000000000000000000000000000000000000000000000000000000000000000000000000000000000000000000000000000000000000000000000000000000000000000000000000000000000000000000000000000000000000000000000000700000000000000000007000000000000000000000000
310
00000000000000000000000000000000000000000000000000000000000000000000000000000000000000000000000000000000000000000000000000000000000000000000000000000000000000000000000000000000000000000000000000000000000000000000000000000000000000000000000000000000000000
310
00000000000000000000000000000000000000000000000000000000000007000000000000000000070000000000000000000000000000000000000000000000000000000000000000000000000000000000000000000000000000000000000000000000000000000000000000000000000000000000000000000000000000
310
00000000000000000000000000000000000000000000000000000000000000000000000000000000000000000000000000000000000000000000000000000000000000000000000000000000000000000000000700000000000000000007000000000000000000000000000000000000000000000000000000000000000000
310
00000000000000000000000000000000000000000000000000000000000000000000000000000000000000000000000000000000000000000000000000000000000000000000000000000000000000000000000000000000000000000000000000000000000000000000000000000000000000000000000000000000000000
310
00000000000000000007000000000000000000070000000000000000000000000000000000000000000000000000000000000000000000000000000000000000000000000000000000000000000000000000000000000000000000000000000000000000000000000000000000000000000000000000000000000000000000
310
00000000000000000000000000000000000000000000000000000000000000000000000000000000000000000000000000000000000000000000000000000700000000000000000007000000000000000000000000000000000000000000000000000000000000000000000000000000000000000000000000000000000000
310
00000000000000000000000000000000000000000000000000000000000000000000000000000000000000000000000000000000000000000000000000000000000000000000000000000000000000000000000000000000000000000000000000000000000000000000000000000000000000070000000000000000000700
310
00000000000000000000000000000000000000000000000000000000000000000000000000000000000000000000000000000000000000000000000000000000000000000000000000000000000000000000000000000000000000000000000000000000000000000000000000000000000000000000000000000000000000
310
00000000000000000000000000000000000000000000000000000000000000000000000000000000000700000000000000000007000000000000000000000000000000000000000000000000000000000000000000000000000000000000000000000000000000000000000000000000000000000000000000000000000000
310
00000000000000000000000000000000000000000000000000000000000000000000000000000000000000000000000000000000000000000000000000000000000000000000000000000000000000000000000000000000000000000000070000000000000000000700000000000000000000000000000000000000000000
310
00000000000000000000000000000000000000000000000000000000000000000000000000000000000000000000000000000000000000000000000000000000000000000000000000000000000000000000000000000000000000000000000000000000000000000000000000000000000000000000000000000000000000
310
00000000000000000000000000000000000000000700000000000000000007000000000000000000000000000000000000000000000000000000000000000000000000000000000000000000000000000000000000000000000000000000000000000000000000000000000000000000000000000000000000000000000000
310
00000000000000000000000000000000000000000000000000000000000000000000000000000000000000000000000000000000000000000000000000000000000000000000000000070000000000000000000700000000000000000000000000000000000000000000000000000000000000000000000000000000000000
310
00000000000000000000000000000000000000000000000000000000000000000000000000000000000000000000000000000000000000000000000000000000000000000000000000000000000000000000000000000000000000000000000000000000000000000000000000000000000000000000000000000000000007
310
00000000000000000007000000000000000000000000000000000000000000000000000000000000000000000000000000000000000000000000000000000000000000000000000000000000000000000000000000000000000000000000000000000000000000000000000000000000000000000000000000000000000000
310
00000000000000000000000000000000000000000000000000000000000000000000000000000000000000000000000000000000070000000000000000000700000000000000000000000000000000000000000000000000000000000000000000000000000000000000000000000000000000000000000000000000000000
310
00000000000000000000000000000000000000000000000000000000000000000000000000000000000000000000000000000000000000000000000000000000000000000000000000000000000000000000000000000000000000000000000000000000000000000007000000000000000000070000000000000000000000
310
00000000000000000000000000000000000000000000000000000000000000000000000000000000000000000000000000000000000000000000000000000000000000000000000000000000000000000000000000000000000000000000000000000000000000000000000000000000000000000000000000000000000000
310
00000000000000000000000000000000000000000000000000000000000000070000000000000000000700000000000000000000000000000000000000000000000000000000000000000000000000000000000000000000000000000000000000000000000000000000000000000000000000000000000000000000000000
310
00000000000000000000000000000000000000000000000000000000000000000000000000000000000000000000000000000000000000000000000000000000000000000000000000000000000000000000000007000000000000000000070000000000000000000000000000000000000000000000000000000000000000
310
00000000000000000000000000000000000000000000000000000000000000000000000000000000000000000000000000000000000000000000000000000000000000000000000000000000000000000000000000000000000000000000000000000000000000000000000000000000000000000000000000000000000000
310
00000000000000000000070000000000000000000700000000000000000000000000000000000000000000000000000000000000000000000000000000000000000000000000000000000000000000000000000000000000000000000000000000000000000000000000000000000000000000000000000000000000000000
310
00000000000000000000000000000000000000000000000000000000000000000000000000000000000000000000000000000000000000000000000000000007000000000000000000070000000000000000000000000000000000000000000000000000000000000000000000000000000000000000000000000000000000
310
00000000000000000000000000000000000000000000000000000000000000000000000000000000000000000000000000000000000000000000000000000000000000000000000000000000000000000000000000000000000000000000000000000000000000000000000000000000000000000700000000000000000007
310
00000000000000000000000000000000000000000000000000000000000000000000000000000000000000000000000000000000000000000000000000000000000000000000000000000000000000000000000000000000000000000000000000000000000000000000000000000000000000000000000000000000000000
310
00000000000000000000000000000000000000000000000000000000000000000000000000000000000007000000000000000000070000000000000000000000000000000000000000000000000000000000000000000000000000000000000000000000000000000000000000000000000000000000000000000000000000
310
00000000000000000000000000000000000000000000000000000000000000000000000000000000000000000000000000000000000000000000000000000000000000000000000000000000000000000000000000000000000000000000000700000000000000000007000000000000000000000000000000000000000000
310
00000000000000000000000000000000000000000000000000000000000000000000000000000000000000000000000000000000000000000000000000000000000000000000000000000000000000000000000000000000000000000000000000000000000000000000000000000000000000000000000000000000000000
310
00000000000000000000000000000000000000000007000000000000000000070000000000000000000000000000000000000000000000000000000000000000000000000000000000000000000000000000000000000000000000000000000000000000000000000000000000000000000000000000000000000000000000
310
00000000000000000000000000000000000000000000000000000000000000000000000000000000000000000000000000000000000000000000000000000000000000000000000000000700070707070707070007000000000000000000000000000000000000000000000000000000000000000000000000000000000000
310
00000000000000000000000000000000000000000000000000000000000000000000000000000000000000000000000000000000000000000000000000000000000000000000000000000000000000000000000000000000000000000000000000000000000000000000000000000000000000000000000000000000000000
310
07070700000000000707070000000000000000000000000000000000000000000000000000000000000000000000000000000000000000000000000000000000000000000000000000000000000000000000000000000000000000000000000000000000000000000000000000000000000000000000000000000000000000
310
00000000000000000000000000000000000000000000000000000000000000000000000000000000000000000000000000000000000707000000000000000707000000000000000000000000000000000000000000000000000000000000000000000000000000000000000000000000000000000000000000000000000000
310
00000000000000000000000000000000000000000000000000000000000000000000000000000000000000000000000000000000000000000000000000000000000000000000000000000000000000000000000000000000000000000000000000000000000000000000070707000000000007070700000000000000000000
310
00000000000000000000000000000000000000000000000000000000000000000000000000000000000000000000000000000000000000000000000000000000000000000000000000000000000000000000000000000000000000000000000000000000000000000000000000000000000000000000000000000000000000
310
00000000000000000000000000000000000000000000000000000000000000000700070707070707070007000000000000000000000000000000000000000000000000000000000000000000000000000000000000000000000000000000000000000000000000000000000000000000000000000000000000000000000000
310
00000000000000000000000000000000000000000000000000000000000000000000000000000000000000000000000000000000000000000000000000000000000000000000000000000000000000000000000000070000000000000000000700000000000000000000000000000000000000000000000000000000000000
310
00000000000000000000000000000000000000000000000000000000000000000000000000000000000000000000000000000000000000000000000000000000000000000000000000000000000000000000000000000000000000000000000000000000000000000000000000000000000000000000000000000000000000
310
00000000000000000000000700000000000000000007000000000000000000000000000000000000000000000000000000000000000000000000000000000000000000000000000000000000000000000000000000000000000000000000000000000000000000000000000000000000000000000000000000000000000000
310
00000000000000000000000000000000000000000000000000000000000000000000000000000000000000000000000000000000000000000000000000000000070000000000000000000700000000000000000000000000000000000000000000000000000000000000000000000000000000000000000000000000000000
310
00000000000000000000000000000000000000000000000000000000000000000000000000000000000000000000000000000000000000000000000000000000000000000000000000000000000000000000000000000000000000000000000000000000000000000000000000000000000000000007000000000000000000
310
07000000000000000000000000000000000000000000000000000000000000000000000000000000000000000000000000000000000000000000000000000000000000000000000000000000000000000000000000000000000000000000000000000000000000000000000000000000000000000000000000000000000000
310
00000000000000000000000000000000000000000000000000000000000000000000000000000000000000070700000000000000070700000000000000000000000000000000000000000000000000000000000000000000000000000000000000000000000000000000000000000000000000000000000000000000000000
310
00000000000000000000000000000000000000000000000000000000000000000000000000000000000000000000000000000000000000000000000000000000000000000000000000000000000000000000000000000000000000000000000007070700000000000707070000000000000000000000000000000000000000
310
00000000000000000000000000000000000000000000000000000000000000000000000000000000000000000000000000000000000000000000000000000000000000000000000000000000000000000000000000000000000000000000000000000000000000000000000000000000000000000000000000000000000000
310
00000000000000000000000000000000000000000000070000070707070700000700000000000000000000000000000000000000000000000000000000000000000000000000000000000000000000000000000000000000000000000000000000000000000000000000000000000000000000000000000000000000000000
310
00000000000000000000000000000000000000000000000000000000000000000000000000000000000000000000000000000000000000000000000000000000000000000000000000000007000000000000000000070000000000000000000000000000000000000000000000000000000000000000000000000000000000
310
00000000000000000000000000000000000000000000000000000000000000000000000000000000000000000000000000000000000000000000000000000000000000000000000000000000000000000000000000000000000000000000000000000000000000000000000000000000000000000000000000000000000000
310
00070000000000000000000700000000000000000000000000000000000000000000000000000000000000000000000000000000000000000000000000000000000000000000000000000000000000000000000000000000000000000000000000000000000000000000000000000000000000000000000000000000000000
310
00000000000000000000000000000000000000000000000000000000000000000000000000000000000000000000000000000000000007000000000000000000070000000000000000000000000000000000000000000000000000000000000000000000000000000000000000000000000000000000000000000000000000
310
00000000000000000000000000000000000000000000000000000000000000000000000000000000000000000000000000000000000000000000000000000000000000000000000000000000000000000000000000000000000000000000000000000000000000000000000700000000000000000007000000000000000000
310
00000000000000000000000000000000000000000000000000000000000000000000000000000000000000000000000000000000000000000000000000000000000000000000000000000000000000000000000000000000000000000000000000000000000000000000000000000000000000000000000000000000000000
310
00000000000000000000000000000000000000000000000000000000000000000007000000000000000000070000000000000000000000000000000000000000000000000000000000000000000000000000000000000000000000000000000000000000000000000000000000000000000000000000000000000000000000
310
00000000000000000000000000000000000000000000000000000000000000000000000000000000000000000000000000000000000000000000000000000000000000000000000000000000000000000000000000000700000000000000000007000000000000000000000000000000000000000000000000000000000000
310
00000000000000000000000000000000000000000000000000000000000000000000000000000000000000000000000000000000000000000000000000000000000000000000000000000000000000000000000000000000000000000000000000000000000000000000000000000000000000000000000000000000000000
310
00000000000000000000000007000000000000000000070000000000000000000000000000000000000000000000000000000000000000000000000000000000000000000000000000000000000000000000000000000000000000000000000000000000000000000000000000000000000000000000000000000000000000
310
00000000000000000000000000000000000000000000000000000000000000000000000000000000000000000000000000000000000000000000000000000000000700000000000000000007000000000000000000000000000000000000000000000000000000000000000000000000000000000000000000000000000000
310
00000000000000000000000000000000000000000000000000000000000000000000000000000000000000000000000000000000000000000000000000000000000000000000000000000000000000000000000000000000000000000000000000000000000000000000000000000000000000000000070000000000000000
310
00070000000000000000000000000000000000000000000000000000000000000000000000000000000000000000000000000000000000000000000000000000000000000000000000000000000000000000000000000000000000000000000000000000000000000000000000000000000000000000000000000000000000
310
00000000000000000000000000000000000000000000000000000000000000000000000000000000000000000700000000000000000007000000000000000000000000000000000000000000000000000000000000000000000000000000000000000000000000000000000000000000000000000000000000000000000000
310
00000000000000000000000000000000000000000000000000000000000000000000000000000000000000000000000000000000000000000000000000000000000000000000000000000000000000000000000000000000000000000000000000070000000000000000000700000000000000000000000000000000000000
310
00000000000000000000000000000000000000000000000000000000000000000000000000000000000000000000000000000000000000000000000000000000000000000000000000000000000000000000000000000000000000000000000000000000000000000000000000000000000000000000000000000000000000
310
00000000000000000000000000000000000000000000000700000000000000000007000000000000000000000000000000000000000000000000000000000000000000000000000000000000000000000000000000000000000000000000000000000000000000000000000000000000000000000000000000000000000000
310
00000000000000000000000000000000000000000000000000000000000000000000000000000000000000000000000000000000000000000000000000000000000000000000000000000000070000000000000000000700000000000000000000000000000000000000000000000000000000000000000000000000000000
310
00000000000000000000000000000000000000000000000000000000000000000000000000000000000000000000000000000000000000000000000000000000000000000000000000000000000000000000000000000000000000000000000000000000000000000000000000000000000000000000000000000000000000
310
00000700000000000000000007000000000000000000000000000000000000000000000000000000000000000000000000000000000000000000000000000000000000000000000000000000000000000000000000000000000000000000000000000000000000000000000000000000000000000000000000000000000000
310
00000000000000000000000000000000000000000000000000000000000000000000000000000000000000000000000000000000000000000700000000000000070000000000000000000000000000000000000000000000000000000000000000000000000000000000000000000000000000000000000000000000000000
310
00000000000000000000000000000000000000000000000000000000000000000000000000000000000000000000000000000000000000000000000000000000000000000000000000000000000000000000000000000000000000000000000000000000000000000000000000070000000000000007000000000000000000
310
00000000000000000000000000000000000000000000000000000000000000000000000000000000000000000000000000000000000000000000000000000000000000000000000000000000000000000000000000000000000000000000000000000000000000000000000000000000000000000000000000000000000000
310
00000000000000000000000000000000000000000000000000000000000000000000000007000000000007000000000000000000000000000000000000000000000000000000000000000000000000000000000000000000000000000000000000000000000000000000000000000000000000000000000000000000000000
310
00000000000000000000000000000000000000000000000000000000000000000000000000000000000000000000000000000000000000000000000000000000000000000000000000000000000000000000000000000000000007070707070000000000000000000000000000000000000000000000000000000000000000
310
00000000000000000000000000000000000000000000000000000000000000000000000000000000000000000000000000000000000000000000000000000000000000000000000000000000000000000000000000000000000000000000000000000000000000000000000000000000000000000000000000000000000000
310
000000000000000000000000000000000000000000000000000000000000000000000000000000000000000000000000000000000000000000000000000000000000000000000000000000000000000000000000000000000000000000000000000000000000000000000000
  0
ENDSEC
  0
EOF
