  0
SECTION
  2
HEADER
  9
$ACADVER
  1
AC1015
  9
$ACADMAINTVER
 70
     6
  9
$DWGCODEPAGE
  3
ANSI_1252
  9
$INSBASE
 10
0.0
 20
0.0
 30
0.0
  9
$EXTMIN
 10
0.01
 20
0.05205
 30
0.0
  9
$EXTMAX
 10
220.99
 20
184.94795
 30
0.0
  9
$LIMMIN
 10
0.0
 20
0.0
  9
$LIMMAX
 10
12.0
 20
9.0
  9
$ORTHOMODE
 70
     0
  9
$REGENMODE
 70
     1
  9
$FILLMODE
 70
     1
  9
$QTEXTMODE
 70
     0
  9
$MIRRTEXT
 70
     1
  9
$LTSCALE
 40
1.0
  9
$ATTMODE
 70
     1
  9
$TEXTSIZE
 40
0.2
  9
$TRACEWID
 40
0.05
  9
$TEXTSTYLE
  7
Standard
  9
$CLAYER
  8
0
  9
$CELTYPE
  6
ByBlock
  9
$CECOLOR
 62
   256
  9
$CELTSCALE
 40
1.0
  9
$DISPSILH
 70
     0
  9
$DIMSCALE
 40
1.0
  9
$DIMASZ
 40
0.18
  9
$DIMEXO
 40
0.0625
  9
$DIMDLI
 40
0.38
  9
$DIMRND
 40
0.0
  9
$DIMDLE
 40
0.0
  9
$DIMEXE
 40
0.18
  9
$DIMTP
 40
0.0
  9
$DIMTM
 40
0.0
  9
$DIMTXT
 40
0.18
  9
$DIMCEN
 40
0.09
  9
$DIMTSZ
 40
0.0
  9
$DIMTOL
 70
     0
  9
$DIMLIM
 70
     0
  9
$DIMTIH
 70
     1
  9
$DIMTOH
 70
     1
  9
$DIMSE1
 70
     0
  9
$DIMSE2
 70
     0
  9
$DIMTAD
 70
     0
  9
$DIMZIN
 70
     0
  9
$DIMBLK
  1

  9
$DIMASO
 70
     1
  9
$DIMSHO
 70
     1
  9
$DIMPOST
  1

  9
$DIMAPOST
  1

  9
$DIMALT
 70
     0
  9
$DIMALTD
 70
     2
  9
$DIMALTF
 40
25.4
  9
$DIMLFAC
 40
1.0
  9
$DIMTOFL
 70
     0
  9
$DIMTVP
 40
0.0
  9
$DIMTIX
 70
     0
  9
$DIMSOXD
 70
     0
  9
$DIMSAH
 70
     0
  9
$DIMBLK1
  1

  9
$DIMBLK2
  1

  9
$DIMSTYLE
  2
Standard
  9
$DIMCLRD
 70
     0
  9
$DIMCLRE
 70
     0
  9
$DIMCLRT
 70
     0
  9
$DIMTFAC
 40
1.0
  9
$DIMGAP
 40
0.09
  9
$DIMJUST
 70
     0
  9
$DIMSD1
 70
     0
  9
$DIMSD2
 70
     0
  9
$DIMTOLJ
 70
     1
  9
$DIMTZIN
 70
     0
  9
$DIMALTZ
 70
     0
  9
$DIMALTTZ
 70
     0
  9
$DIMUPT
 70
     0
  9
$DIMDEC
 70
     4
  9
$DIMTDEC
 70
     4
  9
$DIMALTU
 70
     2
  9
$DIMALTTD
 70
     2
  9
$DIMTXSTY
  7
Standard
  9
$DIMAUNIT
 70
     0
  9
$DIMADEC
 70
     0
  9
$DIMALTRND
 40
0.0
  9
$DIMAZIN
 70
     0
  9
$DIMDSEP
 70
    46
  9
$DIMATFIT
 70
     3
  9
$DIMFRAC
 70
     0
  9
$DIMLDRBLK
  1

  9
$DIMLUNIT
 70
     2
  9
$DIMLWD
 70
    -2
  9
$DIMLWE
 70
    -2
  9
$DIMTMOVE
 70
     2
  9
$LUNITS
 70
     2
  9
$LUPREC
 70
     4
  9
$SKETCHINC
 40
0.1
  9
$FILLETRAD
 40
0.5
  9
$AUNITS
 70
     0
  9
$AUPREC
 70
     0
  9
$MENU
  1
.
  9
$ELEVATION
 40
0.0
  9
$PELEVATION
 40
0.0
  9
$THICKNESS
 40
0.0
  9
$LIMCHECK
 70
     0
  9
$CHAMFERA
 40
0.5
  9
$CHAMFERB
 40
0.5
  9
$CHAMFERC
 40
1.0
  9
$CHAMFERD
 40
0.0
  9
$SKPOLY
 70
     0
  9
$TDCREATE
 40
2456645.896419271
  9
$TDUCREATE
 40
2456645.854752604
  9
$TDUPDATE
 40
2456645.902667095
  9
$TDUUPDATE
 40
2456645.861000428
  9
$TDINDWG
 40
0.0062474769
  9
$TDUSRTIMER
 40
0.0062474769
  9
$USRTIMER
 70
     1
  9
$ANGBASE
 50
0.0
  9
$ANGDIR
 70
     0
  9
$PDMODE
 70
     0
  9
$PDSIZE
 40
0.0
  9
$PLINEWID
 40
0.0
  9
$SPLFRAME
 70
     0
  9
$SPLINETYPE
 70
     6
  9
$SPLINESEGS
 70
     8
  9
$HANDSEED
  5
4AE
  9
$SURFTAB1
 70
     6
  9
$SURFTAB2
 70
     6
  9
$SURFTYPE
 70
     6
  9
$SURFU
 70
     6
  9
$SURFV
 70
     6
  9
$UCSBASE
  2

  9
$UCSNAME
  2

  9
$UCSORG
 10
0.0
 20
0.0
 30
0.0
  9
$UCSXDIR
 10
1.0
 20
0.0
 30
0.0
  9
$UCSYDIR
 10
0.0
 20
1.0
 30
0.0
  9
$UCSORTHOREF
  2

  9
$UCSORTHOVIEW
 70
     0
  9
$UCSORGTOP
 10
0.0
 20
0.0
 30
0.0
  9
$UCSORGBOTTOM
 10
0.0
 20
0.0
 30
0.0
  9
$UCSORGLEFT
 10
0.0
 20
0.0
 30
0.0
  9
$UCSORGRIGHT
 10
0.0
 20
0.0
 30
0.0
  9
$UCSORGFRONT
 10
0.0
 20
0.0
 30
0.0
  9
$UCSORGBACK
 10
0.0
 20
0.0
 30
0.0
  9
$PUCSBASE
  2

  9
$PUCSNAME
  2

  9
$PUCSORG
 10
0.0
 20
0.0
 30
0.0
  9
$PUCSXDIR
 10
1.0
 20
0.0
 30
0.0
  9
$PUCSYDIR
 10
0.0
 20
1.0
 30
0.0
  9
$PUCSORTHOREF
  2

  9
$PUCSORTHOVIEW
 70
     0
  9
$PUCSORGTOP
 10
0.0
 20
0.0
 30
0.0
  9
$PUCSORGBOTTOM
 10
0.0
 20
0.0
 30
0.0
  9
$PUCSORGLEFT
 10
0.0
 20
0.0
 30
0.0
  9
$PUCSORGRIGHT
 10
0.0
 20
0.0
 30
0.0
  9
$PUCSORGFRONT
 10
0.0
 20
0.0
 30
0.0
  9
$PUCSORGBACK
 10
0.0
 20
0.0
 30
0.0
  9
$USERI1
 70
     0
  9
$USERI2
 70
     0
  9
$USERI3
 70
     0
  9
$USERI4
 70
     0
  9
$USERI5
 70
     0
  9
$USERR1
 40
0.0
  9
$USERR2
 40
0.0
  9
$USERR3
 40
0.0
  9
$USERR4
 40
0.0
  9
$USERR5
 40
0.0
  9
$WORLDVIEW
 70
     1
  9
$SHADEDGE
 70
     3
  9
$SHADEDIF
 70
    70
  9
$TILEMODE
 70
     1
  9
$MAXACTVP
 70
    64
  9
$PINSBASE
 10
0.0
 20
0.0
 30
0.0
  9
$PLIMCHECK
 70
     0
  9
$PEXTMIN
 10
1.000000000000E+20
 20
1.000000000000E+20
 30
1.000000000000E+20
  9
$PEXTMAX
 10
-1.000000000000E+20
 20
-1.000000000000E+20
 30
-1.000000000000E+20
  9
$PLIMMIN
 10
0.0
 20
0.0
  9
$PLIMMAX
 10
12.0
 20
9.0
  9
$UNITMODE
 70
     0
  9
$VISRETAIN
 70
     1
  9
$PLINEGEN
 70
     0
  9
$PSLTSCALE
 70
     1
  9
$TREEDEPTH
 70
  3020
  9
$CMLSTYLE
  2
Standard
  9
$CMLJUST
 70
     0
  9
$CMLSCALE
 40
1.0
  9
$PROXYGRAPHICS
 70
     1
  9
$MEASUREMENT
 70
     0
  9
$CELWEIGHT
370
    -1
  9
$ENDCAPS
280
     0
  9
$JOINSTYLE
280
     0
  9
$LWDISPLAY
290
     0
  9
$INSUNITS
 70
     0
  9
$HYPERLINKBASE
  1

  9
$STYLESHEET
  1

  9
$XEDIT
290
     1
  9
$CEPSNTYPE
380
     0
  9
$PSTYLEMODE
290
     1
  9
$FINGERPRINTGUID
  2
{9CBDB26F-A839-45F6-937F-2E56AD7FF672}
  9
$VERSIONGUID
  2
{FAEB1C32-E019-11D5-929B-00C0DF256EC4}
  9
$EXTNAMES
290
     1
  9
$PSVPSCALE
 40
0.0
  9
$OLESTARTUP
290
     0
  0
ENDSEC
  0
SECTION
  2
CLASSES
  0
CLASS
  1
ACDBDICTIONARYWDFLT
  2
AcDbDictionaryWithDefault
  3
ObjectDBX Classes
 90
        0
280
     0
281
     0
  0
CLASS
  1
SCALE
  2
AcDbScale
  3
ObjectDBX Classes
 90
     1153
280
     0
281
     0
  0
CLASS
  1
DICTIONARYVAR
  2
AcDbDictionaryVar
  3
ObjectDBX Classes
 90
        0
280
     0
281
     0
  0
CLASS
  1
ACDBPLACEHOLDER
  2
AcDbPlaceHolder
  3
ObjectDBX Classes
 90
        0
280
     0
281
     0
  0
CLASS
  1
LAYOUT
  2
AcDbLayout
  3
ObjectDBX Classes
 90
        0
280
     0
281
     0
  0
ENDSEC
  0
SECTION
  2
TABLES
  0
TABLE
  2
VPORT
  5
8
330
0
100
AcDbSymbolTable
 70
     1
  0
VPORT
  5
30D
330
8
100
AcDbSymbolTableRecord
100
AcDbViewportTableRecord
  2
*Active
 70
     0
 10
0.0
 20
0.0
 11
1.0
 21
1.0
 12
110.495
 22
92.473975
 13
0.0
 23
0.0
 14
0.5
 24
0.5
 15
0.5
 25
0.5
 16
0.0
 26
0.0
 36
1.0
 17
0.0
 27
0.0
 37
0.0
 40
188.646909
 41
1.729542302358
 42
50.0
 43
0.0
 44
0.0
 50
0.0
 51
0.0
 71
    16
 72
   100
 73
     1
 74
     3
 75
     0
 76
     0
 77
     0
 78
     0
281
     0
 65
     1
110
0.0
120
0.0
130
0.0
111
1.0
121
0.0
131
0.0
112
0.0
122
1.0
132
0.0
 79
     0
146
0.0
  0
ENDTAB
  0
TABLE
  2
LTYPE
  5
5
330
0
100
AcDbSymbolTable
 70
     1
  0
LTYPE
  5
14
330
5
100
AcDbSymbolTableRecord
100
AcDbLinetypeTableRecord
  2
ByBlock
 70
     0
  3

 72
    65
 73
     0
 40
0.0
  0
LTYPE
  5
15
330
5
100
AcDbSymbolTableRecord
100
AcDbLinetypeTableRecord
  2
ByLayer
 70
     0
  3

 72
    65
 73
     0
 40
0.0
  0
LTYPE
  5
16
330
5
100
AcDbSymbolTableRecord
100
AcDbLinetypeTableRecord
  2
Continuous
 70
     0
  3
Solid line
 72
    65
 73
     0
 40
0.0
  0
ENDTAB
  0
TABLE
  2
LAYER
  5
2
330
0
100
AcDbSymbolTable
 70
     1
  0
LAYER
  5
10
330
2
100
AcDbSymbolTableRecord
100
AcDbLayerTableRecord
  2
0
 70
     0
 62
     7
  6
Continuous
370
    -3
390
F
  0
ENDTAB
  0
TABLE
  2
STYLE
  5
3
330
0
100
AcDbSymbolTable
 70
     1
  0
STYLE
  5
11
330
3
100
AcDbSymbolTableRecord
100
AcDbTextStyleTableRecord
  2
Standard
 70
     0
 40
0.0
 41
1.0
 50
0.0
 71
     0
 42
0.2
  3
txt
  4

  0
ENDTAB
  0
TABLE
  2
VIEW
  5
6
330
0
100
AcDbSymbolTable
 70
     0
  0
ENDTAB
  0
TABLE
  2
UCS
  5
7
330
0
100
AcDbSymbolTable
 70
     0
  0
ENDTAB
  0
TABLE
  2
APPID
  5
9
330
0
100
AcDbSymbolTable
 70
     1
  0
APPID
  5
12
330
9
100
AcDbSymbolTableRecord
100
AcDbRegAppTableRecord
  2
ACAD
 70
     0
  0
ENDTAB
  0
TABLE
  2
DIMSTYLE
  5
A
330
0
100
AcDbSymbolTable
 70
     1
100
AcDbDimStyleTable
  0
DIMSTYLE
105
20
330
A
100
AcDbSymbolTableRecord
100
AcDbDimStyleTableRecord
  2
Standard
 70
     0
340
11
  0
ENDTAB
  0
TABLE
  2
BLOCK_RECORD
  5
1
330
0
100
AcDbSymbolTable
 70
     0
  0
BLOCK_RECORD
  5
1D
330
1
100
AcDbSymbolTableRecord
100
AcDbBlockTableRecord
  2
*Model_Space
340
1E
  0
BLOCK_RECORD
  5
1B
330
1
100
AcDbSymbolTableRecord
100
AcDbBlockTableRecord
  2
*Paper_Space
340
1C
  0
ENDTAB
  0
ENDSEC
  0
SECTION
  2
BLOCKS
  0
BLOCK
  5
310
330
1D
100
AcDbEntity
  8
0
100
AcDbBlockBegin
  2
*Model_Space
 70
     0
 10
0.0
 20
0.0
 30
0.0
  3
*Model_Space
  1
*Model_Space
  0
ENDBLK
  5
311
330
1D
100
AcDbEntity
  8
0
100
AcDbBlockEnd
  0
BLOCK
  5
30E
330
1B
100
AcDbEntity
 67
     1
  8
0
100
AcDbBlockBegin
  2
*Paper_Space
 70
     0
 10
0.0
 20
0.0
 30
0.0
  3
*Paper_Space
  1
*Paper_Space
  0
ENDBLK
  5
30F
330
1B
100
AcDbEntity
 67
     1
  8
0
100
AcDbBlockEnd
  0
ENDSEC
  0
SECTION
  2
ENTITIES
  0
LINE
  5
21
330
1D
100
AcDbEntity
  8
0
100
AcDbLine
 10
18.134
 20
114.52695
 30
0.0
 11
18.5
 21
114.16095
 31
0.0
  0
LINE
  5
22
330
1D
100
AcDbEntity
  8
0
100
AcDbLine
 10
18.5
 20
114.16095
 30
0.0
 11
19.0
 21
114.02695
 31
0.0
  0
LINE
  5
23
330
1D
100
AcDbEntity
  8
0
100
AcDbLine
 10
19.0
 20
114.02695
 30
0.0
 11
80.6646
 21
114.02695
 31
0.0
  0
LINE
  5
24
330
1D
100
AcDbEntity
  8
0
100
AcDbLine
 10
18.0
 20
115.71895
 30
0.0
 11
18.0
 21
117.22795
 31
0.0
  0
LINE
  5
25
330
1D
100
AcDbEntity
  8
0
100
AcDbLine
 10
18.0
 20
115.71895
 30
0.0
 11
18.0
 21
115.20695
 31
0.0
  0
LINE
  5
26
330
1D
100
AcDbEntity
  8
0
100
AcDbLine
 10
18.0
 20
118.77695
 30
0.0
 11
18.0
 21
117.22795
 31
0.0
  0
LINE
  5
27
330
1D
100
AcDbEntity
  8
0
100
AcDbLine
 10
18.0
 20
117.22795
 30
0.0
 11
18.0
 21
115.71895
 31
0.0
  0
LINE
  5
28
330
1D
100
AcDbEntity
  8
0
100
AcDbLine
 10
18.0
 20
117.22795
 30
0.0
 11
18.0
 21
118.77695
 31
0.0
  0
LINE
  5
29
330
1D
100
AcDbEntity
  8
0
100
AcDbLine
 10
18.0
 20
115.20695
 30
0.0
 11
18.0
 21
115.71895
 31
0.0
  0
LINE
  5
2A
330
1D
100
AcDbEntity
  8
0
100
AcDbLine
 10
18.0
 20
115.20695
 30
0.0
 11
18.0
 21
115.02695
 31
0.0
  0
LINE
  5
2B
330
1D
100
AcDbEntity
  8
0
100
AcDbLine
 10
18.0
 20
123.08495
 30
0.0
 11
18.0
 21
127.11695
 31
0.0
  0
LINE
  5
2C
330
1D
100
AcDbEntity
  8
0
100
AcDbLine
 10
18.0
 20
120.76695
 30
0.0
 11
18.0
 21
123.08495
 31
0.0
  0
LINE
  5
2D
330
1D
100
AcDbEntity
  8
0
100
AcDbLine
 10
18.0
 20
135.85895
 30
0.0
 11
18.0
 21
132.91595
 31
0.0
  0
LINE
  5
2E
330
1D
100
AcDbEntity
  8
0
100
AcDbLine
 10
18.0
 20
135.85895
 30
0.0
 11
18.0
 21
138.72995
 31
0.0
  0
LINE
  5
2F
330
1D
100
AcDbEntity
  8
0
100
AcDbLine
 10
18.0
 20
132.91595
 30
0.0
 11
18.0
 21
129.97595
 31
0.0
  0
LINE
  5
30
330
1D
100
AcDbEntity
  8
0
100
AcDbLine
 10
18.0
 20
132.91595
 30
0.0
 11
18.0
 21
135.85895
 31
0.0
  0
LINE
  5
31
330
1D
100
AcDbEntity
  8
0
100
AcDbLine
 10
18.0
 20
129.97595
 30
0.0
 11
18.0
 21
127.11695
 31
0.0
  0
LINE
  5
32
330
1D
100
AcDbEntity
  8
0
100
AcDbLine
 10
18.0
 20
129.97595
 30
0.0
 11
18.0
 21
132.91595
 31
0.0
  0
LINE
  5
33
330
1D
100
AcDbEntity
  8
0
100
AcDbLine
 10
18.0
 20
127.11695
 30
0.0
 11
18.0
 21
123.08495
 31
0.0
  0
LINE
  5
34
330
1D
100
AcDbEntity
  8
0
100
AcDbLine
 10
18.0
 20
127.11695
 30
0.0
 11
18.0
 21
129.97595
 31
0.0
  0
LINE
  5
35
330
1D
100
AcDbEntity
  8
0
100
AcDbLine
 10
18.0
 20
121.94795
 30
0.0
 11
18.0
 21
119.77595
 31
0.0
  0
LINE
  5
36
330
1D
100
AcDbEntity
  8
0
100
AcDbLine
 10
18.0
 20
141.44795
 30
0.0
 11
18.134
 21
141.94795
 31
0.0
  0
LINE
  5
37
330
1D
100
AcDbEntity
  8
0
100
AcDbLine
 10
18.0
 20
141.44795
 30
0.0
 11
18.0
 21
138.72995
 31
0.0
  0
LINE
  5
38
330
1D
100
AcDbEntity
  8
0
100
AcDbLine
 10
18.0
 20
138.72995
 30
0.0
 11
18.0
 21
141.44795
 31
0.0
  0
LINE
  5
39
330
1D
100
AcDbEntity
  8
0
100
AcDbLine
 10
18.0
 20
138.72995
 30
0.0
 11
18.0
 21
135.85895
 31
0.0
  0
LINE
  5
3A
330
1D
100
AcDbEntity
  8
0
100
AcDbLine
 10
18.0
 20
123.08495
 30
0.0
 11
18.0
 21
120.76695
 31
0.0
  0
LINE
  5
3B
330
1D
100
AcDbEntity
  8
0
100
AcDbLine
 10
18.0
 20
119.77595
 30
0.0
 11
18.0
 21
121.94795
 31
0.0
  0
LINE
  5
3C
330
1D
100
AcDbEntity
  8
0
100
AcDbLine
 10
18.0
 20
119.77595
 30
0.0
 11
18.0
 21
117.96295
 31
0.0
  0
LINE
  5
3D
330
1D
100
AcDbEntity
  8
0
100
AcDbLine
 10
18.134
 20
141.94795
 30
0.0
 11
18.5
 21
142.31395
 31
0.0
  0
LINE
  5
3E
330
1D
100
AcDbEntity
  8
0
100
AcDbLine
 10
18.5
 20
142.31395
 30
0.0
 11
19.0
 21
142.44795
 31
0.0
  0
LINE
  5
3F
330
1D
100
AcDbEntity
  8
0
100
AcDbLine
 10
18.0
 20
117.96295
 30
0.0
 11
18.0
 21
119.77595
 31
0.0
  0
LINE
  5
40
330
1D
100
AcDbEntity
  8
0
100
AcDbLine
 10
18.0
 20
115.02695
 30
0.0
 11
18.134
 21
114.52695
 31
0.0
  0
LINE
  5
41
330
1D
100
AcDbEntity
  8
0
100
AcDbLine
 10
18.0
 20
115.02695
 30
0.0
 11
18.0
 21
115.20695
 31
0.0
  0
LINE
  5
42
330
1D
100
AcDbEntity
  8
0
100
AcDbLine
 10
19.0
 20
142.44795
 30
0.0
 11
110.5
 21
142.44795
 31
0.0
  0
LINE
  5
43
330
1D
100
AcDbEntity
  8
0
100
AcDbLine
 10
19.0
 20
114.02695
 30
0.0
 11
80.6646
 21
114.02695
 31
0.0
  0
LINE
  5
44
330
1D
100
AcDbEntity
  8
0
100
AcDbLine
 10
19.0
 20
142.44795
 30
0.0
 11
110.5
 21
142.44795
 31
0.0
  0
LINE
  5
45
330
1D
100
AcDbEntity
  8
0
100
AcDbLine
 10
20.5
 20
143.49895
 30
0.0
 11
20.5
 21
143.66595
 31
0.0
  0
LINE
  5
46
330
1D
100
AcDbEntity
  8
0
100
AcDbLine
 10
21.0478
 20
142.94795
 30
0.0
 11
21.2498
 21
142.94795
 31
0.0
  0
LINE
  5
47
330
1D
100
AcDbEntity
  8
0
100
AcDbLine
 10
21.0039
 20
142.94795
 30
0.0
 11
21.119
 21
142.94795
 31
0.0
  0
LINE
  5
48
330
1D
100
AcDbEntity
  8
0
100
AcDbLine
 10
20.5
 20
143.44995
 30
0.0
 11
21.0039
 21
142.94795
 31
0.0
  0
LINE
  5
49
330
1D
100
AcDbEntity
  8
0
100
AcDbLine
 10
20.5
 20
143.44995
 30
0.0
 11
20.5
 21
143.54895
 31
0.0
  0
LINE
  5
4A
330
1D
100
AcDbEntity
  8
0
100
AcDbLine
 10
20.5
 20
143.79995
 30
0.0
 11
20.5
 21
144.21395
 31
0.0
  0
LINE
  5
4B
330
1D
100
AcDbEntity
  8
0
100
AcDbLine
 10
20.5
 20
143.79995
 30
0.0
 11
20.5
 21
143.54895
 31
0.0
  0
LINE
  5
4C
330
1D
100
AcDbEntity
  8
0
100
AcDbLine
 10
20.5
 20
143.66595
 30
0.0
 11
20.5
 21
143.49895
 31
0.0
  0
LINE
  5
4D
330
1D
100
AcDbEntity
  8
0
100
AcDbLine
 10
20.5
 20
143.66595
 30
0.0
 11
20.5
 21
143.95595
 31
0.0
  0
LINE
  5
4E
330
1D
100
AcDbEntity
  8
0
100
AcDbLine
 10
20.5
 20
143.54895
 30
0.0
 11
20.5
 21
143.79995
 31
0.0
  0
LINE
  5
4F
330
1D
100
AcDbEntity
  8
0
100
AcDbLine
 10
20.5
 20
143.54895
 30
0.0
 11
20.5
 21
143.44995
 31
0.0
  0
LINE
  5
50
330
1D
100
AcDbEntity
  8
0
100
AcDbLine
 10
21.119
 20
142.94795
 30
0.0
 11
21.392
 21
142.94795
 31
0.0
  0
LINE
  5
51
330
1D
100
AcDbEntity
  8
0
100
AcDbLine
 10
20.5
 20
144.21395
 30
0.0
 11
20.5
 21
144.54595
 31
0.0
  0
LINE
  5
52
330
1D
100
AcDbEntity
  8
0
100
AcDbLine
 10
20.5
 20
144.21395
 30
0.0
 11
20.5
 21
143.79995
 31
0.0
  0
LINE
  5
53
330
1D
100
AcDbEntity
  8
0
100
AcDbLine
 10
20.5
 20
144.54595
 30
0.0
 11
20.5
 21
144.94795
 31
0.0
  0
LINE
  5
54
330
1D
100
AcDbEntity
  8
0
100
AcDbLine
 10
20.5
 20
144.54595
 30
0.0
 11
20.5
 21
144.21395
 31
0.0
  0
LINE
  5
55
330
1D
100
AcDbEntity
  8
0
100
AcDbLine
 10
20.5
 20
158.34995
 30
0.0
 11
20.5
 21
158.68195
 31
0.0
  0
LINE
  5
56
330
1D
100
AcDbEntity
  8
0
100
AcDbLine
 10
20.5
 20
158.34995
 30
0.0
 11
20.5
 21
157.94795
 31
0.0
  0
LINE
  5
57
330
1D
100
AcDbEntity
  8
0
100
AcDbLine
 10
20.5
 20
157.94795
 30
0.0
 11
20.5
 21
158.51795
 31
0.0
  0
LINE
  5
58
330
1D
100
AcDbEntity
  8
0
100
AcDbLine
 10
20.5
 20
157.94795
 30
0.0
 11
21.2106
 21
157.94795
 31
0.0
  0
LINE
  5
59
330
1D
100
AcDbEntity
  8
0
100
AcDbLine
 10
20.5
 20
157.94795
 30
0.0
 11
20.5
 21
144.94795
 31
0.0
  0
LINE
  5
5A
330
1D
100
AcDbEntity
  8
0
100
AcDbLine
 10
20.5
 20
157.94795
 30
0.0
 11
20.5
 21
158.34995
 31
0.0
  0
LINE
  5
5B
330
1D
100
AcDbEntity
  8
0
100
AcDbLine
 10
20.5
 20
158.51795
 30
0.0
 11
20.5
 21
158.93995
 31
0.0
  0
LINE
  5
5C
330
1D
100
AcDbEntity
  8
0
100
AcDbLine
 10
20.5
 20
158.51795
 30
0.0
 11
20.5
 21
157.94795
 31
0.0
  0
LINE
  5
5D
330
1D
100
AcDbEntity
  8
0
100
AcDbLine
 10
20.5
 20
158.93995
 30
0.0
 11
20.5
 21
159.22995
 31
0.0
  0
LINE
  5
5E
330
1D
100
AcDbEntity
  8
0
100
AcDbLine
 10
20.5
 20
158.93995
 30
0.0
 11
20.5
 21
158.51795
 31
0.0
  0
LINE
  5
5F
330
1D
100
AcDbEntity
  8
0
100
AcDbLine
 10
20.5
 20
159.22995
 30
0.0
 11
20.5
 21
159.39695
 31
0.0
  0
LINE
  5
60
330
1D
100
AcDbEntity
  8
0
100
AcDbLine
 10
20.5
 20
159.22995
 30
0.0
 11
20.5
 21
158.93995
 31
0.0
  0
LINE
  5
61
330
1D
100
AcDbEntity
  8
0
100
AcDbLine
 10
20.5
 20
159.39695
 30
0.0
 11
20.5
 21
159.22995
 31
0.0
  0
LINE
  5
62
330
1D
100
AcDbEntity
  8
0
100
AcDbLine
 10
0.01
 20
184.94795
 30
0.0
 11
0.252
 21
184.94795
 31
0.0
  0
LINE
  5
63
330
1D
100
AcDbEntity
  8
0
100
AcDbLine
 10
0.01
 20
184.94795
 30
0.0
 11
0.01
 21
181.19095
 31
0.0
  0
LINE
  5
64
330
1D
100
AcDbEntity
  8
0
100
AcDbLine
 10
0.01
 20
181.19095
 30
0.0
 11
0.112
 21
180.41395
 31
0.0
  0
LINE
  5
65
330
1D
100
AcDbEntity
  8
0
100
AcDbLine
 10
0.01
 20
181.19095
 30
0.0
 11
0.01
 21
184.94795
 31
0.0
  0
LINE
  5
66
330
1D
100
AcDbEntity
  8
0
100
AcDbLine
 10
0.252
 20
184.94795
 30
0.0
 11
0.813
 21
184.94795
 31
0.0
  0
LINE
  5
67
330
1D
100
AcDbEntity
  8
0
100
AcDbLine
 10
0.813
 20
184.94795
 30
0.0
 11
1.688
 21
184.94795
 31
0.0
  0
LINE
  5
68
330
1D
100
AcDbEntity
  8
0
100
AcDbLine
 10
0.412
 20
179.69095
 30
0.0
 11
0.889
 21
179.06895
 31
0.0
  0
LINE
  5
69
330
1D
100
AcDbEntity
  8
0
100
AcDbLine
 10
0.112
 20
180.41395
 30
0.0
 11
0.412
 21
179.69095
 31
0.0
  0
LINE
  5
6A
330
1D
100
AcDbEntity
  8
0
100
AcDbLine
 10
0.889
 20
179.06895
 30
0.0
 11
19.6015
 21
160.38695
 31
0.0
  0
LINE
  5
6B
330
1D
100
AcDbEntity
  8
0
100
AcDbLine
 10
1.688
 20
184.94795
 30
0.0
 11
2.87
 21
184.94795
 31
0.0
  0
LINE
  5
6C
330
1D
100
AcDbEntity
  8
0
100
AcDbLine
 10
2.87
 20
184.94795
 30
0.0
 11
4.346
 21
184.94795
 31
0.0
  0
LINE
  5
6D
330
1D
100
AcDbEntity
  8
0
100
AcDbLine
 10
4.346
 20
184.94795
 30
0.0
 11
6.105
 21
184.94795
 31
0.0
  0
LINE
  5
6E
330
1D
100
AcDbEntity
  8
0
100
AcDbLine
 10
6.105
 20
184.94795
 30
0.0
 11
8.13
 21
184.94795
 31
0.0
  0
LINE
  5
6F
330
1D
100
AcDbEntity
  8
0
100
AcDbLine
 10
8.13
 20
184.94795
 30
0.0
 11
10.403
 21
184.94795
 31
0.0
  0
LINE
  5
70
330
1D
100
AcDbEntity
  8
0
100
AcDbLine
 10
10.403
 20
184.94795
 30
0.0
 11
12.9032
 21
184.94795
 31
0.0
  0
LINE
  5
71
330
1D
100
AcDbEntity
  8
0
100
AcDbLine
 10
12.9032
 20
184.94795
 30
0.0
 11
15.6082
 21
184.94795
 31
0.0
  0
LINE
  5
72
330
1D
100
AcDbEntity
  8
0
100
AcDbLine
 10
15.6082
 20
184.94795
 30
0.0
 11
18.493
 21
184.94795
 31
0.0
  0
LINE
  5
73
330
1D
100
AcDbEntity
  8
0
100
AcDbLine
 10
18.493
 20
184.94795
 30
0.0
 11
21.5318
 21
184.94795
 31
0.0
  0
LINE
  5
74
330
1D
100
AcDbEntity
  8
0
100
AcDbLine
 10
0.889
 20
179.06895
 30
0.0
 11
19.6015
 21
160.38695
 31
0.0
  0
LINE
  5
75
330
1D
100
AcDbEntity
  8
0
100
AcDbLine
 10
19.601
 20
160.38695
 30
0.0
 11
20.0639
 21
160.06195
 31
0.0
  0
LINE
  5
76
330
1D
100
AcDbEntity
  8
0
100
AcDbLine
 10
20.0639
 20
160.06195
 30
0.0
 11
20.6591
 21
159.94795
 31
0.0
  0
LINE
  5
77
330
1D
100
AcDbEntity
  8
0
100
AcDbLine
 10
20.5
 20
159.44595
 30
0.0
 11
20.5
 21
159.34695
 31
0.0
  0
LINE
  5
78
330
1D
100
AcDbEntity
  8
0
100
AcDbLine
 10
20.5
 20
159.44595
 30
0.0
 11
20.776714087152
 21
159.699528809329
 31
0.0
  0
LINE
  5
79
330
1D
100
AcDbEntity
  8
0
100
AcDbLine
 10
20.5
 20
159.34695
 30
0.0
 11
20.5
 21
159.09595
 31
0.0
  0
LINE
  5
7A
330
1D
100
AcDbEntity
  8
0
100
AcDbLine
 10
20.5
 20
159.34695
 30
0.0
 11
20.5
 21
159.44595
 31
0.0
  0
LINE
  5
7B
330
1D
100
AcDbEntity
  8
0
100
AcDbLine
 10
20.5
 20
159.09595
 30
0.0
 11
20.5
 21
158.68195
 31
0.0
  0
LINE
  5
7C
330
1D
100
AcDbEntity
  8
0
100
AcDbLine
 10
20.5
 20
159.09595
 30
0.0
 11
20.5
 21
159.34695
 31
0.0
  0
LINE
  5
7D
330
1D
100
AcDbEntity
  8
0
100
AcDbLine
 10
20.5
 20
158.68195
 30
0.0
 11
20.5
 21
158.34995
 31
0.0
  0
LINE
  5
7E
330
1D
100
AcDbEntity
  8
0
100
AcDbLine
 10
20.5
 20
158.68195
 30
0.0
 11
20.5
 21
159.09595
 31
0.0
  0
LINE
  5
7F
330
1D
100
AcDbEntity
  8
0
100
AcDbLine
 10
20.5
 20
144.94795
 30
0.0
 11
20.5
 21
144.37795
 31
0.0
  0
LINE
  5
80
330
1D
100
AcDbEntity
  8
0
100
AcDbLine
 10
20.5
 20
144.94795
 30
0.0
 11
21.2105
 21
144.94795
 31
0.0
  0
LINE
  5
81
330
1D
100
AcDbEntity
  8
0
100
AcDbLine
 10
20.5
 20
144.94795
 30
0.0
 11
20.5
 21
144.54595
 31
0.0
  0
LINE
  5
82
330
1D
100
AcDbEntity
  8
0
100
AcDbLine
 10
20.5
 20
144.94795
 30
0.0
 11
20.5
 21
157.94795
 31
0.0
  0
LINE
  5
83
330
1D
100
AcDbEntity
  8
0
100
AcDbLine
 10
20.6591
 20
159.94795
 30
0.0
 11
20.9605
 21
159.94795
 31
0.0
  0
LINE
  5
84
330
1D
100
AcDbEntity
  8
0
100
AcDbLine
 10
21.2106
 20
157.94795
 30
0.0
 11
22.0471
 21
157.94795
 31
0.0
  0
LINE
  5
85
330
1D
100
AcDbEntity
  8
0
100
AcDbLine
 10
21.119
 20
159.94795
 30
0.0
 11
21.392
 21
159.94795
 31
0.0
  0
LINE
  5
86
330
1D
100
AcDbEntity
  8
0
100
AcDbLine
 10
21.0039
 20
159.94795
 30
0.0
 11
21.119
 21
159.94795
 31
0.0
  0
LINE
  5
87
330
1D
100
AcDbEntity
  8
0
100
AcDbLine
 10
21.2105
 20
144.94795
 30
0.0
 11
22.0469
 21
144.94795
 31
0.0
  0
LINE
  5
88
330
1D
100
AcDbEntity
  8
0
100
AcDbLine
 10
20.5
 20
144.37795
 30
0.0
 11
20.5
 21
143.95595
 31
0.0
  0
LINE
  5
89
330
1D
100
AcDbEntity
  8
0
100
AcDbLine
 10
20.5
 20
144.37795
 30
0.0
 11
20.5
 21
144.94795
 31
0.0
  0
LINE
  5
8A
330
1D
100
AcDbEntity
  8
0
100
AcDbLine
 10
20.5
 20
143.95595
 30
0.0
 11
20.5
 21
143.66595
 31
0.0
  0
LINE
  5
8B
330
1D
100
AcDbEntity
  8
0
100
AcDbLine
 10
20.5
 20
143.95595
 30
0.0
 11
20.5
 21
144.37795
 31
0.0
  0
LINE
  5
8C
330
1D
100
AcDbEntity
  8
0
100
AcDbLine
 10
21.392
 20
142.94795
 30
0.0
 11
21.8194
 21
142.94795
 31
0.0
  0
LINE
  5
8D
330
1D
100
AcDbEntity
  8
0
100
AcDbLine
 10
21.8194
 20
142.94795
 30
0.0
 11
22.3962
 21
142.94795
 31
0.0
  0
LINE
  5
8E
330
1D
100
AcDbEntity
  8
0
100
AcDbLine
 10
22.3962
 20
142.94795
 30
0.0
 11
23.1173
 21
142.94795
 31
0.0
  0
LINE
  5
8F
330
1D
100
AcDbEntity
  8
0
100
AcDbLine
 10
24.4984
 20
142.94795
 30
0.0
 11
25.5459
 21
142.94795
 31
0.0
  0
LINE
  5
90
330
1D
100
AcDbEntity
  8
0
100
AcDbLine
 10
23.5712
 20
142.94795
 30
0.0
 11
24.4984
 21
142.94795
 31
0.0
  0
LINE
  5
91
330
1D
100
AcDbEntity
  8
0
100
AcDbLine
 10
23.1173
 20
142.94795
 30
0.0
 11
23.9735
 21
142.94795
 31
0.0
  0
LINE
  5
92
330
1D
100
AcDbEntity
  8
0
100
AcDbLine
 10
23.9735
 20
142.94795
 30
0.0
 11
24.9563
 21
142.94795
 31
0.0
  0
LINE
  5
93
330
1D
100
AcDbEntity
  8
0
100
AcDbLine
 10
26.7029
 20
142.94795
 30
0.0
 11
27.9557
 21
142.94795
 31
0.0
  0
LINE
  5
94
330
1D
100
AcDbEntity
  8
0
100
AcDbLine
 10
25.5459
 20
142.94795
 30
0.0
 11
26.7029
 21
142.94795
 31
0.0
  0
LINE
  5
95
330
1D
100
AcDbEntity
  8
0
100
AcDbLine
 10
24.9563
 20
142.94795
 30
0.0
 11
26.0545
 21
142.94795
 31
0.0
  0
LINE
  5
96
330
1D
100
AcDbEntity
  8
0
100
AcDbLine
 10
26.0545
 20
142.94795
 30
0.0
 11
27.2564
 21
142.94795
 31
0.0
  0
LINE
  5
97
330
1D
100
AcDbEntity
  8
0
100
AcDbLine
 10
28.5484
 20
142.94795
 30
0.0
 11
29.9165
 21
142.94795
 31
0.0
  0
LINE
  5
98
330
1D
100
AcDbEntity
  8
0
100
AcDbLine
 10
29.2913
 20
142.94795
 30
0.0
 11
30.695
 21
142.94795
 31
0.0
  0
LINE
  5
99
330
1D
100
AcDbEntity
  8
0
100
AcDbLine
 10
31.346
 20
142.94795
 30
0.0
 11
32.8207
 21
142.94795
 31
0.0
  0
LINE
  5
9A
330
1D
100
AcDbEntity
  8
0
100
AcDbLine
 10
29.9165
 20
142.94795
 30
0.0
 11
31.346
 21
142.94795
 31
0.0
  0
LINE
  5
9B
330
1D
100
AcDbEntity
  8
0
100
AcDbLine
 10
27.9557
 20
142.94795
 30
0.0
 11
29.2913
 21
142.94795
 31
0.0
  0
LINE
  5
9C
330
1D
100
AcDbEntity
  8
0
100
AcDbLine
 10
27.2564
 20
142.94795
 30
0.0
 11
28.5484
 21
142.94795
 31
0.0
  0
LINE
  5
9D
330
1D
100
AcDbEntity
  8
0
100
AcDbLine
 10
30.695
 20
142.94795
 30
0.0
 11
32.1513
 21
142.94795
 31
0.0
  0
LINE
  5
9E
330
1D
100
AcDbEntity
  8
0
100
AcDbLine
 10
32.8207
 20
142.94795
 30
0.0
 11
34.3252
 21
142.94795
 31
0.0
  0
LINE
  5
9F
330
1D
100
AcDbEntity
  8
0
100
AcDbLine
 10
34.3252
 20
142.94795
 30
0.0
 11
35.8422
 21
142.94795
 31
0.0
  0
LINE
  5
A0
330
1D
100
AcDbEntity
  8
0
100
AcDbLine
 10
32.1513
 20
142.94795
 30
0.0
 11
33.6443
 21
142.94795
 31
0.0
  0
LINE
  5
A1
330
1D
100
AcDbEntity
  8
0
100
AcDbLine
 10
33.6443
 20
142.94795
 30
0.0
 11
35.1578
 21
142.94795
 31
0.0
  0
LINE
  5
A2
330
1D
100
AcDbEntity
  8
0
100
AcDbLine
 10
35.8422
 20
142.94795
 30
0.0
 11
37.3557
 21
142.94795
 31
0.0
  0
LINE
  5
A3
330
1D
100
AcDbEntity
  8
0
100
AcDbLine
 10
36.6749
 20
142.94795
 30
0.0
 11
38.1792
 21
142.94795
 31
0.0
  0
LINE
  5
A4
330
1D
100
AcDbEntity
  8
0
100
AcDbLine
 10
37.3557
 20
142.94795
 30
0.0
 11
38.8487
 21
142.94795
 31
0.0
  0
LINE
  5
A5
330
1D
100
AcDbEntity
  8
0
100
AcDbLine
 10
38.8487
 20
142.94795
 30
0.0
 11
40.305
 21
142.94795
 31
0.0
  0
LINE
  5
A6
330
1D
100
AcDbEntity
  8
0
100
AcDbLine
 10
35.1578
 20
142.94795
 30
0.0
 11
36.6749
 21
142.94795
 31
0.0
  0
LINE
  5
A7
330
1D
100
AcDbEntity
  8
0
100
AcDbLine
 10
38.1792
 20
142.94795
 30
0.0
 11
39.6542
 21
142.94795
 31
0.0
  0
LINE
  5
A8
330
1D
100
AcDbEntity
  8
0
100
AcDbLine
 10
41.0835
 20
142.94795
 30
0.0
 11
42.4517
 21
142.94795
 31
0.0
  0
LINE
  5
A9
330
1D
100
AcDbEntity
  8
0
100
AcDbLine
 10
40.305
 20
142.94795
 30
0.0
 11
41.7087
 21
142.94795
 31
0.0
  0
LINE
  5
AA
330
1D
100
AcDbEntity
  8
0
100
AcDbLine
 10
41.7087
 20
142.94795
 30
0.0
 11
43.0443
 21
142.94795
 31
0.0
  0
LINE
  5
AB
330
1D
100
AcDbEntity
  8
0
100
AcDbLine
 10
43.0443
 20
142.94795
 30
0.0
 11
44.2973
 21
142.94795
 31
0.0
  0
LINE
  5
AC
330
1D
100
AcDbEntity
  8
0
100
AcDbLine
 10
42.4517
 20
142.94795
 30
0.0
 11
43.7436
 21
142.94795
 31
0.0
  0
LINE
  5
AD
330
1D
100
AcDbEntity
  8
0
100
AcDbLine
 10
44.2973
 20
142.94795
 30
0.0
 11
45.4541
 21
142.94795
 31
0.0
  0
LINE
  5
AE
330
1D
100
AcDbEntity
  8
0
100
AcDbLine
 10
45.4541
 20
142.94795
 30
0.0
 11
46.5015
 21
142.94795
 31
0.0
  0
LINE
  5
AF
330
1D
100
AcDbEntity
  8
0
100
AcDbLine
 10
43.7436
 20
142.94795
 30
0.0
 11
44.9455
 21
142.94795
 31
0.0
  0
LINE
  5
B0
330
1D
100
AcDbEntity
  8
0
100
AcDbLine
 10
44.9455
 20
142.94795
 30
0.0
 11
46.0437
 21
142.94795
 31
0.0
  0
LINE
  5
B1
330
1D
100
AcDbEntity
  8
0
100
AcDbLine
 10
46.5015
 20
142.94795
 30
0.0
 11
47.4288
 21
142.94795
 31
0.0
  0
LINE
  5
B2
330
1D
100
AcDbEntity
  8
0
100
AcDbLine
 10
47.4288
 20
142.94795
 30
0.0
 11
48.2251
 21
142.94795
 31
0.0
  0
LINE
  5
B3
330
1D
100
AcDbEntity
  8
0
100
AcDbLine
 10
46.0437
 20
142.94795
 30
0.0
 11
47.0262
 21
142.94795
 31
0.0
  0
LINE
  5
B4
330
1D
100
AcDbEntity
  8
0
100
AcDbLine
 10
47.0262
 20
142.94795
 30
0.0
 11
47.8829
 21
142.94795
 31
0.0
  0
LINE
  5
B5
330
1D
100
AcDbEntity
  8
0
100
AcDbLine
 10
48.2251
 20
142.94795
 30
0.0
 11
48.882
 21
142.94795
 31
0.0
  0
LINE
  5
B6
330
1D
100
AcDbEntity
  8
0
100
AcDbLine
 10
47.8829
 20
142.94795
 30
0.0
 11
48.6038
 21
142.94795
 31
0.0
  0
LINE
  5
B7
330
1D
100
AcDbEntity
  8
0
100
AcDbLine
 10
48.882
 20
142.94795
 30
0.0
 11
49.3923
 21
142.94795
 31
0.0
  0
LINE
  5
B8
330
1D
100
AcDbEntity
  8
0
100
AcDbLine
 10
49.3923
 20
142.94795
 30
0.0
 11
49.7502
 21
142.94795
 31
0.0
  0
LINE
  5
B9
330
1D
100
AcDbEntity
  8
0
100
AcDbLine
 10
49.7502
 20
142.94795
 30
0.0
 11
49.9524
 21
142.94795
 31
0.0
  0
LINE
  5
BA
330
1D
100
AcDbEntity
  8
0
100
AcDbLine
 10
49.8809
 20
142.94795
 30
0.0
 11
49.996
 21
142.94795
 31
0.0
  0
LINE
  5
BB
330
1D
100
AcDbEntity
  8
0
100
AcDbLine
 10
88.5003
 20
79.90995
 30
0.0
 11
88.5003
 21
66.39715
 31
0.0
  0
LINE
  5
BC
330
1D
100
AcDbEntity
  8
0
100
AcDbLine
 10
89.4539
 20
45.39935
 30
0.0
 11
100.913
 21
31.86355
 31
0.0
  0
LINE
  5
BD
330
1D
100
AcDbEntity
  8
0
100
AcDbLine
 10
88.7845
 20
46.30435
 30
0.0
 11
89.3623
 21
45.50745
 31
0.0
  0
LINE
  5
BE
330
1D
100
AcDbEntity
  8
0
100
AcDbLine
 10
89.3623
 20
45.50745
 30
0.0
 11
89.4539
 21
45.39935
 31
0.0
  0
LINE
  5
BF
330
1D
100
AcDbEntity
  8
0
100
AcDbLine
 10
88.5257
 20
47.17435
 30
0.0
 11
88.7845
 21
46.30435
 31
0.0
  0
LINE
  5
C0
330
1D
100
AcDbEntity
  8
0
100
AcDbLine
 10
88.5005
 20
79.94235
 30
0.0
 11
88.5675
 21
80.19235
 31
0.0
  0
LINE
  5
C1
330
1D
100
AcDbEntity
  8
0
100
AcDbLine
 10
88.502
 20
62.19455
 30
0.0
 11
88.5026
 21
63.49385
 31
0.0
  0
LINE
  5
C2
330
1D
100
AcDbEntity
  8
0
100
AcDbLine
 10
88.502
 20
62.19455
 30
0.0
 11
88.5022
 21
60.63575
 31
0.0
  0
LINE
  5
C3
330
1D
100
AcDbEntity
  8
0
100
AcDbLine
 10
88.5022
 20
60.63575
 30
0.0
 11
88.503925101681
 21
60.496093435006
 31
0.0
  0
LINE
  5
C4
330
1D
100
AcDbEntity
  8
0
100
AcDbLine
 10
88.5675
 20
80.19235
 30
0.0
 11
88.7506
 21
80.37535
 31
0.0
  0
LINE
  5
C6
330
1D
100
AcDbEntity
  8
0
100
AcDbLine
 10
88.7506
 20
80.37535
 30
0.0
 11
89.0005
 21
80.44235
 31
0.0
  0
LINE
  5
CA
330
1D
100
AcDbEntity
  8
0
100
AcDbLine
 10
89.0005
 20
80.44235
 30
0.0
 11
89.2564
 21
80.44255
 31
0.0
  0
LINE
  5
CB
330
1D
100
AcDbEntity
  8
0
100
AcDbLine
 10
89.2564
 20
80.44255
 30
0.0
 11
89.991
 21
80.44275
 31
0.0
  0
LINE
  5
CC
330
1D
100
AcDbEntity
  8
0
100
AcDbLine
 10
88.8961
 20
79.07545
 30
0.0
 11
89.5789
 21
77.98425
 31
0.0
  0
LINE
  5
CD
330
1D
100
AcDbEntity
  8
0
100
AcDbLine
 10
89.5789
 20
77.98425
 30
0.0
 11
90.6887
 21
76.93375
 31
0.0
  0
LINE
  5
CE
330
1D
100
AcDbEntity
  8
0
100
AcDbLine
 10
88.5036
 20
61.95835
 30
0.0
 11
88.5068
 21
47.56525
 31
0.0
  0
LINE
  5
CF
330
1D
100
AcDbEntity
  8
0
100
AcDbLine
 10
88.5068
 20
47.56525
 30
0.0
 11
88.5257
 21
47.17435
 31
0.0
  0
LINE
  5
D0
330
1D
100
AcDbEntity
  8
0
100
AcDbLine
 10
88.5003
 20
66.39715
 30
0.0
 11
88.5005
 21
79.94235
 31
0.0
  0
LINE
  5
D1
330
1D
100
AcDbEntity
  8
0
100
AcDbLine
 10
88.5003
 20
66.39715
 30
0.0
 11
88.5026
 21
63.49385
 31
0.0
  0
LINE
  5
D2
330
1D
100
AcDbEntity
  8
0
100
AcDbLine
 10
89.4927
 20
82.94795
 30
0.0
 11
89.7062
 21
82.94795
 31
0.0
  0
LINE
  5
D3
330
1D
100
AcDbEntity
  8
0
100
AcDbLine
 10
90.149585574081
 20
82.94795
 30
0.0
 11
90.1844
 21
82.15465
 31
0.0
  0
LINE
  5
D4
330
1D
100
AcDbEntity
  8
0
100
AcDbLine
 10
90.1844
 20
82.15465
 30
0.0
 11
90.4211
 21
80.37525
 31
0.0
  0
LINE
  5
D5
330
1D
100
AcDbEntity
  8
0
100
AcDbLine
 10
90.4211
 20
80.37525
 30
0.0
 11
90.450641417553
 21
80.242996855944
 31
0.0
  0
LINE
  5
D6
330
1D
100
AcDbEntity
  8
0
100
AcDbLine
 10
89.991
 20
80.44275
 30
0.0
 11
90.412111646223
 21
80.442820243811
 31
0.0
  0
LINE
  5
D7
330
1D
100
AcDbEntity
  8
0
100
AcDbLine
 10
90.6887
 20
76.93375
 30
0.0
 11
92.2128
 21
75.94415
 31
0.0
  0
LINE
  5
D8
330
1D
100
AcDbEntity
  8
0
100
AcDbLine
 10
89.9557
 20
82.94795
 30
0.0
 11
90.149585574081
 21
82.94795
 31
0.0
  0
LINE
  5
D9
330
1D
100
AcDbEntity
  8
0
100
AcDbLine
 10
89.9557
 20
82.94795
 30
0.0
 11
90.3518
 21
82.94795
 31
0.0
  0
LINE
  5
DA
330
1D
100
AcDbEntity
  8
0
100
AcDbLine
 10
89.7062
 20
82.94795
 30
0.0
 11
90.149585574081
 21
82.94795
 31
0.0
  0
LINE
  5
DB
330
1D
100
AcDbEntity
  8
0
100
AcDbLine
 10
92.2128
 20
75.94415
 30
0.0
 11
94.0648
 21
75.06315
 31
0.0
  0
LINE
  5
DC
330
1D
100
AcDbEntity
  8
0
100
AcDbLine
 10
94.0648
 20
75.06315
 30
0.0
 11
96.2633
 21
74.27705
 31
0.0
  0
LINE
  5
DD
330
1D
100
AcDbEntity
  8
0
100
AcDbLine
 10
96.2633
 20
74.27705
 30
0.0
 11
98.775
 21
73.60415
 31
0.0
  0
LINE
  5
DE
330
1D
100
AcDbEntity
  8
0
100
AcDbLine
 10
98.775
 20
73.60415
 30
0.0
 11
101.558
 21
73.06285
 31
0.0
  0
LINE
  5
E0
330
1D
100
AcDbEntity
  8
0
100
AcDbLine
 10
101.858
 20
30.69605
 30
0.0
 11
102.16
 21
30.25775
 31
0.0
  0
LINE
  5
E1
330
1D
100
AcDbEntity
  8
0
100
AcDbLine
 10
100.952
 20
31.81795
 30
0.0
 11
101.858
 21
30.69605
 31
0.0
  0
LINE
  5
E2
330
1D
100
AcDbEntity
  8
0
100
AcDbLine
 10
102.16
 20
30.25775
 30
0.0
 11
102.853
 21
28.96735
 31
0.0
  0
LINE
  5
E3
330
1D
100
AcDbEntity
  8
0
100
AcDbLine
 10
102.853
 20
28.96735
 30
0.0
 11
103.399
 21
27.59325
 31
0.0
  0
LINE
  5
E4
330
1D
100
AcDbEntity
  8
0
100
AcDbLine
 10
100.913
 20
31.86355
 30
0.0
 11
100.952
 21
31.81795
 31
0.0
  0
LINE
  5
E5
330
1D
100
AcDbEntity
  8
0
100
AcDbLine
 10
106.783
 20
12.33925
 30
0.0
 11
107.848
 21
2.23985
 31
0.0
  0
LINE
  5
E6
330
1D
100
AcDbEntity
  8
0
100
AcDbLine
 10
106.783
 20
12.33925
 30
0.0
 11
107.848
 21
2.23985
 31
0.0
  0
LINE
  5
E7
330
1D
100
AcDbEntity
  8
0
100
AcDbLine
 10
106.362
 20
15.94175
 30
0.0
 11
106.783
 21
12.33925
 31
0.0
  0
LINE
  5
E8
330
1D
100
AcDbEntity
  8
0
100
AcDbLine
 10
104.281
 20
24.91455
 30
0.0
 11
105.405807748119
 21
20.912765234129
 31
0.0
  0
LINE
  5
E9
330
1D
100
AcDbEntity
  8
0
100
AcDbLine
 10
105.40580774812
 20
20.912765234124
 30
0.0
 11
105.828
 21
19.07835
 31
0.0
  0
LINE
  5
EA
330
1D
100
AcDbEntity
  8
0
100
AcDbLine
 10
105.828
 20
19.07835
 30
0.0
 11
106.362
 21
15.94175
 31
0.0
  0
LINE
  5
EB
330
1D
100
AcDbEntity
  8
0
100
AcDbLine
 10
103.399
 20
27.59325
 30
0.0
 11
104.281
 21
24.91455
 31
0.0
  0
LINE
  5
EC
330
1D
100
AcDbEntity
  8
0
100
AcDbLine
 10
101.558
 20
73.06285
 30
0.0
 11
104.415
 21
72.68385
 31
0.0
  0
LINE
  5
ED
330
1D
100
AcDbEntity
  8
0
100
AcDbLine
 10
104.415
 20
72.68385
 30
0.0
 11
107.417
 21
72.45055
 31
0.0
  0
LINE
  5
EF
330
1D
100
AcDbEntity
  8
0
100
AcDbLine
 10
107.868
 20
2.05805
 30
0.0
 11
108.003
 21
1.53455
 31
0.0
  0
LINE
  5
F0
330
1D
100
AcDbEntity
  8
0
100
AcDbLine
 10
108.077
 20
1.24775
 30
0.0
 11
108.349
 21
0.89845
 31
0.0
  0
LINE
  5
F1
330
1D
100
AcDbEntity
  8
0
100
AcDbLine
 10
108.524
 20
0.70205
 30
0.0
 11
108.94
 21
0.41215
 31
0.0
  0
LINE
  5
F2
330
1D
100
AcDbEntity
  8
0
100
AcDbLine
 10
108.349
 20
0.89845
 30
0.0
 11
108.524
 21
0.70205
 31
0.0
  0
LINE
  5
F3
330
1D
100
AcDbEntity
  8
0
100
AcDbLine
 10
108.94
 20
0.41215
 30
0.0
 11
109.513
 21
0.19145
 31
0.0
  0
LINE
  5
F4
330
1D
100
AcDbEntity
  8
0
100
AcDbLine
 10
109.513
 20
0.19145
 30
0.0
 11
109.644
 21
0.16865
 31
0.0
  0
LINE
  5
F5
330
1D
100
AcDbEntity
  8
0
100
AcDbLine
 10
109.644
 20
0.16865
 30
0.0
 11
110.501
 21
0.05205
 31
0.0
  0
LINE
  5
F6
330
1D
100
AcDbEntity
  8
0
100
AcDbLine
 10
108.003
 20
1.53455
 30
0.0
 11
108.077
 21
1.24775
 31
0.0
  0
LINE
  5
F7
330
1D
100
AcDbEntity
  8
0
100
AcDbLine
 10
107.848
 20
2.23985
 30
0.0
 11
107.868
 21
2.05805
 31
0.0
  0
LINE
  5
F9
330
1D
100
AcDbEntity
  8
0
100
AcDbLine
 10
107.417
 20
72.45055
 30
0.0
 11
110.5
 21
72.37155
 31
0.0
  0
LINE
  5
FB
330
1D
100
AcDbEntity
  8
0
100
AcDbLine
 10
103.929
 20
82.94795
 30
0.0
 11
107.41
 21
82.94795
 31
0.0
  0
LINE
  5
FC
330
1D
100
AcDbEntity
  8
0
100
AcDbLine
 10
100.648
 20
82.94795
 30
0.0
 11
103.929
 21
82.94795
 31
0.0
  0
LINE
  5
FD
330
1D
100
AcDbEntity
  8
0
100
AcDbLine
 10
97.6658
 20
82.94795
 30
0.0
 11
100.648
 21
82.94795
 31
0.0
  0
LINE
  5
FE
330
1D
100
AcDbEntity
  8
0
100
AcDbLine
 10
95.0742
 20
82.94795
 30
0.0
 11
97.6658
 21
82.94795
 31
0.0
  0
LINE
  5
FF
330
1D
100
AcDbEntity
  8
0
100
AcDbLine
 10
92.9506
 20
82.94795
 30
0.0
 11
95.0742
 21
82.94795
 31
0.0
  0
LINE
  5
100
330
1D
100
AcDbEntity
  8
0
100
AcDbLine
 10
91.3606
 20
82.94795
 30
0.0
 11
92.9506
 21
82.94795
 31
0.0
  0
LINE
  5
101
330
1D
100
AcDbEntity
  8
0
100
AcDbLine
 10
90.3518
 20
82.94795
 30
0.0
 11
91.3606
 21
82.94795
 31
0.0
  0
LINE
  5
12F
330
1D
100
AcDbEntity
  8
0
100
AcDbLine
 10
89.0659
 20
83.19995
 30
0.0
 11
89.2457
 21
83.01735
 31
0.0
  0
LINE
  5
130
330
1D
100
AcDbEntity
  8
0
100
AcDbLine
 10
89.2457
 20
83.01735
 30
0.0
 11
89.4927
 21
82.94795
 31
0.0
  0
LINE
  5
134
330
1D
100
AcDbEntity
  8
0
100
AcDbLine
 10
89.0
 20
105.70695
 30
0.0
 11
89.0
 21
83.44785
 31
0.0
  0
LINE
  5
135
330
1D
100
AcDbEntity
  8
0
100
AcDbLine
 10
89.0
 20
83.44785
 30
0.0
 11
89.0
 21
105.70695
 31
0.0
  0
LINE
  5
136
330
1D
100
AcDbEntity
  8
0
100
AcDbLine
 10
89.0
 20
83.44785
 30
0.0
 11
89.0659
 21
83.19995
 31
0.0
  0
LINE
  5
155
330
1D
100
AcDbEntity
  8
0
100
AcDbLine
 10
87.2343
 20
112.19695
 30
0.0
 11
87.8968
 21
111.35495
 31
0.0
  0
LINE
  5
156
330
1D
100
AcDbEntity
  8
0
100
AcDbLine
 10
87.8968
 20
111.35495
 30
0.0
 11
88.3928
 21
110.37195
 31
0.0
  0
LINE
  5
157
330
1D
100
AcDbEntity
  8
0
100
AcDbLine
 10
88.9392
 20
107.84395
 30
0.0
 11
89.0
 21
105.70695
 31
0.0
  0
LINE
  5
158
330
1D
100
AcDbEntity
  8
0
100
AcDbLine
 10
88.8038
 20
108.89595
 30
0.0
 11
88.9392
 21
107.84395
 31
0.0
  0
LINE
  5
159
330
1D
100
AcDbEntity
  8
0
100
AcDbLine
 10
88.3928
 20
110.37195
 30
0.0
 11
88.8038
 21
108.89595
 31
0.0
  0
LINE
  5
15A
330
1D
100
AcDbEntity
  8
0
100
AcDbLine
 10
80.6646
 20
114.02695
 30
0.0
 11
82.9086
 21
113.96295
 31
0.0
  0
LINE
  5
15B
330
1D
100
AcDbEntity
  8
0
100
AcDbLine
 10
82.9086
 20
113.96295
 30
0.0
 11
83.9755
 21
113.82195
 31
0.0
  0
LINE
  5
15C
330
1D
100
AcDbEntity
  8
0
100
AcDbLine
 10
83.9755
 20
113.82195
 30
0.0
 11
85.4465
 21
113.39395
 31
0.0
  0
LINE
  5
15E
330
1D
100
AcDbEntity
  8
0
100
AcDbLine
 10
85.4465
 20
113.39395
 30
0.0
 11
86.4121
 21
112.87995
 31
0.0
  0
LINE
  5
15F
330
1D
100
AcDbEntity
  8
0
100
AcDbLine
 10
86.4121
 20
112.87995
 30
0.0
 11
87.2343
 21
112.19695
 31
0.0
  0
LINE
  5
1C5
330
1D
100
AcDbEntity
  8
0
100
AcDbLine
 10
49.996
 20
142.94795
 30
0.0
 11
50.5
 21
143.44995
 31
0.0
  0
LINE
  5
1C6
330
1D
100
AcDbEntity
  8
0
100
AcDbLine
 10
49.608
 20
142.94795
 30
0.0
 11
49.8809
 21
142.94795
 31
0.0
  0
LINE
  5
1C7
330
1D
100
AcDbEntity
  8
0
100
AcDbLine
 10
49.1806
 20
142.94795
 30
0.0
 11
49.608
 21
142.94795
 31
0.0
  0
LINE
  5
1C8
330
1D
100
AcDbEntity
  8
0
100
AcDbLine
 10
48.6038
 20
142.94795
 30
0.0
 11
49.1806
 21
142.94795
 31
0.0
  0
LINE
  5
1C9
330
1D
100
AcDbEntity
  8
0
100
AcDbLine
 10
39.6542
 20
142.94795
 30
0.0
 11
41.0835
 21
142.94795
 31
0.0
  0
LINE
  5
1CA
330
1D
100
AcDbEntity
  8
0
100
AcDbLine
 10
22.7749
 20
142.94795
 30
0.0
 11
23.5712
 21
142.94795
 31
0.0
  0
LINE
  5
1CB
330
1D
100
AcDbEntity
  8
0
100
AcDbLine
 10
22.118
 20
142.94795
 30
0.0
 11
22.7749
 21
142.94795
 31
0.0
  0
LINE
  5
1CC
330
1D
100
AcDbEntity
  8
0
100
AcDbLine
 10
28.3066
 20
143.45195
 30
0.0
 11
29.5471
 21
143.55395
 31
0.0
  0
LINE
  5
1CD
330
1D
100
AcDbEntity
  8
0
100
AcDbLine
 10
24.7055
 20
143.92295
 30
0.0
 11
25.9323
 21
143.63695
 31
0.0
  0
LINE
  5
1CE
330
1D
100
AcDbEntity
  8
0
100
AcDbLine
 10
30.814
 20
143.79595
 30
0.0
 11
32.131
 21
144.18795
 31
0.0
  0
LINE
  5
1CF
330
1D
100
AcDbEntity
  8
0
100
AcDbLine
 10
29.5471
 20
143.55395
 30
0.0
 11
30.814
 21
143.79595
 31
0.0
  0
LINE
  5
1D0
330
1D
100
AcDbEntity
  8
0
100
AcDbLine
 10
25.9323
 20
143.63695
 30
0.0
 11
27.1264
 21
143.48195
 31
0.0
  0
LINE
  5
1D1
330
1D
100
AcDbEntity
  8
0
100
AcDbLine
 10
27.1264
 20
143.48195
 30
0.0
 11
28.3066
 21
143.45195
 31
0.0
  0
LINE
  5
1D2
330
1D
100
AcDbEntity
  8
0
100
AcDbLine
 10
32.131
 20
144.18795
 30
0.0
 11
33.5237
 21
144.74795
 31
0.0
  0
LINE
  5
1D3
330
1D
100
AcDbEntity
  8
0
100
AcDbLine
 10
38.7955
 20
144.21395
 30
0.0
 11
40.1707
 21
143.79995
 31
0.0
  0
LINE
  5
1D4
330
1D
100
AcDbEntity
  8
0
100
AcDbLine
 10
22.0471
 20
157.94795
 30
0.0
 11
23.4247
 21
158.54495
 31
0.0
  0
LINE
  5
1D5
330
1D
100
AcDbEntity
  8
0
100
AcDbLine
 10
23.4247
 20
158.54495
 30
0.0
 11
24.7055
 21
158.97295
 31
0.0
  0
LINE
  5
1D6
330
1D
100
AcDbEntity
  8
0
100
AcDbLine
 10
23.1173
 20
159.94795
 30
0.0
 11
23.9735
 21
159.94795
 31
0.0
  0
LINE
  5
1D7
330
1D
100
AcDbEntity
  8
0
100
AcDbLine
 10
22.3962
 20
159.94795
 30
0.0
 11
23.1173
 21
159.94795
 31
0.0
  0
LINE
  5
1D8
330
1D
100
AcDbEntity
  8
0
100
AcDbLine
 10
21.5318
 20
184.94795
 30
0.0
 11
24.6979
 21
184.94795
 31
0.0
  0
LINE
  5
1D9
330
1D
100
AcDbEntity
  8
0
100
AcDbLine
 10
21.8194
 20
159.94795
 30
0.0
 11
22.3962
 21
159.94795
 31
0.0
  0
LINE
  5
1DA
330
1D
100
AcDbEntity
  8
0
100
AcDbLine
 10
21.392
 20
159.94795
 30
0.0
 11
21.8194
 21
159.94795
 31
0.0
  0
LINE
  5
1DB
330
1D
100
AcDbEntity
  8
0
100
AcDbLine
 10
22.0469
 20
144.94795
 30
0.0
 11
23.4247
 21
144.35095
 31
0.0
  0
LINE
  5
1DC
330
1D
100
AcDbEntity
  8
0
100
AcDbLine
 10
30.814
 20
159.09995
 30
0.0
 11
32.1308
 21
158.70795
 31
0.0
  0
LINE
  5
1DD
330
1D
100
AcDbEntity
  8
0
100
AcDbLine
 10
32.1308
 20
158.70795
 30
0.0
 11
33.5238
 21
158.14795
 31
0.0
  0
LINE
  5
1DE
330
1D
100
AcDbEntity
  8
0
100
AcDbLine
 10
25.9323
 20
159.25895
 30
0.0
 11
27.1264
 21
159.41395
 31
0.0
  0
LINE
  5
1DF
330
1D
100
AcDbEntity
  8
0
100
AcDbLine
 10
24.7055
 20
158.97295
 30
0.0
 11
25.9323
 21
159.25895
 31
0.0
  0
LINE
  5
1E0
330
1D
100
AcDbEntity
  8
0
100
AcDbLine
 10
29.5471
 20
159.34195
 30
0.0
 11
30.814
 21
159.09995
 31
0.0
  0
LINE
  5
1E1
330
1D
100
AcDbEntity
  8
0
100
AcDbLine
 10
28.5484
 20
159.94795
 30
0.0
 11
29.9165
 21
159.94795
 31
0.0
  0
LINE
  5
1E2
330
1D
100
AcDbEntity
  8
0
100
AcDbLine
 10
28.3065
 20
159.44395
 30
0.0
 11
29.5471
 21
159.34195
 31
0.0
  0
LINE
  5
1E3
330
1D
100
AcDbEntity
  8
0
100
AcDbLine
 10
29.9165
 20
159.94795
 30
0.0
 11
31.3457
 21
159.94795
 31
0.0
  0
LINE
  5
1E4
330
1D
100
AcDbEntity
  8
0
100
AcDbLine
 10
31.3457
 20
159.94795
 30
0.0
 11
32.8207
 21
159.94795
 31
0.0
  0
LINE
  5
1E5
330
1D
100
AcDbEntity
  8
0
100
AcDbLine
 10
32.8207
 20
159.94795
 30
0.0
 11
34.3251
 21
159.94795
 31
0.0
  0
LINE
  5
1E6
330
1D
100
AcDbEntity
  8
0
100
AcDbLine
 10
27.2563
 20
159.94795
 30
0.0
 11
28.5484
 21
159.94795
 31
0.0
  0
LINE
  5
1E7
330
1D
100
AcDbEntity
  8
0
100
AcDbLine
 10
27.1264
 20
159.41395
 30
0.0
 11
28.3065
 21
159.44395
 31
0.0
  0
LINE
  5
1E8
330
1D
100
AcDbEntity
  8
0
100
AcDbLine
 10
26.0545
 20
159.94795
 30
0.0
 11
27.2563
 21
159.94795
 31
0.0
  0
LINE
  5
1E9
330
1D
100
AcDbEntity
  8
0
100
AcDbLine
 10
24.6979
 20
184.94795
 30
0.0
 11
27.9612
 21
184.94795
 31
0.0
  0
LINE
  5
1EA
330
1D
100
AcDbEntity
  8
0
100
AcDbLine
 10
27.9612
 20
184.94795
 30
0.0
 11
31.2928
 21
184.94795
 31
0.0
  0
LINE
  5
1EB
330
1D
100
AcDbEntity
  8
0
100
AcDbLine
 10
31.2928
 20
184.94795
 30
0.0
 11
34.6622
 21
184.94795
 31
0.0
  0
LINE
  5
1EC
330
1D
100
AcDbEntity
  8
0
100
AcDbLine
 10
24.9563
 20
159.94795
 30
0.0
 11
26.0545
 21
159.94795
 31
0.0
  0
LINE
  5
1ED
330
1D
100
AcDbEntity
  8
0
100
AcDbLine
 10
23.9735
 20
159.94795
 30
0.0
 11
24.9563
 21
159.94795
 31
0.0
  0
LINE
  5
1EE
330
1D
100
AcDbEntity
  8
0
100
AcDbLine
 10
37.0471
 20
144.94795
 30
0.0
 11
37.9396
 21
144.54595
 31
0.0
  0
LINE
  5
1EF
330
1D
100
AcDbEntity
  8
0
100
AcDbLine
 10
37.9396
 20
144.54595
 30
0.0
 11
38.7955
 21
144.21395
 31
0.0
  0
LINE
  5
1F0
330
1D
100
AcDbEntity
  8
0
100
AcDbLine
 10
33.9529
 20
144.94795
 30
0.0
 11
35.5
 21
144.94795
 31
0.0
  0
LINE
  5
1F1
330
1D
100
AcDbEntity
  8
0
100
AcDbLine
 10
37.0471
 20
157.94795
 30
0.0
 11
37.9396
 21
158.34995
 31
0.0
  0
LINE
  5
1F2
330
1D
100
AcDbEntity
  8
0
100
AcDbLine
 10
35.4999
 20
157.94795
 30
0.0
 11
37.0471
 21
157.94795
 31
0.0
  0
LINE
  5
1F3
330
1D
100
AcDbEntity
  8
0
100
AcDbLine
 10
35.8422
 20
159.94795
 30
0.0
 11
37.3557
 21
159.94795
 31
0.0
  0
LINE
  5
1F4
330
1D
100
AcDbEntity
  8
0
100
AcDbLine
 10
34.3251
 20
159.94795
 30
0.0
 11
35.8422
 21
159.94795
 31
0.0
  0
LINE
  5
1F5
330
1D
100
AcDbEntity
  8
0
100
AcDbLine
 10
33.9529
 20
157.94795
 30
0.0
 11
35.4999
 21
157.94795
 31
0.0
  0
LINE
  5
1F6
330
1D
100
AcDbEntity
  8
0
100
AcDbLine
 10
33.5238
 20
158.14795
 30
0.0
 11
33.9529
 21
157.94795
 31
0.0
  0
LINE
  5
1F7
330
1D
100
AcDbEntity
  8
0
100
AcDbLine
 10
34.6622
 20
184.94795
 30
0.0
 11
38.0393
 21
184.94795
 31
0.0
  0
LINE
  5
1F8
330
1D
100
AcDbEntity
  8
0
100
AcDbLine
 10
37.3557
 20
159.94795
 30
0.0
 11
38.8484
 21
159.94795
 31
0.0
  0
LINE
  5
1F9
330
1D
100
AcDbEntity
  8
0
100
AcDbLine
 10
38.0393
 20
184.94795
 30
0.0
 11
41.3936
 21
184.94795
 31
0.0
  0
LINE
  5
1FA
330
1D
100
AcDbEntity
  8
0
100
AcDbLine
 10
38.8484
 20
159.94795
 30
0.0
 11
40.305
 21
159.94795
 31
0.0
  0
LINE
  5
1FB
330
1D
100
AcDbEntity
  8
0
100
AcDbLine
 10
38.7955
 20
158.68195
 30
0.0
 11
40.1709
 21
159.09595
 31
0.0
  0
LINE
  5
1FC
330
1D
100
AcDbEntity
  8
0
100
AcDbLine
 10
37.9396
 20
158.34995
 30
0.0
 11
38.7955
 21
158.68195
 31
0.0
  0
LINE
  5
1FD
330
1D
100
AcDbEntity
  8
0
100
AcDbLine
 10
35.5
 20
144.94795
 30
0.0
 11
37.0471
 21
144.94795
 31
0.0
  0
LINE
  5
1FE
330
1D
100
AcDbEntity
  8
0
100
AcDbLine
 10
33.5237
 20
144.74795
 30
0.0
 11
33.9529
 21
144.94795
 31
0.0
  0
LINE
  5
1FF
330
1D
100
AcDbEntity
  8
0
100
AcDbLine
 10
23.4247
 20
144.35095
 30
0.0
 11
24.7055
 21
143.92295
 31
0.0
  0
LINE
  5
200
330
1D
100
AcDbEntity
  8
0
100
AcDbLine
 10
42.7833
 20
143.44995
 30
0.0
 11
44.0718
 21
143.49895
 31
0.0
  0
LINE
  5
201
330
1D
100
AcDbEntity
  8
0
100
AcDbLine
 10
40.1707
 20
143.79995
 30
0.0
 11
41.4913
 21
143.54895
 31
0.0
  0
LINE
  5
202
330
1D
100
AcDbEntity
  8
0
100
AcDbLine
 10
41.4913
 20
143.54895
 30
0.0
 11
42.7833
 21
143.44995
 31
0.0
  0
LINE
  5
203
330
1D
100
AcDbEntity
  8
0
100
AcDbLine
 10
44.0718
 20
143.49895
 30
0.0
 11
45.2234
 21
143.66595
 31
0.0
  0
LINE
  5
204
330
1D
100
AcDbEntity
  8
0
100
AcDbLine
 10
50.5
 20
143.44995
 30
0.0
 11
50.5
 21
143.54895
 31
0.0
  0
LINE
  5
205
330
1D
100
AcDbEntity
  8
0
100
AcDbLine
 10
45.2234
 20
143.66595
 30
0.0
 11
46.4077
 21
143.95595
 31
0.0
  0
LINE
  5
206
330
1D
100
AcDbEntity
  8
0
100
AcDbLine
 10
46.4077
 20
143.95595
 30
0.0
 11
47.6436
 21
144.37795
 31
0.0
  0
LINE
  5
207
330
1D
100
AcDbEntity
  8
0
100
AcDbLine
 10
47.6436
 20
144.37795
 30
0.0
 11
48.9529
 21
144.94795
 31
0.0
  0
LINE
  5
208
330
1D
100
AcDbEntity
  8
0
100
AcDbLine
 10
50.5
 20
144.94795
 30
0.0
 11
50.5
 21
144.54595
 31
0.0
  0
LINE
  5
209
330
1D
100
AcDbEntity
  8
0
100
AcDbLine
 10
48.9529
 20
144.94795
 30
0.0
 11
49.7895
 21
144.94795
 31
0.0
  0
LINE
  5
20A
330
1D
100
AcDbEntity
  8
0
100
AcDbLine
 10
50.5
 20
144.54595
 30
0.0
 11
50.5
 21
144.21395
 31
0.0
  0
LINE
  5
20B
330
1D
100
AcDbEntity
  8
0
100
AcDbLine
 10
50.5
 20
144.54595
 30
0.0
 11
50.5
 21
144.94795
 31
0.0
  0
LINE
  5
20C
330
1D
100
AcDbEntity
  8
0
100
AcDbLine
 10
50.5
 20
144.21395
 30
0.0
 11
50.5
 21
143.79995
 31
0.0
  0
LINE
  5
20D
330
1D
100
AcDbEntity
  8
0
100
AcDbLine
 10
50.5
 20
144.21395
 30
0.0
 11
50.5
 21
144.54595
 31
0.0
  0
LINE
  5
20E
330
1D
100
AcDbEntity
  8
0
100
AcDbLine
 10
50.5
 20
143.79995
 30
0.0
 11
50.5
 21
143.54895
 31
0.0
  0
LINE
  5
20F
330
1D
100
AcDbEntity
  8
0
100
AcDbLine
 10
50.5
 20
143.79995
 30
0.0
 11
50.5
 21
144.21395
 31
0.0
  0
LINE
  5
249
330
1D
100
AcDbEntity
  8
0
100
AcDbLine
 10
50.5
 20
143.54895
 30
0.0
 11
50.5
 21
143.44995
 31
0.0
  0
LINE
  5
24A
330
1D
100
AcDbEntity
  8
0
100
AcDbLine
 10
50.5
 20
143.54895
 30
0.0
 11
50.5
 21
143.79995
 31
0.0
  0
LINE
  5
258
330
1D
100
AcDbEntity
  8
0
100
AcDbLine
 10
50.5
 20
157.94795
 30
0.0
 11
50.5
 21
158.51795
 31
0.0
  0
LINE
  5
259
330
1D
100
AcDbEntity
  8
0
100
AcDbLine
 10
49.7894
 20
157.94795
 30
0.0
 11
50.5
 21
157.94795
 31
0.0
  0
LINE
  5
263
330
1D
100
AcDbEntity
  8
0
100
AcDbLine
 10
48.953
 20
157.94795
 30
0.0
 11
49.7894
 21
157.94795
 31
0.0
  0
LINE
  5
264
330
1D
100
AcDbEntity
  8
0
100
AcDbLine
 10
47.6438
 20
158.51795
 30
0.0
 11
48.953
 21
157.94795
 31
0.0
  0
LINE
  5
273
330
1D
100
AcDbEntity
  8
0
100
AcDbLine
 10
50.5
 20
158.93995
 30
0.0
 11
50.5
 21
158.51795
 31
0.0
  0
LINE
  5
274
330
1D
100
AcDbEntity
  8
0
100
AcDbLine
 10
50.5
 20
158.93995
 30
0.0
 11
50.5
 21
159.22995
 31
0.0
  0
LINE
  5
275
330
1D
100
AcDbEntity
  8
0
100
AcDbLine
 10
46.4077
 20
158.93995
 30
0.0
 11
47.6438
 21
158.51795
 31
0.0
  0
LINE
  5
276
330
1D
100
AcDbEntity
  8
0
100
AcDbLine
 10
50.5
 20
158.51795
 30
0.0
 11
50.5
 21
157.94795
 31
0.0
  0
LINE
  5
277
330
1D
100
AcDbEntity
  8
0
100
AcDbLine
 10
50.5
 20
158.51795
 30
0.0
 11
50.5
 21
158.93995
 31
0.0
  0
LINE
  5
278
330
1D
100
AcDbEntity
  8
0
100
AcDbLine
 10
40.1709
 20
159.09595
 30
0.0
 11
41.4912
 21
159.34695
 31
0.0
  0
LINE
  5
284
330
1D
100
AcDbEntity
  8
0
100
AcDbLine
 10
50.5
 20
159.22995
 30
0.0
 11
50.5
 21
158.93995
 31
0.0
  0
LINE
  5
285
330
1D
100
AcDbEntity
  8
0
100
AcDbLine
 10
50.5
 20
159.22995
 30
0.0
 11
50.5
 21
159.39695
 31
0.0
  0
LINE
  5
286
330
1D
100
AcDbEntity
  8
0
100
AcDbLine
 10
45.2234
 20
159.22995
 30
0.0
 11
46.4077
 21
158.93995
 31
0.0
  0
LINE
  5
287
330
1D
100
AcDbEntity
  8
0
100
AcDbLine
 10
41.3936
 20
184.94795
 30
0.0
 11
44.6948
 21
184.94795
 31
0.0
  0
LINE
  5
290
330
1D
100
AcDbEntity
  8
0
100
AcDbLine
 10
50.5
 20
159.39695
 30
0.0
 11
50.5
 21
159.22995
 31
0.0
  0
LINE
  5
291
330
1D
100
AcDbEntity
  8
0
100
AcDbLine
 10
44.0718
 20
159.39695
 30
0.0
 11
45.2234
 21
159.22995
 31
0.0
  0
LINE
  5
292
330
1D
100
AcDbEntity
  8
0
100
AcDbLine
 10
49.7502
 20
159.94795
 30
0.0
 11
49.9522
 21
159.94795
 31
0.0
  0
LINE
  5
293
330
1D
100
AcDbEntity
  8
0
100
AcDbLine
 10
49.3921
 20
159.94795
 30
0.0
 11
49.7502
 21
159.94795
 31
0.0
  0
LINE
  5
294
330
1D
100
AcDbEntity
  8
0
100
AcDbLine
 10
48.882
 20
159.94795
 30
0.0
 11
49.3921
 21
159.94795
 31
0.0
  0
LINE
  5
295
330
1D
100
AcDbEntity
  8
0
100
AcDbLine
 10
48.225
 20
159.94795
 30
0.0
 11
48.882
 21
159.94795
 31
0.0
  0
LINE
  5
296
330
1D
100
AcDbEntity
  8
0
100
AcDbLine
 10
47.4288
 20
159.94795
 30
0.0
 11
48.225
 21
159.94795
 31
0.0
  0
LINE
  5
297
330
1D
100
AcDbEntity
  8
0
100
AcDbLine
 10
46.5016
 20
159.94795
 30
0.0
 11
47.4288
 21
159.94795
 31
0.0
  0
LINE
  5
298
330
1D
100
AcDbEntity
  8
0
100
AcDbLine
 10
50.038
 20
159.94795
 30
0.0
 11
50.3405
 21
159.94795
 31
0.0
  0
LINE
  5
2BA
330
1D
100
AcDbEntity
  8
0
100
AcDbLine
 10
50.3409
 20
159.94795
 30
0.0
 11
50.9361
 21
160.06195
 31
0.0
  0
LINE
  5
2BB
330
1D
100
AcDbEntity
  8
0
100
AcDbLine
 10
49.996
 20
159.94795
 30
0.0
 11
50.5
 21
159.44595
 31
0.0
  0
LINE
  5
2BC
330
1D
100
AcDbEntity
  8
0
100
AcDbLine
 10
45.454
 20
159.94795
 30
0.0
 11
46.5016
 21
159.94795
 31
0.0
  0
LINE
  5
2BD
330
1D
100
AcDbEntity
  8
0
100
AcDbLine
 10
44.6948
 20
184.94795
 30
0.0
 11
47.9128
 21
184.94795
 31
0.0
  0
LINE
  5
2BE
330
1D
100
AcDbEntity
  8
0
100
AcDbLine
 10
47.9128
 20
184.94795
 30
0.0
 11
51.0185
 21
184.94795
 31
0.0
  0
LINE
  5
2BF
330
1D
100
AcDbEntity
  8
0
100
AcDbLine
 10
51.0185
 20
184.94795
 30
0.0
 11
53.9828
 21
184.94795
 31
0.0
  0
LINE
  5
2C0
330
1D
100
AcDbEntity
  8
0
100
AcDbLine
 10
50.9361
 20
160.06195
 30
0.0
 11
51.399
 21
160.38695
 31
0.0
  0
LINE
  5
2C5
330
1D
100
AcDbEntity
  8
0
100
AcDbLine
 10
51.518916344915
 20
160.507168790218
 30
0.0
 11
70.1112
 21
179.06895
 31
0.0
  0
LINE
  5
2C6
330
1D
100
AcDbEntity
  8
0
100
AcDbLine
 10
53.9828
 20
184.94795
 30
0.0
 11
56.7803
 21
184.94795
 31
0.0
  0
LINE
  5
2C7
330
1D
100
AcDbEntity
  8
0
100
AcDbLine
 10
56.7803
 20
184.94795
 30
0.0
 11
59.3847
 21
184.94795
 31
0.0
  0
LINE
  5
2C8
330
1D
100
AcDbEntity
  8
0
100
AcDbLine
 10
59.3847
 20
184.94795
 30
0.0
 11
61.7734
 21
184.94795
 31
0.0
  0
LINE
  5
2C9
330
1D
100
AcDbEntity
  8
0
100
AcDbLine
 10
61.7734
 20
184.94795
 30
0.0
 11
63.9238
 21
184.94795
 31
0.0
  0
LINE
  5
2CA
330
1D
100
AcDbEntity
  8
0
100
AcDbLine
 10
63.9238
 20
184.94795
 30
0.0
 11
65.817
 21
184.94795
 31
0.0
  0
LINE
  5
2CB
330
1D
100
AcDbEntity
  8
0
100
AcDbLine
 10
65.817
 20
184.94795
 30
0.0
 11
67.4351
 21
184.94795
 31
0.0
  0
LINE
  5
2CC
330
1D
100
AcDbEntity
  8
0
100
AcDbLine
 10
67.4351
 20
184.94795
 30
0.0
 11
68.7637
 21
184.94795
 31
0.0
  0
LINE
  5
2CD
330
1D
100
AcDbEntity
  8
0
100
AcDbLine
 10
68.7637
 20
184.94795
 30
0.0
 11
69.7918
 21
184.94795
 31
0.0
  0
LINE
  5
2CE
330
1D
100
AcDbEntity
  8
0
100
AcDbLine
 10
69.7918
 20
184.94795
 30
0.0
 11
70.5098
 21
184.94795
 31
0.0
  0
LINE
  5
2D6
330
1D
100
AcDbEntity
  8
0
100
AcDbLine
 10
70.5881
 20
179.69095
 30
0.0
 11
70.8881
 21
180.41395
 31
0.0
  0
LINE
  5
2D7
330
1D
100
AcDbEntity
  8
0
100
AcDbLine
 10
70.5098
 20
184.94795
 30
0.0
 11
70.9105
 21
184.94795
 31
0.0
  0
LINE
  5
2D8
330
1D
100
AcDbEntity
  8
0
100
AcDbLine
 10
70.9105
 20
184.94795
 30
0.0
 11
70.9898
 21
184.94795
 31
0.0
  0
LINE
  5
2D9
330
1D
100
AcDbEntity
  8
0
100
AcDbLine
 10
70.9898
 20
184.94795
 30
0.0
 11
70.9898
 21
181.19095
 31
0.0
  0
LINE
  5
300
330
1D
100
AcDbEntity
  8
0
100
AcDbLine
 10
70.9898
 20
181.19095
 30
0.0
 11
70.9898
 21
184.94795
 31
0.0
  0
LINE
  5
301
330
1D
100
AcDbEntity
  8
0
100
AcDbLine
 10
70.8881
 20
180.41395
 30
0.0
 11
70.9898
 21
181.19095
 31
0.0
  0
LINE
  5
302
330
1D
100
AcDbEntity
  8
0
100
AcDbLine
 10
70.1112
 20
179.06895
 30
0.0
 11
70.5881
 21
179.69095
 31
0.0
  0
LINE
  5
303
330
1D
100
AcDbEntity
  8
0
100
AcDbLine
 10
51.518916344915
 20
160.507168790218
 30
0.0
 11
70.1112
 21
179.06895
 31
0.0
  0
LINE
  5
304
330
1D
100
AcDbEntity
  8
0
100
AcDbLine
 10
44.2971
 20
159.94795
 30
0.0
 11
45.454
 21
159.94795
 31
0.0
  0
LINE
  5
305
330
1D
100
AcDbEntity
  8
0
100
AcDbLine
 10
43.0443
 20
159.94795
 30
0.0
 11
44.2971
 21
159.94795
 31
0.0
  0
LINE
  5
306
330
1D
100
AcDbEntity
  8
0
100
AcDbLine
 10
42.7833
 20
159.44595
 30
0.0
 11
44.0718
 21
159.39695
 31
0.0
  0
LINE
  5
307
330
1D
100
AcDbEntity
  8
0
100
AcDbLine
 10
41.7087
 20
159.94795
 30
0.0
 11
43.0443
 21
159.94795
 31
0.0
  0
LINE
  5
308
330
1D
100
AcDbEntity
  8
0
100
AcDbLine
 10
41.4912
 20
159.34695
 30
0.0
 11
42.7833
 21
159.44595
 31
0.0
  0
LINE
  5
309
330
1D
100
AcDbEntity
  8
0
100
AcDbLine
 10
40.305
 20
159.94795
 30
0.0
 11
41.7087
 21
159.94795
 31
0.0
  0
LINE
  5
30A
330
1D
100
AcDbEntity
  8
0
100
AcDbLine
 10
49.7895
 20
144.94795
 30
0.0
 11
50.5
 21
144.94795
 31
0.0
  0
LINE
  5
30B
330
1D
100
AcDbEntity
  8
0
100
AcDbLine
 10
21.6079
 20
142.94795
 30
0.0
 11
22.118
 21
142.94795
 31
0.0
  0
LINE
  5
30C
330
1D
100
AcDbEntity
  8
0
100
AcDbLine
 10
21.2498
 20
142.94795
 30
0.0
 11
21.6079
 21
142.94795
 31
0.0
  0
LINE
  5
334
330
1D
100
AcDbEntity
  8
0
100
AcDbLine
 10
88.8961
 20
79.07545
 30
0.0
 11
88.5003
 21
79.90995
 31
0.0
  0
LINE
  5
335
330
1D
100
AcDbEntity
  8
0
100
AcDbLine
 10
50.5
 20
144.94795
 30
0.0
 11
50.5
 21
157.94795
 31
0.0
  0
LINE
  5
336
330
1D
100
AcDbEntity
  8
0
100
AcDbLine
 10
202.0
 20
142.44795
 30
0.0
 11
110.5
 21
142.44795
 31
0.0
  0
LINE
  5
337
330
1D
100
AcDbEntity
  8
0
100
AcDbLine
 10
202.0
 20
142.44795
 30
0.0
 11
110.5
 21
142.44795
 31
0.0
  0
LINE
  5
338
330
1D
100
AcDbEntity
  8
0
100
AcDbLine
 10
111.356
 20
0.16865
 30
0.0
 11
110.499
 21
0.05205
 31
0.0
  0
LINE
  5
339
330
1D
100
AcDbEntity
  8
0
100
AcDbLine
 10
113.583
 20
72.45055
 30
0.0
 11
110.5
 21
72.37155
 31
0.0
  0
LINE
  5
33A
330
1D
100
AcDbEntity
  8
0
100
AcDbLine
 10
133.1032
 20
111.35495
 30
0.0
 11
132.6072
 21
110.37195
 31
0.0
  0
LINE
  5
33B
330
1D
100
AcDbEntity
  8
0
100
AcDbLine
 10
132.4964
 20
61.95835
 30
0.0
 11
132.4932
 21
47.56525
 31
0.0
  0
LINE
  5
33C
330
1D
100
AcDbEntity
  8
0
100
AcDbLine
 10
118.147
 20
28.96735
 30
0.0
 11
117.601
 21
27.59325
 31
0.0
  0
LINE
  5
33D
330
1D
100
AcDbEntity
  8
0
100
AcDbLine
 10
114.217
 20
12.33925
 30
0.0
 11
113.152
 21
2.23985
 31
0.0
  0
LINE
  5
33E
330
1D
100
AcDbEntity
  8
0
100
AcDbLine
 10
114.217
 20
12.33925
 30
0.0
 11
113.152
 21
2.23985
 31
0.0
  0
LINE
  5
33F
330
1D
100
AcDbEntity
  8
0
100
AcDbLine
 10
114.638
 20
15.94175
 30
0.0
 11
114.217
 21
12.33925
 31
0.0
  0
LINE
  5
340
330
1D
100
AcDbEntity
  8
0
100
AcDbLine
 10
116.719
 20
24.91455
 30
0.0
 11
115.594192251881
 21
20.912765234129
 31
0.0
  0
LINE
  5
341
330
1D
100
AcDbEntity
  8
0
100
AcDbLine
 10
115.172
 20
19.07835
 30
0.0
 11
114.638
 21
15.94175
 31
0.0
  0
LINE
  5
342
330
1D
100
AcDbEntity
  8
0
100
AcDbLine
 10
117.601
 20
27.59325
 30
0.0
 11
116.719
 21
24.91455
 31
0.0
  0
LINE
  5
343
330
1D
100
AcDbEntity
  8
0
100
AcDbLine
 10
113.132
 20
2.05805
 30
0.0
 11
112.997
 21
1.53455
 31
0.0
  0
LINE
  5
344
330
1D
100
AcDbEntity
  8
0
100
AcDbLine
 10
112.923
 20
1.24775
 30
0.0
 11
112.651
 21
0.89845
 31
0.0
  0
LINE
  5
345
330
1D
100
AcDbEntity
  8
0
100
AcDbLine
 10
112.476
 20
0.70205
 30
0.0
 11
112.06
 21
0.41215
 31
0.0
  0
LINE
  5
346
330
1D
100
AcDbEntity
  8
0
100
AcDbLine
 10
112.651
 20
0.89845
 30
0.0
 11
112.476
 21
0.70205
 31
0.0
  0
LINE
  5
347
330
1D
100
AcDbEntity
  8
0
100
AcDbLine
 10
112.06
 20
0.41215
 30
0.0
 11
111.487
 21
0.19145
 31
0.0
  0
LINE
  5
348
330
1D
100
AcDbEntity
  8
0
100
AcDbLine
 10
111.487
 20
0.19145
 30
0.0
 11
111.356
 21
0.16865
 31
0.0
  0
LINE
  5
349
330
1D
100
AcDbEntity
  8
0
100
AcDbLine
 10
112.997
 20
1.53455
 30
0.0
 11
112.923
 21
1.24775
 31
0.0
  0
LINE
  5
34A
330
1D
100
AcDbEntity
  8
0
100
AcDbLine
 10
113.152
 20
2.23985
 30
0.0
 11
113.132
 21
2.05805
 31
0.0
  0
LINE
  5
34B
330
1D
100
AcDbEntity
  8
0
100
AcDbLine
 10
115.59419225188
 20
20.912765234124
 30
0.0
 11
115.172
 21
19.07835
 31
0.0
  0
LINE
  5
34C
330
1D
100
AcDbEntity
  8
0
100
AcDbLine
 10
131.5461
 20
45.39935
 30
0.0
 11
120.087
 21
31.86355
 31
0.0
  0
LINE
  5
34D
330
1D
100
AcDbEntity
  8
0
100
AcDbLine
 10
132.2155
 20
46.30435
 30
0.0
 11
131.6377
 21
45.50745
 31
0.0
  0
LINE
  5
34E
330
1D
100
AcDbEntity
  8
0
100
AcDbLine
 10
131.6377
 20
45.50745
 30
0.0
 11
131.5461
 21
45.39935
 31
0.0
  0
LINE
  5
34F
330
1D
100
AcDbEntity
  8
0
100
AcDbLine
 10
132.4743
 20
47.17435
 30
0.0
 11
132.2155
 21
46.30435
 31
0.0
  0
LINE
  5
350
330
1D
100
AcDbEntity
  8
0
100
AcDbLine
 10
132.4932
 20
47.56525
 30
0.0
 11
132.4743
 21
47.17435
 31
0.0
  0
LINE
  5
351
330
1D
100
AcDbEntity
  8
0
100
AcDbLine
 10
119.142
 20
30.69605
 30
0.0
 11
118.84
 21
30.25775
 31
0.0
  0
LINE
  5
352
330
1D
100
AcDbEntity
  8
0
100
AcDbLine
 10
120.048
 20
31.81795
 30
0.0
 11
119.142
 21
30.69605
 31
0.0
  0
LINE
  5
353
330
1D
100
AcDbEntity
  8
0
100
AcDbLine
 10
118.84
 20
30.25775
 30
0.0
 11
118.147
 21
28.96735
 31
0.0
  0
LINE
  5
354
330
1D
100
AcDbEntity
  8
0
100
AcDbLine
 10
120.087
 20
31.86355
 30
0.0
 11
120.048
 21
31.81795
 31
0.0
  0
LINE
  5
355
330
1D
100
AcDbEntity
  8
0
100
AcDbLine
 10
130.850414425919
 20
82.94795
 30
0.0
 11
130.8156
 21
82.15465
 31
0.0
  0
LINE
  5
356
330
1D
100
AcDbEntity
  8
0
100
AcDbLine
 10
124.7367
 20
74.27705
 30
0.0
 11
122.225
 21
73.60415
 31
0.0
  0
LINE
  5
357
330
1D
100
AcDbEntity
  8
0
100
AcDbLine
 10
132.4997
 20
79.90995
 30
0.0
 11
132.4997
 21
66.39715
 31
0.0
  0
LINE
  5
358
330
1D
100
AcDbEntity
  8
0
100
AcDbLine
 10
132.4997
 20
66.39715
 30
0.0
 11
132.4995
 21
79.94235
 31
0.0
  0
LINE
  5
359
330
1D
100
AcDbEntity
  8
0
100
AcDbLine
 10
132.498
 20
62.19455
 30
0.0
 11
132.4974
 21
63.49385
 31
0.0
  0
LINE
  5
35A
330
1D
100
AcDbEntity
  8
0
100
AcDbLine
 10
132.498
 20
62.19455
 30
0.0
 11
132.4978
 21
60.63575
 31
0.0
  0
LINE
  5
35B
330
1D
100
AcDbEntity
  8
0
100
AcDbLine
 10
132.4978
 20
60.63575
 30
0.0
 11
132.496074898319
 21
60.496093435006
 31
0.0
  0
LINE
  5
35C
330
1D
100
AcDbEntity
  8
0
100
AcDbLine
 10
132.4997
 20
66.39715
 30
0.0
 11
132.4974
 21
63.49385
 31
0.0
  0
LINE
  5
35D
330
1D
100
AcDbEntity
  8
0
100
AcDbLine
 10
132.4995
 20
79.94235
 30
0.0
 11
132.4325
 21
80.19235
 31
0.0
  0
LINE
  5
35E
330
1D
100
AcDbEntity
  8
0
100
AcDbLine
 10
132.4325
 20
80.19235
 30
0.0
 11
132.2494
 21
80.37535
 31
0.0
  0
LINE
  5
35F
330
1D
100
AcDbEntity
  8
0
100
AcDbLine
 10
132.2494
 20
80.37535
 30
0.0
 11
131.9995
 21
80.44235
 31
0.0
  0
LINE
  5
360
330
1D
100
AcDbEntity
  8
0
100
AcDbLine
 10
131.9995
 20
80.44235
 30
0.0
 11
131.7436
 21
80.44255
 31
0.0
  0
LINE
  5
361
330
1D
100
AcDbEntity
  8
0
100
AcDbLine
 10
131.7436
 20
80.44255
 30
0.0
 11
131.009
 21
80.44275
 31
0.0
  0
LINE
  5
362
330
1D
100
AcDbEntity
  8
0
100
AcDbLine
 10
132.1039
 20
79.07545
 30
0.0
 11
131.4211
 21
77.98425
 31
0.0
  0
LINE
  5
363
330
1D
100
AcDbEntity
  8
0
100
AcDbLine
 10
131.4211
 20
77.98425
 30
0.0
 11
130.3113
 21
76.93375
 31
0.0
  0
LINE
  5
364
330
1D
100
AcDbEntity
  8
0
100
AcDbLine
 10
130.8156
 20
82.15465
 30
0.0
 11
130.5789
 21
80.37525
 31
0.0
  0
LINE
  5
365
330
1D
100
AcDbEntity
  8
0
100
AcDbLine
 10
130.5789
 20
80.37525
 30
0.0
 11
130.549358582447
 21
80.242996855944
 31
0.0
  0
LINE
  5
366
330
1D
100
AcDbEntity
  8
0
100
AcDbLine
 10
131.009
 20
80.44275
 30
0.0
 11
130.587888353777
 21
80.442820243811
 31
0.0
  0
LINE
  5
367
330
1D
100
AcDbEntity
  8
0
100
AcDbLine
 10
130.3113
 20
76.93375
 30
0.0
 11
128.7872
 21
75.94415
 31
0.0
  0
LINE
  5
368
330
1D
100
AcDbEntity
  8
0
100
AcDbLine
 10
128.7872
 20
75.94415
 30
0.0
 11
126.9352
 21
75.06315
 31
0.0
  0
LINE
  5
369
330
1D
100
AcDbEntity
  8
0
100
AcDbLine
 10
126.9352
 20
75.06315
 30
0.0
 11
124.7367
 21
74.27705
 31
0.0
  0
LINE
  5
36A
330
1D
100
AcDbEntity
  8
0
100
AcDbLine
 10
132.1039
 20
79.07545
 30
0.0
 11
132.4997
 21
79.90995
 31
0.0
  0
LINE
  5
36B
330
1D
100
AcDbEntity
  8
0
100
AcDbLine
 10
122.225
 20
73.60415
 30
0.0
 11
119.442
 21
73.06285
 31
0.0
  0
LINE
  5
36C
330
1D
100
AcDbEntity
  8
0
100
AcDbLine
 10
119.442
 20
73.06285
 30
0.0
 11
116.585
 21
72.68385
 31
0.0
  0
LINE
  5
36D
330
1D
100
AcDbEntity
  8
0
100
AcDbLine
 10
116.585
 20
72.68385
 30
0.0
 11
113.583
 21
72.45055
 31
0.0
  0
LINE
  5
36E
330
1D
100
AcDbEntity
  8
0
100
AcDbLine
 10
131.5073
 20
82.94795
 30
0.0
 11
131.2938
 21
82.94795
 31
0.0
  0
LINE
  5
36F
330
1D
100
AcDbEntity
  8
0
100
AcDbLine
 10
131.0443
 20
82.94795
 30
0.0
 11
130.850414425919
 21
82.94795
 31
0.0
  0
LINE
  5
370
330
1D
100
AcDbEntity
  8
0
100
AcDbLine
 10
131.0443
 20
82.94795
 30
0.0
 11
130.6482
 21
82.94795
 31
0.0
  0
LINE
  5
371
330
1D
100
AcDbEntity
  8
0
100
AcDbLine
 10
131.2938
 20
82.94795
 30
0.0
 11
130.850414425919
 21
82.94795
 31
0.0
  0
LINE
  5
372
330
1D
100
AcDbEntity
  8
0
100
AcDbLine
 10
117.071
 20
82.94795
 30
0.0
 11
113.59
 21
82.94795
 31
0.0
  0
LINE
  5
373
330
1D
100
AcDbEntity
  8
0
100
AcDbLine
 10
120.352
 20
82.94795
 30
0.0
 11
117.071
 21
82.94795
 31
0.0
  0
LINE
  5
374
330
1D
100
AcDbEntity
  8
0
100
AcDbLine
 10
123.3342
 20
82.94795
 30
0.0
 11
120.352
 21
82.94795
 31
0.0
  0
LINE
  5
375
330
1D
100
AcDbEntity
  8
0
100
AcDbLine
 10
125.9258
 20
82.94795
 30
0.0
 11
123.3342
 21
82.94795
 31
0.0
  0
LINE
  5
376
330
1D
100
AcDbEntity
  8
0
100
AcDbLine
 10
128.0494
 20
82.94795
 30
0.0
 11
125.9258
 21
82.94795
 31
0.0
  0
LINE
  5
377
330
1D
100
AcDbEntity
  8
0
100
AcDbLine
 10
129.6394
 20
82.94795
 30
0.0
 11
128.0494
 21
82.94795
 31
0.0
  0
LINE
  5
378
330
1D
100
AcDbEntity
  8
0
100
AcDbLine
 10
130.6482
 20
82.94795
 30
0.0
 11
129.6394
 21
82.94795
 31
0.0
  0
LINE
  5
379
330
1D
100
AcDbEntity
  8
0
100
AcDbLine
 10
131.9341
 20
83.19995
 30
0.0
 11
131.7543
 21
83.01735
 31
0.0
  0
LINE
  5
37A
330
1D
100
AcDbEntity
  8
0
100
AcDbLine
 10
131.7543
 20
83.01735
 30
0.0
 11
131.5073
 21
82.94795
 31
0.0
  0
LINE
  5
37B
330
1D
100
AcDbEntity
  8
0
100
AcDbLine
 10
132.0
 20
105.70695
 30
0.0
 11
132.0
 21
83.44785
 31
0.0
  0
LINE
  5
37C
330
1D
100
AcDbEntity
  8
0
100
AcDbLine
 10
132.0
 20
83.44785
 30
0.0
 11
132.0
 21
105.70695
 31
0.0
  0
LINE
  5
37D
330
1D
100
AcDbEntity
  8
0
100
AcDbLine
 10
132.0
 20
83.44785
 30
0.0
 11
131.9341
 21
83.19995
 31
0.0
  0
LINE
  5
37E
330
1D
100
AcDbEntity
  8
0
100
AcDbLine
 10
132.0608
 20
107.84395
 30
0.0
 11
132.0
 21
105.70695
 31
0.0
  0
LINE
  5
37F
330
1D
100
AcDbEntity
  8
0
100
AcDbLine
 10
132.1962
 20
108.89595
 30
0.0
 11
132.0608
 21
107.84395
 31
0.0
  0
LINE
  5
380
330
1D
100
AcDbEntity
  8
0
100
AcDbLine
 10
132.6072
 20
110.37195
 30
0.0
 11
132.1962
 21
108.89595
 31
0.0
  0
LINE
  5
381
330
1D
100
AcDbEntity
  8
0
100
AcDbLine
 10
202.0
 20
114.02695
 30
0.0
 11
140.3354
 21
114.02695
 31
0.0
  0
LINE
  5
382
330
1D
100
AcDbEntity
  8
0
100
AcDbLine
 10
202.0
 20
114.02695
 30
0.0
 11
140.3354
 21
114.02695
 31
0.0
  0
LINE
  5
383
330
1D
100
AcDbEntity
  8
0
100
AcDbLine
 10
169.481083655085
 20
160.507168790218
 30
0.0
 11
150.8888
 21
179.06895
 31
0.0
  0
LINE
  5
384
330
1D
100
AcDbEntity
  8
0
100
AcDbLine
 10
167.0172
 20
184.94795
 30
0.0
 11
164.2197
 21
184.94795
 31
0.0
  0
LINE
  5
385
330
1D
100
AcDbEntity
  8
0
100
AcDbLine
 10
169.481083655085
 20
160.507168790218
 30
0.0
 11
150.8888
 21
179.06895
 31
0.0
  0
LINE
  5
386
330
1D
100
AcDbEntity
  8
0
100
AcDbLine
 10
220.111
 20
179.06895
 30
0.0
 11
201.3985
 21
160.38695
 31
0.0
  0
LINE
  5
387
330
1D
100
AcDbEntity
  8
0
100
AcDbLine
 10
220.111
 20
179.06895
 30
0.0
 11
201.3985
 21
160.38695
 31
0.0
  0
LINE
  5
388
330
1D
100
AcDbEntity
  8
0
100
AcDbLine
 10
194.2971
 20
142.94795
 30
0.0
 11
193.0443
 21
142.94795
 31
0.0
  0
LINE
  5
389
330
1D
100
AcDbEntity
  8
0
100
AcDbLine
 10
193.7436
 20
142.94795
 30
0.0
 11
192.4516
 21
142.94795
 31
0.0
  0
LINE
  5
38A
330
1D
100
AcDbEntity
  8
0
100
AcDbLine
 10
193.8736
 20
143.48195
 30
0.0
 11
192.6934
 21
143.45195
 31
0.0
  0
LINE
  5
38B
330
1D
100
AcDbEntity
  8
0
100
AcDbLine
 10
193.7437
 20
159.94795
 30
0.0
 11
192.4516
 21
159.94795
 31
0.0
  0
LINE
  5
38C
330
1D
100
AcDbEntity
  8
0
100
AcDbLine
 10
193.8736
 20
159.41395
 30
0.0
 11
192.6935
 21
159.44395
 31
0.0
  0
LINE
  5
38D
330
1D
100
AcDbEntity
  8
0
100
AcDbLine
 10
203.0
 20
135.85895
 30
0.0
 11
203.0
 21
138.72995
 31
0.0
  0
LINE
  5
38E
330
1D
100
AcDbEntity
  8
0
100
AcDbLine
 10
203.0
 20
138.72995
 30
0.0
 11
203.0
 21
135.85895
 31
0.0
  0
LINE
  5
38F
330
1D
100
AcDbEntity
  8
0
100
AcDbLine
 10
203.0
 20
123.08495
 30
0.0
 11
203.0
 21
127.11695
 31
0.0
  0
LINE
  5
390
330
1D
100
AcDbEntity
  8
0
100
AcDbLine
 10
203.0
 20
127.11695
 30
0.0
 11
203.0
 21
123.08495
 31
0.0
  0
LINE
  5
391
330
1D
100
AcDbEntity
  8
0
100
AcDbLine
 10
202.866
 20
114.52695
 30
0.0
 11
202.5
 21
114.16095
 31
0.0
  0
LINE
  5
392
330
1D
100
AcDbEntity
  8
0
100
AcDbLine
 10
202.5
 20
114.16095
 30
0.0
 11
202.0
 21
114.02695
 31
0.0
  0
LINE
  5
393
330
1D
100
AcDbEntity
  8
0
100
AcDbLine
 10
203.0
 20
115.71895
 30
0.0
 11
203.0
 21
115.20695
 31
0.0
  0
LINE
  5
394
330
1D
100
AcDbEntity
  8
0
100
AcDbLine
 10
203.0
 20
118.77695
 30
0.0
 11
203.0
 21
117.22795
 31
0.0
  0
LINE
  5
395
330
1D
100
AcDbEntity
  8
0
100
AcDbLine
 10
203.0
 20
117.22795
 30
0.0
 11
203.0
 21
118.77695
 31
0.0
  0
LINE
  5
396
330
1D
100
AcDbEntity
  8
0
100
AcDbLine
 10
203.0
 20
115.20695
 30
0.0
 11
203.0
 21
115.71895
 31
0.0
  0
LINE
  5
397
330
1D
100
AcDbEntity
  8
0
100
AcDbLine
 10
203.0
 20
115.20695
 30
0.0
 11
203.0
 21
115.02695
 31
0.0
  0
LINE
  5
398
330
1D
100
AcDbEntity
  8
0
100
AcDbLine
 10
203.0
 20
120.76695
 30
0.0
 11
203.0
 21
123.08495
 31
0.0
  0
LINE
  5
399
330
1D
100
AcDbEntity
  8
0
100
AcDbLine
 10
203.0
 20
121.94795
 30
0.0
 11
203.0
 21
119.77595
 31
0.0
  0
LINE
  5
39A
330
1D
100
AcDbEntity
  8
0
100
AcDbLine
 10
203.0
 20
123.08495
 30
0.0
 11
203.0
 21
120.76695
 31
0.0
  0
LINE
  5
39B
330
1D
100
AcDbEntity
  8
0
100
AcDbLine
 10
203.0
 20
119.77595
 30
0.0
 11
203.0
 21
121.94795
 31
0.0
  0
LINE
  5
39C
330
1D
100
AcDbEntity
  8
0
100
AcDbLine
 10
203.0
 20
119.77595
 30
0.0
 11
203.0
 21
117.96295
 31
0.0
  0
LINE
  5
39D
330
1D
100
AcDbEntity
  8
0
100
AcDbLine
 10
203.0
 20
117.96295
 30
0.0
 11
203.0
 21
119.77595
 31
0.0
  0
LINE
  5
39E
330
1D
100
AcDbEntity
  8
0
100
AcDbLine
 10
203.0
 20
115.02695
 30
0.0
 11
202.866
 21
114.52695
 31
0.0
  0
LINE
  5
39F
330
1D
100
AcDbEntity
  8
0
100
AcDbLine
 10
203.0
 20
115.02695
 30
0.0
 11
203.0
 21
115.20695
 31
0.0
  0
LINE
  5
3A0
330
1D
100
AcDbEntity
  8
0
100
AcDbLine
 10
203.0
 20
115.71895
 30
0.0
 11
203.0
 21
117.22795
 31
0.0
  0
LINE
  5
3A1
330
1D
100
AcDbEntity
  8
0
100
AcDbLine
 10
203.0
 20
117.22795
 30
0.0
 11
203.0
 21
115.71895
 31
0.0
  0
LINE
  5
3A2
330
1D
100
AcDbEntity
  8
0
100
AcDbLine
 10
203.0
 20
135.85895
 30
0.0
 11
203.0
 21
132.91595
 31
0.0
  0
LINE
  5
3A3
330
1D
100
AcDbEntity
  8
0
100
AcDbLine
 10
203.0
 20
132.91595
 30
0.0
 11
203.0
 21
129.97595
 31
0.0
  0
LINE
  5
3A4
330
1D
100
AcDbEntity
  8
0
100
AcDbLine
 10
203.0
 20
132.91595
 30
0.0
 11
203.0
 21
135.85895
 31
0.0
  0
LINE
  5
3A5
330
1D
100
AcDbEntity
  8
0
100
AcDbLine
 10
203.0
 20
129.97595
 30
0.0
 11
203.0
 21
127.11695
 31
0.0
  0
LINE
  5
3A6
330
1D
100
AcDbEntity
  8
0
100
AcDbLine
 10
203.0
 20
129.97595
 30
0.0
 11
203.0
 21
132.91595
 31
0.0
  0
LINE
  5
3A7
330
1D
100
AcDbEntity
  8
0
100
AcDbLine
 10
203.0
 20
127.11695
 30
0.0
 11
203.0
 21
129.97595
 31
0.0
  0
LINE
  5
3A8
330
1D
100
AcDbEntity
  8
0
100
AcDbLine
 10
200.5
 20
157.94795
 30
0.0
 11
200.5
 21
144.94795
 31
0.0
  0
LINE
  5
3A9
330
1D
100
AcDbEntity
  8
0
100
AcDbLine
 10
200.5
 20
144.94795
 30
0.0
 11
200.5
 21
157.94795
 31
0.0
  0
LINE
  5
3AA
330
1D
100
AcDbEntity
  8
0
100
AcDbLine
 10
200.5
 20
143.44995
 30
0.0
 11
199.9961
 21
142.94795
 31
0.0
  0
LINE
  5
3AB
330
1D
100
AcDbEntity
  8
0
100
AcDbLine
 10
200.5
 20
144.94795
 30
0.0
 11
199.7895
 21
144.94795
 31
0.0
  0
LINE
  5
3AC
330
1D
100
AcDbEntity
  8
0
100
AcDbLine
 10
203.0
 20
141.44795
 30
0.0
 11
202.866
 21
141.94795
 31
0.0
  0
LINE
  5
3AD
330
1D
100
AcDbEntity
  8
0
100
AcDbLine
 10
203.0
 20
141.44795
 30
0.0
 11
203.0
 21
138.72995
 31
0.0
  0
LINE
  5
3AE
330
1D
100
AcDbEntity
  8
0
100
AcDbLine
 10
203.0
 20
138.72995
 30
0.0
 11
203.0
 21
141.44795
 31
0.0
  0
LINE
  5
3AF
330
1D
100
AcDbEntity
  8
0
100
AcDbLine
 10
202.866
 20
141.94795
 30
0.0
 11
202.5
 21
142.31395
 31
0.0
  0
LINE
  5
3B0
330
1D
100
AcDbEntity
  8
0
100
AcDbLine
 10
202.5
 20
142.31395
 30
0.0
 11
202.0
 21
142.44795
 31
0.0
  0
LINE
  5
3B1
330
1D
100
AcDbEntity
  8
0
100
AcDbLine
 10
200.5
 20
143.49895
 30
0.0
 11
200.5
 21
143.66595
 31
0.0
  0
LINE
  5
3B2
330
1D
100
AcDbEntity
  8
0
100
AcDbLine
 10
200.5
 20
143.44995
 30
0.0
 11
200.5
 21
143.54895
 31
0.0
  0
LINE
  5
3B3
330
1D
100
AcDbEntity
  8
0
100
AcDbLine
 10
200.5
 20
143.79995
 30
0.0
 11
200.5
 21
144.21395
 31
0.0
  0
LINE
  5
3B4
330
1D
100
AcDbEntity
  8
0
100
AcDbLine
 10
200.5
 20
143.79995
 30
0.0
 11
200.5
 21
143.54895
 31
0.0
  0
LINE
  5
3B5
330
1D
100
AcDbEntity
  8
0
100
AcDbLine
 10
200.5
 20
143.66595
 30
0.0
 11
200.5
 21
143.49895
 31
0.0
  0
LINE
  5
3B6
330
1D
100
AcDbEntity
  8
0
100
AcDbLine
 10
200.5
 20
143.66595
 30
0.0
 11
200.5
 21
143.95595
 31
0.0
  0
LINE
  5
3B7
330
1D
100
AcDbEntity
  8
0
100
AcDbLine
 10
200.5
 20
143.54895
 30
0.0
 11
200.5
 21
143.79995
 31
0.0
  0
LINE
  5
3B8
330
1D
100
AcDbEntity
  8
0
100
AcDbLine
 10
200.5
 20
143.54895
 30
0.0
 11
200.5
 21
143.44995
 31
0.0
  0
LINE
  5
3B9
330
1D
100
AcDbEntity
  8
0
100
AcDbLine
 10
200.5
 20
144.21395
 30
0.0
 11
200.5
 21
144.54595
 31
0.0
  0
LINE
  5
3BA
330
1D
100
AcDbEntity
  8
0
100
AcDbLine
 10
200.5
 20
144.21395
 30
0.0
 11
200.5
 21
143.79995
 31
0.0
  0
LINE
  5
3BB
330
1D
100
AcDbEntity
  8
0
100
AcDbLine
 10
200.5
 20
144.54595
 30
0.0
 11
200.5
 21
144.94795
 31
0.0
  0
LINE
  5
3BC
330
1D
100
AcDbEntity
  8
0
100
AcDbLine
 10
200.5
 20
144.54595
 30
0.0
 11
200.5
 21
144.21395
 31
0.0
  0
LINE
  5
3BD
330
1D
100
AcDbEntity
  8
0
100
AcDbLine
 10
200.5
 20
144.94795
 30
0.0
 11
200.5
 21
144.37795
 31
0.0
  0
LINE
  5
3BE
330
1D
100
AcDbEntity
  8
0
100
AcDbLine
 10
200.5
 20
144.94795
 30
0.0
 11
200.5
 21
144.54595
 31
0.0
  0
LINE
  5
3BF
330
1D
100
AcDbEntity
  8
0
100
AcDbLine
 10
200.5
 20
144.37795
 30
0.0
 11
200.5
 21
143.95595
 31
0.0
  0
LINE
  5
3C0
330
1D
100
AcDbEntity
  8
0
100
AcDbLine
 10
200.5
 20
144.37795
 30
0.0
 11
200.5
 21
144.94795
 31
0.0
  0
LINE
  5
3C1
330
1D
100
AcDbEntity
  8
0
100
AcDbLine
 10
200.5
 20
143.95595
 30
0.0
 11
200.5
 21
143.66595
 31
0.0
  0
LINE
  5
3C2
330
1D
100
AcDbEntity
  8
0
100
AcDbLine
 10
200.5
 20
143.95595
 30
0.0
 11
200.5
 21
144.37795
 31
0.0
  0
LINE
  5
3C3
330
1D
100
AcDbEntity
  8
0
100
AcDbLine
 10
197.4288
 20
142.94795
 30
0.0
 11
196.5016
 21
142.94795
 31
0.0
  0
LINE
  5
3C4
330
1D
100
AcDbEntity
  8
0
100
AcDbLine
 10
197.0265
 20
142.94795
 30
0.0
 11
196.0437
 21
142.94795
 31
0.0
  0
LINE
  5
3C5
330
1D
100
AcDbEntity
  8
0
100
AcDbLine
 10
197.5753
 20
144.35095
 30
0.0
 11
196.2945
 21
143.92295
 31
0.0
  0
LINE
  5
3C6
330
1D
100
AcDbEntity
  8
0
100
AcDbLine
 10
199.9522
 20
142.94795
 30
0.0
 11
199.7502
 21
142.94795
 31
0.0
  0
LINE
  5
3C7
330
1D
100
AcDbEntity
  8
0
100
AcDbLine
 10
199.9961
 20
142.94795
 30
0.0
 11
199.881
 21
142.94795
 31
0.0
  0
LINE
  5
3C8
330
1D
100
AcDbEntity
  8
0
100
AcDbLine
 10
199.881
 20
142.94795
 30
0.0
 11
199.608
 21
142.94795
 31
0.0
  0
LINE
  5
3C9
330
1D
100
AcDbEntity
  8
0
100
AcDbLine
 10
199.7895
 20
144.94795
 30
0.0
 11
198.9531
 21
144.94795
 31
0.0
  0
LINE
  5
3CA
330
1D
100
AcDbEntity
  8
0
100
AcDbLine
 10
199.608
 20
142.94795
 30
0.0
 11
199.1806
 21
142.94795
 31
0.0
  0
LINE
  5
3CB
330
1D
100
AcDbEntity
  8
0
100
AcDbLine
 10
199.1806
 20
142.94795
 30
0.0
 11
198.6038
 21
142.94795
 31
0.0
  0
LINE
  5
3CC
330
1D
100
AcDbEntity
  8
0
100
AcDbLine
 10
198.6038
 20
142.94795
 30
0.0
 11
197.8827
 21
142.94795
 31
0.0
  0
LINE
  5
3CD
330
1D
100
AcDbEntity
  8
0
100
AcDbLine
 10
197.8827
 20
142.94795
 30
0.0
 11
197.0265
 21
142.94795
 31
0.0
  0
LINE
  5
3CE
330
1D
100
AcDbEntity
  8
0
100
AcDbLine
 10
198.2251
 20
142.94795
 30
0.0
 11
197.4288
 21
142.94795
 31
0.0
  0
LINE
  5
3CF
330
1D
100
AcDbEntity
  8
0
100
AcDbLine
 10
198.882
 20
142.94795
 30
0.0
 11
198.2251
 21
142.94795
 31
0.0
  0
LINE
  5
3D0
330
1D
100
AcDbEntity
  8
0
100
AcDbLine
 10
198.9531
 20
144.94795
 30
0.0
 11
197.5753
 21
144.35095
 31
0.0
  0
LINE
  5
3D1
330
1D
100
AcDbEntity
  8
0
100
AcDbLine
 10
199.3921
 20
142.94795
 30
0.0
 11
198.882
 21
142.94795
 31
0.0
  0
LINE
  5
3D2
330
1D
100
AcDbEntity
  8
0
100
AcDbLine
 10
199.7502
 20
142.94795
 30
0.0
 11
199.3921
 21
142.94795
 31
0.0
  0
LINE
  5
3D3
330
1D
100
AcDbEntity
  8
0
100
AcDbLine
 10
196.5016
 20
142.94795
 30
0.0
 11
195.4541
 21
142.94795
 31
0.0
  0
LINE
  5
3D4
330
1D
100
AcDbEntity
  8
0
100
AcDbLine
 10
195.4541
 20
142.94795
 30
0.0
 11
194.2971
 21
142.94795
 31
0.0
  0
LINE
  5
3D5
330
1D
100
AcDbEntity
  8
0
100
AcDbLine
 10
196.0437
 20
142.94795
 30
0.0
 11
194.9455
 21
142.94795
 31
0.0
  0
LINE
  5
3D6
330
1D
100
AcDbEntity
  8
0
100
AcDbLine
 10
194.9455
 20
142.94795
 30
0.0
 11
193.7436
 21
142.94795
 31
0.0
  0
LINE
  5
3D7
330
1D
100
AcDbEntity
  8
0
100
AcDbLine
 10
196.2945
 20
143.92295
 30
0.0
 11
195.0677
 21
143.63695
 31
0.0
  0
LINE
  5
3D8
330
1D
100
AcDbEntity
  8
0
100
AcDbLine
 10
195.0677
 20
143.63695
 30
0.0
 11
193.8736
 21
143.48195
 31
0.0
  0
LINE
  5
3D9
330
1D
100
AcDbEntity
  8
0
100
AcDbLine
 10
200.5
 20
157.94795
 30
0.0
 11
199.7894
 21
157.94795
 31
0.0
  0
LINE
  5
3DA
330
1D
100
AcDbEntity
  8
0
100
AcDbLine
 10
200.5
 20
159.44595
 30
0.0
 11
200.223285912848
 21
159.699528809329
 31
0.0
  0
LINE
  5
3DB
330
1D
100
AcDbEntity
  8
0
100
AcDbLine
 10
200.3409
 20
159.94795
 30
0.0
 11
200.0395
 21
159.94795
 31
0.0
  0
LINE
  5
3DC
330
1D
100
AcDbEntity
  8
0
100
AcDbLine
 10
200.5
 20
158.34995
 30
0.0
 11
200.5
 21
158.68195
 31
0.0
  0
LINE
  5
3DD
330
1D
100
AcDbEntity
  8
0
100
AcDbLine
 10
200.5
 20
158.34995
 30
0.0
 11
200.5
 21
157.94795
 31
0.0
  0
LINE
  5
3DE
330
1D
100
AcDbEntity
  8
0
100
AcDbLine
 10
200.5
 20
157.94795
 30
0.0
 11
200.5
 21
158.51795
 31
0.0
  0
LINE
  5
3DF
330
1D
100
AcDbEntity
  8
0
100
AcDbLine
 10
200.5
 20
157.94795
 30
0.0
 11
200.5
 21
158.34995
 31
0.0
  0
LINE
  5
3E0
330
1D
100
AcDbEntity
  8
0
100
AcDbLine
 10
200.5
 20
158.51795
 30
0.0
 11
200.5
 21
158.93995
 31
0.0
  0
LINE
  5
3E1
330
1D
100
AcDbEntity
  8
0
100
AcDbLine
 10
200.5
 20
158.51795
 30
0.0
 11
200.5
 21
157.94795
 31
0.0
  0
LINE
  5
3E2
330
1D
100
AcDbEntity
  8
0
100
AcDbLine
 10
200.5
 20
158.93995
 30
0.0
 11
200.5
 21
159.22995
 31
0.0
  0
LINE
  5
3E3
330
1D
100
AcDbEntity
  8
0
100
AcDbLine
 10
200.5
 20
158.93995
 30
0.0
 11
200.5
 21
158.51795
 31
0.0
  0
LINE
  5
3E4
330
1D
100
AcDbEntity
  8
0
100
AcDbLine
 10
200.5
 20
159.22995
 30
0.0
 11
200.5
 21
159.39695
 31
0.0
  0
LINE
  5
3E5
330
1D
100
AcDbEntity
  8
0
100
AcDbLine
 10
200.5
 20
159.22995
 30
0.0
 11
200.5
 21
158.93995
 31
0.0
  0
LINE
  5
3E6
330
1D
100
AcDbEntity
  8
0
100
AcDbLine
 10
200.5
 20
159.39695
 30
0.0
 11
200.5
 21
159.22995
 31
0.0
  0
LINE
  5
3E7
330
1D
100
AcDbEntity
  8
0
100
AcDbLine
 10
201.399
 20
160.38695
 30
0.0
 11
200.9361
 21
160.06195
 31
0.0
  0
LINE
  5
3E8
330
1D
100
AcDbEntity
  8
0
100
AcDbLine
 10
200.9361
 20
160.06195
 30
0.0
 11
200.3409
 21
159.94795
 31
0.0
  0
LINE
  5
3E9
330
1D
100
AcDbEntity
  8
0
100
AcDbLine
 10
200.5
 20
159.44595
 30
0.0
 11
200.5
 21
159.34695
 31
0.0
  0
LINE
  5
3EA
330
1D
100
AcDbEntity
  8
0
100
AcDbLine
 10
200.5
 20
159.34695
 30
0.0
 11
200.5
 21
159.09595
 31
0.0
  0
LINE
  5
3EB
330
1D
100
AcDbEntity
  8
0
100
AcDbLine
 10
200.5
 20
159.34695
 30
0.0
 11
200.5
 21
159.44595
 31
0.0
  0
LINE
  5
3EC
330
1D
100
AcDbEntity
  8
0
100
AcDbLine
 10
200.5
 20
159.09595
 30
0.0
 11
200.5
 21
158.68195
 31
0.0
  0
LINE
  5
3ED
330
1D
100
AcDbEntity
  8
0
100
AcDbLine
 10
200.5
 20
159.09595
 30
0.0
 11
200.5
 21
159.34695
 31
0.0
  0
LINE
  5
3EE
330
1D
100
AcDbEntity
  8
0
100
AcDbLine
 10
200.5
 20
158.68195
 30
0.0
 11
200.5
 21
158.34995
 31
0.0
  0
LINE
  5
3EF
330
1D
100
AcDbEntity
  8
0
100
AcDbLine
 10
200.5
 20
158.68195
 30
0.0
 11
200.5
 21
159.09595
 31
0.0
  0
LINE
  5
3F0
330
1D
100
AcDbEntity
  8
0
100
AcDbLine
 10
199.7894
 20
157.94795
 30
0.0
 11
198.9529
 21
157.94795
 31
0.0
  0
LINE
  5
3F1
330
1D
100
AcDbEntity
  8
0
100
AcDbLine
 10
199.881
 20
159.94795
 30
0.0
 11
199.608
 21
159.94795
 31
0.0
  0
LINE
  5
3F2
330
1D
100
AcDbEntity
  8
0
100
AcDbLine
 10
199.9961
 20
159.94795
 30
0.0
 11
199.881
 21
159.94795
 31
0.0
  0
LINE
  5
3F3
330
1D
100
AcDbEntity
  8
0
100
AcDbLine
 10
198.9529
 20
157.94795
 30
0.0
 11
197.5753
 21
158.54495
 31
0.0
  0
LINE
  5
3F4
330
1D
100
AcDbEntity
  8
0
100
AcDbLine
 10
197.5753
 20
158.54495
 30
0.0
 11
196.2945
 21
158.97295
 31
0.0
  0
LINE
  5
3F5
330
1D
100
AcDbEntity
  8
0
100
AcDbLine
 10
197.8827
 20
159.94795
 30
0.0
 11
197.0265
 21
159.94795
 31
0.0
  0
LINE
  5
3F6
330
1D
100
AcDbEntity
  8
0
100
AcDbLine
 10
198.6038
 20
159.94795
 30
0.0
 11
197.8827
 21
159.94795
 31
0.0
  0
LINE
  5
3F7
330
1D
100
AcDbEntity
  8
0
100
AcDbLine
 10
199.1806
 20
159.94795
 30
0.0
 11
198.6038
 21
159.94795
 31
0.0
  0
LINE
  5
3F8
330
1D
100
AcDbEntity
  8
0
100
AcDbLine
 10
199.608
 20
159.94795
 30
0.0
 11
199.1806
 21
159.94795
 31
0.0
  0
LINE
  5
3F9
330
1D
100
AcDbEntity
  8
0
100
AcDbLine
 10
195.0677
 20
159.25895
 30
0.0
 11
193.8736
 21
159.41395
 31
0.0
  0
LINE
  5
3FA
330
1D
100
AcDbEntity
  8
0
100
AcDbLine
 10
196.2945
 20
158.97295
 30
0.0
 11
195.0677
 21
159.25895
 31
0.0
  0
LINE
  5
3FB
330
1D
100
AcDbEntity
  8
0
100
AcDbLine
 10
194.9455
 20
159.94795
 30
0.0
 11
193.7437
 21
159.94795
 31
0.0
  0
LINE
  5
3FC
330
1D
100
AcDbEntity
  8
0
100
AcDbLine
 10
196.0437
 20
159.94795
 30
0.0
 11
194.9455
 21
159.94795
 31
0.0
  0
LINE
  5
3FD
330
1D
100
AcDbEntity
  8
0
100
AcDbLine
 10
197.0265
 20
159.94795
 30
0.0
 11
196.0437
 21
159.94795
 31
0.0
  0
LINE
  5
3FE
330
1D
100
AcDbEntity
  8
0
100
AcDbLine
 10
179.9165
 20
142.94795
 30
0.0
 11
178.5483
 21
142.94795
 31
0.0
  0
LINE
  5
3FF
330
1D
100
AcDbEntity
  8
0
100
AcDbLine
 10
180.695
 20
142.94795
 30
0.0
 11
179.2913
 21
142.94795
 31
0.0
  0
LINE
  5
400
330
1D
100
AcDbEntity
  8
0
100
AcDbLine
 10
180.8293
 20
143.79995
 30
0.0
 11
179.5087
 21
143.54895
 31
0.0
  0
LINE
  5
401
330
1D
100
AcDbEntity
  8
0
100
AcDbLine
 10
180.8291
 20
159.09595
 30
0.0
 11
179.5088
 21
159.34695
 31
0.0
  0
LINE
  5
402
330
1D
100
AcDbEntity
  8
0
100
AcDbLine
 10
180.695
 20
159.94795
 30
0.0
 11
179.2913
 21
159.94795
 31
0.0
  0
LINE
  5
403
330
1D
100
AcDbEntity
  8
0
100
AcDbLine
 10
186.6748
 20
142.94795
 30
0.0
 11
185.1578
 21
142.94795
 31
0.0
  0
LINE
  5
404
330
1D
100
AcDbEntity
  8
0
100
AcDbLine
 10
187.3557
 20
142.94795
 30
0.0
 11
185.8422
 21
142.94795
 31
0.0
  0
LINE
  5
405
330
1D
100
AcDbEntity
  8
0
100
AcDbLine
 10
187.0471
 20
144.94795
 30
0.0
 11
185.5
 21
144.94795
 31
0.0
  0
LINE
  5
406
330
1D
100
AcDbEntity
  8
0
100
AcDbLine
 10
192.4516
 20
142.94795
 30
0.0
 11
191.0835
 21
142.94795
 31
0.0
  0
LINE
  5
407
330
1D
100
AcDbEntity
  8
0
100
AcDbLine
 10
191.7087
 20
142.94795
 30
0.0
 11
190.305
 21
142.94795
 31
0.0
  0
LINE
  5
408
330
1D
100
AcDbEntity
  8
0
100
AcDbLine
 10
189.654
 20
142.94795
 30
0.0
 11
188.1793
 21
142.94795
 31
0.0
  0
LINE
  5
409
330
1D
100
AcDbEntity
  8
0
100
AcDbLine
 10
191.0835
 20
142.94795
 30
0.0
 11
189.654
 21
142.94795
 31
0.0
  0
LINE
  5
40A
330
1D
100
AcDbEntity
  8
0
100
AcDbLine
 10
193.0443
 20
142.94795
 30
0.0
 11
191.7087
 21
142.94795
 31
0.0
  0
LINE
  5
40B
330
1D
100
AcDbEntity
  8
0
100
AcDbLine
 10
190.305
 20
142.94795
 30
0.0
 11
188.8487
 21
142.94795
 31
0.0
  0
LINE
  5
40C
330
1D
100
AcDbEntity
  8
0
100
AcDbLine
 10
188.1793
 20
142.94795
 30
0.0
 11
186.6748
 21
142.94795
 31
0.0
  0
LINE
  5
40D
330
1D
100
AcDbEntity
  8
0
100
AcDbLine
 10
188.8487
 20
142.94795
 30
0.0
 11
187.3557
 21
142.94795
 31
0.0
  0
LINE
  5
40E
330
1D
100
AcDbEntity
  8
0
100
AcDbLine
 10
192.6934
 20
143.45195
 30
0.0
 11
191.4529
 21
143.55395
 31
0.0
  0
LINE
  5
40F
330
1D
100
AcDbEntity
  8
0
100
AcDbLine
 10
190.186
 20
143.79595
 30
0.0
 11
188.869
 21
144.18795
 31
0.0
  0
LINE
  5
410
330
1D
100
AcDbEntity
  8
0
100
AcDbLine
 10
191.4529
 20
143.55395
 30
0.0
 11
190.186
 21
143.79595
 31
0.0
  0
LINE
  5
411
330
1D
100
AcDbEntity
  8
0
100
AcDbLine
 10
188.869
 20
144.18795
 30
0.0
 11
187.4763
 21
144.74795
 31
0.0
  0
LINE
  5
412
330
1D
100
AcDbEntity
  8
0
100
AcDbLine
 10
187.4763
 20
144.74795
 30
0.0
 11
187.0471
 21
144.94795
 31
0.0
  0
LINE
  5
413
330
1D
100
AcDbEntity
  8
0
100
AcDbLine
 10
185.1578
 20
142.94795
 30
0.0
 11
183.6443
 21
142.94795
 31
0.0
  0
LINE
  5
414
330
1D
100
AcDbEntity
  8
0
100
AcDbLine
 10
184.3251
 20
142.94795
 30
0.0
 11
182.8208
 21
142.94795
 31
0.0
  0
LINE
  5
415
330
1D
100
AcDbEntity
  8
0
100
AcDbLine
 10
183.6443
 20
142.94795
 30
0.0
 11
182.1513
 21
142.94795
 31
0.0
  0
LINE
  5
416
330
1D
100
AcDbEntity
  8
0
100
AcDbLine
 10
182.1513
 20
142.94795
 30
0.0
 11
180.695
 21
142.94795
 31
0.0
  0
LINE
  5
417
330
1D
100
AcDbEntity
  8
0
100
AcDbLine
 10
185.8422
 20
142.94795
 30
0.0
 11
184.3251
 21
142.94795
 31
0.0
  0
LINE
  5
418
330
1D
100
AcDbEntity
  8
0
100
AcDbLine
 10
182.8208
 20
142.94795
 30
0.0
 11
181.3458
 21
142.94795
 31
0.0
  0
LINE
  5
419
330
1D
100
AcDbEntity
  8
0
100
AcDbLine
 10
181.3458
 20
142.94795
 30
0.0
 11
179.9165
 21
142.94795
 31
0.0
  0
LINE
  5
41A
330
1D
100
AcDbEntity
  8
0
100
AcDbLine
 10
182.2045
 20
144.21395
 30
0.0
 11
180.8293
 21
143.79995
 31
0.0
  0
LINE
  5
41B
330
1D
100
AcDbEntity
  8
0
100
AcDbLine
 10
183.9529
 20
144.94795
 30
0.0
 11
183.0604
 21
144.54595
 31
0.0
  0
LINE
  5
41C
330
1D
100
AcDbEntity
  8
0
100
AcDbLine
 10
183.0604
 20
144.54595
 30
0.0
 11
182.2045
 21
144.21395
 31
0.0
  0
LINE
  5
41D
330
1D
100
AcDbEntity
  8
0
100
AcDbLine
 10
185.5
 20
144.94795
 30
0.0
 11
183.9529
 21
144.94795
 31
0.0
  0
LINE
  5
41E
330
1D
100
AcDbEntity
  8
0
100
AcDbLine
 10
190.186
 20
159.09995
 30
0.0
 11
188.8692
 21
158.70795
 31
0.0
  0
LINE
  5
41F
330
1D
100
AcDbEntity
  8
0
100
AcDbLine
 10
188.8692
 20
158.70795
 30
0.0
 11
187.4762
 21
158.14795
 31
0.0
  0
LINE
  5
420
330
1D
100
AcDbEntity
  8
0
100
AcDbLine
 10
191.4529
 20
159.34195
 30
0.0
 11
190.186
 21
159.09995
 31
0.0
  0
LINE
  5
421
330
1D
100
AcDbEntity
  8
0
100
AcDbLine
 10
192.4516
 20
159.94795
 30
0.0
 11
191.0835
 21
159.94795
 31
0.0
  0
LINE
  5
422
330
1D
100
AcDbEntity
  8
0
100
AcDbLine
 10
192.6935
 20
159.44395
 30
0.0
 11
191.4529
 21
159.34195
 31
0.0
  0
LINE
  5
423
330
1D
100
AcDbEntity
  8
0
100
AcDbLine
 10
191.0835
 20
159.94795
 30
0.0
 11
189.6543
 21
159.94795
 31
0.0
  0
LINE
  5
424
330
1D
100
AcDbEntity
  8
0
100
AcDbLine
 10
189.6543
 20
159.94795
 30
0.0
 11
188.1793
 21
159.94795
 31
0.0
  0
LINE
  5
425
330
1D
100
AcDbEntity
  8
0
100
AcDbLine
 10
188.1793
 20
159.94795
 30
0.0
 11
186.6749
 21
159.94795
 31
0.0
  0
LINE
  5
426
330
1D
100
AcDbEntity
  8
0
100
AcDbLine
 10
183.9529
 20
157.94795
 30
0.0
 11
183.0604
 21
158.34995
 31
0.0
  0
LINE
  5
427
330
1D
100
AcDbEntity
  8
0
100
AcDbLine
 10
185.5001
 20
157.94795
 30
0.0
 11
183.9529
 21
157.94795
 31
0.0
  0
LINE
  5
428
330
1D
100
AcDbEntity
  8
0
100
AcDbLine
 10
185.1578
 20
159.94795
 30
0.0
 11
183.6443
 21
159.94795
 31
0.0
  0
LINE
  5
429
330
1D
100
AcDbEntity
  8
0
100
AcDbLine
 10
186.6749
 20
159.94795
 30
0.0
 11
185.1578
 21
159.94795
 31
0.0
  0
LINE
  5
42A
330
1D
100
AcDbEntity
  8
0
100
AcDbLine
 10
187.0471
 20
157.94795
 30
0.0
 11
185.5001
 21
157.94795
 31
0.0
  0
LINE
  5
42B
330
1D
100
AcDbEntity
  8
0
100
AcDbLine
 10
187.4762
 20
158.14795
 30
0.0
 11
187.0471
 21
157.94795
 31
0.0
  0
LINE
  5
42C
330
1D
100
AcDbEntity
  8
0
100
AcDbLine
 10
183.6443
 20
159.94795
 30
0.0
 11
182.1516
 21
159.94795
 31
0.0
  0
LINE
  5
42D
330
1D
100
AcDbEntity
  8
0
100
AcDbLine
 10
182.1516
 20
159.94795
 30
0.0
 11
180.695
 21
159.94795
 31
0.0
  0
LINE
  5
42E
330
1D
100
AcDbEntity
  8
0
100
AcDbLine
 10
182.2045
 20
158.68195
 30
0.0
 11
180.8291
 21
159.09595
 31
0.0
  0
LINE
  5
42F
330
1D
100
AcDbEntity
  8
0
100
AcDbLine
 10
183.0604
 20
158.34995
 30
0.0
 11
182.2045
 21
158.68195
 31
0.0
  0
LINE
  5
430
330
1D
100
AcDbEntity
  8
0
100
AcDbLine
 10
170.5
 20
144.94795
 30
0.0
 11
170.5
 21
157.94795
 31
0.0
  0
LINE
  5
431
330
1D
100
AcDbEntity
  8
0
100
AcDbLine
 10
172.7749
 20
142.94795
 30
0.0
 11
172.118
 21
142.94795
 31
0.0
  0
LINE
  5
432
330
1D
100
AcDbEntity
  8
0
100
AcDbLine
 10
173.1171
 20
142.94795
 30
0.0
 11
172.3962
 21
142.94795
 31
0.0
  0
LINE
  5
433
330
1D
100
AcDbEntity
  8
0
100
AcDbLine
 10
173.3564
 20
144.37795
 30
0.0
 11
172.0471
 21
144.94795
 31
0.0
  0
LINE
  5
434
330
1D
100
AcDbEntity
  8
0
100
AcDbLine
 10
179.2913
 20
142.94795
 30
0.0
 11
177.9557
 21
142.94795
 31
0.0
  0
LINE
  5
435
330
1D
100
AcDbEntity
  8
0
100
AcDbLine
 10
177.9557
 20
142.94795
 30
0.0
 11
176.7027
 21
142.94795
 31
0.0
  0
LINE
  5
436
330
1D
100
AcDbEntity
  8
0
100
AcDbLine
 10
178.5483
 20
142.94795
 30
0.0
 11
177.2564
 21
142.94795
 31
0.0
  0
LINE
  5
437
330
1D
100
AcDbEntity
  8
0
100
AcDbLine
 10
176.7027
 20
142.94795
 30
0.0
 11
175.5459
 21
142.94795
 31
0.0
  0
LINE
  5
438
330
1D
100
AcDbEntity
  8
0
100
AcDbLine
 10
175.5459
 20
142.94795
 30
0.0
 11
174.4985
 21
142.94795
 31
0.0
  0
LINE
  5
439
330
1D
100
AcDbEntity
  8
0
100
AcDbLine
 10
177.2564
 20
142.94795
 30
0.0
 11
176.0545
 21
142.94795
 31
0.0
  0
LINE
  5
43A
330
1D
100
AcDbEntity
  8
0
100
AcDbLine
 10
176.0545
 20
142.94795
 30
0.0
 11
174.9563
 21
142.94795
 31
0.0
  0
LINE
  5
43B
330
1D
100
AcDbEntity
  8
0
100
AcDbLine
 10
174.4985
 20
142.94795
 30
0.0
 11
173.5712
 21
142.94795
 31
0.0
  0
LINE
  5
43C
330
1D
100
AcDbEntity
  8
0
100
AcDbLine
 10
173.5712
 20
142.94795
 30
0.0
 11
172.7749
 21
142.94795
 31
0.0
  0
LINE
  5
43D
330
1D
100
AcDbEntity
  8
0
100
AcDbLine
 10
174.9563
 20
142.94795
 30
0.0
 11
173.9738
 21
142.94795
 31
0.0
  0
LINE
  5
43E
330
1D
100
AcDbEntity
  8
0
100
AcDbLine
 10
173.9738
 20
142.94795
 30
0.0
 11
173.1171
 21
142.94795
 31
0.0
  0
LINE
  5
43F
330
1D
100
AcDbEntity
  8
0
100
AcDbLine
 10
178.2167
 20
143.44995
 30
0.0
 11
176.9282
 21
143.49895
 31
0.0
  0
LINE
  5
440
330
1D
100
AcDbEntity
  8
0
100
AcDbLine
 10
179.5087
 20
143.54895
 30
0.0
 11
178.2167
 21
143.44995
 31
0.0
  0
LINE
  5
441
330
1D
100
AcDbEntity
  8
0
100
AcDbLine
 10
176.9282
 20
143.49895
 30
0.0
 11
175.7766
 21
143.66595
 31
0.0
  0
LINE
  5
442
330
1D
100
AcDbEntity
  8
0
100
AcDbLine
 10
175.7766
 20
143.66595
 30
0.0
 11
174.5923
 21
143.95595
 31
0.0
  0
LINE
  5
443
330
1D
100
AcDbEntity
  8
0
100
AcDbLine
 10
174.5923
 20
143.95595
 30
0.0
 11
173.3564
 21
144.37795
 31
0.0
  0
LINE
  5
444
330
1D
100
AcDbEntity
  8
0
100
AcDbLine
 10
172.118
 20
142.94795
 30
0.0
 11
171.6077
 21
142.94795
 31
0.0
  0
LINE
  5
445
330
1D
100
AcDbEntity
  8
0
100
AcDbLine
 10
171.6077
 20
142.94795
 30
0.0
 11
171.2498
 21
142.94795
 31
0.0
  0
LINE
  5
446
330
1D
100
AcDbEntity
  8
0
100
AcDbLine
 10
171.2498
 20
142.94795
 30
0.0
 11
171.0476
 21
142.94795
 31
0.0
  0
LINE
  5
447
330
1D
100
AcDbEntity
  8
0
100
AcDbLine
 10
171.1191
 20
142.94795
 30
0.0
 11
171.004
 21
142.94795
 31
0.0
  0
LINE
  5
448
330
1D
100
AcDbEntity
  8
0
100
AcDbLine
 10
171.004
 20
142.94795
 30
0.0
 11
170.5
 21
143.44995
 31
0.0
  0
LINE
  5
449
330
1D
100
AcDbEntity
  8
0
100
AcDbLine
 10
171.392
 20
142.94795
 30
0.0
 11
171.1191
 21
142.94795
 31
0.0
  0
LINE
  5
44A
330
1D
100
AcDbEntity
  8
0
100
AcDbLine
 10
171.8194
 20
142.94795
 30
0.0
 11
171.392
 21
142.94795
 31
0.0
  0
LINE
  5
44B
330
1D
100
AcDbEntity
  8
0
100
AcDbLine
 10
172.3962
 20
142.94795
 30
0.0
 11
171.8194
 21
142.94795
 31
0.0
  0
LINE
  5
44C
330
1D
100
AcDbEntity
  8
0
100
AcDbLine
 10
170.5
 20
143.44995
 30
0.0
 11
170.5
 21
143.54895
 31
0.0
  0
LINE
  5
44D
330
1D
100
AcDbEntity
  8
0
100
AcDbLine
 10
170.5
 20
144.94795
 30
0.0
 11
170.5
 21
144.54595
 31
0.0
  0
LINE
  5
44E
330
1D
100
AcDbEntity
  8
0
100
AcDbLine
 10
172.0471
 20
144.94795
 30
0.0
 11
171.2105
 21
144.94795
 31
0.0
  0
LINE
  5
44F
330
1D
100
AcDbEntity
  8
0
100
AcDbLine
 10
170.5
 20
144.54595
 30
0.0
 11
170.5
 21
144.21395
 31
0.0
  0
LINE
  5
450
330
1D
100
AcDbEntity
  8
0
100
AcDbLine
 10
170.5
 20
144.54595
 30
0.0
 11
170.5
 21
144.94795
 31
0.0
  0
LINE
  5
451
330
1D
100
AcDbEntity
  8
0
100
AcDbLine
 10
170.5
 20
144.21395
 30
0.0
 11
170.5
 21
143.79995
 31
0.0
  0
LINE
  5
452
330
1D
100
AcDbEntity
  8
0
100
AcDbLine
 10
170.5
 20
144.21395
 30
0.0
 11
170.5
 21
144.54595
 31
0.0
  0
LINE
  5
453
330
1D
100
AcDbEntity
  8
0
100
AcDbLine
 10
170.5
 20
143.79995
 30
0.0
 11
170.5
 21
143.54895
 31
0.0
  0
LINE
  5
454
330
1D
100
AcDbEntity
  8
0
100
AcDbLine
 10
170.5
 20
143.79995
 30
0.0
 11
170.5
 21
144.21395
 31
0.0
  0
LINE
  5
455
330
1D
100
AcDbEntity
  8
0
100
AcDbLine
 10
170.5
 20
143.54895
 30
0.0
 11
170.5
 21
143.44995
 31
0.0
  0
LINE
  5
456
330
1D
100
AcDbEntity
  8
0
100
AcDbLine
 10
170.5
 20
143.54895
 30
0.0
 11
170.5
 21
143.79995
 31
0.0
  0
LINE
  5
457
330
1D
100
AcDbEntity
  8
0
100
AcDbLine
 10
171.2105
 20
144.94795
 30
0.0
 11
170.5
 21
144.94795
 31
0.0
  0
LINE
  5
458
330
1D
100
AcDbEntity
  8
0
100
AcDbLine
 10
173.3562
 20
158.51795
 30
0.0
 11
172.047
 21
157.94795
 31
0.0
  0
LINE
  5
459
330
1D
100
AcDbEntity
  8
0
100
AcDbLine
 10
172.775
 20
159.94795
 30
0.0
 11
172.118
 21
159.94795
 31
0.0
  0
LINE
  5
45A
330
1D
100
AcDbEntity
  8
0
100
AcDbLine
 10
174.5923
 20
158.93995
 30
0.0
 11
173.3562
 21
158.51795
 31
0.0
  0
LINE
  5
45B
330
1D
100
AcDbEntity
  8
0
100
AcDbLine
 10
175.7766
 20
159.22995
 30
0.0
 11
174.5923
 21
158.93995
 31
0.0
  0
LINE
  5
45C
330
1D
100
AcDbEntity
  8
0
100
AcDbLine
 10
176.9282
 20
159.39695
 30
0.0
 11
175.7766
 21
159.22995
 31
0.0
  0
LINE
  5
45D
330
1D
100
AcDbEntity
  8
0
100
AcDbLine
 10
173.5712
 20
159.94795
 30
0.0
 11
172.775
 21
159.94795
 31
0.0
  0
LINE
  5
45E
330
1D
100
AcDbEntity
  8
0
100
AcDbLine
 10
174.4984
 20
159.94795
 30
0.0
 11
173.5712
 21
159.94795
 31
0.0
  0
LINE
  5
45F
330
1D
100
AcDbEntity
  8
0
100
AcDbLine
 10
175.546
 20
159.94795
 30
0.0
 11
174.4984
 21
159.94795
 31
0.0
  0
LINE
  5
460
330
1D
100
AcDbEntity
  8
0
100
AcDbLine
 10
176.7029
 20
159.94795
 30
0.0
 11
175.546
 21
159.94795
 31
0.0
  0
LINE
  5
461
330
1D
100
AcDbEntity
  8
0
100
AcDbLine
 10
177.9557
 20
159.94795
 30
0.0
 11
176.7029
 21
159.94795
 31
0.0
  0
LINE
  5
462
330
1D
100
AcDbEntity
  8
0
100
AcDbLine
 10
178.2167
 20
159.44595
 30
0.0
 11
176.9282
 21
159.39695
 31
0.0
  0
LINE
  5
463
330
1D
100
AcDbEntity
  8
0
100
AcDbLine
 10
179.2913
 20
159.94795
 30
0.0
 11
177.9557
 21
159.94795
 31
0.0
  0
LINE
  5
464
330
1D
100
AcDbEntity
  8
0
100
AcDbLine
 10
179.5088
 20
159.34695
 30
0.0
 11
178.2167
 21
159.44595
 31
0.0
  0
LINE
  5
465
330
1D
100
AcDbEntity
  8
0
100
AcDbLine
 10
170.5
 20
157.94795
 30
0.0
 11
170.5
 21
158.51795
 31
0.0
  0
LINE
  5
466
330
1D
100
AcDbEntity
  8
0
100
AcDbLine
 10
171.2106
 20
157.94795
 30
0.0
 11
170.5
 21
157.94795
 31
0.0
  0
LINE
  5
467
330
1D
100
AcDbEntity
  8
0
100
AcDbLine
 10
172.047
 20
157.94795
 30
0.0
 11
171.2106
 21
157.94795
 31
0.0
  0
LINE
  5
468
330
1D
100
AcDbEntity
  8
0
100
AcDbLine
 10
170.5
 20
158.93995
 30
0.0
 11
170.5
 21
158.51795
 31
0.0
  0
LINE
  5
469
330
1D
100
AcDbEntity
  8
0
100
AcDbLine
 10
170.5
 20
158.93995
 30
0.0
 11
170.5
 21
159.22995
 31
0.0
  0
LINE
  5
46A
330
1D
100
AcDbEntity
  8
0
100
AcDbLine
 10
170.5
 20
158.51795
 30
0.0
 11
170.5
 21
157.94795
 31
0.0
  0
LINE
  5
46B
330
1D
100
AcDbEntity
  8
0
100
AcDbLine
 10
170.5
 20
158.51795
 30
0.0
 11
170.5
 21
158.93995
 31
0.0
  0
LINE
  5
46C
330
1D
100
AcDbEntity
  8
0
100
AcDbLine
 10
170.5
 20
159.22995
 30
0.0
 11
170.5
 21
158.93995
 31
0.0
  0
LINE
  5
46D
330
1D
100
AcDbEntity
  8
0
100
AcDbLine
 10
170.5
 20
159.22995
 30
0.0
 11
170.5
 21
159.39695
 31
0.0
  0
LINE
  5
46E
330
1D
100
AcDbEntity
  8
0
100
AcDbLine
 10
170.5
 20
159.39695
 30
0.0
 11
170.5
 21
159.22995
 31
0.0
  0
LINE
  5
46F
330
1D
100
AcDbEntity
  8
0
100
AcDbLine
 10
171.2498
 20
159.94795
 30
0.0
 11
171.0478
 21
159.94795
 31
0.0
  0
LINE
  5
470
330
1D
100
AcDbEntity
  8
0
100
AcDbLine
 10
171.6079
 20
159.94795
 30
0.0
 11
171.2498
 21
159.94795
 31
0.0
  0
LINE
  5
471
330
1D
100
AcDbEntity
  8
0
100
AcDbLine
 10
172.118
 20
159.94795
 30
0.0
 11
171.6079
 21
159.94795
 31
0.0
  0
LINE
  5
472
330
1D
100
AcDbEntity
  8
0
100
AcDbLine
 10
170.962
 20
159.94795
 30
0.0
 11
170.6595
 21
159.94795
 31
0.0
  0
LINE
  5
473
330
1D
100
AcDbEntity
  8
0
100
AcDbLine
 10
170.6591
 20
159.94795
 30
0.0
 11
170.0639
 21
160.06195
 31
0.0
  0
LINE
  5
474
330
1D
100
AcDbEntity
  8
0
100
AcDbLine
 10
171.004
 20
159.94795
 30
0.0
 11
170.5
 21
159.44595
 31
0.0
  0
LINE
  5
475
330
1D
100
AcDbEntity
  8
0
100
AcDbLine
 10
170.0639
 20
160.06195
 30
0.0
 11
169.601
 21
160.38695
 31
0.0
  0
LINE
  5
476
330
1D
100
AcDbEntity
  8
0
100
AcDbLine
 10
196.3021
 20
184.94795
 30
0.0
 11
193.0388
 21
184.94795
 31
0.0
  0
LINE
  5
477
330
1D
100
AcDbEntity
  8
0
100
AcDbLine
 10
220.99
 20
184.94795
 30
0.0
 11
220.748
 21
184.94795
 31
0.0
  0
LINE
  5
478
330
1D
100
AcDbEntity
  8
0
100
AcDbLine
 10
220.99
 20
184.94795
 30
0.0
 11
220.99
 21
181.19095
 31
0.0
  0
LINE
  5
479
330
1D
100
AcDbEntity
  8
0
100
AcDbLine
 10
220.99
 20
181.19095
 30
0.0
 11
220.888
 21
180.41395
 31
0.0
  0
LINE
  5
47A
330
1D
100
AcDbEntity
  8
0
100
AcDbLine
 10
220.99
 20
181.19095
 30
0.0
 11
220.99
 21
184.94795
 31
0.0
  0
LINE
  5
47B
330
1D
100
AcDbEntity
  8
0
100
AcDbLine
 10
220.748
 20
184.94795
 30
0.0
 11
220.187
 21
184.94795
 31
0.0
  0
LINE
  5
47C
330
1D
100
AcDbEntity
  8
0
100
AcDbLine
 10
220.187
 20
184.94795
 30
0.0
 11
219.312
 21
184.94795
 31
0.0
  0
LINE
  5
47D
330
1D
100
AcDbEntity
  8
0
100
AcDbLine
 10
220.588
 20
179.69095
 30
0.0
 11
220.111
 21
179.06895
 31
0.0
  0
LINE
  5
47E
330
1D
100
AcDbEntity
  8
0
100
AcDbLine
 10
220.888
 20
180.41395
 30
0.0
 11
220.588
 21
179.69095
 31
0.0
  0
LINE
  5
47F
330
1D
100
AcDbEntity
  8
0
100
AcDbLine
 10
219.312
 20
184.94795
 30
0.0
 11
218.13
 21
184.94795
 31
0.0
  0
LINE
  5
480
330
1D
100
AcDbEntity
  8
0
100
AcDbLine
 10
218.13
 20
184.94795
 30
0.0
 11
216.654
 21
184.94795
 31
0.0
  0
LINE
  5
481
330
1D
100
AcDbEntity
  8
0
100
AcDbLine
 10
216.654
 20
184.94795
 30
0.0
 11
214.895
 21
184.94795
 31
0.0
  0
LINE
  5
482
330
1D
100
AcDbEntity
  8
0
100
AcDbLine
 10
214.895
 20
184.94795
 30
0.0
 11
212.87
 21
184.94795
 31
0.0
  0
LINE
  5
483
330
1D
100
AcDbEntity
  8
0
100
AcDbLine
 10
212.87
 20
184.94795
 30
0.0
 11
210.597
 21
184.94795
 31
0.0
  0
LINE
  5
484
330
1D
100
AcDbEntity
  8
0
100
AcDbLine
 10
210.597
 20
184.94795
 30
0.0
 11
208.0968
 21
184.94795
 31
0.0
  0
LINE
  5
485
330
1D
100
AcDbEntity
  8
0
100
AcDbLine
 10
208.0968
 20
184.94795
 30
0.0
 11
205.3918
 21
184.94795
 31
0.0
  0
LINE
  5
486
330
1D
100
AcDbEntity
  8
0
100
AcDbLine
 10
205.3918
 20
184.94795
 30
0.0
 11
202.507
 21
184.94795
 31
0.0
  0
LINE
  5
487
330
1D
100
AcDbEntity
  8
0
100
AcDbLine
 10
202.507
 20
184.94795
 30
0.0
 11
199.4682
 21
184.94795
 31
0.0
  0
LINE
  5
488
330
1D
100
AcDbEntity
  8
0
100
AcDbLine
 10
199.4682
 20
184.94795
 30
0.0
 11
196.3021
 21
184.94795
 31
0.0
  0
LINE
  5
489
330
1D
100
AcDbEntity
  8
0
100
AcDbLine
 10
193.0388
 20
184.94795
 30
0.0
 11
189.7072
 21
184.94795
 31
0.0
  0
LINE
  5
48A
330
1D
100
AcDbEntity
  8
0
100
AcDbLine
 10
189.7072
 20
184.94795
 30
0.0
 11
186.3378
 21
184.94795
 31
0.0
  0
LINE
  5
48B
330
1D
100
AcDbEntity
  8
0
100
AcDbLine
 10
186.3378
 20
184.94795
 30
0.0
 11
182.9607
 21
184.94795
 31
0.0
  0
LINE
  5
48C
330
1D
100
AcDbEntity
  8
0
100
AcDbLine
 10
182.9607
 20
184.94795
 30
0.0
 11
179.6064
 21
184.94795
 31
0.0
  0
LINE
  5
48D
330
1D
100
AcDbEntity
  8
0
100
AcDbLine
 10
179.6064
 20
184.94795
 30
0.0
 11
176.3052
 21
184.94795
 31
0.0
  0
LINE
  5
48E
330
1D
100
AcDbEntity
  8
0
100
AcDbLine
 10
176.3052
 20
184.94795
 30
0.0
 11
173.0872
 21
184.94795
 31
0.0
  0
LINE
  5
48F
330
1D
100
AcDbEntity
  8
0
100
AcDbLine
 10
173.0872
 20
184.94795
 30
0.0
 11
169.9815
 21
184.94795
 31
0.0
  0
LINE
  5
490
330
1D
100
AcDbEntity
  8
0
100
AcDbLine
 10
169.9815
 20
184.94795
 30
0.0
 11
167.0172
 21
184.94795
 31
0.0
  0
LINE
  5
491
330
1D
100
AcDbEntity
  8
0
100
AcDbLine
 10
133.7657
 20
112.19695
 30
0.0
 11
133.1032
 21
111.35495
 31
0.0
  0
LINE
  5
492
330
1D
100
AcDbEntity
  8
0
100
AcDbLine
 10
140.3354
 20
114.02695
 30
0.0
 11
138.0914
 21
113.96295
 31
0.0
  0
LINE
  5
493
330
1D
100
AcDbEntity
  8
0
100
AcDbLine
 10
138.0914
 20
113.96295
 30
0.0
 11
137.0245
 21
113.82195
 31
0.0
  0
LINE
  5
494
330
1D
100
AcDbEntity
  8
0
100
AcDbLine
 10
137.0245
 20
113.82195
 30
0.0
 11
135.5535
 21
113.39395
 31
0.0
  0
LINE
  5
495
330
1D
100
AcDbEntity
  8
0
100
AcDbLine
 10
135.5535
 20
113.39395
 30
0.0
 11
134.5879
 21
112.87995
 31
0.0
  0
LINE
  5
496
330
1D
100
AcDbEntity
  8
0
100
AcDbLine
 10
134.5879
 20
112.87995
 30
0.0
 11
133.7657
 21
112.19695
 31
0.0
  0
LINE
  5
497
330
1D
100
AcDbEntity
  8
0
100
AcDbLine
 10
164.2197
 20
184.94795
 30
0.0
 11
161.6153
 21
184.94795
 31
0.0
  0
LINE
  5
498
330
1D
100
AcDbEntity
  8
0
100
AcDbLine
 10
161.6153
 20
184.94795
 30
0.0
 11
159.2266
 21
184.94795
 31
0.0
  0
LINE
  5
499
330
1D
100
AcDbEntity
  8
0
100
AcDbLine
 10
159.2266
 20
184.94795
 30
0.0
 11
157.0762
 21
184.94795
 31
0.0
  0
LINE
  5
49A
330
1D
100
AcDbEntity
  8
0
100
AcDbLine
 10
157.0762
 20
184.94795
 30
0.0
 11
155.183
 21
184.94795
 31
0.0
  0
LINE
  5
49B
330
1D
100
AcDbEntity
  8
0
100
AcDbLine
 10
155.183
 20
184.94795
 30
0.0
 11
153.5649
 21
184.94795
 31
0.0
  0
LINE
  5
49C
330
1D
100
AcDbEntity
  8
0
100
AcDbLine
 10
153.5649
 20
184.94795
 30
0.0
 11
152.2363
 21
184.94795
 31
0.0
  0
LINE
  5
49D
330
1D
100
AcDbEntity
  8
0
100
AcDbLine
 10
152.2363
 20
184.94795
 30
0.0
 11
151.2082
 21
184.94795
 31
0.0
  0
LINE
  5
49E
330
1D
100
AcDbEntity
  8
0
100
AcDbLine
 10
151.2082
 20
184.94795
 30
0.0
 11
150.4902
 21
184.94795
 31
0.0
  0
LINE
  5
49F
330
1D
100
AcDbEntity
  8
0
100
AcDbLine
 10
150.4119
 20
179.69095
 30
0.0
 11
150.1119
 21
180.41395
 31
0.0
  0
LINE
  5
4A0
330
1D
100
AcDbEntity
  8
0
100
AcDbLine
 10
150.4902
 20
184.94795
 30
0.0
 11
150.0895
 21
184.94795
 31
0.0
  0
LINE
  5
4A1
330
1D
100
AcDbEntity
  8
0
100
AcDbLine
 10
150.0895
 20
184.94795
 30
0.0
 11
150.0102
 21
184.94795
 31
0.0
  0
LINE
  5
4A2
330
1D
100
AcDbEntity
  8
0
100
AcDbLine
 10
150.0102
 20
184.94795
 30
0.0
 11
150.0102
 21
181.19095
 31
0.0
  0
LINE
  5
4A3
330
1D
100
AcDbEntity
  8
0
100
AcDbLine
 10
150.0102
 20
181.19095
 30
0.0
 11
150.0102
 21
184.94795
 31
0.0
  0
LINE
  5
4A4
330
1D
100
AcDbEntity
  8
0
100
AcDbLine
 10
150.1119
 20
180.41395
 30
0.0
 11
150.0102
 21
181.19095
 31
0.0
  0
LINE
  5
4A5
330
1D
100
AcDbEntity
  8
0
100
AcDbLine
 10
150.8888
 20
179.06895
 30
0.0
 11
150.4119
 21
179.69095
 31
0.0
  0
LINE
  5
4A6
330
1D
100
AcDbEntity
  8
0
100
AcDbLine
 10
107.41
 20
82.94795
 30
0.0
 11
113.59
 21
82.94795
 31
0.0
  0
LINE
  5
4A7
330
1D
100
AcDbEntity
  8
0
100
AcDbLine
 10
90.406007045354
 20
80.442819225529
 30
0.0
 11
130.587888353777
 21
80.442820243811
 31
0.0
  0
ENDSEC
  0
SECTION
  2
OBJECTS
  0
DICTIONARY
  5
C
330
0
100
AcDbDictionary
281
     1
  3
ACAD_GROUP
350
D
  3
ACAD_LAYOUT
350
1A
  3
ACAD_MLEADERSTYLE
350
4AA
  3
ACAD_MLINESTYLE
350
17
  3
ACAD_PLOTSETTINGS
350
19
  3
ACAD_PLOTSTYLENAME
350
E
  3
ACAD_SCALELIST
350
312
  3
AcDbVariableDictionary
350
4A8
  3
DWGPROPS
350
4AD
  0
DICTIONARY
  5
D
102
{ACAD_REACTORS
330
C
102
}
330
C
100
AcDbDictionary
281
     1
  0
DICTIONARY
  5
1A
102
{ACAD_REACTORS
330
C
102
}
330
C
100
AcDbDictionary
281
     1
  3
Layout1
350
1C
  3
Model
350
1E
  0
DICTIONARY
  5
4AA
102
{ACAD_REACTORS
330
C
102
}
330
C
100
AcDbDictionary
281
     1
  0
DICTIONARY
  5
17
102
{ACAD_REACTORS
330
C
102
}
330
C
100
AcDbDictionary
281
     1
  3
Standard
350
18
  0
DICTIONARY
  5
19
102
{ACAD_REACTORS
330
C
102
}
330
C
100
AcDbDictionary
281
     1
  0
ACDBDICTIONARYWDFLT
  5
E
102
{ACAD_REACTORS
330
C
102
}
330
C
100
AcDbDictionary
281
     1
  3
Normal
350
F
100
AcDbDictionaryWithDefault
340
F
  0
DICTIONARY
  5
312
102
{ACAD_REACTORS
330
C
102
}
330
C
100
AcDbDictionary
281
     1
  3
A0
350
313
  3
A1
350
314
  3
A2
350
315
  3
A3
350
316
  3
A4
350
317
  3
A5
350
318
  3
A6
350
319
  3
A7
350
31A
  3
A8
350
31B
  3
A9
350
31C
  3
B0
350
31D
  3
B1
350
31E
  3
B2
350
31F
  3
B3
350
320
  3
B4
350
321
  3
B5
350
322
  3
B6
350
323
  3
B7
350
324
  3
B8
350
325
  3
B9
350
326
  3
C0
350
327
  3
C1
350
328
  3
C2
350
329
  3
C3
350
32A
  3
C4
350
32B
  3
C5
350
32C
  3
C6
350
32D
  3
C7
350
32E
  3
C8
350
32F
  3
C9
350
330
  3
D0
350
331
  3
D1
350
332
  3
D2
350
333
  0
DICTIONARY
  5
4A8
102
{ACAD_REACTORS
330
C
102
}
330
C
100
AcDbDictionary
281
     1
  3
CANNOSCALE
350
4AB
  0
XRECORD
  5
4AD
102
{ACAD_REACTORS
330
C
102
}
330
C
100
AcDbXrecord
280
     1
  1
DWGPROPS COOKIE
  2

  3

  4

  6

  7

  8
MARTIN
  9

300
=
301
=
302
=
303
=
304
=
305
=
306
=
307
=
308
=
309
=
 40
0.0
 41
2456645.854752604
 42
2456645.861000428
  1

 90
        0
  0
LAYOUT
  5
1C
102
{ACAD_REACTORS
330
1A
102
}
330
1A
100
AcDbPlotSettings
  1

  2
none_device
  4

  6

 40
0.0
 41
0.0
 42
0.0
 43
0.0
 44
0.0
 45
0.0
 46
0.0
 47
0.0
 48
0.0
 49
0.0
140
0.0
141
0.0
142
1.0
143
1.0
 70
   688
 72
     0
 73
     0
 74
     5
  7

 75
    16
147
1.0
148
0.0
149
0.0
100
AcDbLayout
  1
Layout1
 70
     1
 71
     1
 10
0.0
 20
0.0
 11
12.0
 21
9.0
 12
0.0
 22
0.0
 32
0.0
 14
1.000000000000E+20
 24
1.000000000000E+20
 34
1.000000000000E+20
 15
-1.000000000000E+20
 25
-1.000000000000E+20
 35
-1.000000000000E+20
146
0.0
 13
0.0
 23
0.0
 33
0.0
 16
1.0
 26
0.0
 36
0.0
 17
0.0
 27
1.0
 37
0.0
 76
     0
330
1B
  0
LAYOUT
  5
1E
102
{ACAD_REACTORS
330
1A
102
}
330
1A
100
AcDbPlotSettings
  1

  2
none_device
  4

  6

 40
0.0
 41
0.0
 42
0.0
 43
0.0
 44
0.0
 45
0.0
 46
0.0
 47
0.0
 48
0.0
 49
0.0
140
0.0
141
0.0
142
1.0
143
1.0
 70
  1712
 72
     0
 73
     0
 74
     0
  7

 75
     0
147
1.0
148
0.0
149
0.0
100
AcDbLayout
  1
Model
 70
     1
 71
     0
 10
0.0
 20
0.0
 11
12.0
 21
9.0
 12
0.0
 22
0.0
 32
0.0
 14
0.01
 24
0.05205
 34
0.0
 15
220.99
 25
184.94795
 35
0.0
146
0.0
 13
0.0
 23
0.0
 33
0.0
 16
1.0
 26
0.0
 36
0.0
 17
0.0
 27
1.0
 37
0.0
 76
     0
330
1D
331
30D
  0
MLINESTYLE
  5
18
102
{ACAD_REACTORS
330
17
102
}
330
17
100
AcDbMlineStyle
  2
Standard
 70
     0
  3

 62
   256
 51
90.0
 52
90.0
 71
     2
 49
0.5
 62
   256
  6
BYLAYER
 49
-0.5
 62
   256
  6
BYLAYER
  0
ACDBPLACEHOLDER
  5
F
102
{ACAD_REACTORS
330
E
102
}
330
E
  0
SCALE
  5
313
102
{ACAD_REACTORS
330
312
102
}
330
312
100
AcDbScale
 70
     0
300
1:1
140
1.0
141
1.0
290
     1
  0
SCALE
  5
314
102
{ACAD_REACTORS
330
312
102
}
330
312
100
AcDbScale
 70
     0
300
1:2
140
1.0
141
2.0
290
     0
  0
SCALE
  5
315
102
{ACAD_REACTORS
330
312
102
}
330
312
100
AcDbScale
 70
     0
300
1:4
140
1.0
141
4.0
290
     0
  0
SCALE
  5
316
102
{ACAD_REACTORS
330
312
102
}
330
312
100
AcDbScale
 70
     0
300
1:5
140
1.0
141
5.0
290
     0
  0
SCALE
  5
317
102
{ACAD_REACTORS
330
312
102
}
330
312
100
AcDbScale
 70
     0
300
1:8
140
1.0
141
8.0
290
     0
  0
SCALE
  5
318
102
{ACAD_REACTORS
330
312
102
}
330
312
100
AcDbScale
 70
     0
300
1:10
140
1.0
141
10.0
290
     0
  0
SCALE
  5
319
102
{ACAD_REACTORS
330
312
102
}
330
312
100
AcDbScale
 70
     0
300
1:16
140
1.0
141
16.0
290
     0
  0
SCALE
  5
31A
102
{ACAD_REACTORS
330
312
102
}
330
312
100
AcDbScale
 70
     0
300
1:20
140
1.0
141
20.0
290
     0
  0
SCALE
  5
31B
102
{ACAD_REACTORS
330
312
102
}
330
312
100
AcDbScale
 70
     0
300
1:30
140
1.0
141
30.0
290
     0
  0
SCALE
  5
31C
102
{ACAD_REACTORS
330
312
102
}
330
312
100
AcDbScale
 70
     0
300
1:40
140
1.0
141
40.0
290
     0
  0
SCALE
  5
31D
102
{ACAD_REACTORS
330
312
102
}
330
312
100
AcDbScale
 70
     0
300
1:50
140
1.0
141
50.0
290
     0
  0
SCALE
  5
31E
102
{ACAD_REACTORS
330
312
102
}
330
312
100
AcDbScale
 70
     0
300
1:100
140
1.0
141
100.0
290
     0
  0
SCALE
  5
31F
102
{ACAD_REACTORS
330
312
102
}
330
312
100
AcDbScale
 70
     0
300
2:1
140
2.0
141
1.0
290
     0
  0
SCALE
  5
320
102
{ACAD_REACTORS
330
312
102
}
330
312
100
AcDbScale
 70
     0
300
4:1
140
4.0
141
1.0
290
     0
  0
SCALE
  5
321
102
{ACAD_REACTORS
330
312
102
}
330
312
100
AcDbScale
 70
     0
300
8:1
140
8.0
141
1.0
290
     0
  0
SCALE
  5
322
102
{ACAD_REACTORS
330
312
102
}
330
312
100
AcDbScale
 70
     0
300
10:1
140
10.0
141
1.0
290
     0
  0
SCALE
  5
323
102
{ACAD_REACTORS
330
312
102
}
330
312
100
AcDbScale
 70
     0
300
100:1
140
100.0
141
1.0
290
     0
  0
SCALE
  5
324
102
{ACAD_REACTORS
330
312
102
}
330
312
100
AcDbScale
 70
     0
300
1/128" = 1'-0"
140
0.0078125
141
12.0
290
     0
  0
SCALE
  5
325
102
{ACAD_REACTORS
330
312
102
}
330
312
100
AcDbScale
 70
     0
300
1/64" = 1'-0"
140
0.015625
141
12.0
290
     0
  0
SCALE
  5
326
102
{ACAD_REACTORS
330
312
102
}
330
312
100
AcDbScale
 70
     0
300
1/32" = 1'-0"
140
0.03125
141
12.0
290
     0
  0
SCALE
  5
327
102
{ACAD_REACTORS
330
312
102
}
330
312
100
AcDbScale
 70
     0
300
1/16" = 1'-0"
140
0.0625
141
12.0
290
     0
  0
SCALE
  5
328
102
{ACAD_REACTORS
330
312
102
}
330
312
100
AcDbScale
 70
     0
300
3/32" = 1'-0"
140
0.09375
141
12.0
290
     0
  0
SCALE
  5
329
102
{ACAD_REACTORS
330
312
102
}
330
312
100
AcDbScale
 70
     0
300
1/8" = 1'-0"
140
0.125
141
12.0
290
     0
  0
SCALE
  5
32A
102
{ACAD_REACTORS
330
312
102
}
330
312
100
AcDbScale
 70
     0
300
3/16" = 1'-0"
140
0.1875
141
12.0
290
     0
  0
SCALE
  5
32B
102
{ACAD_REACTORS
330
312
102
}
330
312
100
AcDbScale
 70
     0
300
1/4" = 1'-0"
140
0.25
141
12.0
290
     0
  0
SCALE
  5
32C
102
{ACAD_REACTORS
330
312
102
}
330
312
100
AcDbScale
 70
     0
300
3/8" = 1'-0"
140
0.375
141
12.0
290
     0
  0
SCALE
  5
32D
102
{ACAD_REACTORS
330
312
102
}
330
312
100
AcDbScale
 70
     0
300
1/2" = 1'-0"
140
0.5
141
12.0
290
     0
  0
SCALE
  5
32E
102
{ACAD_REACTORS
330
312
102
}
330
312
100
AcDbScale
 70
     0
300
3/4" = 1'-0"
140
0.75
141
12.0
290
     0
  0
SCALE
  5
32F
102
{ACAD_REACTORS
330
312
102
}
330
312
100
AcDbScale
 70
     0
300
1" = 1'-0"
140
1.0
141
12.0
290
     0
  0
SCALE
  5
330
102
{ACAD_REACTORS
330
312
102
}
330
312
100
AcDbScale
 70
     0
300
1-1/2" = 1'-0"
140
1.5
141
12.0
290
     0
  0
SCALE
  5
331
102
{ACAD_REACTORS
330
312
102
}
330
312
100
AcDbScale
 70
     0
300
3" = 1'-0"
140
3.0
141
12.0
290
     0
  0
SCALE
  5
332
102
{ACAD_REACTORS
330
312
102
}
330
312
100
AcDbScale
 70
     0
300
6" = 1'-0"
140
6.0
141
12.0
290
     0
  0
SCALE
  5
333
102
{ACAD_REACTORS
330
312
102
}
330
312
100
AcDbScale
 70
     0
300
1'-0" = 1'-0"
140
12.0
141
12.0
290
     0
  0
DICTIONARYVAR
  5
4AB
102
{ACAD_REACTORS
330
4A8
102
}
330
4A8
100
DictionaryVariables
280
     0
  1
1:1
  0
ENDSEC
  0
SECTION
  2
THUMBNAILIMAGE
 90
    16364
310
28000000B40000005500000001000800000000000000000000000000000000000000000000000000FFFFFF000000FF0000FFFF0000FF0000FFFF0000FF000000FF00FF000000000080808000C0C0C0000000FF007F7FFF000000A5005252A50000007F003F3F7F0000004C0026264C000000260013132600003FFF007F9FFF
310
000029A5005267A500001F7F003F4F7F0000134C00262F4C000009260013172600007FFF007FBFFF000052A500527CA500003F7F003F5F7F0000264C0026394C0000132600131C260000BFFF007FDFFF00007CA5005291A500005F7F003F6F7F0000394C0026424C00001C26001321260000FFFF007FFFFF0000A5A50052A5
310
A500007F7F003F7F7F00004C4C00264C4C00002626001326260000FFBF007FFFDF0000A57C0052A59100007F5F003F7F6F00004C3900264C420000261C001326210000FF7F007FFFBF0000A5520052A57C00007F3F003F7F5F00004C2600264C39000026130013261C0000FF3F007FFF9F0000A5290052A56700007F1F003F
310
7F4F00004C1300264C2F00002609001326170000FF00007FFF7F0000A5000052A55200007F00003F7F3F00004C0000264C260000260000132613003FFF00009FFF7F0029A5000067A552001F7F00004F7F3F00134C00002F4C260009260000172613007FFF0000BFFF7F0052A500007CA552003F7F00005F7F3F00264C0000
310
394C2600132600001C261300BFFF0000DFFF7F007CA5000091A552005F7F00006F7F3F00394C0000424C26001C26000021261300FFFF0000FFFF7F00A5A50000A5A552007F7F00007F7F3F004C4C00004C4C26002626000026261300FFBF0000FFDF7F00A57C0000A59152007F5F00007F6F3F004C3900004C422600261C00
310
0026211300FF7F0000FFBF7F00A5520000A57C52007F3F00007F5F3F004C2600004C39260026130000261C1300FF3F0000FF9F7F00A5290000A56752007F1F00007F4F3F004C1300004C2F26002609000026171300FF000000FF7F7F00A5000000A55252007F0000007F3F3F004C0000004C2626002600000026131300FF00
310
3F00FF7F9F00A5002900A55267007F001F007F3F4F004C0013004C262F002600090026131700FF007F00FF7FBF00A5005200A5527C007F003F007F3F5F004C0026004C2639002600130026131C00FF00BF00FF7FDF00A5007C00A55291007F005F007F3F6F004C0039004C26420026001C0026132100FF00FF00FF7FFF00A5
310
00A500A552A5007F007F007F3F7F004C004C004C264C002600260026132600BF00FF00DF7FFF007C00A5009152A5005F007F006F3F7F0039004C0042264C001C002600211326007F00FF00BF7FFF005200A5007C52A5003F007F005F3F7F0026004C0039264C00130026001C1326003F00FF009F7FFF002900A5006752A500
310
1F007F004F3F7F0013004C002F264C000900260017132600000000002D2D2D005B5B5B0089898900B7B7B700B3B3B30000000000000000000000000000000000000000000000000000000000000000000000000000000000000000000000000000000000000000000000000000000000000000000000000000000000000000
310
00000000000000000000070707000000000000000000000000000000000000000000000000000000000000000000000000000000000000000000000000000000000000000000000000000000000000000000000000000000000000000000000000000000000000000000000000000000000000000000000000000000000000
310
00000000000000000000000000000000000000000000000000000000000000000000000000000000000000000000000000000000000000000000000000000007000700000000000000000000000000000000000000000000000000000000000000000000000000000000000000000000000000000000000000000000000000
310
00000000000000000000000000000000000000000000000000000000000000000000000000000000000000000000000000000000000000000000000000000000000000000000000000000000000000000000000000000000000000000000000000000000000000000000000000000000000000000700070000000000000000
310
00000000000000000000000000000000000000000000000000000000000000000000000000000000000000000000000000000000000000000000000000000000000000000000000000000000000000000000000000000000000000000000000000000000000000000000000000000000000000000000000000000000000000
310
00000000000000000000000000000000000000000000000000000000000000000000000000000000000700000700000000000000000000000000000000000000000000000000000000000000000000000000000000000000000000000000000000000000000000000000000000000000000000000000000000000000000000
310
00000000000000000000000000000000000000000000000000000000000000000000000000000000000000000000000000000000000000000000000000000000000000000000000000000000000000000000000000000000000000000000070000000700000000000000000000000000000000000000000000000000000000
310
00000000000000000000000000000000000000000000000000000000000000000000000000000000000000000000000000000000000000000000000000000000000000000000000000000000000000000000000000000000000000000000000000000000000000000000000000000000000000000000000000000000000000
310
00000000000000000000000000000000000000000700000007000000000000000000000000000000000000000000000000000000000000000000000000000000000000000000000000000000000000000000000000000000000000000000000000000000000000000000000000000000000000000000000000000000000000
310
00000000000000000000000000000000000000000000000000000000000000000000000000000000000000000000000000000000000000000000000000000000000000000000000000070000000700000000000000000000000000000000000000000000000000000000000000000000000000000000000000000000000000
310
00000000000000000000000000000000000000000000000000000000000000000000000000000000000000000000000000000000000000000000000000000000000000000000000000000000000000000000000000000000000000000000000000000000000000000000000000000000000000000000000000000000000007
310
00000007000000000000000000000000000000000000000000000000000000000000000000000000000000000000000000000000000000000000000000000000000000000000000000000000000000000000000000000000000000000000000000000000000000000000000000000000000000000000000000000000000000
310
00000000000000000000000000000000000000000000000000000000000000000000000000000000000000000000000000000000070000000700000000000000000000000000000000000000000000000000000000000000000000000000000000000000000000000000000000000000000000000000000000000000000000
310
00000000000000000000000000000000000000000000000000000000000000000000000000000000000000000000000000000000000000000000000000000000000000000000000000000000000000000000000000000000000000000000000000000000000000000007000000070000000000000000000000000000000000
310
00000000000000000000000000000000000000000000000000000000000000000000000000000000000000000000000000000000000000000000000000000000000000000000000000000000000000000000000000000000000000000000000000000000000000000000000000000000000000000000000000000000000000
310
00000000000000000000000000000000000000000000000000000000000007000000000700000000000000000000000000000000000000000000000000000000000000000000000000000000000000000000000000000000000000000000000000000000000000000000000000000000000000000000000000000000000000
310
00000000000000000000000000000000000000000000000000000000000000000000000000000000000000000000000000000000000000000000000000000000000000000000000000000000000000000000000700000000000700000000000000000000000000000000000000000000000000000000000000000000000000
310
00000000000000000000000000000000000000000000000000000000000000000000000000000000000000000000000000000000000000000000000000000000000000000000000000000000000000000000000000000000000000000000000000000000000000000000000000000000000000000000000000000000000000
310
00000000000000000007000000000007000000000000000000000000000000000000000000000000000000000000000000000000000000000000000000000000000000000000000000000000000000000000000000000000000000000000000000000000000000000000000000000000000000000000000000000000000000
310
00000000000000000000000000000000000000000000000000000000000000000000000000000000000000000000000000000000000000000000000000070700000000000707000000000000000000000000000000000000000000000000000000000000000000000000000000000000000000000000000000000000000000
310
00000000000000000000000000000000000000000000000000000000000000000000000000000000000000000000000000000000000000000000000000000000000000000000000000000000000000000000000000000000000000000000000000000000000000000000000000000000000007000000000000000700000000
310
00000000000000000000000000000000000000000000000000000000000000000000000000000000000000000000000000000000000000000000000000000000000000000000000000000000000000000000000000000000000000000000000000000000000000000000000000000000000000000000000000000000000000
310
00000000000000000000000000000000000000000000000000000000000000000000000000000007000000000000000000070000000000000000000000000000000000000000000000000000000000000000000000000000000000000000000000000000000000000000000000000000000000000000000000000000000000
310
00000000000000000000000000000000000000000000000000000000000000000000000000000000000000000000000000000000000000000000000000000000000000000000000000000000000000000000000000000000000000070000000000000000000000070000000000000000000000000000000000000000000000
310
00000000000000000000000000000000000000000000000000000000000000000000000000000000000000000000000000000000000000000000000000000000000000000000000000000000000000000000000000000000000000000000000000000000000000000000000000000000000000000000000000000000000000
310
00000000000000000000000000000000070000000000000000000000000700000000000000000000000000000000000000000000000000000000000000000000000000000000000000000000000000000000000000000000000000000000000000000000000000000000000000000000000000000000000000000000000000
310
00000000000000000000000000000000000000000000000000000000000000000000000000000000000000000000000000000000000000000000000000000000000000000007000000000000000000000000000700000000000000000000000000000000000000000000000000000000000000000000000000000000000000
310
00000000000000000000000000000000000000000000000000000000000000000000000000000000000000000000000000000000000000000000000000000000000000000000000000000000000000000000000000000000000000000000000000000000000000000000000000000000000000000000000000070000000000
310
00000000000000000000070000000000000000000000000000000000000000000000000000000000000000000000000000000000000000000000000000000000000000000000000000000000000000000000000000000000000000000000000000000000000000000000000000000000000000000000000000000000000000
310
00000000000000000000000000000000000000000000000000000000000000000000000000000000000000000007070000000000000000000000000000000000070700000000000000000000000000000000000000000000000000000000000000000000000000000000000000000000000000000000000000000000000000
310
00000000000000000000000000000000000000000000000000000000000000000000000000000000000000000000000000000000000000000000000000000000000000000000000000000000000000000000000000000000000000000000000000000700000000000000000000000000000000000000070000000000000000
310
00000000000000000000000000000000000000000000000000000000000000000000000000000000000000000000000000000000000000000000000000000000000000000000000000000000000000000000000000000000000000000000000000000000000000000000000000000000000000000000000000000000000000
310
00000000000000000000000000000000000000000000000007000000000000000000000000000000000000000700000000000000000000000000000000000000000000000000000000000000000000000000000000000000000000000000000000000000000000000000000000000000000000000000000000000000000000
310
00000000000000000000000000000000000000000000000000000000000000000000000000000000000000000000000000000000000000000000000000000000000000000000000000000000000700000000000000000000000000000000000000070000000000000000000000000000000000000000000000000000000000
310
00000000000000000000000000000000000000000000000000000000000000000000000000000000000000000000000000000000000000000000000000000000000000000000000000000000000000000000000000000000000000000000000000000000000000000000000000000000000000000000000000000000000000
310
00000007000000000000000000000000000000000000000700000000000000000000000000000000000000000000000000000000000000000000000000000000000000000000000000000000000000000000000000000000000000000000000000000000000000000000000000000000000000000000000000000000000000
310
00000000000000000000000000000000000000000000000000000000000000000000000000000000000000000000000000000000000000000700000000000000000000000000000000000000070000000000000000000000000000000000000000000000000000000000000000000000000000000000000000000000000000
310
00000000000000000000000000000000000000000000000000000000000000000000000000000000000000000000000000000000000000000000000000000000000000000000000000000000000000000000000000000000000000000000000000000000000000000000000000070000000000000000000000000000000000
310
00000700000000000000000000000000000000000000000000000000000000000000000000000000000000000000000000000000000000000000000000000000000000000000000000000000000000000000000000000000000000000000000000000000000000000000000000000000000000000000000000000000000000
310
00000000000000000000000000000000000000000000000000000000000000000000000700000000000000000000000000000000000000070000000000000000000000000000000000000000000000000000000000000000000000000000000000000000000000000000000000000000000000000000000000000000000000
310
00000000000000000000000000000000000000000000000000000000000000000000000000000000000000000000000000000000000000000000000000000000000000000000000000000000000000000000000000000000070000000000000000000000000000000000000007000000000000000000000000000000000000
310
00000000000000000000000000000000000000000000000000000000000000000000000000000000000000000000000000000000000000000000000000000000000000000000000000000000000000000000000000000000000000000000000000000000000000000000000000000000000000000000000000000000000000
310
00000000000000000000000000000700000000000000000000000000000000000000070000000000000000000000000000000000000000000000000000000000000000000000000000000000000000000000000000000000000000000000000000000000000000000000000000000000000000000000000000000000000000
310
00000000000000000000000000000000000000000000000000000000000000000000000000000000000000000000000000000000000000000000000000000000000000070000000000000000000000000000000000000007000000000000000000000000000000000000000000000000000000000000000000000000000000
310
00000000000000000000000000000000000000000000000000000000000000000000000000000000000000000000000000000000000000000000000000000000000000000000000000000000000000000000000000000000000000000000000000000000000000000000000000000000000000000000000007000000000000
310
00000000000000000000000000070000000000000000000000000000000000000000000000000000000000000000000000000000000000000000000000000000000000000000000000000000000000000000000000000000000000000000000000000000000000000000000000000000000000000000000000000000000000
310
00000000000000000000000000000000000000000000000000000000000000000000000000000000000000000000070000000000000000070007000000000000000007000000000000000000000000000000000000000000000000000000000000000000000000000000000000000000000000000000000000000000000000
310
00000000000000000000000000000000000000000000000000000000000000000000000000000000000000000000000000000000000000000000000000000000000000000000000000000000000000000000000000000000000000000000000000000007000000070707070700000007070707070000000700000000000000
310
00000000000000000000000000000000000000000000000000000000000000000000000000000000000000000000000000000000000000000000000000000000000000000000000000000000000000000000000000000000000000000000000000000000000000000000000000000000000000000000000000000000000000
310
00000000000000000000000000000000000000000000000000070707070000000000000000000000000007070707000000000000000000000000000000000000000000000000000000000000000000000000000000000000000000000000000000000000000000000000000000000000000000000000000000000000000000
310
00000000000000000000000000000000000000000000000000000000000000000000000000000000000000000000000000000000000000000000000000000000000000000000000000000000000007070000000000000000000000000000000000070700000000000000000000000000000000000000000000000000000000
310
00000000000000000000000000000000000000000000000000000000000000000000000000000000000000000000000000000000000000000000000000000000000000000000000000000000000000000000000000000000000000000000000000000000000000000000000000000000000000000000000000000000000000
310
00000000070707070707070707070707070707070707070707000000000000000000000000000000000000000000000000000000000000000000000000000000000000000000000000000000000000000000000000000000000000000000000000000000000000000000000000000000000000000000000000000000000000
310
00000000000000000000000000000000000000000000000000000000000000000000000000000000000000000000000000000000000000000007070707070707070707070007070707070707070700000000000000000000000000000000000000000000000000000000000000000000000000000000000000000000000000
310
00000000000000000000000000000000000000000000000000000000000000000000000000000000000000000000000000000000000000000000000000000000000000000000000000000000000000000000000000000000000000000000000000000000000000000000000000000700000000000000000000000000000000
310
00000007000000000000000000000000000000000000000000000000000000000000000000000000000000000000000000000000000000000000000000000000000000000000000000000000000000000000000000000000000000000000000000000000000000000000000000000000000000000000000000000000000000
310
00000000000000000000000000000000000000000000000000000000000000000000000007000000000000000000000000000000000000000700000000000000000000000000000000000000000000000000000000000000000000000000000000000000000000000000000000000000000000000000000000000000000000
310
00000000000000000000000000000000000000000000000000000000000000000000000000000000000000000000000000000000000000000000000000000000000000000000000000000000000000000000000000000000000700000000000000000000000000000000000000070000000000000000000000000000000000
310
00000000000000000000000000000000000000000000000000000000000000000000000000000000000000000000000000000000000000000000000000000000000000000000000000000000000000000000000000000000000000000000000000000000000000000000000000000000000000000000000000000000000000
310
00000000000000000000000000000007000000000000000000000000000000000000000700000000000000000000000000000000000000000000000000000000000000000000000000000000000000000000000000000000000000000000000000000000000000000000000000000000000000000000000000000000000000
310
00000000000000000000000000000000000000000000000000000000000000000000000000000000000000000000000000000000000000000000000000000000000000000700000000000000000000000000000000000000070000000000000000000000000000000000000000000000000000000000000000000000000000
310
00000000000000000000000000000000000000000000000000000000000000000000000000000000000000000000000000000000000000000000000000000000000000000000000000000000000000000000000000000000000000000000000000000000000000000000000000000000000000000000000000070000000000
310
00000000000000000000000000000700000000000000000000000000000000000000000000000000000000000000000000000000000000000000000000000000000000000000000000000000000000000000000000000000000000000000000000000000000000000000000000000000000000000000000000000000000000
310
00000000000000000000000000000000000000000000000000000000000000000000000000000000000000000000000700000000000000000000000000000000000000070000000000000000000000000000000000000000000000000000000000000000000000000000000000000000000000000000000000000000000000
310
00000000000000000000000000000000000000000000000000000000000000000000000000000000000000000000000000000000000000000000000000000000000000000000000000000000000000000000000000000000000000000000000000000000070000000000000000000000000000000000000007000000000000
310
00000000000000000000000000000000000000000000000000000000000000000000000000000000000000000000000000000000000000000000000000000000000000000000000000000000000000000000000000000000000000000000000000000000000000000000000000000000000000000000000000000000000000
310
00000000000000000000000000000000000000000000000000000700000000000000000000000000000000000000070000000000000000000000000000000000000000000000000000000000000000000000000000000000000000000000000000000000000000000000000000000000000000000000000000000000000000
310
00000000000000000000000000000000000000000000000000000000000000000000000000000000000000000000000000000000000000000000000000000000000000000000000000000000000000070000000000000000000000000000000000000007000000000000000000000000000000000000000000000000000000
310
00000000000000000000000000000000000000000000000000000000000000000000000000000000000000000000000000000000000000000000000000000000000000000000000000000000000000000000000000000000000000000000000000000000000000000000000000000000000000000000000000000000000000
310
00000000000700000000000000000000000000000000000000070000000000000000000000000000000000000000000000000000000000000000000000000000000000000000000000000000000000000000000000000000000000000000000000000000000000000000000000000000000000000000000000000000000000
310
00000000000000000000000000000000000000000000000000000000000000000000000000000000000000000000000000000000000000000000070000000000000000000000000000000000000007000000000000000000000000000000000000000000000000000000000000000000000000000000000000000000000000
310
00000000000000000000000000000000000000000000000000000000000000000000000000000000000000000000000000000000000000000000000000000000000000000000000000000000000000000000000000000000000000000000000000000000000000000000000000000007000000000000000000000000000000
310
00000000070000000000000000000000000000000000000000000000000000000000000000000000000000000000000000000000000000000000000000000000000000000000000000000000000000000000000000000000000000000000000000000000000000000000000000000000000000000000000000000000000000
310
00000000000707070707070707070707070707070707070707070707070707070707070707000000000000000000000000000000000000000000070707070707070707070707070707070707070707070707070707070707070700000000000000000000000000000000000000000000000000000000000000000000000000
310
00000000000000000000000000000000000000000000000000000000000000000000000000000000000000000000000000000000000000000000070000000000000000000000000000000000000000000000000000000000000000000000000000000000000000000000000000000000000000000000000000000000000000
310
00000000000000000000000000000007000000000000000000000000000000000000000000000000000000000000000000000000000000000000000000000000000000000000000000000000000000000000000000000000000000000000000000000000000000000000000000000007000000000000000000000000000000
310
00000000000000000000000000000000000000000000000000000000000000000000000000000000000000000000000000000000000000000000000000000000000000000700000000000000000000000000000000000000000000000000000000000000000000000000000000000000000000000000000000000000000000
310
00000000000000000000000000000000000000000000000000000000000000000000000000070000000000000000000000000000000000000000000000000000000000000000000000000000000000000000000000000000000000000000000000000000000000000000000000000000000000000000000000070000000000
310
00000000000000000000000000000000000000000000000000000000000000000000000000000000000000000000000000000000000000000000000000000000000000000000000000000000000000000000000000000000000007000000000000000000000000000000000000000000000000000000000000000000000000
310
00000000000000000000000000000000000000000000000000000000000000000000000000000000000000000000000700000000000000000000000000000000000000000000000000000000000000000000000000000000000000000000000000000000000000000000000000000000000000000000000000000000000000
310
00000000000000000000000000000000070000000000000000000000000000000000000000000000000000000000000000000000000000000000000000000000000000000000000000000000000000000000000000000000000000000000000000000000070000000000000000000000000000000000000000000000000000
310
00000000000000000000000000000000000000000000000000000000000000000000000000000000000000000000000000000000000000000000000000000000000000000007000000000000000000000000000000000000000000000000000000000000000000000000000000000000000000000000000000000000000000
310
00000000000000000000000000000000000000000000000000000700000000000000000000000000000000000000000000000000000000000000000000000000000000000000000000000000000000000000000000000000000000000000000000000000000000000000000000000000000000000000000000000700000000
310
00000000000000000000000000000000000000000000000000000000000000000000000000000000000000000000000000000000000000000000000000000000000000000000000000000000000000070000000000000000000000000000000000000000000000000000000000000000000000000000000000000000000000
310
00000000000000000000000000000000000000000000000000000000000000000000000000000000000000000000000007000000000000000000000000000000000000000000000000000000000000000000000000000000000000000000000000000000000000000000000000000000000000000000000000000000000000
310
00000000000700000000000000000000000000000000000000000000000000000000000000000000000000000000000000000000000000000000000000000000000000000000000000000000000000000000000000000000000000000000000000000000000700000000000000000000000000000000000000000000000000
310
00000000000000000000000000000000000000000000000000000000000000000000000000000000000000000000000000000000000000000000070000000000000000000000000000000000000000000000000000000000000000000000000000000000000000000000000000000000000000000000000000000000000000
310
00000000000000000000000000000000000000000000000000000007000000000000000000000000000000000000000000000000000000000000000000000000000000000000000000000000000000000000000000000000000000000000000000000000000000000000000000000007000000000000000000000000000000
310
00000000000000000000000000000000000000000000000000000000000000000000000000000000000000000000000000000000000000000000000000000000000000000000000000000000000000000700000000000000000000000000000000000000000000000000000000000000000000000000000000000000000000
310
00000000000000000000000000000000000000000000000000000000000000000000000000070000000000000000000000000000000000000000000000000000000000000000000000000000000000000000000000000000000000000000000000000000000000000000000000000000000000000000000000000000000000
310
00000000000007000000000000000000000000000000000000000000000000000000000000000000000000000000000000000000000000000000000000000000000000000000000000000000000000000000000000000000000007000000000000000000000000000000000000000000000000000000000000000000000000
310
00000000000000000000000000000000000000000000000000000000000000000000000000000000000000000000000000000000000000000000000707070707070707070707070707070707070707070707070707070707070707070707070707070707070007070707070707070707070707070707070707070707070707
310
07070707070707070707070707070707070000000000000000000000000000000000000000000000000000000000000000000000000000000000000000000000000000000000000000000000000000000000000000000000000000000000000000000000000000000000000000000000000707070700070707070707000707
310
07000000000000000000000000000000000000000000000000000000000000000000000000000000000000000000000000000000000007070700070707070707000707070700000000000000000000000000000000000000000000000000000000000000000000000000000000000000000000000000000000000000000000
310
00000000000000000000000000000000000000000000000000000000000000000000000000000007000000000000000000000000000700000000000000000000000000000000000000000000000000000000000000000000000000000000000000000000000000000000000700000000000000000000000000070000000000
310
00000000000000000000000000000000000000000000000000000000000000000000000000000000000000000000000000000000000000000000000000000000000000000000000000000000000000000000000000000000000000000700000000000000000000000000070000000000000000000000000000000000000000
310
00000000000000000000000000000000000000000000000000000000000000000007000000000000000000000000000700000000000000000000000000000000000000000000000000000000000000000000000000000000000000000000000000000000000000000000000000000000000000000000000000000000000000
310
00000000000000000000000000000000000007000000000000000000000000000700000000000000000000000000000000000000000000000000000000000000000000000000000000000000000000000000000000000700000000000000000000000000070000000000000000000000000000000000000000000000000000
310
00000000000000000000000000000000000000000000000000000000000000000000000000000000000000000000000000000000000000000000000000000000000000000000000700000000000000000000000000070000000000000000000000000000000000000000000000000000000000000000000000000000000000
310
00000000000000000000000007000000000000000000000000000700000000000000000000000000000000000000000000000000000000000000000000000000000000000000000000000000000000000000000000000000000000000000000000000000000000000000000000000000000000000000000000000000070000
310
00000000000000000000000700000000000000000000000000000000000000000000000000000000000000000000000000000000000000000000000000000000000700000000000000000000000000070000000000000000000000000000000000000000000000000000000000000000000000000000000000000000000000
310
00000000000000000000000000000000000000000000000000000000000000000000000000000000000000000000000000000707070000000707070700000707070000000000000000000000000000000000000000000000000000000000000000000000000000000000000000000000000000000000070707000007070707
310
00000007070700000000000000000000000000000000000000000000000000000000000000000000000000000000000000000000000000000000000000000000000000000000000000000000000000000000000000000000000000000000000000000000000000070707070707070707070707070707000000000000000000
310
00000000000000000000000000000000000000000000000000000000000000000000000000000000000000000707070707070707070707070707070000000000000000000000000000000000000000000000000000000000000000000000000000000000000000000000000000000000000000000000000000000000000000
310
00000000000000000000000000000000000000000000000000000000070000000000000000000000000000000700000000000000000000000000000000000000000000000000000000000000000000000000000000000000000000000000000007000000000000000000000000000000070000000000000000000000000000
310
00000000000000000000000000000000000000000000000000000000000000000000000000000000000000000000000000000000000000000000000000000000000000000000000000000000000000000700000000000000000000000000000000000700000000000000000000000000000000000000000000000000000000
310
00000000000000000000000000000000000000000007000000000000000000000000000000000007000000000000000000000000000000000000000000000000000000000000000000000000000000000000000000000000000000000000000000000000000000000000000000000000000000000000000000000000000000
310
00000000000700000000000000000000000000000000000000070000000000000000000000000000000000000000000000000000000000000000000000000000000000000000000000070000000000000000000000000000000000000007000000000000000000000000000000000000000000000000000000000000000000
310
00000000000000000000000000000000000000000000000000000000000000000000000000000000000000000000000000000000000000000007000000000000000000000000000000000000000000070000000000000000000000000000000000000000000000000000000000000000000000000000000000000000000700
310
00000000000000000000000000000000000000000700000000000000000000000000000000000000000000000000000000000000000000000000000000000000000000000000000000000000000000000000000000000000000000000000000000000000000000000000000000000700000000000000000000000000000000
310
00000000000007000000000000000000000000000000000000000000000000000000000000000000000000000000000000000700000000000000000000000000000000000000000000070000000000000000000000000000000000000000000000000000000000000000000000000000000000000000000000000000000000
310
00000000000000000000000000000000000000000000000000000000000000000000000700000000000000000000000000000000000000000000000007000000000000000000000000000000000000000000000000000000000000000000000000000000000007000000000000000000000000000000000000000000000000
310
07000000000000000000000000000000000000000000000000000000000000000000000000000000000000000000000000000000000000000000000000000000000000000000000000000000000000000000000000000007000000000000000000000000000000000000000000000000000007000000000000000000000000
310
00000000000000000000000000000000000000000000000000000007000000000000000000000000000000000000000000000000000007000000000000000000000000000000000000000000000000000000000000000000000000000000000000000000000000000000000000000000000000000000000000000000000000
310
00000000000000000000000007000000000000000000000000000000000000000000000000000000000700000000000000000000000000000000000000000000000000000000000000000000000000070000000000000000000000000000000000000000000000000000000007000000000000000000000000000000000000
310
00000000000000000000000000000000000000000000000000000000000000000000000000000000000000000000000000000000000000000000000000000007070000000000000000000000000000000000000000000000000000000000000700000000000000000000000000000000000000000000000000000000000000
310
00000000070000000000000000000000000000000000000000000000000000000000000707000000000000000000000000000000000000000000000000000000000000000000000000000000000000000000000000000000000000000000000000000000000000000000000000000000000000000700000000000000000000
310
00000000000000000000000000000000000000000007000000000000000000000000000000000000000000000000000000000000000000000007000000000000000000000000000000000000000000000000000000000000000700000000000000000000000000000000000000000000000000000000000000000000000000
310
00000000000000000000000000000000000000000000000000000000000000000000000000000000000007070707070707070707070707070707070707070707070707070707070707070700000000000000000000000000000000000000000000000000000000000000000000000707070707070707070707070707070707
310
07070707070707070707070707070707000000000000000000000000000000000000000000000000000000000000000000000000000000000000000000000000000000000000000000000000000000000000000000000000000000000000000000000000000000000000000000000000000000000000000000000000000000
310
000000000000000000000000000000000000000000000000000000000000000000000000000000000000000000000000000000000000000000000000000000000000000000000000000000000000000000000000000000000000000000000000000000000000000000000000
  0
ENDSEC
  0
EOF
