  0
SECTION
  2
HEADER
  9
$ACADVER
  1
AC1015
  9
$ACADMAINTVER
 70
     6
  9
$DWGCODEPAGE
  3
ANSI_1252
  9
$INSBASE
 10
0.0
 20
0.0
 30
0.0
  9
$EXTMIN
 10
0.05205
 20
0.20995
 30
0.0
  9
$EXTMAX
 10
184.94795
 20
159.79005
 30
0.0
  9
$LIMMIN
 10
0.0
 20
0.0
  9
$LIMMAX
 10
12.0
 20
9.0
  9
$ORTHOMODE
 70
     0
  9
$REGENMODE
 70
     1
  9
$FILLMODE
 70
     1
  9
$QTEXTMODE
 70
     0
  9
$MIRRTEXT
 70
     1
  9
$LTSCALE
 40
1.0
  9
$ATTMODE
 70
     1
  9
$TEXTSIZE
 40
0.2
  9
$TRACEWID
 40
0.05
  9
$TEXTSTYLE
  7
Standard
  9
$CLAYER
  8
0
  9
$CELTYPE
  6
ByBlock
  9
$CECOLOR
 62
   256
  9
$CELTSCALE
 40
1.0
  9
$DISPSILH
 70
     0
  9
$DIMSCALE
 40
1.0
  9
$DIMASZ
 40
0.18
  9
$DIMEXO
 40
0.0625
  9
$DIMDLI
 40
0.38
  9
$DIMRND
 40
0.0
  9
$DIMDLE
 40
0.0
  9
$DIMEXE
 40
0.18
  9
$DIMTP
 40
0.0
  9
$DIMTM
 40
0.0
  9
$DIMTXT
 40
0.18
  9
$DIMCEN
 40
0.09
  9
$DIMTSZ
 40
0.0
  9
$DIMTOL
 70
     0
  9
$DIMLIM
 70
     0
  9
$DIMTIH
 70
     1
  9
$DIMTOH
 70
     1
  9
$DIMSE1
 70
     0
  9
$DIMSE2
 70
     0
  9
$DIMTAD
 70
     0
  9
$DIMZIN
 70
     0
  9
$DIMBLK
  1

  9
$DIMASO
 70
     1
  9
$DIMSHO
 70
     1
  9
$DIMPOST
  1

  9
$DIMAPOST
  1

  9
$DIMALT
 70
     0
  9
$DIMALTD
 70
     2
  9
$DIMALTF
 40
25.4
  9
$DIMLFAC
 40
1.0
  9
$DIMTOFL
 70
     0
  9
$DIMTVP
 40
0.0
  9
$DIMTIX
 70
     0
  9
$DIMSOXD
 70
     0
  9
$DIMSAH
 70
     0
  9
$DIMBLK1
  1

  9
$DIMBLK2
  1

  9
$DIMSTYLE
  2
Standard
  9
$DIMCLRD
 70
     0
  9
$DIMCLRE
 70
     0
  9
$DIMCLRT
 70
     0
  9
$DIMTFAC
 40
1.0
  9
$DIMGAP
 40
0.09
  9
$DIMJUST
 70
     0
  9
$DIMSD1
 70
     0
  9
$DIMSD2
 70
     0
  9
$DIMTOLJ
 70
     1
  9
$DIMTZIN
 70
     0
  9
$DIMALTZ
 70
     0
  9
$DIMALTTZ
 70
     0
  9
$DIMUPT
 70
     0
  9
$DIMDEC
 70
     4
  9
$DIMTDEC
 70
     4
  9
$DIMALTU
 70
     2
  9
$DIMALTTD
 70
     2
  9
$DIMTXSTY
  7
Standard
  9
$DIMAUNIT
 70
     0
  9
$DIMADEC
 70
     0
  9
$DIMALTRND
 40
0.0
  9
$DIMAZIN
 70
     0
  9
$DIMDSEP
 70
    46
  9
$DIMATFIT
 70
     3
  9
$DIMFRAC
 70
     0
  9
$DIMLDRBLK
  1

  9
$DIMLUNIT
 70
     2
  9
$DIMLWD
 70
    -2
  9
$DIMLWE
 70
    -2
  9
$DIMTMOVE
 70
     2
  9
$LUNITS
 70
     2
  9
$LUPREC
 70
     4
  9
$SKETCHINC
 40
0.1
  9
$FILLETRAD
 40
0.5
  9
$AUNITS
 70
     0
  9
$AUPREC
 70
     0
  9
$MENU
  1
.
  9
$ELEVATION
 40
0.0
  9
$PELEVATION
 40
0.0
  9
$THICKNESS
 40
0.0
  9
$LIMCHECK
 70
     0
  9
$CHAMFERA
 40
0.5
  9
$CHAMFERB
 40
0.5
  9
$CHAMFERC
 40
1.0
  9
$CHAMFERD
 40
0.0
  9
$SKPOLY
 70
     0
  9
$TDCREATE
 40
2456645.89642397
  9
$TDUCREATE
 40
2456645.854757303
  9
$TDUPDATE
 40
2456645.89999566
  9
$TDUUPDATE
 40
2456645.858328993
  9
$TDINDWG
 40
0.0035715278
  9
$TDUSRTIMER
 40
0.0035715278
  9
$USRTIMER
 70
     1
  9
$ANGBASE
 50
0.0
  9
$ANGDIR
 70
     0
  9
$PDMODE
 70
     0
  9
$PDSIZE
 40
0.0
  9
$PLINEWID
 40
0.0
  9
$SPLFRAME
 70
     0
  9
$SPLINETYPE
 70
     6
  9
$SPLINESEGS
 70
     8
  9
$HANDSEED
  5
431
  9
$SURFTAB1
 70
     6
  9
$SURFTAB2
 70
     6
  9
$SURFTYPE
 70
     6
  9
$SURFU
 70
     6
  9
$SURFV
 70
     6
  9
$UCSBASE
  2

  9
$UCSNAME
  2

  9
$UCSORG
 10
0.0
 20
0.0
 30
0.0
  9
$UCSXDIR
 10
1.0
 20
0.0
 30
0.0
  9
$UCSYDIR
 10
0.0
 20
1.0
 30
0.0
  9
$UCSORTHOREF
  2

  9
$UCSORTHOVIEW
 70
     0
  9
$UCSORGTOP
 10
0.0
 20
0.0
 30
0.0
  9
$UCSORGBOTTOM
 10
0.0
 20
0.0
 30
0.0
  9
$UCSORGLEFT
 10
0.0
 20
0.0
 30
0.0
  9
$UCSORGRIGHT
 10
0.0
 20
0.0
 30
0.0
  9
$UCSORGFRONT
 10
0.0
 20
0.0
 30
0.0
  9
$UCSORGBACK
 10
0.0
 20
0.0
 30
0.0
  9
$PUCSBASE
  2

  9
$PUCSNAME
  2

  9
$PUCSORG
 10
0.0
 20
0.0
 30
0.0
  9
$PUCSXDIR
 10
1.0
 20
0.0
 30
0.0
  9
$PUCSYDIR
 10
0.0
 20
1.0
 30
0.0
  9
$PUCSORTHOREF
  2

  9
$PUCSORTHOVIEW
 70
     0
  9
$PUCSORGTOP
 10
0.0
 20
0.0
 30
0.0
  9
$PUCSORGBOTTOM
 10
0.0
 20
0.0
 30
0.0
  9
$PUCSORGLEFT
 10
0.0
 20
0.0
 30
0.0
  9
$PUCSORGRIGHT
 10
0.0
 20
0.0
 30
0.0
  9
$PUCSORGFRONT
 10
0.0
 20
0.0
 30
0.0
  9
$PUCSORGBACK
 10
0.0
 20
0.0
 30
0.0
  9
$USERI1
 70
     0
  9
$USERI2
 70
     0
  9
$USERI3
 70
     0
  9
$USERI4
 70
     0
  9
$USERI5
 70
     0
  9
$USERR1
 40
0.0
  9
$USERR2
 40
0.0
  9
$USERR3
 40
0.0
  9
$USERR4
 40
0.0
  9
$USERR5
 40
0.0
  9
$WORLDVIEW
 70
     1
  9
$SHADEDGE
 70
     3
  9
$SHADEDIF
 70
    70
  9
$TILEMODE
 70
     1
  9
$MAXACTVP
 70
    64
  9
$PINSBASE
 10
0.0
 20
0.0
 30
0.0
  9
$PLIMCHECK
 70
     0
  9
$PEXTMIN
 10
1.000000000000E+20
 20
1.000000000000E+20
 30
1.000000000000E+20
  9
$PEXTMAX
 10
-1.000000000000E+20
 20
-1.000000000000E+20
 30
-1.000000000000E+20
  9
$PLIMMIN
 10
0.0
 20
0.0
  9
$PLIMMAX
 10
12.0
 20
9.0
  9
$UNITMODE
 70
     0
  9
$VISRETAIN
 70
     1
  9
$PLINEGEN
 70
     0
  9
$PSLTSCALE
 70
     1
  9
$TREEDEPTH
 70
  3020
  9
$CMLSTYLE
  2
Standard
  9
$CMLJUST
 70
     0
  9
$CMLSCALE
 40
1.0
  9
$PROXYGRAPHICS
 70
     1
  9
$MEASUREMENT
 70
     0
  9
$CELWEIGHT
370
    -1
  9
$ENDCAPS
280
     0
  9
$JOINSTYLE
280
     0
  9
$LWDISPLAY
290
     0
  9
$INSUNITS
 70
     0
  9
$HYPERLINKBASE
  1

  9
$STYLESHEET
  1

  9
$XEDIT
290
     1
  9
$CEPSNTYPE
380
     0
  9
$PSTYLEMODE
290
     1
  9
$FINGERPRINTGUID
  2
{54A46A46-279B-4146-AE54-835E5AEB30F7}
  9
$VERSIONGUID
  2
{FAEB1C32-E019-11D5-929B-00C0DF256EC4}
  9
$EXTNAMES
290
     1
  9
$PSVPSCALE
 40
0.0
  9
$OLESTARTUP
290
     0
  0
ENDSEC
  0
SECTION
  2
CLASSES
  0
CLASS
  1
ACDBDICTIONARYWDFLT
  2
AcDbDictionaryWithDefault
  3
ObjectDBX Classes
 90
        0
280
     0
281
     0
  0
CLASS
  1
SCALE
  2
AcDbScale
  3
ObjectDBX Classes
 90
     1153
280
     0
281
     0
  0
CLASS
  1
DICTIONARYVAR
  2
AcDbDictionaryVar
  3
ObjectDBX Classes
 90
        0
280
     0
281
     0
  0
CLASS
  1
ACDBPLACEHOLDER
  2
AcDbPlaceHolder
  3
ObjectDBX Classes
 90
        0
280
     0
281
     0
  0
CLASS
  1
LAYOUT
  2
AcDbLayout
  3
ObjectDBX Classes
 90
        0
280
     0
281
     0
  0
ENDSEC
  0
SECTION
  2
TABLES
  0
TABLE
  2
VPORT
  5
8
330
0
100
AcDbSymbolTable
 70
     1
  0
VPORT
  5
3EB
330
8
100
AcDbSymbolTableRecord
100
AcDbViewportTableRecord
  2
*Active
 70
     0
 10
0.0
 20
0.0
 11
1.0
 21
1.0
 12
92.473975
 22
79.895025
 13
0.0
 23
0.0
 14
0.5
 24
0.5
 15
0.5
 25
0.5
 16
0.0
 26
0.0
 36
171.0025542374295
 17
0.0
 27
0.0
 37
0.0
 40
162.985851
 41
1.729542302358
 42
50.0
 43
0.0
 44
0.0
 50
0.0
 51
0.0
 71
    16
 72
   100
 73
     1
 74
     3
 75
     0
 76
     0
 77
     0
 78
     0
281
     0
 65
     1
110
0.0
120
0.0
130
0.0
111
1.0
121
0.0
131
0.0
112
0.0
122
1.0
132
0.0
 79
     0
146
0.0
  0
ENDTAB
  0
TABLE
  2
LTYPE
  5
5
330
0
100
AcDbSymbolTable
 70
     1
  0
LTYPE
  5
14
330
5
100
AcDbSymbolTableRecord
100
AcDbLinetypeTableRecord
  2
ByBlock
 70
     0
  3

 72
    65
 73
     0
 40
0.0
  0
LTYPE
  5
15
330
5
100
AcDbSymbolTableRecord
100
AcDbLinetypeTableRecord
  2
ByLayer
 70
     0
  3

 72
    65
 73
     0
 40
0.0
  0
LTYPE
  5
16
330
5
100
AcDbSymbolTableRecord
100
AcDbLinetypeTableRecord
  2
Continuous
 70
     0
  3
Solid line
 72
    65
 73
     0
 40
0.0
  0
ENDTAB
  0
TABLE
  2
LAYER
  5
2
330
0
100
AcDbSymbolTable
 70
     1
  0
LAYER
  5
10
330
2
100
AcDbSymbolTableRecord
100
AcDbLayerTableRecord
  2
0
 70
     0
 62
     7
  6
Continuous
370
    -3
390
F
  0
ENDTAB
  0
TABLE
  2
STYLE
  5
3
330
0
100
AcDbSymbolTable
 70
     1
  0
STYLE
  5
11
330
3
100
AcDbSymbolTableRecord
100
AcDbTextStyleTableRecord
  2
Standard
 70
     0
 40
0.0
 41
1.0
 50
0.0
 71
     0
 42
0.2
  3
txt
  4

  0
ENDTAB
  0
TABLE
  2
VIEW
  5
6
330
0
100
AcDbSymbolTable
 70
     0
  0
ENDTAB
  0
TABLE
  2
UCS
  5
7
330
0
100
AcDbSymbolTable
 70
     0
  0
ENDTAB
  0
TABLE
  2
APPID
  5
9
330
0
100
AcDbSymbolTable
 70
     1
  0
APPID
  5
12
330
9
100
AcDbSymbolTableRecord
100
AcDbRegAppTableRecord
  2
ACAD
 70
     0
  0
ENDTAB
  0
TABLE
  2
DIMSTYLE
  5
A
330
0
100
AcDbSymbolTable
 70
     1
100
AcDbDimStyleTable
  0
DIMSTYLE
105
20
330
A
100
AcDbSymbolTableRecord
100
AcDbDimStyleTableRecord
  2
Standard
 70
     0
340
11
  0
ENDTAB
  0
TABLE
  2
BLOCK_RECORD
  5
1
330
0
100
AcDbSymbolTable
 70
     0
  0
BLOCK_RECORD
  5
1D
330
1
100
AcDbSymbolTableRecord
100
AcDbBlockTableRecord
  2
*Model_Space
340
1E
  0
BLOCK_RECORD
  5
1B
330
1
100
AcDbSymbolTableRecord
100
AcDbBlockTableRecord
  2
*Paper_Space
340
1C
  0
ENDTAB
  0
ENDSEC
  0
SECTION
  2
BLOCKS
  0
BLOCK
  5
3EE
330
1D
100
AcDbEntity
  8
0
100
AcDbBlockBegin
  2
*Model_Space
 70
     0
 10
0.0
 20
0.0
 30
0.0
  3
*Model_Space
  1
*Model_Space
  0
ENDBLK
  5
3EF
330
1D
100
AcDbEntity
  8
0
100
AcDbBlockEnd
  0
BLOCK
  5
3EC
330
1B
100
AcDbEntity
 67
     1
  8
0
100
AcDbBlockBegin
  2
*Paper_Space
 70
     0
 10
0.0
 20
0.0
 30
0.0
  3
*Paper_Space
  1
*Paper_Space
  0
ENDBLK
  5
3ED
330
1B
100
AcDbEntity
 67
     1
  8
0
100
AcDbBlockEnd
  0
ENDSEC
  0
SECTION
  2
ENTITIES
  0
LINE
  5
21
330
1D
100
AcDbEntity
  8
0
100
AcDbLine
 10
0.05205
 20
9.99095
 30
0.0
 11
0.10985
 21
10.17995
 31
0.0
  0
LINE
  5
22
330
1D
100
AcDbEntity
  8
0
100
AcDbLine
 10
0.05205
 20
9.99095
 30
0.0
 11
0.19585
 21
10.46395
 31
0.0
  0
LINE
  5
23
330
1D
100
AcDbEntity
  8
0
100
AcDbLine
 10
0.05205
 20
9.99095
 30
0.0
 11
0.15235
 21
9.50695
 31
0.0
  0
LINE
  5
26
330
1D
100
AcDbEntity
  8
0
100
AcDbLine
 10
0.47235
 20
9.12995
 30
0.0
 11
6.80665
 21
4.70595
 31
0.0
  0
LINE
  5
27
330
1D
100
AcDbEntity
  8
0
100
AcDbLine
 10
0.47235
 20
9.12995
 30
0.0
 11
6.80665
 21
4.70595
 31
0.0
  0
LINE
  5
28
330
1D
100
AcDbEntity
  8
0
100
AcDbLine
 10
0.15235
 20
9.50695
 30
0.0
 11
0.47235
 21
9.12995
 31
0.0
  0
LINE
  5
2D
330
1D
100
AcDbEntity
  8
0
100
AcDbLine
 10
2.68905
 20
14.20495
 30
0.0
 11
24.47325
 21
45.88255
 31
0.0
  0
LINE
  5
2E
330
1D
100
AcDbEntity
  8
0
100
AcDbLine
 10
1.61745
 20
12.64595
 30
0.0
 11
2.68905
 21
14.20495
 31
0.0
  0
LINE
  5
32
330
1D
100
AcDbEntity
  8
0
100
AcDbLine
 10
0.19585
 20
10.46395
 30
0.0
 11
1.61745
 21
12.64595
 31
0.0
  0
LINE
  5
35
330
1D
100
AcDbEntity
  8
0
100
AcDbLine
 10
14.30365
 20
0.36995
 30
0.0
 11
15.20765
 21
1.05695
 31
0.0
  0
LINE
  5
36
330
1D
100
AcDbEntity
  8
0
100
AcDbLine
 10
15.20765
 20
1.05695
 30
0.0
 11
15.50015
 21
1.34795
 31
0.0
  0
LINE
  5
37
330
1D
100
AcDbEntity
  8
0
100
AcDbLine
 10
15.50015
 20
1.34795
 30
0.0
 11
15.83415
 21
1.70195
 31
0.0
  0
LINE
  5
38
330
1D
100
AcDbEntity
  8
0
100
AcDbLine
 10
15.83415
 20
1.70195
 30
0.0
 11
15.98645
 21
1.88095
 31
0.0
  0
LINE
  5
39
330
1D
100
AcDbEntity
  8
0
100
AcDbLine
 10
15.83415
 20
1.70195
 30
0.0
 11
15.98355
 21
1.87395
 31
0.0
  0
LINE
  5
3A
330
1D
100
AcDbEntity
  8
0
100
AcDbLine
 10
16.45125
 20
2.51795
 30
0.0
 11
24.07415
 21
13.48495
 31
0.0
  0
LINE
  5
3B
330
1D
100
AcDbEntity
  8
0
100
AcDbLine
 10
15.98355
 20
1.87395
 30
0.0
 11
16.45125
 21
2.51795
 31
0.0
  0
LINE
  5
3C
330
1D
100
AcDbEntity
  8
0
100
AcDbLine
 10
15.852607248912
 20
1.739339282362
 30
0.0
 11
15.98645
 21
1.88095
 31
0.0
  0
LINE
  5
3D
330
1D
100
AcDbEntity
  8
0
100
AcDbLine
 10
13.20625
 20
0.37695
 30
0.0
 11
13.75385
 21
0.20995
 31
0.0
  0
LINE
  5
3E
330
1D
100
AcDbEntity
  8
0
100
AcDbLine
 10
13.75385
 20
0.20995
 30
0.0
 11
14.30365
 21
0.36995
 31
0.0
  0
LINE
  5
3F
330
1D
100
AcDbEntity
  8
0
100
AcDbLine
 10
6.80665
 20
4.70595
 30
0.0
 11
13.20625
 21
0.37695
 31
0.0
  0
LINE
  5
40
330
1D
100
AcDbEntity
  8
0
100
AcDbLine
 10
27.30695
 20
18.23795
 30
0.0
 11
27.857001470469
 21
19.270894502957
 31
0.0
  0
LINE
  5
41
330
1D
100
AcDbEntity
  8
0
100
AcDbLine
 10
27.30695
 20
18.23795
 30
0.0
 11
27.857001470469
 21
19.270894502957
 31
0.0
  0
LINE
  5
43
330
1D
100
AcDbEntity
  8
0
100
AcDbLine
 10
27.857001470469
 20
19.270894502957
 30
0.0
 11
28.27505
 21
20.05595
 31
0.0
  0
LINE
  5
44
330
1D
100
AcDbEntity
  8
0
100
AcDbLine
 10
28.27505
 20
20.05595
 30
0.0
 11
28.84415
 21
21.53665
 31
0.0
  0
LINE
  5
45
330
1D
100
AcDbEntity
  8
0
100
AcDbLine
 10
26.11435
 20
16.43195
 30
0.0
 11
27.30695
 21
18.23795
 31
0.0
  0
LINE
  5
46
330
1D
100
AcDbEntity
  8
0
100
AcDbLine
 10
24.07415
 20
13.48495
 30
0.0
 11
26.11435
 21
16.43195
 31
0.0
  0
LINE
  5
4A
330
1D
100
AcDbEntity
  8
0
100
AcDbLine
 10
28.84415
 20
21.53665
 30
0.0
 11
30.68905
 21
27.40285
 31
0.0
  0
LINE
  5
4C
330
1D
100
AcDbEntity
  8
0
100
AcDbLine
 10
30.68905
 20
27.40285
 30
0.0
 11
40.27515
 21
58.75745
 31
0.0
  0
LINE
  5
4D
330
1D
100
AcDbEntity
  8
0
100
AcDbLine
 10
2.68905
 20
14.20495
 30
0.0
 11
24.47325
 21
45.88255
 31
0.0
  0
LINE
  5
4E
330
1D
100
AcDbEntity
  8
0
100
AcDbLine
 10
26.79195
 20
49.37125
 30
0.0
 11
27.65765
 21
50.86985
 31
0.0
  0
LINE
  5
4F
330
1D
100
AcDbEntity
  8
0
100
AcDbLine
 10
28.37055
 20
52.31675
 30
0.0
 11
28.73245
 21
53.02745
 31
0.0
  0
LINE
  5
50
330
1D
100
AcDbEntity
  8
0
100
AcDbLine
 10
28.73245
 20
53.02745
 30
0.0
 11
28.96745
 21
53.78045
 31
0.0
  0
LINE
  5
51
330
1D
100
AcDbEntity
  8
0
100
AcDbLine
 10
40.27515
 20
58.75745
 30
0.0
 11
49.31735
 21
88.33325
 31
0.0
  0
LINE
  5
52
330
1D
100
AcDbEntity
  8
0
100
AcDbLine
 10
31.01255
 20
61.06695
 30
0.0
 11
51.71685
 21
142.57905
 31
0.0
  0
LINE
  5
53
330
1D
100
AcDbEntity
  8
0
100
AcDbLine
 10
30.08125
 20
57.40305
 30
0.0
 11
31.01255
 21
61.06695
 31
0.0
  0
LINE
  5
54
330
1D
100
AcDbEntity
  8
0
100
AcDbLine
 10
49.559711528242
 20
89.135541350131
 30
0.0
 11
49.99105
 21
90.45055
 31
0.0
  0
LINE
  5
55
330
1D
100
AcDbEntity
  8
0
100
AcDbLine
 10
49.99105
 20
90.45055
 30
0.0
 11
50.36065
 21
91.46705
 31
0.0
  0
LINE
  5
56
330
1D
100
AcDbEntity
  8
0
100
AcDbLine
 10
50.36065
 20
91.46705
 30
0.0
 11
50.98925
 21
92.91635
 31
0.0
  0
LINE
  5
57
330
1D
100
AcDbEntity
  8
0
100
AcDbLine
 10
50.98925
 20
92.91635
 30
0.0
 11
51.53355
 21
93.92975
 31
0.0
  0
LINE
  5
58
330
1D
100
AcDbEntity
  8
0
100
AcDbLine
 10
51.53355
 20
93.92975
 30
0.0
 11
52.14925
 21
94.86905
 31
0.0
  0
LINE
  5
59
330
1D
100
AcDbEntity
  8
0
100
AcDbLine
 10
52.14925
 20
94.86905
 30
0.0
 11
52.84195
 21
95.72495
 31
0.0
  0
LINE
  5
5A
330
1D
100
AcDbEntity
  8
0
100
AcDbLine
 10
53.61535
 20
96.49085
 30
0.0
 11
54.47175
 21
97.16145
 31
0.0
  0
LINE
  5
5B
330
1D
100
AcDbEntity
  8
0
100
AcDbLine
 10
52.84195
 20
95.72495
 30
0.0
 11
53.61535
 21
96.49085
 31
0.0
  0
LINE
  5
5C
330
1D
100
AcDbEntity
  8
0
100
AcDbLine
 10
54.47175
 20
97.16145
 30
0.0
 11
55.41245
 21
97.73375
 31
0.0
  0
LINE
  5
5D
330
1D
100
AcDbEntity
  8
0
100
AcDbLine
 10
55.41245
 20
97.73375
 30
0.0
 11
56.80115
 21
98.34355
 31
0.0
  0
LINE
  5
5E
330
1D
100
AcDbEntity
  8
0
100
AcDbLine
 10
29.65175
 20
55.86405
 30
0.0
 11
30.08125
 21
57.40305
 31
0.0
  0
LINE
  5
5F
330
1D
100
AcDbEntity
  8
0
100
AcDbLine
 10
28.96745
 20
53.78045
 30
0.0
 11
29.65175
 21
55.86405
 31
0.0
  0
LINE
  5
60
330
1D
100
AcDbEntity
  8
0
100
AcDbLine
 10
27.65765
 20
50.86985
 30
0.0
 11
28.37055
 21
52.31675
 31
0.0
  0
LINE
  5
61
330
1D
100
AcDbEntity
  8
0
100
AcDbLine
 10
24.47325
 20
45.88255
 30
0.0
 11
26.79195
 21
49.37125
 31
0.0
  0
LINE
  5
62
330
1D
100
AcDbEntity
  8
0
100
AcDbLine
 10
116.94795
 20
95.94805
 30
0.0
 11
117.34795
 21
95.94805
 31
0.0
  0
LINE
  5
63
330
1D
100
AcDbEntity
  8
0
100
AcDbLine
 10
116.94795
 20
95.94805
 30
0.0
 11
117.94795
 21
65.94805
 31
0.0
  0
LINE
  5
64
330
1D
100
AcDbEntity
  8
0
100
AcDbLine
 10
116.65595
 20
96.84745
 30
0.0
 11
117.04395
 21
96.84745
 31
0.0
  0
LINE
  5
65
330
1D
100
AcDbEntity
  8
0
100
AcDbLine
 10
117.94795
 20
65.94805
 30
0.0
 11
118.34795
 21
65.94805
 31
0.0
  0
LINE
  5
66
330
1D
100
AcDbEntity
  8
0
100
AcDbLine
 10
117.44795
 20
96.84745
 30
0.0
 11
117.44795
 21
96.30805
 31
0.0
  0
LINE
  5
67
330
1D
100
AcDbEntity
  8
0
100
AcDbLine
 10
117.84395
 20
96.30805
 30
0.0
 11
118.89995
 21
96.30805
 31
0.0
  0
LINE
  5
68
330
1D
100
AcDbEntity
  8
0
100
AcDbLine
 10
117.44795
 20
96.30805
 30
0.0
 11
117.71195
 21
95.94805
 31
0.0
  0
LINE
  5
69
330
1D
100
AcDbEntity
  8
0
100
AcDbLine
 10
117.44795
 20
96.30805
 30
0.0
 11
117.84395
 21
96.30805
 31
0.0
  0
LINE
  5
6A
330
1D
100
AcDbEntity
  8
0
100
AcDbLine
 10
117.44795
 20
96.30805
 30
0.0
 11
117.44795
 21
96.84745
 31
0.0
  0
LINE
  5
6B
330
1D
100
AcDbEntity
  8
0
100
AcDbLine
 10
117.34795
 20
95.94805
 30
0.0
 11
118.44795
 21
95.94805
 31
0.0
  0
LINE
  5
6C
330
1D
100
AcDbEntity
  8
0
100
AcDbLine
 10
118.34795
 20
65.94805
 30
0.0
 11
119.34795
 21
65.94805
 31
0.0
  0
LINE
  5
6D
330
1D
100
AcDbEntity
  8
0
100
AcDbLine
 10
118.89995
 20
96.30805
 30
0.0
 11
120.65995
 21
96.30805
 31
0.0
  0
LINE
  5
6E
330
1D
100
AcDbEntity
  8
0
100
AcDbLine
 10
118.44795
 20
95.94805
 30
0.0
 11
120.34795
 21
95.94805
 31
0.0
  0
LINE
  5
6F
330
1D
100
AcDbEntity
  8
0
100
AcDbLine
 10
120.94795
 20
65.94805
 30
0.0
 11
120.94795
 21
10.20995
 31
0.0
  0
LINE
  5
70
330
1D
100
AcDbEntity
  8
0
100
AcDbLine
 10
120.94795
 20
65.94805
 30
0.0
 11
121.24795
 21
65.94805
 31
0.0
  0
LINE
  5
71
330
1D
100
AcDbEntity
  8
0
100
AcDbLine
 10
120.94795
 20
10.20995
 30
0.0
 11
121.24795
 21
11.55895
 31
0.0
  0
LINE
  5
72
330
1D
100
AcDbEntity
  8
0
100
AcDbLine
 10
120.94795
 20
10.20995
 30
0.0
 11
121.24795
 21
8.22295
 31
0.0
  0
LINE
  5
73
330
1D
100
AcDbEntity
  8
0
100
AcDbLine
 10
120.94795
 20
10.20995
 30
0.0
 11
120.94795
 21
65.94805
 31
0.0
  0
LINE
  5
74
330
1D
100
AcDbEntity
  8
0
100
AcDbLine
 10
121.94795
 20
7.09895
 30
0.0
 11
123.14795
 21
6.42395
 31
0.0
  0
LINE
  5
75
330
1D
100
AcDbEntity
  8
0
100
AcDbLine
 10
121.24795
 20
8.22295
 30
0.0
 11
121.94795
 21
7.09895
 31
0.0
  0
LINE
  5
76
330
1D
100
AcDbEntity
  8
0
100
AcDbLine
 10
121.94795
 20
65.94805
 30
0.0
 11
123.14795
 21
65.94805
 31
0.0
  0
LINE
  5
77
330
1D
100
AcDbEntity
  8
0
100
AcDbLine
 10
121.94795
 20
12.75895
 30
0.0
 11
123.14795
 21
13.95795
 31
0.0
  0
LINE
  5
78
330
1D
100
AcDbEntity
  8
0
100
AcDbLine
 10
121.24795
 20
65.94805
 30
0.0
 11
121.94795
 21
65.94805
 31
0.0
  0
LINE
  5
79
330
1D
100
AcDbEntity
  8
0
100
AcDbLine
 10
121.24795
 20
11.55895
 30
0.0
 11
121.94795
 21
12.75895
 31
0.0
  0
LINE
  5
7A
330
1D
100
AcDbEntity
  8
0
100
AcDbLine
 10
121.04795
 20
65.94805
 30
0.0
 11
123.24795
 21
65.94805
 31
0.0
  0
LINE
  5
7B
330
1D
100
AcDbEntity
  8
0
100
AcDbLine
 10
119.34795
 20
65.94805
 30
0.0
 11
121.04795
 21
65.94805
 31
0.0
  0
LINE
  5
7C
330
1D
100
AcDbEntity
  8
0
100
AcDbLine
 10
119.34795
 20
65.94805
 30
0.0
 11
120.94795
 21
65.94805
 31
0.0
  0
LINE
  5
7D
330
1D
100
AcDbEntity
  8
0
100
AcDbLine
 10
123.14795
 20
6.42395
 30
0.0
 11
124.74795
 21
6.04895
 31
0.0
  0
LINE
  5
7E
330
1D
100
AcDbEntity
  8
0
100
AcDbLine
 10
123.14795
 20
65.94805
 30
0.0
 11
124.74795
 21
65.94805
 31
0.0
  0
LINE
  5
7F
330
1D
100
AcDbEntity
  8
0
100
AcDbLine
 10
123.14795
 20
13.95795
 30
0.0
 11
124.74795
 21
15.00795
 31
0.0
  0
LINE
  5
80
330
1D
100
AcDbEntity
  8
0
100
AcDbLine
 10
123.24795
 20
65.94805
 30
0.0
 11
125.74795
 21
65.94805
 31
0.0
  0
LINE
  5
81
330
1D
100
AcDbEntity
  8
0
100
AcDbLine
 10
122.74795
 20
95.94805
 30
0.0
 11
125.44795
 21
95.94805
 31
0.0
  0
LINE
  5
82
330
1D
100
AcDbEntity
  8
0
100
AcDbLine
 10
122.99195
 20
96.30805
 30
0.0
 11
125.63195
 21
96.30805
 31
0.0
  0
LINE
  5
83
330
1D
100
AcDbEntity
  8
0
100
AcDbLine
 10
120.65995
 20
96.30805
 30
0.0
 11
122.99195
 21
96.30805
 31
0.0
  0
LINE
  5
84
330
1D
100
AcDbEntity
  8
0
100
AcDbLine
 10
120.34795
 20
95.94805
 30
0.0
 11
122.74795
 21
95.94805
 31
0.0
  0
LINE
  5
85
330
1D
100
AcDbEntity
  8
0
100
AcDbLine
 10
119.23895
 20
96.84745
 30
0.0
 11
121.17195
 21
96.84745
 31
0.0
  0
LINE
  5
86
330
1D
100
AcDbEntity
  8
0
100
AcDbLine
 10
121.17195
 20
96.84745
 30
0.0
 11
123.46795
 21
96.84745
 31
0.0
  0
LINE
  5
87
330
1D
100
AcDbEntity
  8
0
100
AcDbLine
 10
124.74795
 20
6.04895
 30
0.0
 11
126.54795
 21
5.97395
 31
0.0
  0
LINE
  5
88
330
1D
100
AcDbEntity
  8
0
100
AcDbLine
 10
124.74795
 20
65.94805
 30
0.0
 11
126.54795
 21
65.94805
 31
0.0
  0
LINE
  5
89
330
1D
100
AcDbEntity
  8
0
100
AcDbLine
 10
124.74795
 20
15.00795
 30
0.0
 11
126.54795
 21
15.71995
 31
0.0
  0
LINE
  5
8A
330
1D
100
AcDbEntity
  8
0
100
AcDbLine
 10
126.54795
 20
5.97395
 30
0.0
 11
128.44795
 21
5.94795
 31
0.0
  0
LINE
  5
8B
330
1D
100
AcDbEntity
  8
0
100
AcDbLine
 10
126.54795
 20
65.94805
 30
0.0
 11
128.44795
 21
65.94805
 31
0.0
  0
LINE
  5
8C
330
1D
100
AcDbEntity
  8
0
100
AcDbLine
 10
126.54795
 20
15.71995
 30
0.0
 11
128.44795
 21
15.94795
 31
0.0
  0
LINE
  5
8D
330
1D
100
AcDbEntity
  8
0
100
AcDbLine
 10
125.74795
 20
65.94805
 30
0.0
 11
128.44795
 21
65.94805
 31
0.0
  0
LINE
  5
8E
330
1D
100
AcDbEntity
  8
0
100
AcDbLine
 10
125.63195
 20
96.30805
 30
0.0
 11
128.44795
 21
96.30805
 31
0.0
  0
LINE
  5
8F
330
1D
100
AcDbEntity
  8
0
100
AcDbLine
 10
125.44795
 20
95.94805
 30
0.0
 11
128.44795
 21
95.94805
 31
0.0
  0
LINE
  5
90
330
1D
100
AcDbEntity
  8
0
100
AcDbLine
 10
123.46795
 20
96.84745
 30
0.0
 11
126.01795
 21
96.84745
 31
0.0
  0
LINE
  5
91
330
1D
100
AcDbEntity
  8
0
100
AcDbLine
 10
126.01795
 20
96.84745
 30
0.0
 11
128.69795
 21
96.84745
 31
0.0
  0
LINE
  5
92
330
1D
100
AcDbEntity
  8
0
100
AcDbLine
 10
118.32895
 20
96.84745
 30
0.0
 11
119.23895
 21
96.84745
 31
0.0
  0
LINE
  5
93
330
1D
100
AcDbEntity
  8
0
100
AcDbLine
 10
117.60295
 20
96.84745
 30
0.0
 11
118.32895
 21
96.84745
 31
0.0
  0
LINE
  5
94
330
1D
100
AcDbEntity
  8
0
100
AcDbLine
 10
117.04395
 20
96.84745
 30
0.0
 11
117.60295
 21
96.84745
 31
0.0
  0
LINE
  5
95
330
1D
100
AcDbEntity
  8
0
100
AcDbLine
 10
115.97195
 20
97.03875
 30
0.0
 11
116.05295
 21
96.95835
 31
0.0
  0
LINE
  5
96
330
1D
100
AcDbEntity
  8
0
100
AcDbLine
 10
116.05295
 20
96.95835
 30
0.0
 11
116.14695
 21
96.89775
 31
0.0
  0
LINE
  5
97
330
1D
100
AcDbEntity
  8
0
100
AcDbLine
 10
116.14695
 20
96.89775
 30
0.0
 11
116.36595
 21
96.84745
 31
0.0
  0
LINE
  5
98
330
1D
100
AcDbEntity
  8
0
100
AcDbLine
 10
116.36595
 20
96.84745
 30
0.0
 11
116.65595
 21
96.84745
 31
0.0
  0
LINE
  5
99
330
1D
100
AcDbEntity
  8
0
100
AcDbLine
 10
115.87695
 20
97.24185
 30
0.0
 11
115.97195
 21
97.03875
 31
0.0
  0
LINE
  5
9A
330
1D
100
AcDbEntity
  8
0
100
AcDbLine
 10
56.80115
 20
98.34355
 30
0.0
 11
58.34785
 21
98.78475
 31
0.0
  0
LINE
  5
A1
330
1D
100
AcDbEntity
  8
0
100
AcDbLine
 10
58.34785
 20
98.78475
 30
0.0
 11
60.67215
 21
99.13685
 31
0.0
  0
LINE
  5
A2
330
1D
100
AcDbEntity
  8
0
100
AcDbLine
 10
62.40515
 20
99.24965
 30
0.0
 11
66.39865
 21
99.29995
 31
0.0
  0
LINE
  5
BC
330
1D
100
AcDbEntity
  8
0
100
AcDbLine
 10
66.39865
 20
99.29995
 30
0.0
 11
79.94385
 21
99.30095
 31
0.0
  0
LINE
  5
C4
330
1D
100
AcDbEntity
  8
0
100
AcDbLine
 10
60.67215
 20
99.13685
 30
0.0
 11
62.40515
 21
99.24965
 31
0.0
  0
LINE
  5
108
330
1D
100
AcDbEntity
  8
0
100
AcDbLine
 10
80.19385
 20
99.36775
 30
0.0
 11
80.37685
 21
99.55095
 31
0.0
  0
LINE
  5
10C
330
1D
100
AcDbEntity
  8
0
100
AcDbLine
 10
80.44385
 20
99.99235
 30
0.0
 11
80.44385
 21
99.80095
 31
0.0
  0
LINE
  5
10D
330
1D
100
AcDbEntity
  8
0
100
AcDbLine
 10
80.44385
 20
99.80095
 30
0.0
 11
80.44385
 21
99.99235
 31
0.0
  0
LINE
  5
10E
330
1D
100
AcDbEntity
  8
0
100
AcDbLine
 10
80.37685
 20
99.55095
 30
0.0
 11
80.44385
 21
99.80095
 31
0.0
  0
LINE
  5
10F
330
1D
100
AcDbEntity
  8
0
100
AcDbLine
 10
79.94385
 20
99.30095
 30
0.0
 11
80.19385
 21
99.36775
 31
0.0
  0
LINE
  5
113
330
1D
100
AcDbEntity
  8
0
100
AcDbLine
 10
80.44375
 20
100.56025
 30
0.0
 11
80.44375
 21
101.48985
 31
0.0
  0
LINE
  5
114
330
1D
100
AcDbEntity
  8
0
100
AcDbLine
 10
80.44375
 20
100.56025
 30
0.0
 11
80.44385
 21
99.99235
 31
0.0
  0
LINE
  5
115
330
1D
100
AcDbEntity
  8
0
100
AcDbLine
 10
82.94795
 20
100.949847100318
 30
0.0
 11
82.94795
 21
100.75555
 31
0.0
  0
LINE
  5
116
330
1D
100
AcDbEntity
  8
0
100
AcDbLine
 10
82.94795
 20
100.75555
 30
0.0
 11
82.94795
 21
100.949847100318
 31
0.0
  0
LINE
  5
117
330
1D
100
AcDbEntity
  8
0
100
AcDbLine
 10
82.94795
 20
100.75555
 30
0.0
 11
82.94795
 21
100.98345
 31
0.0
  0
LINE
  5
118
330
1D
100
AcDbEntity
  8
0
100
AcDbLine
 10
80.44375
 20
101.211761065528
 30
0.0
 11
82.15465
 21
100.98475
 31
0.0
  0
LINE
  5
119
330
1D
100
AcDbEntity
  8
0
100
AcDbLine
 10
82.15465
 20
100.98475
 30
0.0
 11
82.94795
 21
100.949847100318
 31
0.0
  0
LINE
  5
11A
330
1D
100
AcDbEntity
  8
0
100
AcDbLine
 10
80.44375
 20
101.48985
 30
0.0
 11
80.44375
 21
100.56025
 31
0.0
  0
LINE
  5
11B
330
1D
100
AcDbEntity
  8
0
100
AcDbLine
 10
82.94795
 20
101.82875
 30
0.0
 11
82.94795
 21
100.98345
 31
0.0
  0
LINE
  5
11C
330
1D
100
AcDbEntity
  8
0
100
AcDbLine
 10
82.94795
 20
101.82875
 30
0.0
 11
82.94795
 21
103.26545
 31
0.0
  0
LINE
  5
11D
330
1D
100
AcDbEntity
  8
0
100
AcDbLine
 10
82.94795
 20
100.98345
 30
0.0
 11
82.94795
 21
100.75555
 31
0.0
  0
LINE
  5
11E
330
1D
100
AcDbEntity
  8
0
100
AcDbLine
 10
82.94795
 20
100.98345
 30
0.0
 11
82.94795
 21
101.82875
 31
0.0
  0
LINE
  5
11F
330
1D
100
AcDbEntity
  8
0
100
AcDbLine
 10
82.94795
 20
101.14235
 30
0.0
 11
82.94795
 21
100.50625
 31
0.0
  0
LINE
  5
120
330
1D
100
AcDbEntity
  8
0
100
AcDbLine
 10
82.94795
 20
101.14235
 30
0.0
 11
82.94795
 21
102.18785
 31
0.0
  0
LINE
  5
121
330
1D
100
AcDbEntity
  8
0
100
AcDbLine
 10
82.94795
 20
100.29265
 30
0.0
 11
83.01735
 21
100.04565
 31
0.0
  0
LINE
  5
122
330
1D
100
AcDbEntity
  8
0
100
AcDbLine
 10
82.94795
 20
100.29265
 30
0.0
 11
82.94795
 21
100.50625
 31
0.0
  0
LINE
  5
123
330
1D
100
AcDbEntity
  8
0
100
AcDbLine
 10
82.94795
 20
100.50625
 30
0.0
 11
82.94795
 21
100.29265
 31
0.0
  0
LINE
  5
124
330
1D
100
AcDbEntity
  8
0
100
AcDbLine
 10
82.94795
 20
100.50625
 30
0.0
 11
82.94795
 21
101.14235
 31
0.0
  0
LINE
  5
125
330
1D
100
AcDbEntity
  8
0
100
AcDbLine
 10
82.94795
 20
103.26545
 30
0.0
 11
82.94795
 21
101.82875
 31
0.0
  0
LINE
  5
126
330
1D
100
AcDbEntity
  8
0
100
AcDbLine
 10
82.94795
 20
103.26545
 30
0.0
 11
82.94795
 21
105.25065
 31
0.0
  0
LINE
  5
127
330
1D
100
AcDbEntity
  8
0
100
AcDbLine
 10
80.44345
 20
105.26545
 30
0.0
 11
80.44375
 21
101.48985
 31
0.0
  0
LINE
  5
128
330
1D
100
AcDbEntity
  8
0
100
AcDbLine
 10
82.94795
 20
105.25065
 30
0.0
 11
82.94795
 21
103.26545
 31
0.0
  0
LINE
  5
129
330
1D
100
AcDbEntity
  8
0
100
AcDbLine
 10
82.94795
 20
105.25065
 30
0.0
 11
82.94795
 21
107.72305
 31
0.0
  0
LINE
  5
12A
330
1D
100
AcDbEntity
  8
0
100
AcDbLine
 10
82.94795
 20
105.41605
 30
0.0
 11
82.94795
 21
103.62255
 31
0.0
  0
LINE
  5
12B
330
1D
100
AcDbEntity
  8
0
100
AcDbLine
 10
82.94795
 20
102.18785
 30
0.0
 11
82.94795
 21
101.14235
 31
0.0
  0
LINE
  5
12C
330
1D
100
AcDbEntity
  8
0
100
AcDbLine
 10
82.94795
 20
102.18785
 30
0.0
 11
82.94795
 21
103.62255
 31
0.0
  0
LINE
  5
12D
330
1D
100
AcDbEntity
  8
0
100
AcDbLine
 10
115.12295
 20
98.80695
 30
0.0
 11
115.59495
 21
98.09995
 31
0.0
  0
LINE
  5
12E
330
1D
100
AcDbEntity
  8
0
100
AcDbLine
 10
114.70295
 20
99.17465
 30
0.0
 11
115.12295
 21
98.80695
 31
0.0
  0
LINE
  5
12F
330
1D
100
AcDbEntity
  8
0
100
AcDbLine
 10
114.20395
 20
99.45255
 30
0.0
 11
114.70295
 21
99.17465
 31
0.0
  0
LINE
  5
130
330
1D
100
AcDbEntity
  8
0
100
AcDbLine
 10
113.43795
 20
99.68565
 30
0.0
 11
114.20395
 21
99.45255
 31
0.0
  0
LINE
  5
131
330
1D
100
AcDbEntity
  8
0
100
AcDbLine
 10
112.87995
 20
99.76365
 30
0.0
 11
113.43795
 21
99.68565
 31
0.0
  0
LINE
  5
132
330
1D
100
AcDbEntity
  8
0
100
AcDbLine
 10
83.44785
 20
99.79985
 30
0.0
 11
111.70495
 21
99.79995
 31
0.0
  0
LINE
  5
133
330
1D
100
AcDbEntity
  8
0
100
AcDbLine
 10
83.01735
 20
100.04565
 30
0.0
 11
83.19995
 21
99.86585
 31
0.0
  0
LINE
  5
134
330
1D
100
AcDbEntity
  8
0
100
AcDbLine
 10
83.19995
 20
99.86585
 30
0.0
 11
83.44785
 21
99.79985
 31
0.0
  0
LINE
  5
135
330
1D
100
AcDbEntity
  8
0
100
AcDbLine
 10
111.70495
 20
99.79995
 30
0.0
 11
112.87995
 21
99.76365
 31
0.0
  0
LINE
  5
136
330
1D
100
AcDbEntity
  8
0
100
AcDbLine
 10
82.94795
 20
103.62255
 30
0.0
 11
82.94795
 21
102.18785
 31
0.0
  0
LINE
  5
137
330
1D
100
AcDbEntity
  8
0
100
AcDbLine
 10
82.94795
 20
103.62255
 30
0.0
 11
82.94795
 21
105.41605
 31
0.0
  0
LINE
  5
138
330
1D
100
AcDbEntity
  8
0
100
AcDbLine
 10
115.59495
 20
98.09995
 30
0.0
 11
115.87695
 21
97.24185
 31
0.0
  0
LINE
  5
139
330
1D
100
AcDbEntity
  8
0
100
AcDbLine
 10
126.71395
 20
106.37965
 30
0.0
 11
128.20595
 21
105.92185
 31
0.0
  0
LINE
  5
13A
330
1D
100
AcDbEntity
  8
0
100
AcDbLine
 10
125.98895
 20
106.65195
 30
0.0
 11
126.71395
 21
106.37965
 31
0.0
  0
LINE
  5
13C
330
1D
100
AcDbEntity
  8
0
100
AcDbLine
 10
128.44795
 20
96.30805
 30
0.0
 11
131.26395
 21
96.30805
 31
0.0
  0
LINE
  5
13D
330
1D
100
AcDbEntity
  8
0
100
AcDbLine
 10
128.44795
 20
65.94805
 30
0.0
 11
130.34795
 21
65.94805
 31
0.0
  0
LINE
  5
13E
330
1D
100
AcDbEntity
  8
0
100
AcDbLine
 10
128.44795
 20
65.94805
 30
0.0
 11
131.14795
 21
65.94805
 31
0.0
  0
LINE
  5
13F
330
1D
100
AcDbEntity
  8
0
100
AcDbLine
 10
128.44795
 20
15.94795
 30
0.0
 11
130.34795
 21
15.71995
 31
0.0
  0
LINE
  5
140
330
1D
100
AcDbEntity
  8
0
100
AcDbLine
 10
128.44795
 20
5.94795
 30
0.0
 11
130.34795
 21
5.97395
 31
0.0
  0
LINE
  5
141
330
1D
100
AcDbEntity
  8
0
100
AcDbLine
 10
128.44795
 20
95.94805
 30
0.0
 11
131.44795
 21
95.94805
 31
0.0
  0
LINE
  5
142
330
1D
100
AcDbEntity
  8
0
100
AcDbLine
 10
128.69795
 20
96.84745
 30
0.0
 11
131.42395
 21
96.84745
 31
0.0
  0
LINE
  5
143
330
1D
100
AcDbEntity
  8
0
100
AcDbLine
 10
128.20595
 20
105.92185
 30
0.0
 11
129.72895
 21
105.58815
 31
0.0
  0
LINE
  5
146
330
1D
100
AcDbEntity
  8
0
100
AcDbLine
 10
130.34795
 20
65.94805
 30
0.0
 11
132.14795
 21
65.94805
 31
0.0
  0
LINE
  5
147
330
1D
100
AcDbEntity
  8
0
100
AcDbLine
 10
131.26395
 20
96.30805
 30
0.0
 11
133.90395
 21
96.30805
 31
0.0
  0
LINE
  5
148
330
1D
100
AcDbEntity
  8
0
100
AcDbLine
 10
131.14795
 20
65.94805
 30
0.0
 11
133.64795
 21
65.94805
 31
0.0
  0
LINE
  5
149
330
1D
100
AcDbEntity
  8
0
100
AcDbLine
 10
130.34795
 20
15.71995
 30
0.0
 11
132.14795
 21
15.00795
 31
0.0
  0
LINE
  5
14A
330
1D
100
AcDbEntity
  8
0
100
AcDbLine
 10
130.34795
 20
5.97395
 30
0.0
 11
132.14795
 21
6.04895
 31
0.0
  0
LINE
  5
14B
330
1D
100
AcDbEntity
  8
0
100
AcDbLine
 10
132.14795
 20
65.94805
 30
0.0
 11
133.74795
 21
65.94805
 31
0.0
  0
LINE
  5
14C
330
1D
100
AcDbEntity
  8
0
100
AcDbLine
 10
132.14795
 20
15.00795
 30
0.0
 11
133.74795
 21
13.95795
 31
0.0
  0
LINE
  5
14D
330
1D
100
AcDbEntity
  8
0
100
AcDbLine
 10
132.14795
 20
6.04895
 30
0.0
 11
133.74795
 21
6.42395
 31
0.0
  0
LINE
  5
14E
330
1D
100
AcDbEntity
  8
0
100
AcDbLine
 10
131.44795
 20
95.94805
 30
0.0
 11
134.14795
 21
95.94805
 31
0.0
  0
LINE
  5
14F
330
1D
100
AcDbEntity
  8
0
100
AcDbLine
 10
131.42395
 20
96.84745
 30
0.0
 11
134.01295
 21
96.84745
 31
0.0
  0
LINE
  5
150
330
1D
100
AcDbEntity
  8
0
100
AcDbLine
 10
133.64795
 20
65.94805
 30
0.0
 11
135.84795
 21
65.94805
 31
0.0
  0
LINE
  5
151
330
1D
100
AcDbEntity
  8
0
100
AcDbLine
 10
133.74795
 20
65.94805
 30
0.0
 11
134.94795
 21
65.94805
 31
0.0
  0
LINE
  5
152
330
1D
100
AcDbEntity
  8
0
100
AcDbLine
 10
133.90395
 20
96.30805
 30
0.0
 11
136.23595
 21
96.30805
 31
0.0
  0
LINE
  5
153
330
1D
100
AcDbEntity
  8
0
100
AcDbLine
 10
133.74795
 20
13.95795
 30
0.0
 11
134.94795
 21
12.75895
 31
0.0
  0
LINE
  5
154
330
1D
100
AcDbEntity
  8
0
100
AcDbLine
 10
133.74795
 20
6.42395
 30
0.0
 11
134.94795
 21
7.09895
 31
0.0
  0
LINE
  5
155
330
1D
100
AcDbEntity
  8
0
100
AcDbLine
 10
134.14795
 20
95.94805
 30
0.0
 11
136.54795
 21
95.94805
 31
0.0
  0
LINE
  5
156
330
1D
100
AcDbEntity
  8
0
100
AcDbLine
 10
134.01295
 20
96.84745
 30
0.0
 11
136.33595
 21
96.84745
 31
0.0
  0
LINE
  5
157
330
1D
100
AcDbEntity
  8
0
100
AcDbLine
 10
132.83095
 20
105.30025
 30
0.0
 11
134.38995
 21
105.34845
 31
0.0
  0
LINE
  5
158
330
1D
100
AcDbEntity
  8
0
100
AcDbLine
 10
131.88695
 20
105.33365
 30
0.0
 11
132.83095
 21
105.30025
 31
0.0
  0
LINE
  5
15B
330
1D
100
AcDbEntity
  8
0
100
AcDbLine
 10
134.94795
 20
65.94805
 30
0.0
 11
135.64795
 21
65.94805
 31
0.0
  0
LINE
  5
15C
330
1D
100
AcDbEntity
  8
0
100
AcDbLine
 10
134.94795
 20
12.75895
 30
0.0
 11
135.64795
 21
11.55895
 31
0.0
  0
LINE
  5
15D
330
1D
100
AcDbEntity
  8
0
100
AcDbLine
 10
135.64795
 20
65.94805
 30
0.0
 11
135.94795
 21
65.94805
 31
0.0
  0
LINE
  5
15E
330
1D
100
AcDbEntity
  8
0
100
AcDbLine
 10
135.64795
 20
11.55895
 30
0.0
 11
135.94795
 21
10.20995
 31
0.0
  0
LINE
  5
15F
330
1D
100
AcDbEntity
  8
0
100
AcDbLine
 10
134.94795
 20
7.09895
 30
0.0
 11
135.64795
 21
8.22295
 31
0.0
  0
LINE
  5
160
330
1D
100
AcDbEntity
  8
0
100
AcDbLine
 10
135.84795
 20
65.94805
 30
0.0
 11
137.54795
 21
65.94805
 31
0.0
  0
LINE
  5
161
330
1D
100
AcDbEntity
  8
0
100
AcDbLine
 10
137.54795
 20
65.94805
 30
0.0
 11
138.54795
 21
65.94805
 31
0.0
  0
LINE
  5
162
330
1D
100
AcDbEntity
  8
0
100
AcDbLine
 10
135.94795
 20
10.20995
 30
0.0
 11
135.94795
 21
65.94805
 31
0.0
  0
LINE
  5
163
330
1D
100
AcDbEntity
  8
0
100
AcDbLine
 10
135.94795
 20
65.94805
 30
0.0
 11
135.94795
 21
10.20995
 31
0.0
  0
LINE
  5
164
330
1D
100
AcDbEntity
  8
0
100
AcDbLine
 10
135.94795
 20
65.94805
 30
0.0
 11
137.54795
 21
65.94805
 31
0.0
  0
LINE
  5
165
330
1D
100
AcDbEntity
  8
0
100
AcDbLine
 10
135.64795
 20
8.22295
 30
0.0
 11
135.94795
 21
10.20995
 31
0.0
  0
LINE
  5
166
330
1D
100
AcDbEntity
  8
0
100
AcDbLine
 10
136.23595
 20
96.30805
 30
0.0
 11
137.99595
 21
96.30805
 31
0.0
  0
LINE
  5
167
330
1D
100
AcDbEntity
  8
0
100
AcDbLine
 10
137.99595
 20
96.30805
 30
0.0
 11
139.05195
 21
96.30805
 31
0.0
  0
LINE
  5
168
330
1D
100
AcDbEntity
  8
0
100
AcDbLine
 10
136.54795
 20
95.94805
 30
0.0
 11
138.44795
 21
95.94805
 31
0.0
  0
LINE
  5
169
330
1D
100
AcDbEntity
  8
0
100
AcDbLine
 10
137.99595
 20
96.84745
 30
0.0
 11
138.13195
 21
96.84745
 31
0.0
  0
LINE
  5
16A
330
1D
100
AcDbEntity
  8
0
100
AcDbLine
 10
136.62395
 20
96.84745
 30
0.0
 11
137.938899208339
 21
96.84745
 31
0.0
  0
LINE
  5
16B
330
1D
100
AcDbEntity
  8
0
100
AcDbLine
 10
138.13195
 20
96.84745
 30
0.0
 11
139.09095
 21
96.84745
 31
0.0
  0
LINE
  5
16C
330
1D
100
AcDbEntity
  8
0
100
AcDbLine
 10
136.33595
 20
96.84745
 30
0.0
 11
138.27495
 21
96.84745
 31
0.0
  0
LINE
  5
16D
330
1D
100
AcDbEntity
  8
0
100
AcDbLine
 10
138.94795
 20
65.94805
 30
0.0
 11
139.94795
 21
95.94805
 31
0.0
  0
LINE
  5
16E
330
1D
100
AcDbEntity
  8
0
100
AcDbLine
 10
138.54795
 20
65.94805
 30
0.0
 11
138.94795
 21
65.94805
 31
0.0
  0
LINE
  5
16F
330
1D
100
AcDbEntity
  8
0
100
AcDbLine
 10
139.05195
 20
96.30805
 30
0.0
 11
139.44795
 21
96.30805
 31
0.0
  0
LINE
  5
170
330
1D
100
AcDbEntity
  8
0
100
AcDbLine
 10
138.44795
 20
95.94805
 30
0.0
 11
139.54795
 21
95.94805
 31
0.0
  0
LINE
  5
171
330
1D
100
AcDbEntity
  8
0
100
AcDbLine
 10
139.18395
 20
95.94805
 30
0.0
 11
139.44795
 21
96.30805
 31
0.0
  0
LINE
  5
172
330
1D
100
AcDbEntity
  8
0
100
AcDbLine
 10
139.44795
 20
96.30805
 30
0.0
 11
139.44795
 21
96.84745
 31
0.0
  0
LINE
  5
173
330
1D
100
AcDbEntity
  8
0
100
AcDbLine
 10
139.44795
 20
96.84745
 30
0.0
 11
139.44795
 21
96.30805
 31
0.0
  0
LINE
  5
174
330
1D
100
AcDbEntity
  8
0
100
AcDbLine
 10
139.54795
 20
95.94805
 30
0.0
 11
139.94795
 21
95.94805
 31
0.0
  0
LINE
  5
175
330
1D
100
AcDbEntity
  8
0
100
AcDbLine
 10
139.09095
 20
96.84745
 30
0.0
 11
139.44695
 21
96.84745
 31
0.0
  0
LINE
  5
176
330
1D
100
AcDbEntity
  8
0
100
AcDbLine
 10
138.27495
 20
96.84745
 30
0.0
 11
139.73495
 21
96.84745
 31
0.0
  0
LINE
  5
177
330
1D
100
AcDbEntity
  8
0
100
AcDbLine
 10
139.73495
 20
96.84745
 30
0.0
 11
140.64095
 21
96.84745
 31
0.0
  0
LINE
  5
178
330
1D
100
AcDbEntity
  8
0
100
AcDbLine
 10
141.38095
 20
97.09745
 30
0.0
 11
141.44795
 21
97.34745
 31
0.0
  0
LINE
  5
179
330
1D
100
AcDbEntity
  8
0
100
AcDbLine
 10
141.19795
 20
96.91445
 30
0.0
 11
141.38095
 21
97.09745
 31
0.0
  0
LINE
  5
17A
330
1D
100
AcDbEntity
  8
0
100
AcDbLine
 10
140.94795
 20
96.84745
 30
0.0
 11
141.19795
 21
96.91445
 31
0.0
  0
LINE
  5
17B
330
1D
100
AcDbEntity
  8
0
100
AcDbLine
 10
140.64095
 20
96.84745
 30
0.0
 11
140.94795
 21
96.84745
 31
0.0
  0
LINE
  5
17C
330
1D
100
AcDbEntity
  8
0
100
AcDbLine
 10
141.48195
 20
104.39435
 30
0.0
 11
141.76395
 21
106.15785
 31
0.0
  0
LINE
  5
17D
330
1D
100
AcDbEntity
  8
0
100
AcDbLine
 10
141.44795
 20
102.92235
 30
0.0
 11
141.48195
 21
104.39435
 31
0.0
  0
LINE
  5
17E
330
1D
100
AcDbEntity
  8
0
100
AcDbLine
 10
141.44795
 20
102.92235
 30
0.0
 11
141.44795
 21
97.34745
 31
0.0
  0
LINE
  5
17F
330
1D
100
AcDbEntity
  8
0
100
AcDbLine
 10
141.44795
 20
97.34745
 30
0.0
 11
141.44795
 21
102.92235
 31
0.0
  0
LINE
  5
180
330
1D
100
AcDbEntity
  8
0
100
AcDbLine
 10
134.38995
 20
105.34845
 30
0.0
 11
134.67995
 21
105.37165
 31
0.0
  0
LINE
  5
181
330
1D
100
AcDbEntity
  8
0
100
AcDbLine
 10
129.72895
 20
105.58815
 30
0.0
 11
131.27395
 21
105.38035
 31
0.0
  0
LINE
  5
182
330
1D
100
AcDbEntity
  8
0
100
AcDbLine
 10
136.96495
 20
105.71255
 30
0.0
 11
139.46595
 21
106.42485
 31
0.0
  0
LINE
  5
183
330
1D
100
AcDbEntity
  8
0
100
AcDbLine
 10
136.75995
 20
105.67015
 30
0.0
 11
136.817861818348
 21
105.686301533373
 31
0.0
  0
LINE
  5
184
330
1D
100
AcDbEntity
  8
0
100
AcDbLine
 10
136.75995
 20
105.67015
 30
0.0
 11
136.96495
 21
105.71255
 31
0.0
  0
LINE
  5
185
330
1D
100
AcDbEntity
  8
0
100
AcDbLine
 10
131.27395
 20
105.38035
 30
0.0
 11
131.88695
 21
105.33365
 31
0.0
  0
LINE
  5
18B
330
1D
100
AcDbEntity
  8
0
100
AcDbLine
 10
139.46595
 20
106.42485
 30
0.0
 11
139.95395
 21
106.60815
 31
0.0
  0
LINE
  5
18D
330
1D
100
AcDbEntity
  8
0
100
AcDbLine
 10
141.76395
 20
106.15785
 30
0.0
 11
142.32995
 21
107.58875
 31
0.0
  0
LINE
  5
18E
330
1D
100
AcDbEntity
  8
0
100
AcDbLine
 10
140.22995
 20
106.68045
 30
0.0
 11
141.13295
 21
107.11665
 31
0.0
  0
LINE
  5
192
330
1D
100
AcDbEntity
  8
0
100
AcDbLine
 10
80.44325
 20
107.46985
 30
0.0
 11
80.44345
 21
105.26545
 31
0.0
  0
LINE
  5
193
330
1D
100
AcDbEntity
  8
0
100
AcDbLine
 10
82.94795
 20
107.72305
 30
0.0
 11
82.94795
 21
105.25065
 31
0.0
  0
LINE
  5
194
330
1D
100
AcDbEntity
  8
0
100
AcDbLine
 10
82.94795
 20
107.72305
 30
0.0
 11
82.94795
 21
110.60815
 31
0.0
  0
LINE
  5
195
330
1D
100
AcDbEntity
  8
0
100
AcDbLine
 10
82.94795
 20
107.53255
 30
0.0
 11
82.94795
 21
109.92905
 31
0.0
  0
LINE
  5
196
330
1D
100
AcDbEntity
  8
0
100
AcDbLine
 10
122.53395
 20
108.46125
 30
0.0
 11
123.86895
 21
107.65355
 31
0.0
  0
LINE
  5
197
330
1D
100
AcDbEntity
  8
0
100
AcDbLine
 10
121.26995
 20
109.37445
 30
0.0
 11
122.53395
 21
108.46125
 31
0.0
  0
LINE
  5
19C
330
1D
100
AcDbEntity
  8
0
100
AcDbLine
 10
125.26495
 20
106.95835
 30
0.0
 11
125.98895
 21
106.65195
 31
0.0
  0
LINE
  5
19D
330
1D
100
AcDbEntity
  8
0
100
AcDbLine
 10
141.13295
 20
107.11665
 30
0.0
 11
141.91495
 21
107.50735
 31
0.0
  0
LINE
  5
19E
330
1D
100
AcDbEntity
  8
0
100
AcDbLine
 10
142.372925978545
 20
107.809165781485
 30
0.0
 11
142.44795
 21
108.05945
 31
0.0
  0
LINE
  5
19F
330
1D
100
AcDbEntity
  8
0
100
AcDbLine
 10
142.44795
 20
108.05945
 30
0.0
 11
142.44795
 21
108.19395
 31
0.0
  0
LINE
  5
1A0
330
1D
100
AcDbEntity
  8
0
100
AcDbLine
 10
142.412808605972
 20
108.013716341814
 30
0.0
 11
142.44795
 21
108.05945
 31
0.0
  0
LINE
  5
1A1
330
1D
100
AcDbEntity
  8
0
100
AcDbLine
 10
142.44795
 20
108.39155
 30
0.0
 11
142.44795
 21
140.20835
 31
0.0
  0
LINE
  5
1A2
330
1D
100
AcDbEntity
  8
0
100
AcDbLine
 10
142.44795
 20
108.38305
 30
0.0
 11
142.44795
 21
108.19395
 31
0.0
  0
LINE
  5
1A3
330
1D
100
AcDbEntity
  8
0
100
AcDbLine
 10
142.44795
 20
108.19395
 30
0.0
 11
142.44795
 21
108.38305
 31
0.0
  0
LINE
  5
1A4
330
1D
100
AcDbEntity
  8
0
100
AcDbLine
 10
142.44795
 20
108.19395
 30
0.0
 11
142.44795
 21
108.05945
 31
0.0
  0
LINE
  5
1A5
330
1D
100
AcDbEntity
  8
0
100
AcDbLine
 10
123.86895
 20
107.65355
 30
0.0
 11
125.26495
 21
106.95835
 31
0.0
  0
LINE
  5
1A9
330
1D
100
AcDbEntity
  8
0
100
AcDbLine
 10
142.94795
 20
109.84745
 30
0.0
 11
142.94795
 21
110.04985
 31
0.0
  0
LINE
  5
1AA
330
1D
100
AcDbEntity
  8
0
100
AcDbLine
 10
80.44315
 20
109.95025
 30
0.0
 11
80.44325
 21
107.46985
 31
0.0
  0
LINE
  5
1AB
330
1D
100
AcDbEntity
  8
0
100
AcDbLine
 10
82.94795
 20
109.92905
 30
0.0
 11
82.94795
 21
107.53255
 31
0.0
  0
LINE
  5
1AC
330
1D
100
AcDbEntity
  8
0
100
AcDbLine
 10
120.50495
 20
110.01055
 30
0.0
 11
121.26995
 21
109.37445
 31
0.0
  0
LINE
  5
1AD
330
1D
100
AcDbEntity
  8
0
100
AcDbLine
 10
142.94795
 20
109.91905
 30
0.0
 11
142.94795
 21
109.80405
 31
0.0
  0
LINE
  5
1AE
330
1D
100
AcDbEntity
  8
0
100
AcDbLine
 10
142.94795
 20
109.91905
 30
0.0
 11
142.94795
 21
110.19195
 31
0.0
  0
LINE
  5
1AF
330
1D
100
AcDbEntity
  8
0
100
AcDbLine
 10
142.94795
 20
109.80405
 30
0.0
 11
144.94795
 21
107.79995
 31
0.0
  0
LINE
  5
1B0
330
1D
100
AcDbEntity
  8
0
100
AcDbLine
 10
142.94795
 20
109.80405
 30
0.0
 11
142.94795
 21
109.91905
 31
0.0
  0
LINE
  5
1B1
330
1D
100
AcDbEntity
  8
0
100
AcDbLine
 10
120.08695
 20
110.38835
 30
0.0
 11
120.50495
 21
110.01055
 31
0.0
  0
LINE
  5
1B3
330
1D
100
AcDbEntity
  8
0
100
AcDbLine
 10
82.94795
 20
110.60815
 30
0.0
 11
82.94795
 21
107.72305
 31
0.0
  0
LINE
  5
1B4
330
1D
100
AcDbEntity
  8
0
100
AcDbLine
 10
82.94795
 20
110.60815
 30
0.0
 11
82.94795
 21
113.81757
 31
0.0
  0
LINE
  5
1B7
330
1D
100
AcDbEntity
  8
0
100
AcDbLine
 10
118.90595
 20
111.58713
 30
0.0
 11
118.98895
 21
111.49582
 31
0.0
  0
LINE
  5
1B8
330
1D
100
AcDbEntity
  8
0
100
AcDbLine
 10
118.98895
 20
111.49582
 30
0.0
 11
120.08695
 21
110.38835
 31
0.0
  0
LINE
  5
1BB
330
1D
100
AcDbEntity
  8
0
100
AcDbLine
 10
142.94795
 20
111.19615
 30
0.0
 11
142.94795
 21
110.61935
 31
0.0
  0
LINE
  5
1BC
330
1D
100
AcDbEntity
  8
0
100
AcDbLine
 10
142.94795
 20
111.19615
 30
0.0
 11
142.94795
 21
111.91722
 31
0.0
  0
LINE
  5
1BD
330
1D
100
AcDbEntity
  8
0
100
AcDbLine
 10
142.94795
 20
110.91815
 30
0.0
 11
142.94795
 21
111.57483
 31
0.0
  0
LINE
  5
1BE
330
1D
100
AcDbEntity
  8
0
100
AcDbLine
 10
142.94795
 20
110.91815
 30
0.0
 11
142.94795
 21
110.40785
 31
0.0
  0
LINE
  5
1BF
330
1D
100
AcDbEntity
  8
0
100
AcDbLine
 10
142.94795
 20
111.57483
 30
0.0
 11
142.94795
 21
112.37157
 31
0.0
  0
LINE
  5
1C0
330
1D
100
AcDbEntity
  8
0
100
AcDbLine
 10
142.94795
 20
111.57483
 30
0.0
 11
142.94795
 21
110.91815
 31
0.0
  0
LINE
  5
1C1
330
1D
100
AcDbEntity
  8
0
100
AcDbLine
 10
118.27080097467
 20
112.35063930046
 30
0.0
 11
118.90595
 21
111.58713
 31
0.0
  0
LINE
  5
1C5
330
1D
100
AcDbEntity
  8
0
100
AcDbLine
 10
117.17195
 20
113.74259
 30
0.0
 11
118.27080097467
 21
112.35063930046
 31
0.0
  0
LINE
  5
1C6
330
1D
100
AcDbEntity
  8
0
100
AcDbLine
 10
142.94795
 20
112.37157
 30
0.0
 11
142.94795
 21
113.29824
 31
0.0
  0
LINE
  5
1C7
330
1D
100
AcDbEntity
  8
0
100
AcDbLine
 10
142.94795
 20
112.37157
 30
0.0
 11
142.94795
 21
111.57483
 31
0.0
  0
LINE
  5
1C8
330
1D
100
AcDbEntity
  8
0
100
AcDbLine
 10
142.94795
 20
113.29824
 30
0.0
 11
142.94795
 21
114.34599
 31
0.0
  0
LINE
  5
1C9
330
1D
100
AcDbEntity
  8
0
100
AcDbLine
 10
142.94795
 20
113.29824
 30
0.0
 11
142.94795
 21
112.37157
 31
0.0
  0
LINE
  5
1CA
330
1D
100
AcDbEntity
  8
0
100
AcDbLine
 10
142.94795
 20
111.91722
 30
0.0
 11
142.94795
 21
111.19615
 31
0.0
  0
LINE
  5
1CB
330
1D
100
AcDbEntity
  8
0
100
AcDbLine
 10
142.94795
 20
111.91722
 30
0.0
 11
142.94795
 21
112.77374
 31
0.0
  0
LINE
  5
1CC
330
1D
100
AcDbEntity
  8
0
100
AcDbLine
 10
142.94795
 20
112.77374
 30
0.0
 11
142.94795
 21
111.91722
 31
0.0
  0
LINE
  5
1CD
330
1D
100
AcDbEntity
  8
0
100
AcDbLine
 10
142.94795
 20
112.77374
 30
0.0
 11
142.94795
 21
113.75652
 31
0.0
  0
LINE
  5
1CE
330
1D
100
AcDbEntity
  8
0
100
AcDbLine
 10
82.94795
 20
113.81757
 30
0.0
 11
82.94795
 21
110.60815
 31
0.0
  0
LINE
  5
1CF
330
1D
100
AcDbEntity
  8
0
100
AcDbLine
 10
82.94795
 20
113.81757
 30
0.0
 11
82.94795
 21
117.25482
 31
0.0
  0
LINE
  5
1D1
330
1D
100
AcDbEntity
  8
0
100
AcDbLine
 10
82.94795
 20
115.36171
 30
0.0
 11
82.94795
 21
118.30003
 31
0.0
  0
LINE
  5
1D2
330
1D
100
AcDbEntity
  8
0
100
AcDbLine
 10
142.94795
 20
114.85431
 30
0.0
 11
142.94795
 21
113.75652
 31
0.0
  0
LINE
  5
1D3
330
1D
100
AcDbEntity
  8
0
100
AcDbLine
 10
142.94795
 20
114.85431
 30
0.0
 11
142.94795
 21
116.05626
 31
0.0
  0
LINE
  5
1D4
330
1D
100
AcDbEntity
  8
0
100
AcDbLine
 10
142.94795
 20
114.34599
 30
0.0
 11
142.94795
 21
115.50284
 31
0.0
  0
LINE
  5
1D5
330
1D
100
AcDbEntity
  8
0
100
AcDbLine
 10
142.94795
 20
114.34599
 30
0.0
 11
142.94795
 21
113.29824
 31
0.0
  0
LINE
  5
1D6
330
1D
100
AcDbEntity
  8
0
100
AcDbLine
 10
82.94795
 20
117.25482
 30
0.0
 11
82.94795
 21
113.81757
 31
0.0
  0
LINE
  5
1D7
330
1D
100
AcDbEntity
  8
0
100
AcDbLine
 10
82.94795
 20
117.25482
 30
0.0
 11
82.94795
 21
120.814906
 31
0.0
  0
LINE
  5
1D8
330
1D
100
AcDbEntity
  8
0
100
AcDbLine
 10
142.94795
 20
115.50284
 30
0.0
 11
142.94795
 21
116.75548
 31
0.0
  0
LINE
  5
1D9
330
1D
100
AcDbEntity
  8
0
100
AcDbLine
 10
142.94795
 20
115.50284
 30
0.0
 11
142.94795
 21
114.34599
 31
0.0
  0
LINE
  5
1DA
330
1D
100
AcDbEntity
  8
0
100
AcDbLine
 10
142.94795
 20
116.75548
 30
0.0
 11
142.94795
 21
118.09125
 31
0.0
  0
LINE
  5
1DB
330
1D
100
AcDbEntity
  8
0
100
AcDbLine
 10
142.94795
 20
116.75548
 30
0.0
 11
142.94795
 21
115.50284
 31
0.0
  0
LINE
  5
1DC
330
1D
100
AcDbEntity
  8
0
100
AcDbLine
 10
142.94795
 20
113.75652
 30
0.0
 11
142.94795
 21
112.77374
 31
0.0
  0
LINE
  5
1DD
330
1D
100
AcDbEntity
  8
0
100
AcDbLine
 10
142.94795
 20
113.75652
 30
0.0
 11
142.94795
 21
114.85431
 31
0.0
  0
LINE
  5
1DE
330
1D
100
AcDbEntity
  8
0
100
AcDbLine
 10
142.94795
 20
116.05626
 30
0.0
 11
142.94795
 21
114.85431
 31
0.0
  0
LINE
  5
1DF
330
1D
100
AcDbEntity
  8
0
100
AcDbLine
 10
142.94795
 20
116.05626
 30
0.0
 11
142.94795
 21
117.34848
 31
0.0
  0
LINE
  5
1E0
330
1D
100
AcDbEntity
  8
0
100
AcDbLine
 10
142.94795
 20
110.61935
 30
0.0
 11
142.94795
 21
110.19195
 31
0.0
  0
LINE
  5
1E1
330
1D
100
AcDbEntity
  8
0
100
AcDbLine
 10
142.94795
 20
110.61935
 30
0.0
 11
142.94795
 21
111.19615
 31
0.0
  0
LINE
  5
1E2
330
1D
100
AcDbEntity
  8
0
100
AcDbLine
 10
142.94795
 20
110.19195
 30
0.0
 11
142.94795
 21
109.91905
 31
0.0
  0
LINE
  5
1E3
330
1D
100
AcDbEntity
  8
0
100
AcDbLine
 10
142.94795
 20
110.19195
 30
0.0
 11
142.94795
 21
110.61935
 31
0.0
  0
LINE
  5
1E4
330
1D
100
AcDbEntity
  8
0
100
AcDbLine
 10
142.94795
 20
110.04985
 30
0.0
 11
142.94795
 21
110.40785
 31
0.0
  0
LINE
  5
1E5
330
1D
100
AcDbEntity
  8
0
100
AcDbLine
 10
142.94795
 20
110.04985
 30
0.0
 11
142.94795
 21
109.84745
 31
0.0
  0
LINE
  5
1E6
330
1D
100
AcDbEntity
  8
0
100
AcDbLine
 10
142.94795
 20
110.40785
 30
0.0
 11
142.94795
 21
110.91815
 31
0.0
  0
LINE
  5
1E7
330
1D
100
AcDbEntity
  8
0
100
AcDbLine
 10
142.94795
 20
110.40785
 30
0.0
 11
142.94795
 21
110.04985
 31
0.0
  0
LINE
  5
1E8
330
1D
100
AcDbEntity
  8
0
100
AcDbLine
 10
82.94795
 20
118.30003
 30
0.0
 11
82.94795
 21
115.36171
 31
0.0
  0
LINE
  5
1E9
330
1D
100
AcDbEntity
  8
0
100
AcDbLine
 10
115.171394858321
 20
117.823669638329
 30
0.0
 11
115.20199871195
 21
117.735137776524
 31
0.0
  0
LINE
  5
1EA
330
1D
100
AcDbEntity
  8
0
100
AcDbLine
 10
142.94795
 20
119.49519
 30
0.0
 11
142.94795
 21
120.951512
 31
0.0
  0
LINE
  5
1EB
330
1D
100
AcDbEntity
  8
0
100
AcDbLine
 10
142.94795
 20
119.49519
 30
0.0
 11
142.94795
 21
118.09125
 31
0.0
  0
LINE
  5
1EC
330
1D
100
AcDbEntity
  8
0
100
AcDbLine
 10
142.94795
 20
118.09125
 30
0.0
 11
142.94795
 21
119.49519
 31
0.0
  0
LINE
  5
1ED
330
1D
100
AcDbEntity
  8
0
100
AcDbLine
 10
142.94795
 20
118.09125
 30
0.0
 11
142.94795
 21
116.75548
 31
0.0
  0
LINE
  5
1EE
330
1D
100
AcDbEntity
  8
0
100
AcDbLine
 10
142.94795
 20
117.34848
 30
0.0
 11
142.94795
 21
116.05626
 31
0.0
  0
LINE
  5
1EF
330
1D
100
AcDbEntity
  8
0
100
AcDbLine
 10
142.94795
 20
117.34848
 30
0.0
 11
142.94795
 21
118.71634
 31
0.0
  0
LINE
  5
1F0
330
1D
100
AcDbEntity
  8
0
100
AcDbLine
 10
142.94795
 20
118.71634
 30
0.0
 11
142.94795
 21
117.34848
 31
0.0
  0
LINE
  5
1F1
330
1D
100
AcDbEntity
  8
0
100
AcDbLine
 10
142.94795
 20
118.71634
 30
0.0
 11
142.94795
 21
120.1457
 31
0.0
  0
LINE
  5
1F6
330
1D
100
AcDbEntity
  8
0
100
AcDbLine
 10
82.94795
 20
120.814906
 30
0.0
 11
82.94795
 21
117.25482
 31
0.0
  0
LINE
  5
1F7
330
1D
100
AcDbEntity
  8
0
100
AcDbLine
 10
82.94795
 20
120.814906
 30
0.0
 11
82.94795
 21
124.38968
 31
0.0
  0
LINE
  5
1F8
330
1D
100
AcDbEntity
  8
0
100
AcDbLine
 10
82.94795
 20
121.299909
 30
0.0
 11
82.94795
 21
124.29976
 31
0.0
  0
LINE
  5
1FA
330
1D
100
AcDbEntity
  8
0
100
AcDbLine
 10
82.94795
 20
124.38968
 30
0.0
 11
82.94795
 21
120.814906
 31
0.0
  0
LINE
  5
1FB
330
1D
100
AcDbEntity
  8
0
100
AcDbLine
 10
82.94795
 20
124.38968
 30
0.0
 11
82.94795
 21
127.87093
 31
0.0
  0
LINE
  5
1FC
330
1D
100
AcDbEntity
  8
0
100
AcDbLine
 10
114.02695
 20
124.2999
 30
0.0
 11
114.03495
 21
123.78018
 31
0.0
  0
LINE
  5
1FD
330
1D
100
AcDbEntity
  8
0
100
AcDbLine
 10
114.03495
 20
123.78018
 30
0.0
 11
114.05995
 21
123.20092
 31
0.0
  0
LINE
  5
1FE
330
1D
100
AcDbEntity
  8
0
100
AcDbLine
 10
114.048004864553
 20
123.598758165686
 30
0.0
 11
114.05995
 21
123.20092
 31
0.0
  0
LINE
  5
1FF
330
1D
100
AcDbEntity
  8
0
100
AcDbLine
 10
82.94795
 20
124.29976
 30
0.0
 11
82.94795
 21
121.299909
 31
0.0
  0
LINE
  5
200
330
1D
100
AcDbEntity
  8
0
100
AcDbLine
 10
142.94795
 20
123.12519
 30
0.0
 11
142.94795
 21
121.620746
 31
0.0
  0
LINE
  5
201
330
1D
100
AcDbEntity
  8
0
100
AcDbLine
 10
142.94795
 20
123.12519
 30
0.0
 11
142.94795
 21
124.64204
 31
0.0
  0
LINE
  5
202
330
1D
100
AcDbEntity
  8
0
100
AcDbLine
 10
142.94795
 20
123.95776
 30
0.0
 11
142.94795
 21
125.47485
 31
0.0
  0
LINE
  5
203
330
1D
100
AcDbEntity
  8
0
100
AcDbLine
 10
142.94795
 20
123.95776
 30
0.0
 11
142.94795
 21
122.4445
 31
0.0
  0
LINE
  5
204
330
1D
100
AcDbEntity
  8
0
100
AcDbLine
 10
142.94795
 20
122.4445
 30
0.0
 11
142.94795
 21
123.95776
 31
0.0
  0
LINE
  5
205
330
1D
100
AcDbEntity
  8
0
100
AcDbLine
 10
142.94795
 20
122.4445
 30
0.0
 11
142.94795
 21
120.951512
 31
0.0
  0
LINE
  5
206
330
1D
100
AcDbEntity
  8
0
100
AcDbLine
 10
142.94795
 20
120.951512
 30
0.0
 11
142.94795
 21
122.4445
 31
0.0
  0
LINE
  5
207
330
1D
100
AcDbEntity
  8
0
100
AcDbLine
 10
142.94795
 20
120.951512
 30
0.0
 11
142.94795
 21
119.49519
 31
0.0
  0
LINE
  5
210
330
1D
100
AcDbEntity
  8
0
100
AcDbLine
 10
142.94795
 20
126.97915
 30
0.0
 11
142.94795
 21
128.45404
 31
0.0
  0
LINE
  5
211
330
1D
100
AcDbEntity
  8
0
100
AcDbLine
 10
142.94795
 20
126.97915
 30
0.0
 11
142.94795
 21
125.47485
 31
0.0
  0
LINE
  5
212
330
1D
100
AcDbEntity
  8
0
100
AcDbLine
 10
142.94795
 20
125.47485
 30
0.0
 11
142.94795
 21
126.97915
 31
0.0
  0
LINE
  5
213
330
1D
100
AcDbEntity
  8
0
100
AcDbLine
 10
142.94795
 20
125.47485
 30
0.0
 11
142.94795
 21
123.95776
 31
0.0
  0
LINE
  5
214
330
1D
100
AcDbEntity
  8
0
100
AcDbLine
 10
142.94795
 20
124.64204
 30
0.0
 11
142.94795
 21
123.12519
 31
0.0
  0
LINE
  5
215
330
1D
100
AcDbEntity
  8
0
100
AcDbLine
 10
142.94795
 20
124.64204
 30
0.0
 11
142.94795
 21
126.1554
 31
0.0
  0
LINE
  5
216
330
1D
100
AcDbEntity
  8
0
100
AcDbLine
 10
142.94795
 20
126.1554
 30
0.0
 11
142.94795
 21
124.64204
 31
0.0
  0
LINE
  5
217
330
1D
100
AcDbEntity
  8
0
100
AcDbLine
 10
142.94795
 20
126.1554
 30
0.0
 11
142.94795
 21
127.64861
 31
0.0
  0
LINE
  5
218
330
1D
100
AcDbEntity
  8
0
100
AcDbLine
 10
77.98575
 20
128.04928
 30
0.0
 11
80.37665
 21
121.369037
 31
0.0
  0
LINE
  5
219
330
1D
100
AcDbEntity
  8
0
100
AcDbLine
 10
82.94795
 20
127.87093
 30
0.0
 11
82.94795
 21
124.38968
 31
0.0
  0
LINE
  5
21A
330
1D
100
AcDbEntity
  8
0
100
AcDbLine
 10
82.94795
 20
127.87093
 30
0.0
 11
82.94795
 21
131.15218
 31
0.0
  0
LINE
  5
21B
330
1D
100
AcDbEntity
  8
0
100
AcDbLine
 10
76.88525
 20
131.07284
 30
0.0
 11
77.98575
 21
128.04928
 31
0.0
  0
LINE
  5
21C
330
1D
100
AcDbEntity
  8
0
100
AcDbLine
 10
82.94795
 20
131.15218
 30
0.0
 11
82.94795
 21
127.87093
 31
0.0
  0
LINE
  5
21D
330
1D
100
AcDbEntity
  8
0
100
AcDbLine
 10
82.94795
 20
131.15218
 30
0.0
 11
82.94795
 21
134.13435
 31
0.0
  0
LINE
  5
21E
330
1D
100
AcDbEntity
  8
0
100
AcDbLine
 10
82.94795
 20
130.04326
 30
0.0
 11
82.94795
 21
132.67075
 31
0.0
  0
LINE
  5
21F
330
1D
100
AcDbEntity
  8
0
100
AcDbLine
 10
142.94795
 20
129.88356
 30
0.0
 11
142.94795
 21
131.25142
 31
0.0
  0
LINE
  5
220
330
1D
100
AcDbEntity
  8
0
100
AcDbLine
 10
142.94795
 20
129.88356
 30
0.0
 11
142.94795
 21
128.45404
 31
0.0
  0
LINE
  5
221
330
1D
100
AcDbEntity
  8
0
100
AcDbLine
 10
142.94795
 20
129.10495
 30
0.0
 11
142.94795
 21
127.64861
 31
0.0
  0
LINE
  5
222
330
1D
100
AcDbEntity
  8
0
100
AcDbLine
 10
142.94795
 20
129.10495
 30
0.0
 11
142.94795
 21
130.50865
 31
0.0
  0
LINE
  5
223
330
1D
100
AcDbEntity
  8
0
100
AcDbLine
 10
142.94795
 20
131.25142
 30
0.0
 11
142.94795
 21
132.54365
 31
0.0
  0
LINE
  5
224
330
1D
100
AcDbEntity
  8
0
100
AcDbLine
 10
142.94795
 20
131.25142
 30
0.0
 11
142.94795
 21
129.88356
 31
0.0
  0
LINE
  5
225
330
1D
100
AcDbEntity
  8
0
100
AcDbLine
 10
142.94795
 20
128.45404
 30
0.0
 11
142.94795
 21
129.88356
 31
0.0
  0
LINE
  5
226
330
1D
100
AcDbEntity
  8
0
100
AcDbLine
 10
142.94795
 20
128.45404
 30
0.0
 11
142.94795
 21
126.97915
 31
0.0
  0
LINE
  5
227
330
1D
100
AcDbEntity
  8
0
100
AcDbLine
 10
82.94795
 20
132.67075
 30
0.0
 11
82.94795
 21
130.04326
 31
0.0
  0
LINE
  5
229
330
1D
100
AcDbEntity
  8
0
100
AcDbLine
 10
75.85765
 20
133.89615
 30
0.0
 11
76.88525
 21
131.07284
 31
0.0
  0
LINE
  5
22A
330
1D
100
AcDbEntity
  8
0
100
AcDbLine
 10
82.94795
 20
134.13435
 30
0.0
 11
82.94795
 21
131.15218
 31
0.0
  0
LINE
  5
22B
330
1D
100
AcDbEntity
  8
0
100
AcDbLine
 10
82.94795
 20
134.13435
 30
0.0
 11
82.94795
 21
136.72635
 31
0.0
  0
LINE
  5
22C
330
1D
100
AcDbEntity
  8
0
100
AcDbLine
 10
142.94795
 20
133.74515
 30
0.0
 11
142.94795
 21
134.84385
 31
0.0
  0
LINE
  5
22D
330
1D
100
AcDbEntity
  8
0
100
AcDbLine
 10
142.94795
 20
133.74515
 30
0.0
 11
142.94795
 21
132.54365
 31
0.0
  0
LINE
  5
22E
330
1D
100
AcDbEntity
  8
0
100
AcDbLine
 10
142.94795
 20
132.54365
 30
0.0
 11
142.94795
 21
133.74515
 31
0.0
  0
LINE
  5
22F
330
1D
100
AcDbEntity
  8
0
100
AcDbLine
 10
142.94795
 20
132.54365
 30
0.0
 11
142.94795
 21
131.25142
 31
0.0
  0
LINE
  5
230
330
1D
100
AcDbEntity
  8
0
100
AcDbLine
 10
142.94795
 20
131.84425
 30
0.0
 11
142.94795
 21
130.50865
 31
0.0
  0
LINE
  5
231
330
1D
100
AcDbEntity
  8
0
100
AcDbLine
 10
142.94795
 20
131.84425
 30
0.0
 11
142.94795
 21
133.09745
 31
0.0
  0
LINE
  5
232
330
1D
100
AcDbEntity
  8
0
100
AcDbLine
 10
142.94795
 20
133.09745
 30
0.0
 11
142.94795
 21
131.84425
 31
0.0
  0
LINE
  5
233
330
1D
100
AcDbEntity
  8
0
100
AcDbLine
 10
142.94795
 20
133.09745
 30
0.0
 11
142.94795
 21
134.25395
 31
0.0
  0
LINE
  5
235
330
1D
100
AcDbEntity
  8
0
100
AcDbLine
 10
82.94795
 20
135.06735
 30
0.0
 11
82.94795
 21
137.18365
 31
0.0
  0
LINE
  5
237
330
1D
100
AcDbEntity
  8
0
100
AcDbLine
 10
117.15095
 20
134.73835
 30
0.0
 11
117.208904113924
 21
134.816585759493
 31
0.0
  0
LINE
  5
23A
330
1D
100
AcDbEntity
  8
0
100
AcDbLine
 10
118.03295
 20
135.97025
 30
0.0
 11
119.04095
 21
137.16015
 31
0.0
  0
LINE
  5
23B
330
1D
100
AcDbEntity
  8
0
100
AcDbLine
 10
142.94795
 20
135.82615
 30
0.0
 11
142.94795
 21
136.68265
 31
0.0
  0
LINE
  5
23C
330
1D
100
AcDbEntity
  8
0
100
AcDbLine
 10
142.94795
 20
135.82615
 30
0.0
 11
142.94795
 21
134.84385
 31
0.0
  0
LINE
  5
23D
330
1D
100
AcDbEntity
  8
0
100
AcDbLine
 10
142.94795
 20
134.84385
 30
0.0
 11
142.94795
 21
135.82615
 31
0.0
  0
LINE
  5
23E
330
1D
100
AcDbEntity
  8
0
100
AcDbLine
 10
142.94795
 20
134.84385
 30
0.0
 11
142.94795
 21
133.74515
 31
0.0
  0
LINE
  5
23F
330
1D
100
AcDbEntity
  8
0
100
AcDbLine
 10
142.94795
 20
134.25395
 30
0.0
 11
142.94795
 21
133.09745
 31
0.0
  0
LINE
  5
240
330
1D
100
AcDbEntity
  8
0
100
AcDbLine
 10
142.94795
 20
134.25395
 30
0.0
 11
142.94795
 21
135.30165
 31
0.0
  0
LINE
  5
241
330
1D
100
AcDbEntity
  8
0
100
AcDbLine
 10
142.94795
 20
135.30165
 30
0.0
 11
142.94795
 21
134.25395
 31
0.0
  0
LINE
  5
242
330
1D
100
AcDbEntity
  8
0
100
AcDbLine
 10
142.94795
 20
135.30165
 30
0.0
 11
142.94795
 21
136.22835
 31
0.0
  0
LINE
  5
246
330
1D
100
AcDbEntity
  8
0
100
AcDbLine
 10
82.94795
 20
136.72635
 30
0.0
 11
82.94795
 21
134.13435
 31
0.0
  0
LINE
  5
247
330
1D
100
AcDbEntity
  8
0
100
AcDbLine
 10
82.94795
 20
136.72635
 30
0.0
 11
82.94795
 21
138.84965
 31
0.0
  0
LINE
  5
248
330
1D
100
AcDbEntity
  8
0
100
AcDbLine
 10
82.94795
 20
137.18365
 30
0.0
 11
82.94795
 21
135.06735
 31
0.0
  0
LINE
  5
249
330
1D
100
AcDbEntity
  8
0
100
AcDbLine
 10
82.94795
 20
137.18365
 30
0.0
 11
82.94795
 21
138.97725
 31
0.0
  0
LINE
  5
24B
330
1D
100
AcDbEntity
  8
0
100
AcDbLine
 10
119.04095
 20
137.16015
 30
0.0
 11
119.76195
 21
137.90265
 31
0.0
  0
LINE
  5
252
330
1D
100
AcDbEntity
  8
0
100
AcDbLine
 10
119.76195
 20
137.90265
 30
0.0
 11
119.975276150042
 21
138.096171841784
 31
0.0
  0
LINE
  5
254
330
1D
100
AcDbEntity
  8
0
100
AcDbLine
 10
142.94795
 20
137.68175
 30
0.0
 11
142.94795
 21
137.02495
 31
0.0
  0
LINE
  5
255
330
1D
100
AcDbEntity
  8
0
100
AcDbLine
 10
142.94795
 20
137.68175
 30
0.0
 11
142.94795
 21
138.19195
 31
0.0
  0
LINE
  5
256
330
1D
100
AcDbEntity
  8
0
100
AcDbLine
 10
120.413810262009
 20
138.493994279476
 30
0.0
 11
120.76695
 21
138.81435
 31
0.0
  0
LINE
  5
257
330
1D
100
AcDbEntity
  8
0
100
AcDbLine
 10
142.94795
 20
138.40795
 30
0.0
 11
142.94795
 21
138.68085
 31
0.0
  0
LINE
  5
258
330
1D
100
AcDbEntity
  8
0
100
AcDbLine
 10
142.94795
 20
138.40795
 30
0.0
 11
142.94795
 21
137.98055
 31
0.0
  0
LINE
  5
259
330
1D
100
AcDbEntity
  8
0
100
AcDbLine
 10
142.94795
 20
137.98055
 30
0.0
 11
142.94795
 21
138.40795
 31
0.0
  0
LINE
  5
25A
330
1D
100
AcDbEntity
  8
0
100
AcDbLine
 10
142.94795
 20
137.98055
 30
0.0
 11
142.94795
 21
137.40375
 31
0.0
  0
LINE
  5
25B
330
1D
100
AcDbEntity
  8
0
100
AcDbLine
 10
142.94795
 20
137.40375
 30
0.0
 11
142.94795
 21
137.98055
 31
0.0
  0
LINE
  5
25C
330
1D
100
AcDbEntity
  8
0
100
AcDbLine
 10
142.94795
 20
137.40375
 30
0.0
 11
142.94795
 21
136.68265
 31
0.0
  0
LINE
  5
25D
330
1D
100
AcDbEntity
  8
0
100
AcDbLine
 10
142.94795
 20
136.68265
 30
0.0
 11
142.94795
 21
137.40375
 31
0.0
  0
LINE
  5
25E
330
1D
100
AcDbEntity
  8
0
100
AcDbLine
 10
142.94795
 20
136.68265
 30
0.0
 11
142.94795
 21
135.82615
 31
0.0
  0
LINE
  5
260
330
1D
100
AcDbEntity
  8
0
100
AcDbLine
 10
142.94795
 20
138.68085
 30
0.0
 11
142.94795
 21
138.79585
 31
0.0
  0
LINE
  5
261
330
1D
100
AcDbEntity
  8
0
100
AcDbLine
 10
142.94795
 20
138.68085
 30
0.0
 11
142.94795
 21
138.40795
 31
0.0
  0
LINE
  5
262
330
1D
100
AcDbEntity
  8
0
100
AcDbLine
 10
82.94795
 20
138.84965
 30
0.0
 11
82.94795
 21
136.72635
 31
0.0
  0
LINE
  5
263
330
1D
100
AcDbEntity
  8
0
100
AcDbLine
 10
82.94795
 20
138.84965
 30
0.0
 11
82.94795
 21
140.43965
 31
0.0
  0
LINE
  5
266
330
1D
100
AcDbEntity
  8
0
100
AcDbLine
 10
75.25685
 20
139.75045
 30
0.0
 11
76.91305
 21
140.44295
 31
0.0
  0
LINE
  5
267
330
1D
100
AcDbEntity
  8
0
100
AcDbLine
 10
73.972582755972
 20
139.075332553514
 30
0.0
 11
75.25685
 21
139.75045
 31
0.0
  0
LINE
  5
269
330
1D
100
AcDbEntity
  8
0
100
AcDbLine
 10
78.62345
 20
140.98695
 30
0.0
 11
80.37515
 21
141.37905
 31
0.0
  0
LINE
  5
26A
330
1D
100
AcDbEntity
  8
0
100
AcDbLine
 10
76.91305
 20
140.44295
 30
0.0
 11
78.62345
 21
140.98695
 31
0.0
  0
LINE
  5
26C
330
1D
100
AcDbEntity
  8
0
100
AcDbLine
 10
82.94795
 20
140.43965
 30
0.0
 11
82.94795
 21
138.84965
 31
0.0
  0
LINE
  5
26D
330
1D
100
AcDbEntity
  8
0
100
AcDbLine
 10
82.94795
 20
140.43965
 30
0.0
 11
82.94795
 21
141.44805
 31
0.0
  0
LINE
  5
26E
330
1D
100
AcDbEntity
  8
0
100
AcDbLine
 10
82.94795
 20
140.41205
 30
0.0
 11
82.94795
 21
138.97725
 31
0.0
  0
LINE
  5
26F
330
1D
100
AcDbEntity
  8
0
100
AcDbLine
 10
82.94795
 20
140.41205
 30
0.0
 11
82.94795
 21
141.45765
 31
0.0
  0
LINE
  5
270
330
1D
100
AcDbEntity
  8
0
100
AcDbLine
 10
82.94795
 20
138.97725
 30
0.0
 11
82.94795
 21
137.18365
 31
0.0
  0
LINE
  5
271
330
1D
100
AcDbEntity
  8
0
100
AcDbLine
 10
82.94795
 20
138.97725
 30
0.0
 11
82.94795
 21
140.41205
 31
0.0
  0
LINE
  5
272
330
1D
100
AcDbEntity
  8
0
100
AcDbLine
 10
121.33295
 20
139.27395
 30
0.0
 11
121.81195
 21
139.63605
 31
0.0
  0
LINE
  5
273
330
1D
100
AcDbEntity
  8
0
100
AcDbLine
 10
123.93895
 20
140.98485
 30
0.0
 11
125.33795
 21
141.67365
 31
0.0
  0
LINE
  5
276
330
1D
100
AcDbEntity
  8
0
100
AcDbLine
 10
120.76695
 20
138.81435
 30
0.0
 11
121.33295
 21
139.27395
 31
0.0
  0
LINE
  5
278
330
1D
100
AcDbEntity
  8
0
100
AcDbLine
 10
80.37515
 20
141.37905
 30
0.0
 11
82.15465
 21
141.61515
 31
0.0
  0
LINE
  5
27B
330
1D
100
AcDbEntity
  8
0
100
AcDbLine
 10
82.94795
 20
141.44805
 30
0.0
 11
82.94795
 21
140.43965
 31
0.0
  0
LINE
  5
27C
330
1D
100
AcDbEntity
  8
0
100
AcDbLine
 10
82.94795
 20
141.44805
 30
0.0
 11
82.94795
 21
141.84425
 31
0.0
  0
LINE
  5
27D
330
1D
100
AcDbEntity
  8
0
100
AcDbLine
 10
82.15465
 20
141.61515
 30
0.0
 11
82.94795
 21
141.650052899682
 31
0.0
  0
LINE
  5
27E
330
1D
100
AcDbEntity
  8
0
100
AcDbLine
 10
82.94795
 20
141.650052899682
 30
0.0
 11
82.94795
 21
141.84425
 31
0.0
  0
LINE
  5
27F
330
1D
100
AcDbEntity
  8
0
100
AcDbLine
 10
82.94795
 20
141.45765
 30
0.0
 11
82.94795
 21
140.41205
 31
0.0
  0
LINE
  5
280
330
1D
100
AcDbEntity
  8
0
100
AcDbLine
 10
82.94795
 20
141.45765
 30
0.0
 11
82.94795
 21
142.09355
 31
0.0
  0
LINE
  5
282
330
1D
100
AcDbEntity
  8
0
100
AcDbLine
 10
82.94795
 20
141.84425
 30
0.0
 11
82.94795
 21
141.44805
 31
0.0
  0
LINE
  5
283
330
1D
100
AcDbEntity
  8
0
100
AcDbLine
 10
82.94795
 20
141.84425
 30
0.0
 11
82.94795
 21
141.650052899682
 31
0.0
  0
LINE
  5
287
330
1D
100
AcDbEntity
  8
0
100
AcDbLine
 10
82.94795
 20
142.09355
 30
0.0
 11
82.94795
 21
141.45765
 31
0.0
  0
LINE
  5
288
330
1D
100
AcDbEntity
  8
0
100
AcDbLine
 10
82.94795
 20
142.09355
 30
0.0
 11
82.94795
 21
142.30715
 31
0.0
  0
LINE
  5
289
330
1D
100
AcDbEntity
  8
0
100
AcDbLine
 10
82.94795
 20
142.30715
 30
0.0
 11
82.94795
 21
142.09355
 31
0.0
  0
LINE
  5
28A
330
1D
100
AcDbEntity
  8
0
100
AcDbLine
 10
82.94795
 20
142.30715
 30
0.0
 11
83.01735
 21
142.55415
 31
0.0
  0
LINE
  5
28B
330
1D
100
AcDbEntity
  8
0
100
AcDbLine
 10
125.33795
 20
141.67365
 30
0.0
 11
126.78795
 21
142.24595
 31
0.0
  0
LINE
  5
28F
330
1D
100
AcDbEntity
  8
0
100
AcDbLine
 10
126.78795
 20
142.24595
 30
0.0
 11
127.30195
 21
142.41675
 31
0.0
  0
LINE
  5
295
330
1D
100
AcDbEntity
  8
0
100
AcDbLine
 10
51.69085
 20
142.47505
 30
0.0
 11
51.71685
 21
142.57905
 31
0.0
  0
LINE
  5
297
330
1D
100
AcDbEntity
  8
0
100
AcDbLine
 10
52.07465
 20
143.09035
 30
0.0
 11
52.26085
 21
143.20835
 31
0.0
  0
LINE
  5
298
330
1D
100
AcDbEntity
  8
0
100
AcDbLine
 10
51.92025
 20
142.95285
 30
0.0
 11
52.07465
 21
143.09035
 31
0.0
  0
LINE
  5
299
330
1D
100
AcDbEntity
  8
0
100
AcDbLine
 10
51.71685
 20
142.57905
 30
0.0
 11
51.92025
 21
142.95285
 31
0.0
  0
LINE
  5
29A
330
1D
100
AcDbEntity
  8
0
100
AcDbLine
 10
83.19995
 20
142.73395
 30
0.0
 11
83.44785
 21
142.79985
 31
0.0
  0
LINE
  5
29B
330
1D
100
AcDbEntity
  8
0
100
AcDbLine
 10
83.01735
 20
142.55415
 30
0.0
 11
83.19995
 21
142.73395
 31
0.0
  0
LINE
  5
29C
330
1D
100
AcDbEntity
  8
0
100
AcDbLine
 10
122.20495
 20
142.79985
 30
0.0
 11
128.226557192975
 21
143.017094194653
 31
0.0
  0
LINE
  5
29D
330
1D
100
AcDbEntity
  8
0
100
AcDbLine
 10
83.44785
 20
142.79985
 30
0.0
 11
122.20495
 21
142.79985
 31
0.0
  0
LINE
  5
2A0
330
1D
100
AcDbEntity
  8
0
100
AcDbLine
 10
128.27995
 20
142.69735
 30
0.0
 11
129.80495
 21
143.02505
 31
0.0
  0
LINE
  5
2A2
330
1D
100
AcDbEntity
  8
0
100
AcDbLine
 10
129.80495
 20
143.02505
 30
0.0
 11
130.40395
 21
143.11835
 31
0.0
  0
LINE
  5
2A5
330
1D
100
AcDbEntity
  8
0
100
AcDbLine
 10
130.40395
 20
143.11835
 30
0.0
 11
130.670636983146
 21
143.137712497419
 31
0.0
  0
LINE
  5
2A7
330
1D
100
AcDbEntity
  8
0
100
AcDbLine
 10
127.30195
 20
142.41675
 30
0.0
 11
128.230729481036
 21
142.68245848374
 31
0.0
  0
LINE
  5
2A8
330
1D
100
AcDbEntity
  8
0
100
AcDbLine
 10
72.37155
 20
143.21005
 30
0.0
 11
72.55455
 21
142.97135
 31
0.0
  0
LINE
  5
2A9
330
1D
100
AcDbEntity
  8
0
100
AcDbLine
 10
52.26085
 20
143.20835
 30
0.0
 11
52.67665
 21
143.29905
 31
0.0
  0
LINE
  5
2B8
330
1D
100
AcDbEntity
  8
0
100
AcDbLine
 10
132.72295
 20
143.29815
 30
0.0
 11
132.838185077663
 21
143.296838742607
 31
0.0
  0
LINE
  5
2BB
330
1D
100
AcDbEntity
  8
0
100
AcDbLine
 10
52.67665
 20
143.29905
 30
0.0
 11
72.08455
 21
143.30035
 31
0.0
  0
LINE
  5
2BC
330
1D
100
AcDbEntity
  8
0
100
AcDbLine
 10
72.08455
 20
143.30035
 30
0.0
 11
72.37155
 21
143.21005
 31
0.0
  0
LINE
  5
2C1
330
1D
100
AcDbEntity
  8
0
100
AcDbLine
 10
137.54695
 20
142.75425
 30
0.0
 11
138.68495
 21
142.43735
 31
0.0
  0
LINE
  5
2C5
330
1D
100
AcDbEntity
  8
0
100
AcDbLine
 10
142.30495
 20
140.72445
 30
0.0
 11
142.44795
 21
140.20835
 31
0.0
  0
LINE
  5
2C6
330
1D
100
AcDbEntity
  8
0
100
AcDbLine
 10
141.91495
 20
141.09245
 30
0.0
 11
142.30495
 21
140.72445
 31
0.0
  0
LINE
  5
2C7
330
1D
100
AcDbEntity
  8
0
100
AcDbLine
 10
142.44795
 20
140.20835
 30
0.0
 11
142.44795
 21
108.39155
 31
0.0
  0
LINE
  5
2CA
330
1D
100
AcDbEntity
  8
0
100
AcDbLine
 10
138.68495
 20
142.43735
 30
0.0
 11
139.04695
 21
142.32015
 31
0.0
  0
LINE
  5
2D5
330
1D
100
AcDbEntity
  8
0
100
AcDbLine
 10
133.00995
 20
143.30055
 30
0.0
 11
133.444211206351
 21
143.28994278473
 31
0.0
  0
LINE
  5
2D6
330
1D
100
AcDbEntity
  8
0
100
AcDbLine
 10
132.90795
 20
143.30025
 30
0.0
 11
133.00995
 21
143.30055
 31
0.0
  0
LINE
  5
2DC
330
1D
100
AcDbEntity
  8
0
100
AcDbLine
 10
142.94795
 20
138.75215
 30
0.0
 11
142.94795
 21
138.55035
 31
0.0
  0
LINE
  5
2DD
330
1D
100
AcDbEntity
  8
0
100
AcDbLine
 10
142.94795
 20
138.79585
 30
0.0
 11
144.94795
 21
140.79995
 31
0.0
  0
LINE
  5
2DE
330
1D
100
AcDbEntity
  8
0
100
AcDbLine
 10
142.94795
 20
138.79585
 30
0.0
 11
142.94795
 21
138.68085
 31
0.0
  0
LINE
  5
2DF
330
1D
100
AcDbEntity
  8
0
100
AcDbLine
 10
142.94795
 20
138.55035
 30
0.0
 11
142.94795
 21
138.19195
 31
0.0
  0
LINE
  5
2E0
330
1D
100
AcDbEntity
  8
0
100
AcDbLine
 10
142.94795
 20
138.55035
 30
0.0
 11
142.94795
 21
138.75215
 31
0.0
  0
LINE
  5
2E1
330
1D
100
AcDbEntity
  8
0
100
AcDbLine
 10
142.94795
 20
138.19195
 30
0.0
 11
142.94795
 21
137.68175
 31
0.0
  0
LINE
  5
2E2
330
1D
100
AcDbEntity
  8
0
100
AcDbLine
 10
142.94795
 20
138.19195
 30
0.0
 11
142.94795
 21
138.55035
 31
0.0
  0
LINE
  5
2E3
330
1D
100
AcDbEntity
  8
0
100
AcDbLine
 10
142.94795
 20
136.22835
 30
0.0
 11
142.94795
 21
135.30165
 31
0.0
  0
LINE
  5
2E4
330
1D
100
AcDbEntity
  8
0
100
AcDbLine
 10
142.94795
 20
136.22835
 30
0.0
 11
142.94795
 21
137.02495
 31
0.0
  0
LINE
  5
2E5
330
1D
100
AcDbEntity
  8
0
100
AcDbLine
 10
142.94795
 20
137.02495
 30
0.0
 11
142.94795
 21
136.22835
 31
0.0
  0
LINE
  5
2E6
330
1D
100
AcDbEntity
  8
0
100
AcDbLine
 10
142.94795
 20
137.02495
 30
0.0
 11
142.94795
 21
137.68175
 31
0.0
  0
LINE
  5
2E7
330
1D
100
AcDbEntity
  8
0
100
AcDbLine
 10
142.94795
 20
127.64861
 30
0.0
 11
142.94795
 21
126.1554
 31
0.0
  0
LINE
  5
2E8
330
1D
100
AcDbEntity
  8
0
100
AcDbLine
 10
142.94795
 20
127.64861
 30
0.0
 11
142.94795
 21
129.10495
 31
0.0
  0
LINE
  5
2E9
330
1D
100
AcDbEntity
  8
0
100
AcDbLine
 10
142.94795
 20
130.50865
 30
0.0
 11
142.94795
 21
129.10495
 31
0.0
  0
LINE
  5
2EA
330
1D
100
AcDbEntity
  8
0
100
AcDbLine
 10
142.94795
 20
130.50865
 30
0.0
 11
142.94795
 21
131.84425
 31
0.0
  0
LINE
  5
2EB
330
1D
100
AcDbEntity
  8
0
100
AcDbLine
 10
142.94795
 20
120.1457
 30
0.0
 11
142.94795
 21
118.71634
 31
0.0
  0
LINE
  5
2EC
330
1D
100
AcDbEntity
  8
0
100
AcDbLine
 10
142.94795
 20
120.1457
 30
0.0
 11
142.94795
 21
121.620746
 31
0.0
  0
LINE
  5
2ED
330
1D
100
AcDbEntity
  8
0
100
AcDbLine
 10
144.94795
 20
107.87265
 30
0.0
 11
144.94795
 21
107.79995
 31
0.0
  0
LINE
  5
2EE
330
1D
100
AcDbEntity
  8
0
100
AcDbLine
 10
143.95595
 20
109.34225
 30
0.0
 11
144.37795
 21
108.62855
 31
0.0
  0
LINE
  5
2EF
330
1D
100
AcDbEntity
  8
0
100
AcDbLine
 10
144.37795
 20
108.62855
 30
0.0
 11
144.94795
 21
107.87265
 31
0.0
  0
LINE
  5
2F0
330
1D
100
AcDbEntity
  8
0
100
AcDbLine
 10
158.68195
 20
108.88205
 30
0.0
 11
159.09595
 21
109.67605
 31
0.0
  0
LINE
  5
2F1
330
1D
100
AcDbEntity
  8
0
100
AcDbLine
 10
158.34995
 20
108.38795
 30
0.0
 11
158.68195
 21
108.88205
 31
0.0
  0
LINE
  5
2F2
330
1D
100
AcDbEntity
  8
0
100
AcDbLine
 10
159.09595
 20
109.67605
 30
0.0
 11
159.34695
 21
110.43855
 31
0.0
  0
LINE
  5
2F3
330
1D
100
AcDbEntity
  8
0
100
AcDbLine
 10
157.94795
 20
107.87265
 30
0.0
 11
157.94795
 21
107.79995
 31
0.0
  0
LINE
  5
2F4
330
1D
100
AcDbEntity
  8
0
100
AcDbLine
 10
157.94795
 20
107.87265
 30
0.0
 11
158.34995
 21
108.38795
 31
0.0
  0
LINE
  5
2F5
330
1D
100
AcDbEntity
  8
0
100
AcDbLine
 10
157.94795
 20
107.79995
 30
0.0
 11
159.94795
 21
109.80405
 31
0.0
  0
LINE
  5
2F6
330
1D
100
AcDbEntity
  8
0
100
AcDbLine
 10
157.94795
 20
107.79995
 30
0.0
 11
157.94795
 21
107.87265
 31
0.0
  0
LINE
  5
2F7
330
1D
100
AcDbEntity
  8
0
100
AcDbLine
 10
159.94795
 20
109.76055
 30
0.0
 11
159.94795
 21
109.45895
 31
0.0
  0
LINE
  5
2F8
330
1D
100
AcDbEntity
  8
0
100
AcDbLine
 10
159.94795
 20
109.76195
 30
0.0
 11
159.94795
 21
110.36045
 31
0.0
  0
LINE
  5
2F9
330
1D
100
AcDbEntity
  8
0
100
AcDbLine
 10
144.94795
 20
107.79995
 30
0.0
 11
157.94795
 21
107.79995
 31
0.0
  0
LINE
  5
2FA
330
1D
100
AcDbEntity
  8
0
100
AcDbLine
 10
144.94795
 20
107.79995
 30
0.0
 11
144.94795
 21
107.87265
 31
0.0
  0
LINE
  5
2FB
330
1D
100
AcDbEntity
  8
0
100
AcDbLine
 10
143.49895
 20
110.69075
 30
0.0
 11
143.66595
 21
110.02585
 31
0.0
  0
LINE
  5
2FC
330
1D
100
AcDbEntity
  8
0
100
AcDbLine
 10
143.44995
 20
111.43465
 30
0.0
 11
143.54895
 21
112.18061
 31
0.0
  0
LINE
  5
2FD
330
1D
100
AcDbEntity
  8
0
100
AcDbLine
 10
143.44995
 20
111.43465
 30
0.0
 11
143.49895
 21
110.69075
 31
0.0
  0
LINE
  5
2FE
330
1D
100
AcDbEntity
  8
0
100
AcDbLine
 10
143.79995
 20
112.94302
 30
0.0
 11
144.21395
 21
113.73705
 31
0.0
  0
LINE
  5
2FF
330
1D
100
AcDbEntity
  8
0
100
AcDbLine
 10
143.54895
 20
112.18061
 30
0.0
 11
143.79995
 21
112.94302
 31
0.0
  0
LINE
  5
300
330
1D
100
AcDbEntity
  8
0
100
AcDbLine
 10
143.66595
 20
110.02585
 30
0.0
 11
143.95595
 21
109.34225
 31
0.0
  0
LINE
  5
301
330
1D
100
AcDbEntity
  8
0
100
AcDbLine
 10
144.21395
 20
113.73705
 30
0.0
 11
144.54595
 21
114.2314
 31
0.0
  0
LINE
  5
302
330
1D
100
AcDbEntity
  8
0
100
AcDbLine
 10
144.54595
 20
114.2314
 30
0.0
 11
144.94795
 21
114.7465
 31
0.0
  0
LINE
  5
303
330
1D
100
AcDbEntity
  8
0
100
AcDbLine
 10
144.94795
 20
117.42607
 30
0.0
 11
144.94795
 21
116.04988
 31
0.0
  0
LINE
  5
304
330
1D
100
AcDbEntity
  8
0
100
AcDbLine
 10
144.94795
 20
114.7465
 30
0.0
 11
144.94795
 21
116.04988
 31
0.0
  0
LINE
  5
305
330
1D
100
AcDbEntity
  8
0
100
AcDbLine
 10
157.94795
 20
117.42609
 30
0.0
 11
157.94795
 21
116.04996
 31
0.0
  0
LINE
  5
306
330
1D
100
AcDbEntity
  8
0
100
AcDbLine
 10
157.94795
 20
117.42609
 30
0.0
 11
158.34995
 21
118.45686
 31
0.0
  0
LINE
  5
307
330
1D
100
AcDbEntity
  8
0
100
AcDbLine
 10
157.94795
 20
116.04996
 30
0.0
 11
157.94795
 21
114.7465
 31
0.0
  0
LINE
  5
308
330
1D
100
AcDbEntity
  8
0
100
AcDbLine
 10
157.94795
 20
116.04996
 30
0.0
 11
157.94795
 21
117.42609
 31
0.0
  0
LINE
  5
309
330
1D
100
AcDbEntity
  8
0
100
AcDbLine
 10
157.94795
 20
114.7465
 30
0.0
 11
158.51795
 21
113.99056
 31
0.0
  0
LINE
  5
30A
330
1D
100
AcDbEntity
  8
0
100
AcDbLine
 10
157.94795
 20
114.7465
 30
0.0
 11
157.94795
 21
116.04996
 31
0.0
  0
LINE
  5
30B
330
1D
100
AcDbEntity
  8
0
100
AcDbLine
 10
159.94795
 20
110.36045
 30
0.0
 11
159.94795
 21
109.76195
 31
0.0
  0
LINE
  5
30C
330
1D
100
AcDbEntity
  8
0
100
AcDbLine
 10
159.94795
 20
110.36045
 30
0.0
 11
159.94795
 21
111.24255
 31
0.0
  0
LINE
  5
30D
330
1D
100
AcDbEntity
  8
0
100
AcDbLine
 10
159.94795
 20
111.24255
 30
0.0
 11
159.94795
 21
110.36045
 31
0.0
  0
LINE
  5
30E
330
1D
100
AcDbEntity
  8
0
100
AcDbLine
 10
159.94795
 20
111.91722
 30
0.0
 11
159.94795
 21
112.77372
 31
0.0
  0
LINE
  5
30F
330
1D
100
AcDbEntity
  8
0
100
AcDbLine
 10
159.94795
 20
111.91722
 30
0.0
 11
159.94795
 21
111.19655
 31
0.0
  0
LINE
  5
310
330
1D
100
AcDbEntity
  8
0
100
AcDbLine
 10
158.93995
 20
113.27712
 30
0.0
 11
159.22995
 21
112.59325
 31
0.0
  0
LINE
  5
311
330
1D
100
AcDbEntity
  8
0
100
AcDbLine
 10
159.94795
 20
112.39071
 30
0.0
 11
159.94795
 21
113.78116
 31
0.0
  0
LINE
  5
312
330
1D
100
AcDbEntity
  8
0
100
AcDbLine
 10
159.94795
 20
113.78116
 30
0.0
 11
159.94795
 21
112.39071
 31
0.0
  0
LINE
  5
313
330
1D
100
AcDbEntity
  8
0
100
AcDbLine
 10
159.94795
 20
113.75629
 30
0.0
 11
159.94795
 21
114.85473
 31
0.0
  0
LINE
  5
314
330
1D
100
AcDbEntity
  8
0
100
AcDbLine
 10
159.94795
 20
113.75629
 30
0.0
 11
159.94795
 21
112.77372
 31
0.0
  0
LINE
  5
315
330
1D
100
AcDbEntity
  8
0
100
AcDbLine
 10
159.94795
 20
112.77372
 30
0.0
 11
159.94795
 21
113.75629
 31
0.0
  0
LINE
  5
316
330
1D
100
AcDbEntity
  8
0
100
AcDbLine
 10
159.94795
 20
112.77372
 30
0.0
 11
159.94795
 21
111.91722
 31
0.0
  0
LINE
  5
317
330
1D
100
AcDbEntity
  8
0
100
AcDbLine
 10
159.22995
 20
112.59325
 30
0.0
 11
159.39695
 21
111.92836
 31
0.0
  0
LINE
  5
318
330
1D
100
AcDbEntity
  8
0
100
AcDbLine
 10
159.39695
 20
111.92836
 30
0.0
 11
159.44595
 21
111.18445
 31
0.0
  0
LINE
  5
319
330
1D
100
AcDbEntity
  8
0
100
AcDbLine
 10
159.94795
 20
111.19655
 30
0.0
 11
159.94795
 21
111.91722
 31
0.0
  0
LINE
  5
31A
330
1D
100
AcDbEntity
  8
0
100
AcDbLine
 10
159.94795
 20
111.19655
 30
0.0
 11
159.94795
 21
110.61935
 31
0.0
  0
LINE
  5
31B
330
1D
100
AcDbEntity
  8
0
100
AcDbLine
 10
159.34695
 20
110.43855
 30
0.0
 11
159.44595
 21
111.18445
 31
0.0
  0
LINE
  5
31C
330
1D
100
AcDbEntity
  8
0
100
AcDbLine
 10
159.94795
 20
110.61935
 30
0.0
 11
159.94795
 21
111.19655
 31
0.0
  0
LINE
  5
31D
330
1D
100
AcDbEntity
  8
0
100
AcDbLine
 10
159.94795
 20
110.61935
 30
0.0
 11
159.94795
 21
110.19195
 31
0.0
  0
LINE
  5
31E
330
1D
100
AcDbEntity
  8
0
100
AcDbLine
 10
159.94795
 20
110.19195
 30
0.0
 11
159.94795
 21
110.61935
 31
0.0
  0
LINE
  5
31F
330
1D
100
AcDbEntity
  8
0
100
AcDbLine
 10
159.94795
 20
110.19195
 30
0.0
 11
159.94795
 21
109.91905
 31
0.0
  0
LINE
  5
320
330
1D
100
AcDbEntity
  8
0
100
AcDbLine
 10
159.94795
 20
109.91905
 30
0.0
 11
159.94795
 21
110.19195
 31
0.0
  0
LINE
  5
321
330
1D
100
AcDbEntity
  8
0
100
AcDbLine
 10
159.94795
 20
109.91905
 30
0.0
 11
159.94795
 21
109.80405
 31
0.0
  0
LINE
  5
322
330
1D
100
AcDbEntity
  8
0
100
AcDbLine
 10
159.94795
 20
117.3482
 30
0.0
 11
159.94795
 21
118.71634
 31
0.0
  0
LINE
  5
323
330
1D
100
AcDbEntity
  8
0
100
AcDbLine
 10
159.94795
 20
117.3482
 30
0.0
 11
159.94795
 21
116.05621
 31
0.0
  0
LINE
  5
324
330
1D
100
AcDbEntity
  8
0
100
AcDbLine
 10
159.94795
 20
116.05621
 30
0.0
 11
159.94795
 21
117.3482
 31
0.0
  0
LINE
  5
325
330
1D
100
AcDbEntity
  8
0
100
AcDbLine
 10
159.94795
 20
116.05621
 30
0.0
 11
159.94795
 21
114.85473
 31
0.0
  0
LINE
  5
326
330
1D
100
AcDbEntity
  8
0
100
AcDbLine
 10
159.94795
 20
114.85473
 30
0.0
 11
159.94795
 21
116.05621
 31
0.0
  0
LINE
  5
327
330
1D
100
AcDbEntity
  8
0
100
AcDbLine
 10
159.94795
 20
114.85473
 30
0.0
 11
159.94795
 21
113.75629
 31
0.0
  0
LINE
  5
328
330
1D
100
AcDbEntity
  8
0
100
AcDbLine
 10
158.51795
 20
113.99056
 30
0.0
 11
158.93995
 21
113.27712
 31
0.0
  0
LINE
  5
329
330
1D
100
AcDbEntity
  8
0
100
AcDbLine
 10
159.94795
 20
118.71634
 30
0.0
 11
159.94795
 21
120.1457
 31
0.0
  0
LINE
  5
32A
330
1D
100
AcDbEntity
  8
0
100
AcDbLine
 10
159.94795
 20
118.71634
 30
0.0
 11
159.94795
 21
117.3482
 31
0.0
  0
LINE
  5
32B
330
1D
100
AcDbEntity
  8
0
100
AcDbLine
 10
158.34995
 20
118.45686
 30
0.0
 11
158.68195
 21
119.44498
 31
0.0
  0
LINE
  5
32C
330
1D
100
AcDbEntity
  8
0
100
AcDbLine
 10
144.94795
 20
116.04988
 30
0.0
 11
144.94795
 21
117.42607
 31
0.0
  0
LINE
  5
32D
330
1D
100
AcDbEntity
  8
0
100
AcDbLine
 10
144.94795
 20
116.04988
 30
0.0
 11
144.94795
 21
114.7465
 31
0.0
  0
LINE
  5
32E
330
1D
100
AcDbEntity
  8
0
100
AcDbLine
 10
159.94795
 20
119.1034
 30
0.0
 11
159.94795
 21
121.140296
 31
0.0
  0
LINE
  5
32F
330
1D
100
AcDbEntity
  8
0
100
AcDbLine
 10
159.94795
 20
121.140296
 30
0.0
 11
159.94795
 21
119.1034
 31
0.0
  0
LINE
  5
330
330
1D
100
AcDbEntity
  8
0
100
AcDbLine
 10
159.94795
 20
121.140296
 30
0.0
 11
159.94795
 21
123.24166
 31
0.0
  0
LINE
  5
331
330
1D
100
AcDbEntity
  8
0
100
AcDbLine
 10
159.94795
 20
121.620625
 30
0.0
 11
159.94795
 21
123.12519
 31
0.0
  0
LINE
  5
332
330
1D
100
AcDbEntity
  8
0
100
AcDbLine
 10
159.94795
 20
121.620625
 30
0.0
 11
159.94795
 21
120.1457
 31
0.0
  0
LINE
  5
333
330
1D
100
AcDbEntity
  8
0
100
AcDbLine
 10
159.09595
 20
121.033148
 30
0.0
 11
159.34695
 21
122.55786
 31
0.0
  0
LINE
  5
334
330
1D
100
AcDbEntity
  8
0
100
AcDbLine
 10
159.94795
 20
120.1457
 30
0.0
 11
159.94795
 21
121.620625
 31
0.0
  0
LINE
  5
335
330
1D
100
AcDbEntity
  8
0
100
AcDbLine
 10
159.94795
 20
120.1457
 30
0.0
 11
159.94795
 21
118.71634
 31
0.0
  0
LINE
  5
336
330
1D
100
AcDbEntity
  8
0
100
AcDbLine
 10
158.68195
 20
119.44498
 30
0.0
 11
159.09595
 21
121.033148
 31
0.0
  0
LINE
  5
337
330
1D
100
AcDbEntity
  8
0
100
AcDbLine
 10
144.37795
 20
118.93795
 30
0.0
 11
144.94795
 21
117.42607
 31
0.0
  0
LINE
  5
338
330
1D
100
AcDbEntity
  8
0
100
AcDbLine
 10
143.95595
 20
120.364969
 30
0.0
 11
144.37795
 21
118.93795
 31
0.0
  0
LINE
  5
339
330
1D
100
AcDbEntity
  8
0
100
AcDbLine
 10
143.49895
 20
123.06258
 30
0.0
 11
143.66595
 21
121.732596
 31
0.0
  0
LINE
  5
33A
330
1D
100
AcDbEntity
  8
0
100
AcDbLine
 10
143.44995
 20
124.55011
 30
0.0
 11
143.54895
 21
126.04204
 31
0.0
  0
LINE
  5
33B
330
1D
100
AcDbEntity
  8
0
100
AcDbLine
 10
143.44995
 20
124.55011
 30
0.0
 11
143.49895
 21
123.06258
 31
0.0
  0
LINE
  5
33C
330
1D
100
AcDbEntity
  8
0
100
AcDbLine
 10
143.79995
 20
127.56691
 30
0.0
 11
144.21395
 21
129.15492
 31
0.0
  0
LINE
  5
33D
330
1D
100
AcDbEntity
  8
0
100
AcDbLine
 10
143.54895
 20
126.04204
 30
0.0
 11
143.79995
 21
127.56691
 31
0.0
  0
LINE
  5
33E
330
1D
100
AcDbEntity
  8
0
100
AcDbLine
 10
144.21395
 20
129.15492
 30
0.0
 11
144.54595
 21
130.14319
 31
0.0
  0
LINE
  5
33F
330
1D
100
AcDbEntity
  8
0
100
AcDbLine
 10
144.94795
 20
133.85345
 30
0.0
 11
144.94795
 21
132.55015
 31
0.0
  0
LINE
  5
340
330
1D
100
AcDbEntity
  8
0
100
AcDbLine
 10
144.94795
 20
132.55015
 30
0.0
 11
144.94795
 21
133.85345
 31
0.0
  0
LINE
  5
341
330
1D
100
AcDbEntity
  8
0
100
AcDbLine
 10
144.94795
 20
132.55015
 30
0.0
 11
144.94795
 21
131.17381
 31
0.0
  0
LINE
  5
342
330
1D
100
AcDbEntity
  8
0
100
AcDbLine
 10
144.35095
 20
134.64875
 30
0.0
 11
144.94795
 21
133.85345
 31
0.0
  0
LINE
  5
343
330
1D
100
AcDbEntity
  8
0
100
AcDbLine
 10
143.92295
 20
135.38825
 30
0.0
 11
144.35095
 21
134.64875
 31
0.0
  0
LINE
  5
344
330
1D
100
AcDbEntity
  8
0
100
AcDbLine
 10
143.63695
 20
136.09655
 30
0.0
 11
143.92295
 21
135.38825
 31
0.0
  0
LINE
  5
345
330
1D
100
AcDbEntity
  8
0
100
AcDbLine
 10
143.55395
 20
138.18335
 30
0.0
 11
143.79595
 21
138.91495
 31
0.0
  0
LINE
  5
346
330
1D
100
AcDbEntity
  8
0
100
AcDbLine
 10
143.48195
 20
136.78605
 30
0.0
 11
143.63695
 21
136.09655
 31
0.0
  0
LINE
  5
347
330
1D
100
AcDbEntity
  8
0
100
AcDbLine
 10
143.45195
 20
137.46725
 30
0.0
 11
143.48195
 21
136.78605
 31
0.0
  0
LINE
  5
348
330
1D
100
AcDbEntity
  8
0
100
AcDbLine
 10
143.45195
 20
137.46725
 30
0.0
 11
143.55395
 21
138.18335
 31
0.0
  0
LINE
  5
349
330
1D
100
AcDbEntity
  8
0
100
AcDbLine
 10
144.54595
 20
130.14319
 30
0.0
 11
144.94795
 21
131.17381
 31
0.0
  0
LINE
  5
34A
330
1D
100
AcDbEntity
  8
0
100
AcDbLine
 10
157.94795
 20
133.85335
 30
0.0
 11
157.94795
 21
132.54995
 31
0.0
  0
LINE
  5
34B
330
1D
100
AcDbEntity
  8
0
100
AcDbLine
 10
157.94795
 20
133.85335
 30
0.0
 11
158.54495
 21
134.64875
 31
0.0
  0
LINE
  5
34C
330
1D
100
AcDbEntity
  8
0
100
AcDbLine
 10
157.94795
 20
132.54995
 30
0.0
 11
157.94795
 21
131.17398
 31
0.0
  0
LINE
  5
34D
330
1D
100
AcDbEntity
  8
0
100
AcDbLine
 10
157.94795
 20
132.54995
 30
0.0
 11
157.94795
 21
133.85335
 31
0.0
  0
LINE
  5
34E
330
1D
100
AcDbEntity
  8
0
100
AcDbLine
 10
158.54495
 20
134.64875
 30
0.0
 11
158.97295
 21
135.38825
 31
0.0
  0
LINE
  5
34F
330
1D
100
AcDbEntity
  8
0
100
AcDbLine
 10
157.94795
 20
131.17398
 30
0.0
 11
158.51795
 21
129.66198
 31
0.0
  0
LINE
  5
350
330
1D
100
AcDbEntity
  8
0
100
AcDbLine
 10
157.94795
 20
131.17398
 30
0.0
 11
157.94795
 21
132.54995
 31
0.0
  0
LINE
  5
351
330
1D
100
AcDbEntity
  8
0
100
AcDbLine
 10
158.51795
 20
129.66198
 30
0.0
 11
158.93995
 21
128.23463
 31
0.0
  0
LINE
  5
352
330
1D
100
AcDbEntity
  8
0
100
AcDbLine
 10
159.34195
 20
138.18335
 30
0.0
 11
159.44395
 21
137.46735
 31
0.0
  0
LINE
  5
353
330
1D
100
AcDbEntity
  8
0
100
AcDbLine
 10
159.25895
 20
136.09655
 30
0.0
 11
159.41395
 21
136.78605
 31
0.0
  0
LINE
  5
354
330
1D
100
AcDbEntity
  8
0
100
AcDbLine
 10
158.97295
 20
135.38825
 30
0.0
 11
159.25895
 21
136.09655
 31
0.0
  0
LINE
  5
355
330
1D
100
AcDbEntity
  8
0
100
AcDbLine
 10
158.93995
 20
128.23463
 30
0.0
 11
159.22995
 21
126.86749
 31
0.0
  0
LINE
  5
356
330
1D
100
AcDbEntity
  8
0
100
AcDbLine
 10
159.22995
 20
126.86749
 30
0.0
 11
159.39695
 21
125.53753
 31
0.0
  0
LINE
  5
357
330
1D
100
AcDbEntity
  8
0
100
AcDbLine
 10
159.94795
 20
125.36453
 30
0.0
 11
159.94795
 21
123.24166
 31
0.0
  0
LINE
  5
358
330
1D
100
AcDbEntity
  8
0
100
AcDbLine
 10
159.94795
 20
125.36453
 30
0.0
 11
159.94795
 21
127.46562
 31
0.0
  0
LINE
  5
359
330
1D
100
AcDbEntity
  8
0
100
AcDbLine
 10
159.94795
 20
123.24166
 30
0.0
 11
159.94795
 21
121.140296
 31
0.0
  0
LINE
  5
35A
330
1D
100
AcDbEntity
  8
0
100
AcDbLine
 10
159.94795
 20
123.24166
 30
0.0
 11
159.94795
 21
125.36453
 31
0.0
  0
LINE
  5
35B
330
1D
100
AcDbEntity
  8
0
100
AcDbLine
 10
159.94795
 20
127.46562
 30
0.0
 11
159.94795
 21
125.36453
 31
0.0
  0
LINE
  5
35C
330
1D
100
AcDbEntity
  8
0
100
AcDbLine
 10
159.94795
 20
129.50229
 30
0.0
 11
159.94795
 21
131.43305
 31
0.0
  0
LINE
  5
35D
330
1D
100
AcDbEntity
  8
0
100
AcDbLine
 10
159.94795
 20
131.43305
 30
0.0
 11
159.94795
 21
129.50229
 31
0.0
  0
LINE
  5
35E
330
1D
100
AcDbEntity
  8
0
100
AcDbLine
 10
159.94795
 20
131.43305
 30
0.0
 11
159.94795
 21
133.21875
 31
0.0
  0
LINE
  5
35F
330
1D
100
AcDbEntity
  8
0
100
AcDbLine
 10
159.94795
 20
133.21875
 30
0.0
 11
159.94795
 21
131.43305
 31
0.0
  0
LINE
  5
360
330
1D
100
AcDbEntity
  8
0
100
AcDbLine
 10
159.94795
 20
134.82305
 30
0.0
 11
159.94795
 21
136.21275
 31
0.0
  0
LINE
  5
361
330
1D
100
AcDbEntity
  8
0
100
AcDbLine
 10
159.94795
 20
136.21275
 30
0.0
 11
159.94795
 21
134.82305
 31
0.0
  0
LINE
  5
362
330
1D
100
AcDbEntity
  8
0
100
AcDbLine
 10
159.94795
 20
137.02495
 30
0.0
 11
159.94795
 21
137.68175
 31
0.0
  0
LINE
  5
363
330
1D
100
AcDbEntity
  8
0
100
AcDbLine
 10
159.94795
 20
137.02495
 30
0.0
 11
159.94795
 21
136.22875
 31
0.0
  0
LINE
  5
364
330
1D
100
AcDbEntity
  8
0
100
AcDbLine
 10
159.94795
 20
138.24145
 30
0.0
 11
159.94795
 21
138.83935
 31
0.0
  0
LINE
  5
365
330
1D
100
AcDbEntity
  8
0
100
AcDbLine
 10
159.94795
 20
137.68175
 30
0.0
 11
159.94795
 21
138.19205
 31
0.0
  0
LINE
  5
366
330
1D
100
AcDbEntity
  8
0
100
AcDbLine
 10
159.94795
 20
137.68175
 30
0.0
 11
159.94795
 21
137.02495
 31
0.0
  0
LINE
  5
367
330
1D
100
AcDbEntity
  8
0
100
AcDbLine
 10
159.94795
 20
138.19205
 30
0.0
 11
159.94795
 21
138.55035
 31
0.0
  0
LINE
  5
368
330
1D
100
AcDbEntity
  8
0
100
AcDbLine
 10
159.94795
 20
138.19205
 30
0.0
 11
159.94795
 21
137.68175
 31
0.0
  0
LINE
  5
369
330
1D
100
AcDbEntity
  8
0
100
AcDbLine
 10
159.94795
 20
138.75245
 30
0.0
 11
159.94795
 21
138.55035
 31
0.0
  0
LINE
  5
36A
330
1D
100
AcDbEntity
  8
0
100
AcDbLine
 10
159.94795
 20
138.55035
 30
0.0
 11
159.94795
 21
138.75245
 31
0.0
  0
LINE
  5
36B
330
1D
100
AcDbEntity
  8
0
100
AcDbLine
 10
159.94795
 20
138.55035
 30
0.0
 11
159.94795
 21
138.19205
 31
0.0
  0
LINE
  5
36C
330
1D
100
AcDbEntity
  8
0
100
AcDbLine
 10
159.41395
 20
136.78605
 30
0.0
 11
159.44395
 21
137.46735
 31
0.0
  0
LINE
  5
36D
330
1D
100
AcDbEntity
  8
0
100
AcDbLine
 10
159.94795
 20
136.22875
 30
0.0
 11
159.94795
 21
137.02495
 31
0.0
  0
LINE
  5
36E
330
1D
100
AcDbEntity
  8
0
100
AcDbLine
 10
159.94795
 20
136.22875
 30
0.0
 11
159.94795
 21
135.30165
 31
0.0
  0
LINE
  5
36F
330
1D
100
AcDbEntity
  8
0
100
AcDbLine
 10
159.94795
 20
135.30165
 30
0.0
 11
159.94795
 21
136.22875
 31
0.0
  0
LINE
  5
370
330
1D
100
AcDbEntity
  8
0
100
AcDbLine
 10
159.94795
 20
135.30165
 30
0.0
 11
159.94795
 21
134.25415
 31
0.0
  0
LINE
  5
371
330
1D
100
AcDbEntity
  8
0
100
AcDbLine
 10
159.94795
 20
134.25415
 30
0.0
 11
159.94795
 21
135.30165
 31
0.0
  0
LINE
  5
372
330
1D
100
AcDbEntity
  8
0
100
AcDbLine
 10
159.94795
 20
134.25415
 30
0.0
 11
159.94795
 21
133.09745
 31
0.0
  0
LINE
  5
373
330
1D
100
AcDbEntity
  8
0
100
AcDbLine
 10
159.94795
 20
133.09745
 30
0.0
 11
159.94795
 21
134.25415
 31
0.0
  0
LINE
  5
374
330
1D
100
AcDbEntity
  8
0
100
AcDbLine
 10
159.94795
 20
133.09745
 30
0.0
 11
159.94795
 21
131.84425
 31
0.0
  0
LINE
  5
375
330
1D
100
AcDbEntity
  8
0
100
AcDbLine
 10
159.94795
 20
131.84425
 30
0.0
 11
159.94795
 21
133.09745
 31
0.0
  0
LINE
  5
376
330
1D
100
AcDbEntity
  8
0
100
AcDbLine
 10
159.94795
 20
131.84425
 30
0.0
 11
159.94795
 21
130.50865
 31
0.0
  0
LINE
  5
377
330
1D
100
AcDbEntity
  8
0
100
AcDbLine
 10
159.94795
 20
130.50865
 30
0.0
 11
159.94795
 21
131.84425
 31
0.0
  0
LINE
  5
378
330
1D
100
AcDbEntity
  8
0
100
AcDbLine
 10
159.94795
 20
130.50865
 30
0.0
 11
159.94795
 21
129.10471
 31
0.0
  0
LINE
  5
379
330
1D
100
AcDbEntity
  8
0
100
AcDbLine
 10
159.94795
 20
129.10471
 30
0.0
 11
159.94795
 21
130.50865
 31
0.0
  0
LINE
  5
37A
330
1D
100
AcDbEntity
  8
0
100
AcDbLine
 10
159.94795
 20
129.10471
 30
0.0
 11
159.94795
 21
127.64839
 31
0.0
  0
LINE
  5
37B
330
1D
100
AcDbEntity
  8
0
100
AcDbLine
 10
159.94795
 20
127.64839
 30
0.0
 11
159.94795
 21
129.10471
 31
0.0
  0
LINE
  5
37C
330
1D
100
AcDbEntity
  8
0
100
AcDbLine
 10
159.94795
 20
127.64839
 30
0.0
 11
159.94795
 21
126.1554
 31
0.0
  0
LINE
  5
37D
330
1D
100
AcDbEntity
  8
0
100
AcDbLine
 10
159.94795
 20
126.1554
 30
0.0
 11
159.94795
 21
127.64839
 31
0.0
  0
LINE
  5
37E
330
1D
100
AcDbEntity
  8
0
100
AcDbLine
 10
159.94795
 20
126.1554
 30
0.0
 11
159.94795
 21
124.64204
 31
0.0
  0
LINE
  5
37F
330
1D
100
AcDbEntity
  8
0
100
AcDbLine
 10
159.94795
 20
124.64204
 30
0.0
 11
159.94795
 21
126.1554
 31
0.0
  0
LINE
  5
380
330
1D
100
AcDbEntity
  8
0
100
AcDbLine
 10
159.94795
 20
124.64204
 30
0.0
 11
159.94795
 21
123.12519
 31
0.0
  0
LINE
  5
381
330
1D
100
AcDbEntity
  8
0
100
AcDbLine
 10
159.94795
 20
123.12519
 30
0.0
 11
159.94795
 21
124.64204
 31
0.0
  0
LINE
  5
382
330
1D
100
AcDbEntity
  8
0
100
AcDbLine
 10
159.94795
 20
123.12519
 30
0.0
 11
159.94795
 21
121.620625
 31
0.0
  0
LINE
  5
383
330
1D
100
AcDbEntity
  8
0
100
AcDbLine
 10
159.39695
 20
125.53753
 30
0.0
 11
159.44595
 21
124.04979
 31
0.0
  0
LINE
  5
384
330
1D
100
AcDbEntity
  8
0
100
AcDbLine
 10
159.34695
 20
122.55786
 30
0.0
 11
159.44595
 21
124.04979
 31
0.0
  0
LINE
  5
385
330
1D
100
AcDbEntity
  8
0
100
AcDbLine
 10
144.94795
 20
131.17381
 30
0.0
 11
144.94795
 21
132.55015
 31
0.0
  0
LINE
  5
386
330
1D
100
AcDbEntity
  8
0
100
AcDbLine
 10
143.66595
 20
121.732596
 30
0.0
 11
143.95595
 21
120.364969
 31
0.0
  0
LINE
  5
387
330
1D
100
AcDbEntity
  8
0
100
AcDbLine
 10
159.94795
 20
109.80405
 30
0.0
 11
159.94795
 21
109.91905
 31
0.0
  0
LINE
  5
388
330
1D
100
AcDbEntity
  8
0
100
AcDbLine
 10
160.06195
 20
108.85105
 30
0.0
 11
160.38695
 21
108.40085
 31
0.0
  0
LINE
  5
389
330
1D
100
AcDbEntity
  8
0
100
AcDbLine
 10
159.94795
 20
109.45895
 30
0.0
 11
160.06195
 21
108.85105
 31
0.0
  0
LINE
  5
38A
330
1D
100
AcDbEntity
  8
0
100
AcDbLine
 10
159.94795
 20
109.45895
 30
0.0
 11
159.94795
 21
109.76055
 31
0.0
  0
LINE
  5
38B
330
1D
100
AcDbEntity
  8
0
100
AcDbLine
 10
159.09995
 20
138.91495
 30
0.0
 11
159.34195
 21
138.18335
 31
0.0
  0
LINE
  5
38C
330
1D
100
AcDbEntity
  8
0
100
AcDbLine
 10
144.18795
 20
139.67545
 30
0.0
 11
144.74795
 21
140.47945
 31
0.0
  0
LINE
  5
38D
330
1D
100
AcDbEntity
  8
0
100
AcDbLine
 10
158.70795
 20
139.67525
 30
0.0
 11
159.09995
 21
138.91495
 31
0.0
  0
LINE
  5
38E
330
1D
100
AcDbEntity
  8
0
100
AcDbLine
 10
143.79595
 20
138.91495
 30
0.0
 11
144.18795
 21
139.67545
 31
0.0
  0
LINE
  5
38F
330
1D
100
AcDbEntity
  8
0
100
AcDbLine
 10
160.06195
 20
139.74885
 30
0.0
 11
160.38695
 21
140.19895
 31
0.0
  0
LINE
  5
390
330
1D
100
AcDbEntity
  8
0
100
AcDbLine
 10
159.94795
 20
139.14105
 30
0.0
 11
159.94795
 21
138.83935
 31
0.0
  0
LINE
  5
391
330
1D
100
AcDbEntity
  8
0
100
AcDbLine
 10
159.94795
 20
139.14105
 30
0.0
 11
160.06195
 21
139.74885
 31
0.0
  0
LINE
  5
392
330
1D
100
AcDbEntity
  8
0
100
AcDbLine
 10
159.94795
 20
138.83935
 30
0.0
 11
159.94795
 21
139.14105
 31
0.0
  0
LINE
  5
393
330
1D
100
AcDbEntity
  8
0
100
AcDbLine
 10
159.94795
 20
138.83935
 30
0.0
 11
159.94795
 21
138.24145
 31
0.0
  0
LINE
  5
394
330
1D
100
AcDbEntity
  8
0
100
AcDbLine
 10
184.94795
 20
88.80985
 30
0.0
 11
184.94795
 21
88.89075
 31
0.0
  0
LINE
  5
395
330
1D
100
AcDbEntity
  8
0
100
AcDbLine
 10
184.94795
 20
88.89075
 30
0.0
 11
184.94795
 21
89.29295
 31
0.0
  0
LINE
  5
396
330
1D
100
AcDbEntity
  8
0
100
AcDbLine
 10
184.94795
 20
88.89075
 30
0.0
 11
184.94795
 21
88.80985
 31
0.0
  0
LINE
  5
397
330
1D
100
AcDbEntity
  8
0
100
AcDbLine
 10
181.19095
 20
88.80985
 30
0.0
 11
184.94795
 21
88.80985
 31
0.0
  0
LINE
  5
398
330
1D
100
AcDbEntity
  8
0
100
AcDbLine
 10
184.94795
 20
89.29295
 30
0.0
 11
184.94795
 21
90.01095
 31
0.0
  0
LINE
  5
399
330
1D
100
AcDbEntity
  8
0
100
AcDbLine
 10
184.94795
 20
89.29295
 30
0.0
 11
184.94795
 21
88.89075
 31
0.0
  0
LINE
  5
39A
330
1D
100
AcDbEntity
  8
0
100
AcDbLine
 10
180.41395
 20
88.91235
 30
0.0
 11
181.19095
 21
88.80985
 31
0.0
  0
LINE
  5
39B
330
1D
100
AcDbEntity
  8
0
100
AcDbLine
 10
179.69095
 20
89.21125
 30
0.0
 11
180.41395
 21
88.91235
 31
0.0
  0
LINE
  5
39C
330
1D
100
AcDbEntity
  8
0
100
AcDbLine
 10
184.94795
 20
90.01095
 30
0.0
 11
184.94795
 21
91.04055
 31
0.0
  0
LINE
  5
39D
330
1D
100
AcDbEntity
  8
0
100
AcDbLine
 10
184.94795
 20
90.01095
 30
0.0
 11
184.94795
 21
89.29295
 31
0.0
  0
LINE
  5
39E
330
1D
100
AcDbEntity
  8
0
100
AcDbLine
 10
184.94795
 20
91.04055
 30
0.0
 11
184.94795
 21
92.37105
 31
0.0
  0
LINE
  5
39F
330
1D
100
AcDbEntity
  8
0
100
AcDbLine
 10
184.94795
 20
91.04055
 30
0.0
 11
184.94795
 21
90.01095
 31
0.0
  0
LINE
  5
3A0
330
1D
100
AcDbEntity
  8
0
100
AcDbLine
 10
184.94795
 20
92.37105
 30
0.0
 11
184.94795
 21
93.99075
 31
0.0
  0
LINE
  5
3A1
330
1D
100
AcDbEntity
  8
0
100
AcDbLine
 10
184.94795
 20
92.37105
 30
0.0
 11
184.94795
 21
91.04055
 31
0.0
  0
LINE
  5
3A2
330
1D
100
AcDbEntity
  8
0
100
AcDbLine
 10
184.94795
 20
93.99075
 30
0.0
 11
184.94795
 21
95.88485
 31
0.0
  0
LINE
  5
3A3
330
1D
100
AcDbEntity
  8
0
100
AcDbLine
 10
184.94795
 20
93.99075
 30
0.0
 11
184.94795
 21
92.37105
 31
0.0
  0
LINE
  5
3A4
330
1D
100
AcDbEntity
  8
0
100
AcDbLine
 10
184.94795
 20
95.88485
 30
0.0
 11
184.94795
 21
98.03615
 31
0.0
  0
LINE
  5
3A5
330
1D
100
AcDbEntity
  8
0
100
AcDbLine
 10
184.94795
 20
95.88485
 30
0.0
 11
184.94795
 21
93.99075
 31
0.0
  0
LINE
  5
3A6
330
1D
100
AcDbEntity
  8
0
100
AcDbLine
 10
184.94795
 20
98.03615
 30
0.0
 11
184.94795
 21
100.42595
 31
0.0
  0
LINE
  5
3A7
330
1D
100
AcDbEntity
  8
0
100
AcDbLine
 10
184.94795
 20
98.03615
 30
0.0
 11
184.94795
 21
95.88485
 31
0.0
  0
LINE
  5
3A8
330
1D
100
AcDbEntity
  8
0
100
AcDbLine
 10
184.94795
 20
100.42595
 30
0.0
 11
184.94795
 21
103.03075
 31
0.0
  0
LINE
  5
3A9
330
1D
100
AcDbEntity
  8
0
100
AcDbLine
 10
184.94795
 20
100.42595
 30
0.0
 11
184.94795
 21
98.03615
 31
0.0
  0
LINE
  5
3AA
330
1D
100
AcDbEntity
  8
0
100
AcDbLine
 10
184.94795
 20
103.03075
 30
0.0
 11
184.94795
 21
105.82915
 31
0.0
  0
LINE
  5
3AB
330
1D
100
AcDbEntity
  8
0
100
AcDbLine
 10
184.94795
 20
103.03075
 30
0.0
 11
184.94795
 21
100.42595
 31
0.0
  0
LINE
  5
3AC
330
1D
100
AcDbEntity
  8
0
100
AcDbLine
 10
184.94795
 20
105.82915
 30
0.0
 11
184.94795
 21
108.79495
 31
0.0
  0
LINE
  5
3AD
330
1D
100
AcDbEntity
  8
0
100
AcDbLine
 10
184.94795
 20
105.82915
 30
0.0
 11
184.94795
 21
103.03075
 31
0.0
  0
LINE
  5
3AE
330
1D
100
AcDbEntity
  8
0
100
AcDbLine
 10
184.94795
 20
108.79495
 30
0.0
 11
184.94795
 21
111.90098
 31
0.0
  0
LINE
  5
3AF
330
1D
100
AcDbEntity
  8
0
100
AcDbLine
 10
184.94795
 20
108.79495
 30
0.0
 11
184.94795
 21
105.82915
 31
0.0
  0
LINE
  5
3B0
330
1D
100
AcDbEntity
  8
0
100
AcDbLine
 10
184.94795
 20
111.90098
 30
0.0
 11
184.94795
 21
115.11914
 31
0.0
  0
LINE
  5
3B1
330
1D
100
AcDbEntity
  8
0
100
AcDbLine
 10
184.94795
 20
111.90098
 30
0.0
 11
184.94795
 21
108.79495
 31
0.0
  0
LINE
  5
3B2
330
1D
100
AcDbEntity
  8
0
100
AcDbLine
 10
184.94795
 20
115.11914
 30
0.0
 11
184.94795
 21
118.4204
 31
0.0
  0
LINE
  5
3B3
330
1D
100
AcDbEntity
  8
0
100
AcDbLine
 10
184.94795
 20
115.11914
 30
0.0
 11
184.94795
 21
111.90098
 31
0.0
  0
LINE
  5
3B4
330
1D
100
AcDbEntity
  8
0
100
AcDbLine
 10
184.94795
 20
118.4204
 30
0.0
 11
184.94795
 21
121.774743
 31
0.0
  0
LINE
  5
3B5
330
1D
100
AcDbEntity
  8
0
100
AcDbLine
 10
184.94795
 20
118.4204
 30
0.0
 11
184.94795
 21
115.11914
 31
0.0
  0
LINE
  5
3B6
330
1D
100
AcDbEntity
  8
0
100
AcDbLine
 10
184.94795
 20
121.774743
 30
0.0
 11
184.94795
 21
125.152
 31
0.0
  0
LINE
  5
3B7
330
1D
100
AcDbEntity
  8
0
100
AcDbLine
 10
184.94795
 20
121.774743
 30
0.0
 11
184.94795
 21
118.4204
 31
0.0
  0
LINE
  5
3B8
330
1D
100
AcDbEntity
  8
0
100
AcDbLine
 10
184.94795
 20
125.152
 30
0.0
 11
184.94795
 21
128.52124
 31
0.0
  0
LINE
  5
3B9
330
1D
100
AcDbEntity
  8
0
100
AcDbLine
 10
184.94795
 20
125.152
 30
0.0
 11
184.94795
 21
121.774743
 31
0.0
  0
LINE
  5
3BA
330
1D
100
AcDbEntity
  8
0
100
AcDbLine
 10
184.94795
 20
128.52124
 30
0.0
 11
184.94795
 21
131.85285
 31
0.0
  0
LINE
  5
3BB
330
1D
100
AcDbEntity
  8
0
100
AcDbLine
 10
184.94795
 20
128.52124
 30
0.0
 11
184.94795
 21
125.152
 31
0.0
  0
LINE
  5
3BC
330
1D
100
AcDbEntity
  8
0
100
AcDbLine
 10
184.94795
 20
131.85285
 30
0.0
 11
184.94795
 21
135.11625
 31
0.0
  0
LINE
  5
3BD
330
1D
100
AcDbEntity
  8
0
100
AcDbLine
 10
184.94795
 20
131.85285
 30
0.0
 11
184.94795
 21
128.52124
 31
0.0
  0
LINE
  5
3BE
330
1D
100
AcDbEntity
  8
0
100
AcDbLine
 10
184.94795
 20
135.11625
 30
0.0
 11
184.94795
 21
138.28105
 31
0.0
  0
LINE
  5
3BF
330
1D
100
AcDbEntity
  8
0
100
AcDbLine
 10
184.94795
 20
135.11625
 30
0.0
 11
184.94795
 21
131.85285
 31
0.0
  0
LINE
  5
3C0
330
1D
100
AcDbEntity
  8
0
100
AcDbLine
 10
184.94795
 20
138.28105
 30
0.0
 11
184.94795
 21
141.31905
 31
0.0
  0
LINE
  5
3C1
330
1D
100
AcDbEntity
  8
0
100
AcDbLine
 10
184.94795
 20
138.28105
 30
0.0
 11
184.94795
 21
135.11625
 31
0.0
  0
LINE
  5
3C2
330
1D
100
AcDbEntity
  8
0
100
AcDbLine
 10
179.06895
 20
89.68825
 30
0.0
 11
179.69095
 21
89.21125
 31
0.0
  0
LINE
  5
3C3
330
1D
100
AcDbEntity
  8
0
100
AcDbLine
 10
160.38695
 20
108.40085
 30
0.0
 11
179.06895
 21
89.68825
 31
0.0
  0
LINE
  5
3C4
330
1D
100
AcDbEntity
  8
0
100
AcDbLine
 10
158.14795
 20
140.47945
 30
0.0
 11
158.70795
 21
139.67525
 31
0.0
  0
LINE
  5
3C5
330
1D
100
AcDbEntity
  8
0
100
AcDbLine
 10
144.94795
 20
140.79995
 30
0.0
 11
144.94795
 21
140.72705
 31
0.0
  0
LINE
  5
3C6
330
1D
100
AcDbEntity
  8
0
100
AcDbLine
 10
144.94795
 20
140.79995
 30
0.0
 11
157.94795
 21
140.79995
 31
0.0
  0
LINE
  5
3C7
330
1D
100
AcDbEntity
  8
0
100
AcDbLine
 10
157.94795
 20
140.79995
 30
0.0
 11
157.94795
 21
140.72725
 31
0.0
  0
LINE
  5
3C8
330
1D
100
AcDbEntity
  8
0
100
AcDbLine
 10
157.94795
 20
140.79995
 30
0.0
 11
159.94795
 21
138.79595
 31
0.0
  0
LINE
  5
3C9
330
1D
100
AcDbEntity
  8
0
100
AcDbLine
 10
157.94795
 20
140.72725
 30
0.0
 11
158.14795
 21
140.47945
 31
0.0
  0
LINE
  5
3CA
330
1D
100
AcDbEntity
  8
0
100
AcDbLine
 10
157.94795
 20
140.72725
 30
0.0
 11
157.94795
 21
140.79995
 31
0.0
  0
LINE
  5
3CB
330
1D
100
AcDbEntity
  8
0
100
AcDbLine
 10
144.94795
 20
140.72705
 30
0.0
 11
144.94795
 21
140.79995
 31
0.0
  0
LINE
  5
3CC
330
1D
100
AcDbEntity
  8
0
100
AcDbLine
 10
144.74795
 20
140.47945
 30
0.0
 11
144.94795
 21
140.72705
 31
0.0
  0
LINE
  5
3CD
330
1D
100
AcDbEntity
  8
0
100
AcDbLine
 10
179.06895
 20
158.91185
 30
0.0
 11
179.69095
 21
159.38865
 31
0.0
  0
LINE
  5
3CE
330
1D
100
AcDbEntity
  8
0
100
AcDbLine
 10
184.94795
 20
141.31905
 30
0.0
 11
184.94795
 21
144.20425
 31
0.0
  0
LINE
  5
3CF
330
1D
100
AcDbEntity
  8
0
100
AcDbLine
 10
184.94795
 20
141.31905
 30
0.0
 11
184.94795
 21
138.28105
 31
0.0
  0
LINE
  5
3D0
330
1D
100
AcDbEntity
  8
0
100
AcDbLine
 10
184.94795
 20
144.20425
 30
0.0
 11
184.94795
 21
146.90765
 31
0.0
  0
LINE
  5
3D1
330
1D
100
AcDbEntity
  8
0
100
AcDbLine
 10
184.94795
 20
144.20425
 30
0.0
 11
184.94795
 21
141.31905
 31
0.0
  0
LINE
  5
3D2
330
1D
100
AcDbEntity
  8
0
100
AcDbLine
 10
184.94795
 20
146.90765
 30
0.0
 11
184.94795
 21
149.40755
 31
0.0
  0
LINE
  5
3D3
330
1D
100
AcDbEntity
  8
0
100
AcDbLine
 10
184.94795
 20
146.90765
 30
0.0
 11
184.94795
 21
144.20425
 31
0.0
  0
LINE
  5
3D4
330
1D
100
AcDbEntity
  8
0
100
AcDbLine
 10
184.94795
 20
149.40755
 30
0.0
 11
184.94795
 21
151.67905
 31
0.0
  0
LINE
  5
3D5
330
1D
100
AcDbEntity
  8
0
100
AcDbLine
 10
184.94795
 20
149.40755
 30
0.0
 11
184.94795
 21
146.90765
 31
0.0
  0
LINE
  5
3D6
330
1D
100
AcDbEntity
  8
0
100
AcDbLine
 10
184.94795
 20
151.67905
 30
0.0
 11
184.94795
 21
153.70295
 31
0.0
  0
LINE
  5
3D7
330
1D
100
AcDbEntity
  8
0
100
AcDbLine
 10
184.94795
 20
151.67905
 30
0.0
 11
184.94795
 21
149.40755
 31
0.0
  0
LINE
  5
3D8
330
1D
100
AcDbEntity
  8
0
100
AcDbLine
 10
184.94795
 20
153.70295
 30
0.0
 11
184.94795
 21
155.46095
 31
0.0
  0
LINE
  5
3D9
330
1D
100
AcDbEntity
  8
0
100
AcDbLine
 10
184.94795
 20
153.70295
 30
0.0
 11
184.94795
 21
151.67905
 31
0.0
  0
LINE
  5
3DA
330
1D
100
AcDbEntity
  8
0
100
AcDbLine
 10
184.94795
 20
155.46095
 30
0.0
 11
184.94795
 21
156.93685
 31
0.0
  0
LINE
  5
3DB
330
1D
100
AcDbEntity
  8
0
100
AcDbLine
 10
184.94795
 20
155.46095
 30
0.0
 11
184.94795
 21
153.70295
 31
0.0
  0
LINE
  5
3DC
330
1D
100
AcDbEntity
  8
0
100
AcDbLine
 10
184.94795
 20
156.93685
 30
0.0
 11
184.94795
 21
158.11665
 31
0.0
  0
LINE
  5
3DD
330
1D
100
AcDbEntity
  8
0
100
AcDbLine
 10
184.94795
 20
156.93685
 30
0.0
 11
184.94795
 21
155.46095
 31
0.0
  0
LINE
  5
3DE
330
1D
100
AcDbEntity
  8
0
100
AcDbLine
 10
184.94795
 20
158.11665
 30
0.0
 11
184.94795
 21
158.98965
 31
0.0
  0
LINE
  5
3DF
330
1D
100
AcDbEntity
  8
0
100
AcDbLine
 10
184.94795
 20
158.11665
 30
0.0
 11
184.94795
 21
156.93685
 31
0.0
  0
LINE
  5
3E0
330
1D
100
AcDbEntity
  8
0
100
AcDbLine
 10
184.94795
 20
158.98965
 30
0.0
 11
184.94795
 21
159.54965
 31
0.0
  0
LINE
  5
3E1
330
1D
100
AcDbEntity
  8
0
100
AcDbLine
 10
184.94795
 20
158.98965
 30
0.0
 11
184.94795
 21
158.11665
 31
0.0
  0
LINE
  5
3E2
330
1D
100
AcDbEntity
  8
0
100
AcDbLine
 10
184.94795
 20
159.54965
 30
0.0
 11
184.94795
 21
159.79005
 31
0.0
  0
LINE
  5
3E3
330
1D
100
AcDbEntity
  8
0
100
AcDbLine
 10
184.94795
 20
159.54965
 30
0.0
 11
184.94795
 21
158.98965
 31
0.0
  0
LINE
  5
3E4
330
1D
100
AcDbEntity
  8
0
100
AcDbLine
 10
184.94795
 20
159.79005
 30
0.0
 11
184.94795
 21
159.54965
 31
0.0
  0
LINE
  5
3E5
330
1D
100
AcDbEntity
  8
0
100
AcDbLine
 10
181.19095
 20
159.79005
 30
0.0
 11
184.94795
 21
159.79005
 31
0.0
  0
LINE
  5
3E6
330
1D
100
AcDbEntity
  8
0
100
AcDbLine
 10
180.41395
 20
159.68755
 30
0.0
 11
181.19095
 21
159.79005
 31
0.0
  0
LINE
  5
3E7
330
1D
100
AcDbEntity
  8
0
100
AcDbLine
 10
179.69095
 20
159.38865
 30
0.0
 11
180.41395
 21
159.68755
 31
0.0
  0
LINE
  5
3E8
330
1D
100
AcDbEntity
  8
0
100
AcDbLine
 10
160.38695
 20
140.19895
 30
0.0
 11
179.06895
 21
158.91185
 31
0.0
  0
LINE
  5
3E9
330
1D
100
AcDbEntity
  8
0
100
AcDbLine
 10
142.94795
 20
121.620746
 30
0.0
 11
142.94795
 21
120.1457
 31
0.0
  0
LINE
  5
3EA
330
1D
100
AcDbEntity
  8
0
100
AcDbLine
 10
142.94795
 20
121.620746
 30
0.0
 11
142.94795
 21
123.12519
 31
0.0
  0
LINE
  5
412
330
1D
100
AcDbEntity
  8
0
100
AcDbLine
 10
80.44315
 20
109.95025
 30
0.0
 11
80.37665
 21
121.369037
 31
0.0
  0
LINE
  5
413
330
1D
100
AcDbEntity
  8
0
100
AcDbLine
 10
72.55455
 20
142.97135
 30
0.0
 11
75.85765
 21
133.89615
 31
0.0
  0
LINE
  5
414
330
1D
100
AcDbEntity
  8
0
100
AcDbLine
 10
142.412808605972
 20
108.013716341814
 30
0.0
 11
141.91495
 21
107.50735
 31
0.0
  0
LINE
  5
415
330
1D
100
AcDbEntity
  8
0
100
AcDbLine
 10
142.32995
 20
107.58875
 30
0.0
 11
142.372925978545
 21
107.809165781485
 31
0.0
  0
LINE
  5
416
330
1D
100
AcDbEntity
  8
0
100
AcDbLine
 10
140.22995
 20
106.68045
 30
0.0
 11
139.95395
 21
106.60815
 31
0.0
  0
LINE
  5
417
330
1D
100
AcDbEntity
  8
0
100
AcDbLine
 10
117.17195
 20
113.74259
 30
0.0
 11
115.961869592091
 21
115.673137684443
 31
0.0
  0
LINE
  5
418
330
1D
100
AcDbEntity
  8
0
100
AcDbLine
 10
115.961869592091
 20
115.673137684443
 30
0.0
 11
115.171394858321
 21
117.823669638329
 31
0.0
  0
LINE
  5
419
330
1D
100
AcDbEntity
  8
0
100
AcDbLine
 10
115.171394858321
 20
117.823669638329
 30
0.0
 11
114.393672624924
 21
120.828263918625
 31
0.0
  0
LINE
  5
41A
330
1D
100
AcDbEntity
  8
0
100
AcDbLine
 10
114.393672624924
 20
120.828263918625
 30
0.0
 11
114.05995
 21
123.20092
 31
0.0
  0
LINE
  5
41B
330
1D
100
AcDbEntity
  8
0
100
AcDbLine
 10
114.02695
 20
124.2999
 30
0.0
 11
114.188211196649
 21
126.972977978415
 31
0.0
  0
LINE
  5
41C
330
1D
100
AcDbEntity
  8
0
100
AcDbLine
 10
114.188211196649
 20
126.972977978415
 30
0.0
 11
114.832831761568
 21
129.778973378651
 31
0.0
  0
LINE
  5
41D
330
1D
100
AcDbEntity
  8
0
100
AcDbLine
 10
114.832831761568
 20
129.778973378651
 30
0.0
 11
115.742884323807
 21
132.338496209948
 31
0.0
  0
LINE
  5
41E
330
1D
100
AcDbEntity
  8
0
100
AcDbLine
 10
115.742884323807
 20
132.338496209948
 30
0.0
 11
116.709815171186
 21
134.082763620906
 31
0.0
  0
LINE
  5
41F
330
1D
100
AcDbEntity
  8
0
100
AcDbLine
 10
116.709815171186
 20
134.082763620906
 30
0.0
 11
117.15095
 21
134.73835
 31
0.0
  0
LINE
  5
420
330
1D
100
AcDbEntity
  8
0
100
AcDbLine
 10
117.15095
 20
134.73835
 30
0.0
 11
118.03295
 21
135.97025
 31
0.0
  0
LINE
  5
421
330
1D
100
AcDbEntity
  8
0
100
AcDbLine
 10
119.975276150042
 20
138.096171841784
 30
0.0
 11
120.413810262009
 21
138.493994279476
 31
0.0
  0
LINE
  5
422
330
1D
100
AcDbEntity
  8
0
100
AcDbLine
 10
121.81195
 20
139.63605
 30
0.0
 11
123.93895
 21
140.98485
 31
0.0
  0
LINE
  5
423
330
1D
100
AcDbEntity
  8
0
100
AcDbLine
 10
128.226557192975
 20
143.017094194653
 30
0.0
 11
130.40395
 21
143.11835
 31
0.0
  0
LINE
  5
424
330
1D
100
AcDbEntity
  8
0
100
AcDbLine
 10
130.670636983146
 20
143.137712497419
 30
0.0
 11
132.030575906843
 21
143.272520685904
 31
0.0
  0
LINE
  5
425
330
1D
100
AcDbEntity
  8
0
100
AcDbLine
 10
132.030575906843
 20
143.272520685904
 30
0.0
 11
132.72295
 21
143.29815
 31
0.0
  0
LINE
  5
426
330
1D
100
AcDbEntity
  8
0
100
AcDbLine
 10
132.838185077663
 20
143.296838742607
 30
0.0
 11
132.90795
 21
143.30025
 31
0.0
  0
LINE
  5
427
330
1D
100
AcDbEntity
  8
0
100
AcDbLine
 10
133.444211206351
 20
143.28994278473
 30
0.0
 11
135.26795
 21
143.16765
 31
0.0
  0
LINE
  5
428
330
1D
100
AcDbEntity
  8
0
100
AcDbLine
 10
135.26795
 20
143.16765
 30
0.0
 11
137.54695
 21
142.75425
 31
0.0
  0
LINE
  5
429
330
1D
100
AcDbEntity
  8
0
100
AcDbLine
 10
139.04695
 20
142.32015
 30
0.0
 11
141.91495
 21
141.09245
 31
0.0
  0
LINE
  5
42A
330
1D
100
AcDbEntity
  8
0
100
AcDbLine
 10
134.67995
 20
105.37165
 30
0.0
 11
136.75995
 21
105.67015
 31
0.0
  0
ENDSEC
  0
SECTION
  2
OBJECTS
  0
DICTIONARY
  5
C
330
0
100
AcDbDictionary
281
     1
  3
ACAD_GROUP
350
D
  3
ACAD_LAYOUT
350
1A
  3
ACAD_MLEADERSTYLE
350
42D
  3
ACAD_MLINESTYLE
350
17
  3
ACAD_PLOTSETTINGS
350
19
  3
ACAD_PLOTSTYLENAME
350
E
  3
ACAD_SCALELIST
350
3F0
  3
AcDbVariableDictionary
350
42B
  3
DWGPROPS
350
430
  0
DICTIONARY
  5
D
102
{ACAD_REACTORS
330
C
102
}
330
C
100
AcDbDictionary
281
     1
  0
DICTIONARY
  5
1A
102
{ACAD_REACTORS
330
C
102
}
330
C
100
AcDbDictionary
281
     1
  3
Layout1
350
1C
  3
Model
350
1E
  0
DICTIONARY
  5
42D
102
{ACAD_REACTORS
330
C
102
}
330
C
100
AcDbDictionary
281
     1
  0
DICTIONARY
  5
17
102
{ACAD_REACTORS
330
C
102
}
330
C
100
AcDbDictionary
281
     1
  3
Standard
350
18
  0
DICTIONARY
  5
19
102
{ACAD_REACTORS
330
C
102
}
330
C
100
AcDbDictionary
281
     1
  0
ACDBDICTIONARYWDFLT
  5
E
102
{ACAD_REACTORS
330
C
102
}
330
C
100
AcDbDictionary
281
     1
  3
Normal
350
F
100
AcDbDictionaryWithDefault
340
F
  0
DICTIONARY
  5
3F0
102
{ACAD_REACTORS
330
C
102
}
330
C
100
AcDbDictionary
281
     1
  3
A0
350
3F1
  3
A1
350
3F2
  3
A2
350
3F3
  3
A3
350
3F4
  3
A4
350
3F5
  3
A5
350
3F6
  3
A6
350
3F7
  3
A7
350
3F8
  3
A8
350
3F9
  3
A9
350
3FA
  3
B0
350
3FB
  3
B1
350
3FC
  3
B2
350
3FD
  3
B3
350
3FE
  3
B4
350
3FF
  3
B5
350
400
  3
B6
350
401
  3
B7
350
402
  3
B8
350
403
  3
B9
350
404
  3
C0
350
405
  3
C1
350
406
  3
C2
350
407
  3
C3
350
408
  3
C4
350
409
  3
C5
350
40A
  3
C6
350
40B
  3
C7
350
40C
  3
C8
350
40D
  3
C9
350
40E
  3
D0
350
40F
  3
D1
350
410
  3
D2
350
411
  0
DICTIONARY
  5
42B
102
{ACAD_REACTORS
330
C
102
}
330
C
100
AcDbDictionary
281
     1
  3
CANNOSCALE
350
42E
  0
XRECORD
  5
430
102
{ACAD_REACTORS
330
C
102
}
330
C
100
AcDbXrecord
280
     1
  1
DWGPROPS COOKIE
  2

  3

  4

  6

  7

  8
MARTIN
  9

300
=
301
=
302
=
303
=
304
=
305
=
306
=
307
=
308
=
309
=
 40
0.0
 41
2456645.854757303
 42
2456645.858328993
  1

 90
        0
  0
LAYOUT
  5
1C
102
{ACAD_REACTORS
330
1A
102
}
330
1A
100
AcDbPlotSettings
  1

  2
none_device
  4

  6

 40
0.0
 41
0.0
 42
0.0
 43
0.0
 44
0.0
 45
0.0
 46
0.0
 47
0.0
 48
0.0
 49
0.0
140
0.0
141
0.0
142
1.0
143
1.0
 70
   688
 72
     0
 73
     0
 74
     5
  7

 75
    16
147
1.0
148
0.0
149
0.0
100
AcDbLayout
  1
Layout1
 70
     1
 71
     1
 10
0.0
 20
0.0
 11
12.0
 21
9.0
 12
0.0
 22
0.0
 32
0.0
 14
1.000000000000E+20
 24
1.000000000000E+20
 34
1.000000000000E+20
 15
-1.000000000000E+20
 25
-1.000000000000E+20
 35
-1.000000000000E+20
146
0.0
 13
0.0
 23
0.0
 33
0.0
 16
1.0
 26
0.0
 36
0.0
 17
0.0
 27
1.0
 37
0.0
 76
     0
330
1B
  0
LAYOUT
  5
1E
102
{ACAD_REACTORS
330
1A
102
}
330
1A
100
AcDbPlotSettings
  1

  2
none_device
  4

  6

 40
0.0
 41
0.0
 42
0.0
 43
0.0
 44
0.0
 45
0.0
 46
0.0
 47
0.0
 48
0.0
 49
0.0
140
0.0
141
0.0
142
1.0
143
1.0
 70
  1712
 72
     0
 73
     0
 74
     0
  7

 75
     0
147
1.0
148
0.0
149
0.0
100
AcDbLayout
  1
Model
 70
     1
 71
     0
 10
0.0
 20
0.0
 11
12.0
 21
9.0
 12
0.0
 22
0.0
 32
0.0
 14
0.05205
 24
0.20995
 34
0.0
 15
184.94795
 25
159.79005
 35
0.0
146
0.0
 13
0.0
 23
0.0
 33
0.0
 16
1.0
 26
0.0
 36
0.0
 17
0.0
 27
1.0
 37
0.0
 76
     0
330
1D
331
3EB
  0
MLINESTYLE
  5
18
102
{ACAD_REACTORS
330
17
102
}
330
17
100
AcDbMlineStyle
  2
Standard
 70
     0
  3

 62
   256
 51
90.0
 52
90.0
 71
     2
 49
0.5
 62
   256
  6
BYLAYER
 49
-0.5
 62
   256
  6
BYLAYER
  0
ACDBPLACEHOLDER
  5
F
102
{ACAD_REACTORS
330
E
102
}
330
E
  0
SCALE
  5
3F1
102
{ACAD_REACTORS
330
3F0
102
}
330
3F0
100
AcDbScale
 70
     0
300
1:1
140
1.0
141
1.0
290
     1
  0
SCALE
  5
3F2
102
{ACAD_REACTORS
330
3F0
102
}
330
3F0
100
AcDbScale
 70
     0
300
1:2
140
1.0
141
2.0
290
     0
  0
SCALE
  5
3F3
102
{ACAD_REACTORS
330
3F0
102
}
330
3F0
100
AcDbScale
 70
     0
300
1:4
140
1.0
141
4.0
290
     0
  0
SCALE
  5
3F4
102
{ACAD_REACTORS
330
3F0
102
}
330
3F0
100
AcDbScale
 70
     0
300
1:5
140
1.0
141
5.0
290
     0
  0
SCALE
  5
3F5
102
{ACAD_REACTORS
330
3F0
102
}
330
3F0
100
AcDbScale
 70
     0
300
1:8
140
1.0
141
8.0
290
     0
  0
SCALE
  5
3F6
102
{ACAD_REACTORS
330
3F0
102
}
330
3F0
100
AcDbScale
 70
     0
300
1:10
140
1.0
141
10.0
290
     0
  0
SCALE
  5
3F7
102
{ACAD_REACTORS
330
3F0
102
}
330
3F0
100
AcDbScale
 70
     0
300
1:16
140
1.0
141
16.0
290
     0
  0
SCALE
  5
3F8
102
{ACAD_REACTORS
330
3F0
102
}
330
3F0
100
AcDbScale
 70
     0
300
1:20
140
1.0
141
20.0
290
     0
  0
SCALE
  5
3F9
102
{ACAD_REACTORS
330
3F0
102
}
330
3F0
100
AcDbScale
 70
     0
300
1:30
140
1.0
141
30.0
290
     0
  0
SCALE
  5
3FA
102
{ACAD_REACTORS
330
3F0
102
}
330
3F0
100
AcDbScale
 70
     0
300
1:40
140
1.0
141
40.0
290
     0
  0
SCALE
  5
3FB
102
{ACAD_REACTORS
330
3F0
102
}
330
3F0
100
AcDbScale
 70
     0
300
1:50
140
1.0
141
50.0
290
     0
  0
SCALE
  5
3FC
102
{ACAD_REACTORS
330
3F0
102
}
330
3F0
100
AcDbScale
 70
     0
300
1:100
140
1.0
141
100.0
290
     0
  0
SCALE
  5
3FD
102
{ACAD_REACTORS
330
3F0
102
}
330
3F0
100
AcDbScale
 70
     0
300
2:1
140
2.0
141
1.0
290
     0
  0
SCALE
  5
3FE
102
{ACAD_REACTORS
330
3F0
102
}
330
3F0
100
AcDbScale
 70
     0
300
4:1
140
4.0
141
1.0
290
     0
  0
SCALE
  5
3FF
102
{ACAD_REACTORS
330
3F0
102
}
330
3F0
100
AcDbScale
 70
     0
300
8:1
140
8.0
141
1.0
290
     0
  0
SCALE
  5
400
102
{ACAD_REACTORS
330
3F0
102
}
330
3F0
100
AcDbScale
 70
     0
300
10:1
140
10.0
141
1.0
290
     0
  0
SCALE
  5
401
102
{ACAD_REACTORS
330
3F0
102
}
330
3F0
100
AcDbScale
 70
     0
300
100:1
140
100.0
141
1.0
290
     0
  0
SCALE
  5
402
102
{ACAD_REACTORS
330
3F0
102
}
330
3F0
100
AcDbScale
 70
     0
300
1/128" = 1'-0"
140
0.0078125
141
12.0
290
     0
  0
SCALE
  5
403
102
{ACAD_REACTORS
330
3F0
102
}
330
3F0
100
AcDbScale
 70
     0
300
1/64" = 1'-0"
140
0.015625
141
12.0
290
     0
  0
SCALE
  5
404
102
{ACAD_REACTORS
330
3F0
102
}
330
3F0
100
AcDbScale
 70
     0
300
1/32" = 1'-0"
140
0.03125
141
12.0
290
     0
  0
SCALE
  5
405
102
{ACAD_REACTORS
330
3F0
102
}
330
3F0
100
AcDbScale
 70
     0
300
1/16" = 1'-0"
140
0.0625
141
12.0
290
     0
  0
SCALE
  5
406
102
{ACAD_REACTORS
330
3F0
102
}
330
3F0
100
AcDbScale
 70
     0
300
3/32" = 1'-0"
140
0.09375
141
12.0
290
     0
  0
SCALE
  5
407
102
{ACAD_REACTORS
330
3F0
102
}
330
3F0
100
AcDbScale
 70
     0
300
1/8" = 1'-0"
140
0.125
141
12.0
290
     0
  0
SCALE
  5
408
102
{ACAD_REACTORS
330
3F0
102
}
330
3F0
100
AcDbScale
 70
     0
300
3/16" = 1'-0"
140
0.1875
141
12.0
290
     0
  0
SCALE
  5
409
102
{ACAD_REACTORS
330
3F0
102
}
330
3F0
100
AcDbScale
 70
     0
300
1/4" = 1'-0"
140
0.25
141
12.0
290
     0
  0
SCALE
  5
40A
102
{ACAD_REACTORS
330
3F0
102
}
330
3F0
100
AcDbScale
 70
     0
300
3/8" = 1'-0"
140
0.375
141
12.0
290
     0
  0
SCALE
  5
40B
102
{ACAD_REACTORS
330
3F0
102
}
330
3F0
100
AcDbScale
 70
     0
300
1/2" = 1'-0"
140
0.5
141
12.0
290
     0
  0
SCALE
  5
40C
102
{ACAD_REACTORS
330
3F0
102
}
330
3F0
100
AcDbScale
 70
     0
300
3/4" = 1'-0"
140
0.75
141
12.0
290
     0
  0
SCALE
  5
40D
102
{ACAD_REACTORS
330
3F0
102
}
330
3F0
100
AcDbScale
 70
     0
300
1" = 1'-0"
140
1.0
141
12.0
290
     0
  0
SCALE
  5
40E
102
{ACAD_REACTORS
330
3F0
102
}
330
3F0
100
AcDbScale
 70
     0
300
1-1/2" = 1'-0"
140
1.5
141
12.0
290
     0
  0
SCALE
  5
40F
102
{ACAD_REACTORS
330
3F0
102
}
330
3F0
100
AcDbScale
 70
     0
300
3" = 1'-0"
140
3.0
141
12.0
290
     0
  0
SCALE
  5
410
102
{ACAD_REACTORS
330
3F0
102
}
330
3F0
100
AcDbScale
 70
     0
300
6" = 1'-0"
140
6.0
141
12.0
290
     0
  0
SCALE
  5
411
102
{ACAD_REACTORS
330
3F0
102
}
330
3F0
100
AcDbScale
 70
     0
300
1'-0" = 1'-0"
140
12.0
141
12.0
290
     0
  0
DICTIONARYVAR
  5
42E
102
{ACAD_REACTORS
330
42B
102
}
330
42B
100
DictionaryVariables
280
     0
  1
1:1
  0
ENDSEC
  0
SECTION
  2
THUMBNAILIMAGE
 90
    16364
310
28000000B40000005500000001000800000000000000000000000000000000000000000000000000FFFFFF000000FF0000FFFF0000FF0000FFFF0000FF000000FF00FF000000000080808000C0C0C0000000FF007F7FFF000000A5005252A50000007F003F3F7F0000004C0026264C000000260013132600003FFF007F9FFF
310
000029A5005267A500001F7F003F4F7F0000134C00262F4C000009260013172600007FFF007FBFFF000052A500527CA500003F7F003F5F7F0000264C0026394C0000132600131C260000BFFF007FDFFF00007CA5005291A500005F7F003F6F7F0000394C0026424C00001C26001321260000FFFF007FFFFF0000A5A50052A5
310
A500007F7F003F7F7F00004C4C00264C4C00002626001326260000FFBF007FFFDF0000A57C0052A59100007F5F003F7F6F00004C3900264C420000261C001326210000FF7F007FFFBF0000A5520052A57C00007F3F003F7F5F00004C2600264C39000026130013261C0000FF3F007FFF9F0000A5290052A56700007F1F003F
310
7F4F00004C1300264C2F00002609001326170000FF00007FFF7F0000A5000052A55200007F00003F7F3F00004C0000264C260000260000132613003FFF00009FFF7F0029A5000067A552001F7F00004F7F3F00134C00002F4C260009260000172613007FFF0000BFFF7F0052A500007CA552003F7F00005F7F3F00264C0000
310
394C2600132600001C261300BFFF0000DFFF7F007CA5000091A552005F7F00006F7F3F00394C0000424C26001C26000021261300FFFF0000FFFF7F00A5A50000A5A552007F7F00007F7F3F004C4C00004C4C26002626000026261300FFBF0000FFDF7F00A57C0000A59152007F5F00007F6F3F004C3900004C422600261C00
310
0026211300FF7F0000FFBF7F00A5520000A57C52007F3F00007F5F3F004C2600004C39260026130000261C1300FF3F0000FF9F7F00A5290000A56752007F1F00007F4F3F004C1300004C2F26002609000026171300FF000000FF7F7F00A5000000A55252007F0000007F3F3F004C0000004C2626002600000026131300FF00
310
3F00FF7F9F00A5002900A55267007F001F007F3F4F004C0013004C262F002600090026131700FF007F00FF7FBF00A5005200A5527C007F003F007F3F5F004C0026004C2639002600130026131C00FF00BF00FF7FDF00A5007C00A55291007F005F007F3F6F004C0039004C26420026001C0026132100FF00FF00FF7FFF00A5
310
00A500A552A5007F007F007F3F7F004C004C004C264C002600260026132600BF00FF00DF7FFF007C00A5009152A5005F007F006F3F7F0039004C0042264C001C002600211326007F00FF00BF7FFF005200A5007C52A5003F007F005F3F7F0026004C0039264C00130026001C1326003F00FF009F7FFF002900A5006752A500
310
1F007F004F3F7F0013004C002F264C000900260017132600000000002D2D2D005B5B5B0089898900B7B7B700B3B3B30000000000000000000000000000000000000000000000000000000000000000000000000000000000000000000000000000070700000000000000000000000000000000000000000000000000000000
310
00000000000000000000000000000000000000000000000000000000000000000000000000000000000000000000000000000000000000000000000000000000000000000000000000000000000000000000000000000000000000000000000000000000000000000000000000000000000000000000000000000000000000
310
00000000000000000000000000000000000000000007070007000000000000000000000000000000000000000000000000000000000000000000000000000000000000000000000000000000000000000000000000000000000000000000000000000000000000000000000000000000000000000000000000000000000000
310
00000000000000000000000000000000000000000000000000000000000000000000000000000000000000000000000000000000000000000000000000000000000000000000000007070000000007000000000000000000000000000000000000000000000000000000000000000000000000000000000000000000000000
310
00000000000000000000000000000000000000000000000000000000000000000000000000000000000000000000000000000000000000000000000000000000000000000000000000000000000000000000000000000000000000000000000000000000000000000000000000000000000000000000000000000000070000
310
00000000070000000000000000000000000000000000000000000000000000000000000000000000000000000000000000000000000000000000000707070707070700000000000000000000000000000000000000000000000000000000000000000000000000000000000000000000000000000000000000000000000000
310
00000000000000000000000000000000000000000000000000000000000000000000000000000000000000000000000000070000000000000000070000000000000000000000000000000000000000000000000000000000000000000000000000000000000000000000000000000007000000000000070700000000000000
310
00000000000000000000000000000000000000000000000000000000000000000000000000000000000000000000000000000000000000000000000000000000000000000000000000000000000000000000000000000000000000000000000000000000000700000000000000000000070000000000000000000000000000
310
00000000000000000000000000000000000000000000000000000000000000000000000000070000000000000007000000000000000000000000000000000000000000000000000000000000000000000000000000000000000000000000000000000000000000000000000000000000000000000000000000000000000000
310
00000000000000000000000000000000000000000000000000000000070000000000000000000700000000000000000000000000000000000000000000000000000000000000000000000000000000000000000000000000000007000000000000070700000000000000000000000000000000000000000000000000000000
310
00000000000000000000000000000000000000000000000000000000000000000000000000000000000000000000000000000000000000000000000000000000000000000000000000000000000000000007000000000000000000000700000000000000000000000000000000000000000000000000000000000000000000
310
00000000000000000000000000000000070700000000000707000000000000000000000000000000000000000000000000000000000000000000000000000000000000000000000000000000000000000000000000000000000000000000000000000000000000000000000000000000000000000000000000000000000000
310
00000000000000000700000000000000000000070000000000000000000000000000000000000000000000000000000000000000000000000000000000000000000000000007000707070707000700000000000000000000000000000000000000000000000000000000000000000000000000000000000000000000000000
310
00000000000000000000000000000000000000000000000000000000000000000000000000000000000000000000000000000000000000000000000000070000000000000000000000070000000000000000000000000000000000000000000000000000000000000000000000000000000000000000000000000700000000
310
00000007000000000000000000000000000000000000000000000000000000000000000000000000000000000000000000000000000000000000000000000000000000000000000000000000000000000000000000000000000000000000000000000000000000000000000000000000000000070000000000000000000007
310
07000000000000000000000000000000000000000000000000000000000000000000000000000000000000000000000007000000000000000700000000000000000000000000000000000000000000000000000000000000000000000000000000000000000000000000000000000000000000000000000000000000000000
310
00000000000000000000000000000000000000000000000000000000000000000000000000000000000007000000000000000000000700000000000000000000000000000000000000000000000000000000000000000000000000000000000000000000000700000000000000070000000000000000000000000000000000
310
00000000000000000000000000000000000000000000000000000000000000000000000000000000000000000000000000000000000000000000000000000000000000000000000000000000000000000000000000000000000000000000000007000000000000000000070000000000000000000000000000000000000000
310
00000000000000000000000000000000000000000000000000000007000000000000000700000000000000000000000000000000000000000000000000000000000000000000000000000000000000000000000000000000000000000000000000000000000000000000000000000000000000000000000000000000000000
310
00000000000000000000000000000000000000000000070000000000000000000007000000000000000000000000000000000000000000000000000000000000000000000000000000000000000000000700000000000000070000000000000000000000000000000000000000000000000000000000000000000000000000
310
00000000000000000000000000000000000000000000000000000000000000000000000000000000000000000000000000000000000000000000000000000000000000000000000000000000070000000000000000000700000000000000000000000000000000000000000000000000000000000000000000000000000000
310
00000000000007000000000000000700000000000000000000000000000000000000000000000000000000000000000000000000000000000000000000000000000000000000000000000000000000000000000000000000000000000000000000000000000000000000000000000000000000000000000000000000000000
310
00000007000000000000000007000000000000000000000000000000000000000000000000000000000000000000000000000000000000000000000700000000000000070000000000000000000000000000000000000000000000000000000000000000000000000000000000000000000000000000000000000000000000
310
00000000000000000000000000000000000000000000000000000000000000000000000000000000000000000000000000000000000000000700000000000000000007000000000000000000000000000000000000000000000000000000000000000000000000000000000000000000070000000000000007000000000000
310
00000000000000000000000000000000000000000000000000000000000000000000000000000000000000000000000000000000000000000000000000000000000000000000000000000000000000000000000000000000000000000000000000000000000000000000000000000700000000000000000700000000000000
310
00000000000000000000000000000000000000000000000000000000000000000000000000000700000000000000070000000000000000000000000000000000000000000000000000000000000000000000000000000000000000000000000000000000000000000000000000000000000000000000000000000000000000
310
00000000000000000000000000000000000000000000000000000000000000000000000000070000000000000007000000000000000000000000000000000000000000000000000000000000000000000000000000000000000000070000000000000007000000000000000000000000000000000000000000000000000000
310
00000000000000000000000000000000000000000000000000000000000000000000000000000000000000000000000000000000000000000000000000000000000000000000000000000000000000000000000000000000000007000000000000000007000000000000000000000000000000000000000000000000000000
310
00000000000000000000000000000000000700000000000000070000000000000000000000000000000000000000000000000000000000000000000000000000000000000000000000000000000000000000000000000000000000000000000000000000000000000000000000000000000000000000000000000000000000
310
00000000000000000000000000000000000700000000000000070000000000000000000000000000000000000000000000000000000000000000000000000000000000000000070000000000000007000000000000000000000000000000000000000000000000000000000000000000000000000000000000000000000000
310
00000000000000000000000000000000000000000000000000000000000000000000000000000000000000000000000000000000000000000000000000000000000000000000000700000000000007000000000000000000000000000000000000000000000000000000000000000000000000000000000000000007000000
310
00000000070000000000000000000000000000000000000000000000000000000000000000000000000000000000000000000000000000000000000000000000000000000000000000000000000000000000000000000000000000000000000000000000000000000000000000000000000000000000000000000000000700
310
00000000070000000000000000000000000000000000000000000000000000000000000000000000000000000000000000070000000000000007000000000000000000000000000000000000000000000000000000000000000000000000000000000000000000000000000000000000000000000000000000000000000000
310
00000000000000000000000000000000000000000000000000000000000000000000000000000000000000000000000000000007000000000000070000000000000000000000000000000000000000000000000000000000000000000000000000000000000007000000000000000700000000000000000000000000000000
310
00000000000000000000000000000000000000000000000000000000000000000000000000000000000000000000000000000000000000000000000000000000000000000000000000000000000000000000000000000000000000000000000000000000000000000007000000000007000000000000000000000000000000
310
00000000000000000000000000000000000000000000000000000000070000000000000007000000000000000000000000000000000000000000000000000000000000000000000000000000000000000000000000000000000000000000000000000000000000000000000000000000000000000000000000000000000000
310
00000000000000000000000000000000000000000000000000000000000000070000000000070000000000000000000000000000000000000000000000000000000000000000000000000000000000000007000000000000000700000000000000000000000000000000000000000000000000000000000000000000000000
310
00000000000000000000000000000000000000000000000000000000000000000000000000000000000000000000000000000000000000000000000000000000000000000000000000000000000000000000000000070000000000070000000000000000000000000000000000000000000000000000000000000000000000
310
00000000000000070000000000000007000000000000000000000000000000000000000000000000000000000000000000000000000000000000000000000000000000000000000000000000000000000000000000000000000000000000000000000000000000000000000000000000000000000000000000000000000000
310
00000000000000000000000007000000000700000000000000000000000000000000000000000000000000000000000000000000000000000000000007000000000000000700000000000000000000000000000000000000000000000000000000000000000000000000000000000000000000000000000000000000000000
310
00000000000000000000000000000000000000000000000000000000000000000000000000000000000000000000000000000000000000000000000000000000000700000000070000000000000000000000000000000000000000000000000000000000000000000000000000000000000700000000000000070000000000
310
00000000000000000000000000000000000000000000000000000000000000000000000000000000000000000000000000000000000000000000000000000000000000000000000000000000000000000000000000000000000000000000000000000000000000000000000000000000000000000000070000000000070000
310
00000000000000000000000000000000000000000000000000000000000000000000000000000007000000000000000700000000000000000000000000000000000000000000000000000000000000000000000000000000000000000000000000000000000000000000000000000000000000000000000000000000000000
310
00000000000000000000000000000000000000000000000000000000000000000000000000000000000000000700000000000700000000000000000000000000000000000000000000000000000000000000000000000000000000000700000000000000070000000000000000000000000000000000000000000000000000
310
00000000000000000000000000000000000000000000000000000000000000000000000000000000000000000000000000000000000000000000000000000000000000000000000000000000000000000000000000000000000000000000000000070000000000070000000000000000000000000000000000000000000000
310
00000000000000000000000000000000000007000000000000000700000000000000000000000000000000000000000000000000000000000000000000000000000000000000000000000000000000000000000000000000000000000000000000000000000000000000000000000000000000000000000000000000000000
310
00000000000000000000000000000000000000000000000007000000000700000000000000000000000000000000000000000000000000000000000000000000000000000000000700000000000000070000000000000000000000000000000000000000000000000000000000000000000000000000000000000000000000
310
00000000000000000000000000000000000000000000000000000000000000000000000000000000000000000000000000000000000000000000000000000000000000000000000000000000000700000000000700000000000000000000000000000000000000000000000000000000000000000000000000000000070000
310
00000000000700000000000000000000000000000000000000000000000000000000000000000000000000000000000000000000000000000000000000000000000000000000000000000000000000000000000000000000000000000000000000000000000000000000000000000000000000000000000000000000000000
310
00000000070000000007000000000000000000000000000000000000000000000000000000000000000000000000000007070707070707070707070700000000000000000000000000000000000000000000000000000000000000000000000000000000000000000000000000000000000000000000000000000000000000
310
00000000000000000000000000000000000000000000000000000000000000000000000000000000000000000000000000000000000000000007000000000700000000000000000000000000000000000000000000000000000000000000000000000000000700000000000000000000070000000000000000000000000000
310
00000000000000000000000000000000000000000000000000000000000000000000000000000000000000000000000000000000000000000000000000000000000000000000000000000000000000000000000000000000000000000000000000000000000000000000000000000700000000070000000000000000000000
310
00000000000000000000000000000000000000000000000000000007000000000000000000000700000000000000000000000000000000000000000000000000000000000000000000000000000000000000000000000000000000000000000000000000000000000000000000000000000000000000000000000000000000
310
00000000000000000000000000000000000000000000000000000000000000000000000007000000000007000000000000000000000000000000000000000000000000000000000000000000000000000700000000000000000000070000000000000000000000000000000000000000000000000000000000000000000000
310
00000000000000000000000000000000000000000000000000000000000000000000000000000000000000000000000000000000000000000000000000000000000000000000000000000000000000000000000000000000000007000000000700000000000000000000000000000000000000000000000000000000000000
310
00000000000007000000000000000000000700000000000000000000000000000000000000000000000000000000000000000000000000000000000000000000000000000000000000000000000000000000000000000000000000000000000000000000000000000000000000000000000000000000000000000000000000
310
00000000000000000000000000000000070000000007000000000000000000000000000000000000000000000000000000000000000000000000000700000000000000000000070000000000000000000000000000000000000000000000000000000000000000000000000000000000000000000000000000000000000000
310
00000000000000000000000000000000000000000000000000000000000000000000000000000000000000000000000000000000000000000000000000000000000000000007000000000700000000000000000000000000000000000000000000000000000000000000000000000000070000000000000000000007000000
310
00000000000000000000000000000000000000000000000000000000000000000000000000000000000000000000000000000000000000000000000000000000000000000000000000000000000000000000000000000000000000000000000000000000000000000000000000000000000000000000000000000700000000
310
00070000000000000000000000000000000000000000000000000000000000000000000000000700000000000000000000070000000000000000000000000000000000000000000000000000000000000000000000000000000000000000000000000000000000000000000000000000000000000000000000000000000000
310
00000000000000000000000000000000000000000000000000000000000000000000000000000000000000000000000000070000000007000000000000000000000000000000000000000000000000000000000000000000000000070000000000000000000007000000000000000000000000000000000000000000000000
310
00000000000000000000000000000000000000000000000000000000000000000000000000000000000000000000000000000000000000000000000000000000000000000000000000000000000000000000000000000000000000000000000000000000000007000000000700000000000000000000000000000000000000
310
00000000000000000000000000000000000700000000000000000000000700000000000000000000000000000000000000000000000000000000000000000000000000000000000000000000000000000000000000000000000000000000000000000000000000000000000000000000000000000000000000000000000000
310
00000000000000000000000000000000000000000000000000000000070000000007000000000000000000000000000000000000000000000000000000000000000000000000070000000000000000000000070000000000000000000000000000000000000000000000000000000000000000000000000000000000000000
310
00000000000000000000000000000000000000000000000000000000000000000000000000000000000000000000000000000000000000000000000000000000000000000000000000000000000000000007000000000007000000000000000000000000000000000000000000000000000000000000000000000007000000
310
00000000000000000700000000000000000000000000000000000000000000000000000000000000000000000000000000000000000000000000000000000000000000000000000000000000000000000000000000000000000000000000000000000000000000000000000000000000000000000000000000000000000000
310
00000000000000000700000000000700000000000000000000000000000000000000000000000000000000000000000000070000000000000000000000070000000000000000000000000000000000000007070707000000000000000000000000000000000000000000000000000000000000000000000000000000000000
310
00000000000000000000000000000000000000000000000000000000000000000000000000000000000000000000000000000000000000000000000000070000000000070000000000000000000000000000000000000000000000000000000000000000000007000000000000000000000007000000000000000000000000
310
00000000000000070000070000000000000000000000000000000000000000000000000000000000000000000000000000000000000000000000000000000000000000000000000000000000000000000000000000000000000000000000000000000000000000000000000000000000000007000000000007000000000000
310
00000000000000000000000000000000000000000000000000000000070000000000000000000000070000000000000000000000000000000000000700000007000000000000000000000000000000000000000000000000000000000000000000000000000000000000000000000000000000000000000000000000000000
310
00000000000000000000000000000000000000000000000000000000000000000000000000000000070000000000000700000000000000000000000000000000000000000000000000000000000000000007000000000000000000000007000000000000000000000000000000000007000000000700000000000000000000
310
00000000000000000000000000000000000000000000000000000000000000000000000000000000000000000000000000000000000000000000000000000000000000000000000000000000000000000000000000000000000000000000070000000000070700000000000000000000000000000000000000000000000000
310
00000000000007070707070707070707070707070700000000000000000000000000000007000000000007000000000000000000000000000000000000000000000000000000000000000000000000000000000000000000000000000000000000000000000000000000000000000000000000000000000000000000000000
310
00000000000000000000000000000000000000000700000000000007070700000000000000000000000000000000000000000000000000000000000700000000000000000000000000070000000000000000000000000000070000000000000700000000000000000000000000000000000000000000000000000000000000
310
00000000000000000000000000000000000000000000000000000000000000000000000000000000000000000000000000000000000000000000000000000000000000000000000000070000000000000000000707070707070707070707070707070707070707070707070707070707070000000000000000000000000007
310
00000000000000000000000007070000000000000007000000000000000000000000000000000000000000000000000000000000000000000000000000000000000000000000000000000000000000000000000000000000000000000000000000000000000000000000000000000000000000000000000000000000000007
310
00000000000000000000000000000000000000000707000000000000000000000000000000000000000000000000000000000000070000000000000000000000070000000000000000000700000000000000000000000000000000000000000000000000000000000000000000000000000000000000000000000000000000
310
00000000000000000000000000000000000000000000000000000000000000000000000000000000000000000000000000000000000700000000000000000000000000000000000000070700000000000000000000000000000000000000000000000000000000000007000000000000000000000700000000000000000000
310
07000000000000000000000000000000000000000000000000000000000000000000000000000000000000000000000000000000000000000000000000000000000000000000000000000000000000000000000000000000000000000000000000000000000000000000070000000000000000000000000000000000000007
310
07000000000000000000000000000000000000000000070707070707070707070000000000000000000700000000000000000000000700000000000000000000000000000000000000000000000000000000000000000000000000000000000000000000000000000000000000000000000000000000000000000000000000
310
00000000000000000000000000000000000000000000000000000000000000000700000000000000000000000000000000000000070700000000000000000000000000000000000000000707000000000000000707070707070707070707000000000000000000000000070000000000000000000000000000000000000000
310
00000000000000000000000000000000000000000000000000000000000000000000000000000000000000000000000000000000000000000000000000000000000000000000000000000000000000000000000000000700000000000000000000000000000000000007070000000000000000000000000000000000000707
310
00000000000000000000070700000000000000070000000000000000000000000700000000000000000000000000000000000000000000000000000000000000000000000000000000000000000000000000000000000000000000000000000000000000000000000000000000000000000000000000000000000000000000
310
00000000000000000000000007000000000000000000000000000000000000070700000000000000000000000000000000000707000000000000000000000007070000000000000007000000000000000000000000070000000000000000000000000000000000000000000000000000000000000000000000000000000000
310
00000000000000000000000000000000000000000000000000000000000000000000000000000000000000000000000000000000000000000000000000000000000700000000000000000000000000000000000007070000000000000000000000000000000000070000000000000000000000000707000000000000070700
310
00000000000000000000000700000000000000000000000000000000000000000000000000000000000000000000000000000000000000000000000000000000000000000000000000000000000000000000000000000000000000000000000000000000000000000000000000000000000000000000070000000000000000
310
00000000000000000000070700000000000000000000000000000000070000000000000000000000000007070000000000000707000000000000000000000000070000000000000000000000000000000000000000000000000000000000000000000000000000000000000000000000000000000000000000000000000000
310
00000000000000000000000000000000000000000000000000000000000000000000000000000000000000000007000000000000000000000000000000000007070000000000000000000000000000000007000000000000000000000000000707000000000000070700000000000000000000000007000000000000000000
310
00000000000000000000000000000000000000000000000000000000000000000000000000000000000000000000000000000000000000000000000000000000000000000000000000000000000000000000000000000000000000000000000000000700000000000000000000000000000000000707000000000000000000
310
00000000000007000000000000000000000000000007070000000000000707000000000000000000000000070000000000000000000000000000000000000000000000000000000000000000000000000000000000000000000000000000000000000000000000000000000000000000000000000000000000000000000000
310
00000000000000000000000000000000000000000000000007000000000000000000000000000000000000070000000000000000000000000000000700000000000000000000000000000707000000000000000700000000000000000000000007000000000000000000000000000000000000000000000000000000000000
310
00000000000000000000000000000000000000000000000000000000000000000000000000000000000000000000000000000000000000000000000000000000000000000000000000000000000700000000000000000000000000000000070007000000000000000000000000000000070000000000000000000000000000
310
07070000000000000007000000000000000000000000070000000000000000000000000000000000000000000000000000000000000000000000000000000000000000000000000000000000000000000000000000000000000000000000000000000000000000000000000000000000000000000000000000000000000000
310
00000000070000000000000000000000000000000700070000000000000000000000000000000700000000000000000000000000000707000000000000000700000000000000000000000007000000000000000000000000000000000000000000000000000000000000000000000000000000000000000000000000000000
310
00000000000000000000000000000000000000000000000000000000000000000000000000000000000000000000000000000000000000000007000000000000000000000000000007000007000000000000000000000000000000070000000000000000000000000000070700000000000000070000000000000000000000
310
00070000000000000000000000000000000000000000000000000000000000000000000000000000000000000000000000000000000000000000000000000000000000000000000000000000000000000000000000000000000000000000000000000000000000000000000000000700000000000000000000000000000700
310
00070000000000000000000000000000000700000000000000000000000000000707000000000000070700000000000000000000000007000000000000000000000000000000000000000000000000000000000000000000000000000000000000000000000000000000000000000000000000000000000000000000000000
310
00000000000000000000000000000000000000000000000000000000000000000000000007000000000000000000000000000007000007000000000000000000000000000000000700000000000000000000000000070700000000000007070000000000000000000000000700000000000000000000000000000000000000
310
00000000000000000000000000000000000000000000000000000000000000000000000000000000000000000000000000000000000000000000000000000000000000000000000000000000000000000000000000000000000007000000000000000000000000070000000700000000000000000000000000000000070000
310
00000000000000000000000707000000000000070700000000000000000000000007000000000000000000000000000000000000000000000000000000000000000000000000000000000000000000000000000000000000000000000000000000000000000000000000000000000000000000000000000000000000000000
310
00000000000000000000000000000000070000000000000000000000000700000007000000000000000000000000000000000007000000000000000000000000070700000000000007070000000000000000000000000700000000000000000000000000000000000000000000000000000000000000000000000000000000
310
00000000000000000000000000000000000000000000000000000000000000000000000000000000000000000000000000000000000000000000000000000000000000000007000000000000000000000000070000000700000000000000000000000000000000000707000000000000000000000007070000000000000007
310
00000000000000000000000007000000000000000000000000000000000000000000000000000000000000000000000000000000000000000000000000000000000000000000000000000000000000000000000000000000000000000000000000000000000000000000000000000000000000000000000000000700000000
310
00000000000000070000000007000000000000000000000000000000000000070700000000000000000000070700000000000000070000000000000000000000000700000000000000000000000000000000000000000000000000000000000000000000000000000000000000000000000000000000000000000000000000
310
00000000000000000000000000000000000000000000000000000000000000000000000000000000000000000000000000070000000000000000000007070707000700000000000000000000000000000000000000070700000000000000000007070707070707070707000000000000000000000000070000000000000000
310
00000000000000000000000000000000000000000000000000000000000000000000000000000000000000000000000000000000000000000000000000000000000000000000000000000000000000000000000000000000000000000000000000000000000007000000000000000000000700000007070707070707070707
310
07070707070707070707070707070707070007070707000000000000000000000700000000000000000000000700000000000000000000000000000000000000000000000000000000000000000000000000000000000000000000000000000000000000000000000000000000000000000000000000000000000000000000
310
00000000000000000000000000000000000000000000000000000000070707070707070707070707000000000000000000000000000000000000000000000000000000000000070000000000000000000000000000000700000000000000000000070000000000000000000000000000000000000000000000000000000000
310
00000000000000000000000000000000000000000000000000000000000000000000000000000000000000000000000000000000000000000000000000000000000000000000000000000000000000000000000000000000000000000000000000000000000000000000000000000000000000000000000000000000000000
310
00000000000000000000000000070000000000000000000700000000000000000000000000000000000000000000000000000000000000000000000000000000000000000000000000000000000000000000000000000000000000000000000000000000000000000000000000000000000000000000000000000000000000
310
00000000000000000000000000000000000000000000000000000000000000000000000000000000000000000000000000000000000000000000000000000000000000070000000000000000070000000000000000000000000000000000000000000000000000000000000000000000000000000000000000000000000000
310
00000000000000000000000000000000000000000000000000000000000000000000000000000000000000000000000000000000000000000000000000000000000000000000000000000000000000000000000000000000000000000000000000000000000000000000000000000000000000000000000000070000000000
310
00000700000000000000000000000000000000000000000000000000000000000000000000000000000000000000000000000000000000000000000000000000000000000000000000000000000000000000000000000000000000000000000000000000000000000000000000000000000000000000000000000000000000
310
00000000000000000000000000000000000000000000000000000000000000000000000000000000000000000000000007000000000000070000000000000000000000000000000000000000000000000000000000000000000000000000000000000000000000000000000000000000000000000000000000000000000000
310
00000000000000000000000000000000000000000000000000000000000000000000000000000000000000000000000000000000000000000000000000000000000000000000000000000000000000000000000000000000000000000000000000000000000007000000000007000000000000000000000000000000000000
310
00000000000000000000000000000000000000000000000000000000000000000000000000000000000000000000000000000000000000000000000000000000000000000000000000000000000000000000000000000000000000000000000000000000000000000000000000000000000000000000000000000000000000
310
00000000000000000000000000000000000000000000000000000000000700000000070000000000000000000000000000000000000000000000000000000000000000000000000000000000000000000000000000000000000000000000000000000000000000000000000000000000000000000000000000000000000000
310
00000000000000000000000000000000000000000000000000000000000000000000000000000000000000000000000000000000000000000000000000000000000000000000000000000000000000000000000700000007000000000000000000000000000000000000000000000000000000000000000000000000000000
310
00000000000000000000000000000000000000000000000000000000000000000000000000000000000000000000000000000000000000000000000000000000000000000000000000000000000000000000000000000000000000000000000000000000000000000000000000000000000000000000000000000000000000
310
00000000000000000000070707070000000000000000000000000000000000000000000000000000000000000000000000000000000000000000000000000000000000000000000000000000000000000000000000000000000000000000000000000000000000000000000000000000000000000000000000000000000000
310
000000000000000000000000000000000000000000000000000000000000000000000000000000000000000000000000000000000000000000000000000000000000000000000000000000000000000000000000000000000000000000000000000000000000000000000000
  0
ENDSEC
  0
EOF
