  0
SECTION
  2
HEADER
  9
$ACADVER
  1
AC1015
  9
$ACADMAINTVER
 70
    13
  9
$DWGCODEPAGE
  3
ANSI_1252
  9
$INSBASE
 10
0.0
 20
0.0
 30
0.0
  9
$EXTMIN
 10
0.0000000000000027
 20
-0.0004559999999932
 30
0.0
  9
$EXTMAX
 10
49.0
 20
141.6208163539617
 30
0.0
  9
$LIMMIN
 10
0.0
 20
0.0
  9
$LIMMAX
 10
12.0
 20
9.0
  9
$ORTHOMODE
 70
     0
  9
$REGENMODE
 70
     1
  9
$FILLMODE
 70
     1
  9
$QTEXTMODE
 70
     0
  9
$MIRRTEXT
 70
     1
  9
$LTSCALE
 40
1.0
  9
$ATTMODE
 70
     1
  9
$TEXTSIZE
 40
0.2
  9
$TRACEWID
 40
0.05
  9
$TEXTSTYLE
  7
Standard
  9
$CLAYER
  8
0
  9
$CELTYPE
  6
Continuous
  9
$CECOLOR
 62
   256
  9
$CELTSCALE
 40
1.0
  9
$DISPSILH
 70
     0
  9
$DIMSCALE
 40
1.0
  9
$DIMASZ
 40
0.18
  9
$DIMEXO
 40
0.0625
  9
$DIMDLI
 40
0.38
  9
$DIMRND
 40
0.0
  9
$DIMDLE
 40
0.0
  9
$DIMEXE
 40
0.18
  9
$DIMTP
 40
0.0
  9
$DIMTM
 40
0.0
  9
$DIMTXT
 40
0.18
  9
$DIMCEN
 40
0.09
  9
$DIMTSZ
 40
0.0
  9
$DIMTOL
 70
     0
  9
$DIMLIM
 70
     0
  9
$DIMTIH
 70
     1
  9
$DIMTOH
 70
     1
  9
$DIMSE1
 70
     0
  9
$DIMSE2
 70
     0
  9
$DIMTAD
 70
     0
  9
$DIMZIN
 70
     0
  9
$DIMBLK
  1

  9
$DIMASO
 70
     1
  9
$DIMSHO
 70
     1
  9
$DIMPOST
  1

  9
$DIMAPOST
  1

  9
$DIMALT
 70
     0
  9
$DIMALTD
 70
     2
  9
$DIMALTF
 40
25.4
  9
$DIMLFAC
 40
1.0
  9
$DIMTOFL
 70
     0
  9
$DIMTVP
 40
0.0
  9
$DIMTIX
 70
     0
  9
$DIMSOXD
 70
     0
  9
$DIMSAH
 70
     0
  9
$DIMBLK1
  1

  9
$DIMBLK2
  1

  9
$DIMSTYLE
  2
Standard
  9
$DIMCLRD
 70
     0
  9
$DIMCLRE
 70
     0
  9
$DIMCLRT
 70
     0
  9
$DIMTFAC
 40
1.0
  9
$DIMGAP
 40
0.09
  9
$DIMJUST
 70
     0
  9
$DIMSD1
 70
     0
  9
$DIMSD2
 70
     0
  9
$DIMTOLJ
 70
     1
  9
$DIMTZIN
 70
     0
  9
$DIMALTZ
 70
     0
  9
$DIMALTTZ
 70
     0
  9
$DIMUPT
 70
     0
  9
$DIMDEC
 70
     4
  9
$DIMTDEC
 70
     4
  9
$DIMALTU
 70
     2
  9
$DIMALTTD
 70
     2
  9
$DIMTXSTY
  7
Standard
  9
$DIMAUNIT
 70
     0
  9
$DIMADEC
 70
     0
  9
$DIMALTRND
 40
0.0
  9
$DIMAZIN
 70
     0
  9
$DIMDSEP
 70
    46
  9
$DIMATFIT
 70
     3
  9
$DIMFRAC
 70
     0
  9
$DIMLDRBLK
  1

  9
$DIMLUNIT
 70
     2
  9
$DIMLWD
 70
    -2
  9
$DIMLWE
 70
    -2
  9
$DIMTMOVE
 70
     0
  9
$LUNITS
 70
     2
  9
$LUPREC
 70
     4
  9
$SKETCHINC
 40
0.1
  9
$FILLETRAD
 40
0.0
  9
$AUNITS
 70
     0
  9
$AUPREC
 70
     0
  9
$MENU
  1
.
  9
$ELEVATION
 40
0.0
  9
$PELEVATION
 40
0.0
  9
$THICKNESS
 40
0.0
  9
$LIMCHECK
 70
     0
  9
$CHAMFERA
 40
0.0
  9
$CHAMFERB
 40
0.0
  9
$CHAMFERC
 40
0.0
  9
$CHAMFERD
 40
0.0
  9
$SKPOLY
 70
     0
  9
$TDCREATE
 40
2454834.881643877
  9
$TDUCREATE
 40
2454834.839977210
  9
$TDUPDATE
 40
2454834.883247604
  9
$TDUUPDATE
 40
2454834.841580937
  9
$TDINDWG
 40
0.0016037269
  9
$TDUSRTIMER
 40
0.0016037269
  9
$USRTIMER
 70
     1
  9
$ANGBASE
 50
0.0
  9
$ANGDIR
 70
     0
  9
$PDMODE
 70
     0
  9
$PDSIZE
 40
0.0
  9
$PLINEWID
 40
0.0
  9
$SPLFRAME
 70
     0
  9
$SPLINETYPE
 70
     6
  9
$SPLINESEGS
 70
     8
  9
$HANDSEED
  5
161
  9
$SURFTAB1
 70
     6
  9
$SURFTAB2
 70
     6
  9
$SURFTYPE
 70
     6
  9
$SURFU
 70
     6
  9
$SURFV
 70
     6
  9
$UCSBASE
  2

  9
$UCSNAME
  2

  9
$UCSORG
 10
0.0
 20
0.0
 30
0.0
  9
$UCSXDIR
 10
1.0
 20
0.0
 30
0.0
  9
$UCSYDIR
 10
0.0
 20
1.0
 30
0.0
  9
$UCSORTHOREF
  2

  9
$UCSORTHOVIEW
 70
     1
  9
$UCSORGTOP
 10
0.0
 20
0.0
 30
0.0
  9
$UCSORGBOTTOM
 10
0.0
 20
0.0
 30
0.0
  9
$UCSORGLEFT
 10
0.0
 20
0.0
 30
0.0
  9
$UCSORGRIGHT
 10
0.0
 20
0.0
 30
0.0
  9
$UCSORGFRONT
 10
0.0
 20
0.0
 30
0.0
  9
$UCSORGBACK
 10
0.0
 20
0.0
 30
0.0
  9
$PUCSBASE
  2

  9
$PUCSNAME
  2

  9
$PUCSORG
 10
0.0
 20
0.0
 30
0.0
  9
$PUCSXDIR
 10
1.0
 20
0.0
 30
0.0
  9
$PUCSYDIR
 10
0.0
 20
1.0
 30
0.0
  9
$PUCSORTHOREF
  2

  9
$PUCSORTHOVIEW
 70
     0
  9
$PUCSORGTOP
 10
0.0
 20
0.0
 30
0.0
  9
$PUCSORGBOTTOM
 10
0.0
 20
0.0
 30
0.0
  9
$PUCSORGLEFT
 10
0.0
 20
0.0
 30
0.0
  9
$PUCSORGRIGHT
 10
0.0
 20
0.0
 30
0.0
  9
$PUCSORGFRONT
 10
0.0
 20
0.0
 30
0.0
  9
$PUCSORGBACK
 10
0.0
 20
0.0
 30
0.0
  9
$USERI1
 70
     0
  9
$USERI2
 70
     0
  9
$USERI3
 70
     0
  9
$USERI4
 70
     0
  9
$USERI5
 70
     0
  9
$USERR1
 40
0.0
  9
$USERR2
 40
0.0
  9
$USERR3
 40
0.0
  9
$USERR4
 40
0.0
  9
$USERR5
 40
0.0
  9
$WORLDVIEW
 70
     1
  9
$SHADEDGE
 70
     3
  9
$SHADEDIF
 70
    70
  9
$TILEMODE
 70
     1
  9
$MAXACTVP
 70
    64
  9
$PINSBASE
 10
0.0
 20
0.0
 30
0.0
  9
$PLIMCHECK
 70
     0
  9
$PEXTMIN
 10
1.000000000000000E+20
 20
1.000000000000000E+20
 30
1.000000000000000E+20
  9
$PEXTMAX
 10
-1.000000000000000E+20
 20
-1.000000000000000E+20
 30
-1.000000000000000E+20
  9
$PLIMMIN
 10
0.0
 20
0.0
  9
$PLIMMAX
 10
12.0
 20
9.0
  9
$UNITMODE
 70
     0
  9
$VISRETAIN
 70
     1
  9
$PLINEGEN
 70
     0
  9
$PSLTSCALE
 70
     1
  9
$TREEDEPTH
 70
  3020
  9
$CMLSTYLE
  2
Standard
  9
$CMLJUST
 70
     0
  9
$CMLSCALE
 40
1.0
  9
$PROXYGRAPHICS
 70
     1
  9
$MEASUREMENT
 70
     0
  9
$CELWEIGHT
370
    -1
  9
$ENDCAPS
280
     0
  9
$JOINSTYLE
280
     0
  9
$LWDISPLAY
290
     0
  9
$INSUNITS
 70
     0
  9
$HYPERLINKBASE
  1

  9
$STYLESHEET
  1

  9
$XEDIT
290
     1
  9
$CEPSNTYPE
380
     0
  9
$PSTYLEMODE
290
     1
  9
$FINGERPRINTGUID
  2
{5A649268-2555-40E2-A9E3-F4090328C197}
  9
$VERSIONGUID
  2
{F1BA56B6-609C-4EF2-B626-DDEBBDE09C68}
  9
$EXTNAMES
290
     1
  9
$PSVPSCALE
 40
0.0
  9
$OLESTARTUP
290
     0
  0
ENDSEC
  0
SECTION
  2
CLASSES
  0
CLASS
  1
ACDBDICTIONARYWDFLT
  2
AcDbDictionaryWithDefault
  3
AutoCAD 2000
 90
        0
280
     0
281
     0
  0
CLASS
  1
ACDBPLACEHOLDER
  2
AcDbPlaceHolder
  3
AutoCAD 2000
 90
        0
280
     0
281
     0
  0
CLASS
  1
LAYOUT
  2
AcDbLayout
  3
AutoCAD 2000
 90
        0
280
     0
281
     0
  0
CLASS
  1
DICTIONARYVAR
  2
AcDbDictionaryVar
  3
AutoCAD 2000
 90
        0
280
     0
281
     0
  0
ENDSEC
  0
SECTION
  2
TABLES
  0
TABLE
  2
VPORT
  5
8
330
0
100
AcDbSymbolTable
 70
     3
  0
VPORT
  5
160
330
8
100
AcDbSymbolTableRecord
100
AcDbViewportTableRecord
  2
*Active
 70
     0
 10
0.0
 20
0.0
 11
1.0
 21
1.0
 12
24.5
 22
70.81018017698086
 13
0.0
 23
0.0
 14
1.0
 24
1.0
 15
0.0
 25
0.0
 16
0.0
 26
0.0
 36
1.0
 17
0.0
 27
0.0
 37
0.0
 40
142.7078805817414
 41
2.078104993597951
 42
50.0
 43
0.0
 44
0.0
 50
0.0
 51
0.0
 71
     0
 72
   100
 73
     1
 74
     3
 75
     0
 76
     0
 77
     0
 78
     0
281
     0
 65
     1
110
0.0
120
0.0
130
0.0
111
1.0
121
0.0
131
0.0
112
0.0
122
1.0
132
0.0
 79
     1
146
0.0
  0
ENDTAB
  0
TABLE
  2
LTYPE
  5
5
330
0
100
AcDbSymbolTable
 70
     1
  0
LTYPE
  5
13
330
5
100
AcDbSymbolTableRecord
100
AcDbLinetypeTableRecord
  2
ByBlock
 70
     0
  3

 72
    65
 73
     0
 40
0.0
  0
LTYPE
  5
14
330
5
100
AcDbSymbolTableRecord
100
AcDbLinetypeTableRecord
  2
ByLayer
 70
     0
  3

 72
    65
 73
     0
 40
0.0
  0
LTYPE
  5
15
330
5
100
AcDbSymbolTableRecord
100
AcDbLinetypeTableRecord
  2
Continuous
 70
     0
  3
Solid line
 72
    65
 73
     0
 40
0.0
  0
ENDTAB
  0
TABLE
  2
LAYER
  5
2
330
0
100
AcDbSymbolTable
 70
     1
  0
LAYER
  5
10
330
2
100
AcDbSymbolTableRecord
100
AcDbLayerTableRecord
  2
0
 70
     0
 62
     7
  6
Continuous
370
    -3
390
F
  0
ENDTAB
  0
TABLE
  2
STYLE
  5
3
330
0
100
AcDbSymbolTable
 70
     1
  0
STYLE
  5
11
330
3
100
AcDbSymbolTableRecord
100
AcDbTextStyleTableRecord
  2
Standard
 70
     0
 40
0.0
 41
1.0
 50
0.0
 71
     0
 42
0.2
  3
txt
  4

  0
ENDTAB
  0
TABLE
  2
VIEW
  5
6
330
0
100
AcDbSymbolTable
 70
     0
  0
ENDTAB
  0
TABLE
  2
UCS
  5
7
330
0
100
AcDbSymbolTable
 70
     0
  0
ENDTAB
  0
TABLE
  2
APPID
  5
9
330
0
100
AcDbSymbolTable
 70
     1
  0
APPID
  5
12
330
9
100
AcDbSymbolTableRecord
100
AcDbRegAppTableRecord
  2
ACAD
 70
     0
  0
ENDTAB
  0
TABLE
  2
DIMSTYLE
  5
A
330
0
100
AcDbSymbolTable
 70
     1
100
AcDbDimStyleTable
 71
     0
  0
DIMSTYLE
105
157
330
A
100
AcDbSymbolTableRecord
100
AcDbDimStyleTableRecord
  2
Standard
 70
     0
340
11
  0
ENDTAB
  0
TABLE
  2
BLOCK_RECORD
  5
1
330
0
100
AcDbSymbolTable
 70
     0
  0
BLOCK_RECORD
  5
1E
330
1
100
AcDbSymbolTableRecord
100
AcDbBlockTableRecord
  2
*Model_Space
340
21
  0
BLOCK_RECORD
  5
1A
330
1
100
AcDbSymbolTableRecord
100
AcDbBlockTableRecord
  2
*Paper_Space
340
1D
  0
ENDTAB
  0
ENDSEC
  0
SECTION
  2
BLOCKS
  0
BLOCK
  5
1F
330
1E
100
AcDbEntity
  8
0
100
AcDbBlockBegin
  2
*Model_Space
 70
     0
 10
0.0
 20
0.0
 30
0.0
  3
*Model_Space
  1

  0
ENDBLK
  5
20
330
1E
100
AcDbEntity
  8
0
100
AcDbBlockEnd
  0
BLOCK
  5
1B
330
1A
100
AcDbEntity
 67
     1
  8
0
100
AcDbBlockBegin
  2
*Paper_Space
 70
     0
 10
0.0
 20
0.0
 30
0.0
  3
*Paper_Space
  1

  0
ENDBLK
  5
1C
330
1A
100
AcDbEntity
 67
     1
  8
0
100
AcDbBlockEnd
  0
ENDSEC
  0
SECTION
  2
ENTITIES
  0
LINE
  5
22
330
1E
100
AcDbEntity
  8
0
100
AcDbLine
 10
1.68365
 20
102.0743449999999
 30
0.0
 11
1.849099999999999
 21
99.584345
 31
0.0
  0
LINE
  5
24
330
1E
100
AcDbEntity
  8
0
100
AcDbLine
 10
2.029509999999999
 20
87.78114499999999
 30
0.0
 11
2.1356
 21
84.125445
 31
0.0
  0
LINE
  5
25
330
1E
100
AcDbEntity
  8
0
100
AcDbLine
 10
2.1356
 20
84.125445
 30
0.0
 11
2.3031
 21
79.92614499999999
 31
0.0
  0
LINE
  5
26
330
1E
100
AcDbEntity
  8
0
100
AcDbLine
 10
2.3031
 20
79.92614499999999
 30
0.0
 11
2.491299999999999
 21
75.62744499999999
 31
0.0
  0
LINE
  5
27
330
1E
100
AcDbEntity
  8
0
100
AcDbLine
 10
2.491299999999999
 20
75.62744499999999
 30
0.0
 11
2.68675882824679
 21
72.12322114997469
 31
0.0
  0
LINE
  5
28
330
1E
100
AcDbEntity
  8
0
100
AcDbLine
 10
2.491299999999999
 20
75.62744499999999
 30
0.0
 11
2.68675882824679
 21
72.12322114997469
 31
0.0
  0
LINE
  5
29
330
1E
100
AcDbEntity
  8
0
100
AcDbLine
 10
2.68675882824679
 20
72.12322114997469
 30
0.0
 11
3.1419
 21
59.694545
 31
0.0
  0
LINE
  5
2A
330
1E
100
AcDbEntity
  8
0
100
AcDbLine
 10
3.1419
 20
59.694545
 30
0.0
 11
5.019499999999999
 21
35.499645
 31
0.0
  0
LINE
  5
2B
330
1E
100
AcDbEntity
  8
0
100
AcDbLine
 10
2.5
 20
99.08494499999999
 30
0.0
 11
2.763999999999999
 21
101.7803449999999
 31
0.0
  0
LINE
  5
2C
330
1E
100
AcDbEntity
  8
0
100
AcDbLine
 10
2.7639
 20
97.48254500000001
 30
0.0
 11
3.686599999999999
 21
100.107345
 31
0.0
  0
LINE
  5
2D
330
1E
100
AcDbEntity
  8
0
100
AcDbLine
 10
2.148699999999999
 20
94.76014499999999
 30
0.0
 11
2.7639
 21
97.48254500000001
 31
0.0
  0
LINE
  5
2E
330
1E
100
AcDbEntity
  8
0
100
AcDbLine
 10
2.148699999999999
 20
94.76014499999999
 30
0.0
 11
2.763999999999999
 21
101.7803449999999
 31
0.0
  0
LINE
  5
2F
330
1E
100
AcDbEntity
  8
0
100
AcDbLine
 10
1.943599999999999
 20
91.940545
 30
0.0
 11
2.148699999999999
 21
94.76014499999999
 31
0.0
  0
LINE
  5
31
330
1E
100
AcDbEntity
  8
0
100
AcDbLine
 10
1.943599999999999
 20
91.940545
 30
0.0
 11
2.029509999999999
 21
87.78114499999999
 31
0.0
  0
LINE
  5
33
330
1E
100
AcDbEntity
  8
0
100
AcDbLine
 10
2.763999999999999
 20
101.7803449999999
 30
0.0
 11
3.291999999999999
 21
104.3173449999999
 31
0.0
  0
LINE
  5
34
330
1E
100
AcDbEntity
  8
0
100
AcDbLine
 10
2.5
 20
99.534345
 30
0.0
 11
2.511575174244069
 21
99.20312577521759
 31
0.0
  0
LINE
  5
35
330
1E
100
AcDbEntity
  8
0
100
AcDbLine
 10
1.849099999999999
 20
99.584345
 30
0.0
 11
2.350459653374399
 21
97.24397690695591
 31
0.0
  0
LINE
  5
36
330
1E
100
AcDbEntity
  8
0
100
AcDbLine
 10
3.291999999999999
 20
104.3173449999999
 30
0.0
 11
4.259999999999999
 21
106.8363449999999
 31
0.0
  0
LINE
  5
37
330
1E
100
AcDbEntity
  8
0
100
AcDbLine
 10
1.431049999999999
 20
104.0823449999999
 30
0.0
 11
1.68365
 21
102.0743449999999
 31
0.0
  0
LINE
  5
3B
330
1E
100
AcDbEntity
  8
0
100
AcDbLine
 10
8.3
 20
9.256735
 30
0.0
 11
9.699999999999999
 21
7.287125000000009
 31
0.0
  0
LINE
  5
3D
330
1E
100
AcDbEntity
  8
0
100
AcDbLine
 10
7.299999999999999
 20
11.423345
 30
0.0
 11
8.3
 21
9.256735
 31
0.0
  0
LINE
  5
3E
330
1E
100
AcDbEntity
  8
0
100
AcDbLine
 10
6.5
 20
13.688345
 30
0.0
 11
7.299999999999999
 21
11.423345
 31
0.0
  0
LINE
  5
3F
330
1E
100
AcDbEntity
  8
0
100
AcDbLine
 10
6.0
 20
16.051945
 30
0.0
 11
6.5
 21
13.688345
 31
0.0
  0
LINE
  5
40
330
1E
100
AcDbEntity
  8
0
100
AcDbLine
 10
5.799999999999999
 20
18.415445
 30
0.0
 11
6.0
 21
16.051945
 31
0.0
  0
LINE
  5
42
330
1E
100
AcDbEntity
  8
0
100
AcDbLine
 10
3.686599999999999
 20
100.107345
 30
0.0
 11
4.916999999999999
 21
102.635345
 31
0.0
  0
LINE
  5
43
330
1E
100
AcDbEntity
  8
0
100
AcDbLine
 10
5.019499999999999
 20
35.499645
 30
0.0
 11
5.224599999999999
 21
33.068945
 31
0.0
  0
LINE
  5
44
330
1E
100
AcDbEntity
  8
0
100
AcDbLine
 10
5.224599999999999
 20
33.068945
 30
0.0
 11
5.737199999999999
 21
30.735445
 31
0.0
  0
LINE
  5
47
330
1E
100
AcDbEntity
  8
0
100
AcDbLine
 10
4.916999999999999
 20
102.635345
 30
0.0
 11
6.66
 21
104.9693449999999
 31
0.0
  0
LINE
  5
48
330
1E
100
AcDbEntity
  8
0
100
AcDbLine
 10
5.26388237348945
 20
32.8901205393336
 30
0.0
 11
5.799999999999999
 21
18.415445
 31
0.0
  0
LINE
  5
49
330
1E
100
AcDbEntity
  8
0
100
AcDbLine
 10
6.5574
 20
28.402045
 30
0.0
 11
7.582699999999999
 21
26.263045
 31
0.0
  0
LINE
  5
4A
330
1E
100
AcDbEntity
  8
0
100
AcDbLine
 10
5.737199999999999
 20
30.735445
 30
0.0
 11
6.5574
 21
28.402045
 31
0.0
  0
LINE
  5
4B
330
1E
100
AcDbEntity
  8
0
100
AcDbLine
 10
9.120699999999999
 20
24.221245
 30
0.0
 11
10.7611
 21
22.47114499999999
 31
0.0
  0
LINE
  5
4C
330
1E
100
AcDbEntity
  8
0
100
AcDbLine
 10
7.582699999999999
 20
26.263045
 30
0.0
 11
9.120699999999999
 21
24.221245
 31
0.0
  0
LINE
  5
51
330
1E
100
AcDbEntity
  8
0
100
AcDbLine
 10
5.26388237348945
 20
32.8901205393336
 30
0.0
 11
5.799999999999999
 21
18.415445
 31
0.0
  0
LINE
  5
53
330
1E
100
AcDbEntity
  8
0
100
AcDbLine
 10
3.476396390770859
 20
104.797194698711
 30
0.0
 11
3.5
 21
104.9273449999999
 31
0.0
  0
LINE
  5
54
330
1E
100
AcDbEntity
  8
0
100
AcDbLine
 10
0.200000000000003
 20
113.8263449999999
 30
0.0
 11
1.431049999999999
 21
104.0823449999999
 31
0.0
  0
LINE
  5
55
330
1E
100
AcDbEntity
  8
0
100
AcDbLine
 10
0.200000000000003
 20
120.226345
 30
0.0
 11
0.8000000000000028
 21
123.426345
 31
0.0
  0
LINE
  5
56
330
1E
100
AcDbEntity
  8
0
100
AcDbLine
 10
0.200000000000003
 20
113.8263449999999
 30
0.0
 11
1.431049999999999
 21
104.0823449999999
 31
0.0
  0
LINE
  5
57
330
1E
100
AcDbEntity
  8
0
100
AcDbLine
 10
4.259999999999999
 20
106.8363449999999
 30
0.0
 11
5.403999999999999
 21
109.190345
 31
0.0
  0
LINE
  5
58
330
1E
100
AcDbEntity
  8
0
100
AcDbLine
 10
6.66
 20
104.9693449999999
 30
0.0
 11
8.607999999999998
 21
107.0103449999999
 31
0.0
  0
LINE
  5
59
330
1E
100
AcDbEntity
  8
0
100
AcDbLine
 10
8.607999999999998
 20
107.0103449999999
 30
0.0
 11
10.7611
 21
108.8583449999999
 31
0.0
  0
LINE
  5
5A
330
1E
100
AcDbEntity
  8
0
100
AcDbLine
 10
5.403999999999999
 20
109.190345
 30
0.0
 11
7.076
 21
111.4843449999999
 31
0.0
  0
LINE
  5
5B
330
1E
100
AcDbEntity
  8
0
100
AcDbLine
 10
7.076
 20
111.4843449999999
 30
0.0
 11
9.012
 21
113.4333449999999
 31
0.0
  0
LINE
  5
5C
330
1E
100
AcDbEntity
  8
0
100
AcDbLine
 10
9.012
 20
113.4333449999999
 30
0.0
 11
11.124
 21
115.254345
 31
0.0
  0
LINE
  5
5D
330
1E
100
AcDbEntity
  8
0
100
AcDbLine
 10
7.299999999999999
 20
112.412345
 30
0.0
 11
9.199999999999999
 21
114.4803449999999
 31
0.0
  0
LINE
  5
5E
330
1E
100
AcDbEntity
  8
0
100
AcDbLine
 10
5.7
 20
110.048345
 30
0.0
 11
7.299999999999999
 21
112.412345
 31
0.0
  0
LINE
  5
5F
330
1E
100
AcDbEntity
  8
0
100
AcDbLine
 10
4.4
 20
107.5863449999999
 30
0.0
 11
5.7
 21
110.048345
 31
0.0
  0
LINE
  5
60
330
1E
100
AcDbEntity
  8
0
100
AcDbLine
 10
3.5
 20
104.9273449999999
 30
0.0
 11
4.4
 21
107.5863449999999
 31
0.0
  0
LINE
  5
61
330
1E
100
AcDbEntity
  8
0
100
AcDbLine
 10
3.476396390770869
 20
104.797194698711
 30
0.0
 11
3.5
 21
104.9273449999999
 31
0.0
  0
LINE
  5
63
330
1E
100
AcDbEntity
  8
0
100
AcDbLine
 10
9.199999999999999
 20
114.4803449999999
 30
0.0
 11
11.3
 21
116.3513449999999
 31
0.0
  0
LINE
  5
64
330
1E
100
AcDbEntity
  8
0
100
AcDbLine
 10
5.0
 20
131.926345
 30
0.0
 11
7.2
 21
134.326345
 31
0.0
  0
LINE
  5
65
330
1E
100
AcDbEntity
  8
0
100
AcDbLine
 10
3.2
 20
129.3263449999999
 30
0.0
 11
5.0
 21
131.926345
 31
0.0
  0
LINE
  5
66
330
1E
100
AcDbEntity
  8
0
100
AcDbLine
 10
1.5
 20
126.426345
 30
0.0
 11
3.2
 21
129.3263449999999
 31
0.0
  0
LINE
  5
67
330
1E
100
AcDbEntity
  8
0
100
AcDbLine
 10
0.8000000000000028
 20
123.426345
 30
0.0
 11
1.5
 21
126.426345
 31
0.0
  0
LINE
  5
68
330
1E
100
AcDbEntity
  8
0
100
AcDbLine
 10
0.200000000000003
 20
120.226345
 30
0.0
 11
0.8000000000000028
 21
123.426345
 31
0.0
  0
LINE
  5
69
330
1E
100
AcDbEntity
  8
0
100
AcDbLine
 10
0.0000000000000027
 20
117.0263449999999
 30
0.0
 11
0.200000000000003
 21
120.226345
 31
0.0
  0
LINE
  5
6A
330
1E
100
AcDbEntity
  8
0
100
AcDbLine
 10
0.0000000000000027
 20
117.0263449999999
 30
0.0
 11
0.200000000000003
 21
113.8263449999999
 31
0.0
  0
LINE
  5
6B
330
1E
100
AcDbEntity
  8
0
100
AcDbLine
 10
7.2
 20
134.326345
 30
0.0
 11
9.599999999999999
 21
136.526345
 31
0.0
  0
LINE
  5
6D
330
1E
100
AcDbEntity
  8
0
100
AcDbLine
 10
10.7611
 20
22.47114499999999
 30
0.0
 11
12.6066
 21
20.915445
 31
0.0
  0
LINE
  5
6F
330
1E
100
AcDbEntity
  8
0
100
AcDbLine
 10
11.124
 20
115.254345
 30
0.0
 11
13.588
 21
116.7613449999999
 31
0.0
  0
LINE
  5
70
330
1E
100
AcDbEntity
  8
0
100
AcDbLine
 10
10.7611
 20
108.8583449999999
 30
0.0
 11
13.2218
 21
110.5113449999999
 31
0.0
  0
LINE
  5
71
330
1E
100
AcDbEntity
  8
0
100
AcDbLine
 10
9.699999999999999
 20
7.287125000000009
 30
0.0
 11
11.3
 21
5.415985000000009
 31
0.0
  0
LINE
  5
72
330
1E
100
AcDbEntity
  8
0
100
AcDbLine
 10
11.3
 20
5.415985000000009
 30
0.0
 11
13.2
 21
3.840295000000009
 31
0.0
  0
LINE
  5
73
330
1E
100
AcDbEntity
  8
0
100
AcDbLine
 10
12.4462
 20
88.296545
 30
0.0
 11
12.6582
 21
88.136545
 31
0.0
  0
LINE
  5
74
330
1E
100
AcDbEntity
  8
0
100
AcDbLine
 10
12.2862
 20
88.508545
 30
0.0
 11
12.4462
 21
88.296545
 31
0.0
  0
LINE
  5
75
330
1E
100
AcDbEntity
  8
0
100
AcDbLine
 10
12.4462
 20
89.71254499999998
 30
0.0
 11
12.6582
 21
89.872545
 31
0.0
  0
LINE
  5
76
330
1E
100
AcDbEntity
  8
0
100
AcDbLine
 10
12.2862
 20
89.50054499999998
 30
0.0
 11
12.4462
 21
89.71254499999998
 31
0.0
  0
LINE
  5
77
330
1E
100
AcDbEntity
  8
0
100
AcDbLine
 10
12.1902
 20
89.26054499999999
 30
0.0
 11
12.2862
 21
89.50054499999998
 31
0.0
  0
LINE
  5
78
330
1E
100
AcDbEntity
  8
0
100
AcDbLine
 10
12.1902
 20
88.74854499999999
 30
0.0
 11
12.2862
 21
88.508545
 31
0.0
  0
LINE
  5
79
330
1E
100
AcDbEntity
  8
0
100
AcDbLine
 10
12.15419999999999
 20
89.004545
 30
0.0
 11
12.1902
 21
88.74854499999999
 31
0.0
  0
LINE
  5
7A
330
1E
100
AcDbEntity
  8
0
100
AcDbLine
 10
12.15419999999999
 20
89.004545
 30
0.0
 11
12.1902
 21
89.26054499999999
 31
0.0
  0
LINE
  5
7B
330
1E
100
AcDbEntity
  8
0
100
AcDbLine
 10
12.6066
 20
20.915445
 30
0.0
 11
14.7598
 21
19.457045
 31
0.0
  0
LINE
  5
7C
330
1E
100
AcDbEntity
  8
0
100
AcDbLine
 10
12.89819999999999
 20
88.04054499999999
 30
0.0
 11
13.1542
 21
88.00454499999998
 31
0.0
  0
LINE
  5
7D
330
1E
100
AcDbEntity
  8
0
100
AcDbLine
 10
13.1542
 20
88.00454499999998
 30
0.0
 11
13.4102
 21
88.04054499999999
 31
0.0
  0
LINE
  5
7E
330
1E
100
AcDbEntity
  8
0
100
AcDbLine
 10
12.89819999999999
 20
89.96854499999999
 30
0.0
 11
13.1542
 21
90.004545
 31
0.0
  0
LINE
  5
7F
330
1E
100
AcDbEntity
  8
0
100
AcDbLine
 10
12.6582
 20
89.872545
 30
0.0
 11
12.89819999999999
 21
89.96854499999999
 31
0.0
  0
LINE
  5
80
330
1E
100
AcDbEntity
  8
0
100
AcDbLine
 10
13.1542
 20
90.004545
 30
0.0
 11
13.4102
 21
89.96854499999999
 31
0.0
  0
LINE
  5
81
330
1E
100
AcDbEntity
  8
0
100
AcDbLine
 10
12.6582
 20
88.136545
 30
0.0
 11
12.89819999999999
 21
88.04054499999999
 31
0.0
  0
LINE
  5
84
330
1E
100
AcDbEntity
  8
0
100
AcDbLine
 10
13.4102
 20
88.04054499999999
 30
0.0
 11
13.6502
 21
88.136545
 31
0.0
  0
LINE
  5
85
330
1E
100
AcDbEntity
  8
0
100
AcDbLine
 10
13.6502
 20
88.136545
 30
0.0
 11
13.86219999999999
 21
88.296545
 31
0.0
  0
LINE
  5
86
330
1E
100
AcDbEntity
  8
0
100
AcDbLine
 10
13.86219999999999
 20
88.296545
 30
0.0
 11
14.02219999999999
 21
88.508545
 31
0.0
  0
LINE
  5
87
330
1E
100
AcDbEntity
  8
0
100
AcDbLine
 10
13.4102
 20
89.96854499999999
 30
0.0
 11
13.6502
 21
89.872545
 31
0.0
  0
LINE
  5
88
330
1E
100
AcDbEntity
  8
0
100
AcDbLine
 10
13.6502
 20
89.872545
 30
0.0
 11
13.86219999999999
 21
89.71254499999998
 31
0.0
  0
LINE
  5
89
330
1E
100
AcDbEntity
  8
0
100
AcDbLine
 10
13.86219999999999
 20
89.71254499999998
 30
0.0
 11
14.02219999999999
 21
89.50054499999998
 31
0.0
  0
LINE
  5
8A
330
1E
100
AcDbEntity
  8
0
100
AcDbLine
 10
14.02219999999999
 20
89.50054499999998
 30
0.0
 11
14.1182
 21
89.26054499999999
 31
0.0
  0
LINE
  5
8B
330
1E
100
AcDbEntity
  8
0
100
AcDbLine
 10
14.1182
 20
89.26054499999999
 30
0.0
 11
14.1542
 21
89.004545
 31
0.0
  0
LINE
  5
8C
330
1E
100
AcDbEntity
  8
0
100
AcDbLine
 10
14.02219999999999
 20
88.508545
 30
0.0
 11
14.1182
 21
88.74854499999999
 31
0.0
  0
LINE
  5
8D
330
1E
100
AcDbEntity
  8
0
100
AcDbLine
 10
14.1182
 20
88.74854499999999
 30
0.0
 11
14.1542
 21
89.004545
 31
0.0
  0
LINE
  5
8E
330
1E
100
AcDbEntity
  8
0
100
AcDbLine
 10
14.7598
 20
19.457045
 30
0.0
 11
17.0154
 21
18.484745
 31
0.0
  0
LINE
  5
90
330
1E
100
AcDbEntity
  8
0
100
AcDbLine
 10
13.588
 20
116.7613449999999
 30
0.0
 11
16.14
 21
117.8093449999999
 31
0.0
  0
LINE
  5
91
330
1E
100
AcDbEntity
  8
0
100
AcDbLine
 10
13.2218
 20
110.5113449999999
 30
0.0
 11
15.8876
 21
111.6773449999999
 31
0.0
  0
LINE
  5
92
330
1E
100
AcDbEntity
  8
0
100
AcDbLine
 10
13.2
 20
3.840295000000009
 30
0.0
 11
15.2
 21
2.461565000000009
 31
0.0
  0
LINE
  5
94
330
1E
100
AcDbEntity
  8
0
100
AcDbLine
 10
11.3
 20
116.3513449999999
 30
0.0
 11
13.7
 21
117.9273449999999
 31
0.0
  0
LINE
  5
95
330
1E
100
AcDbEntity
  8
0
100
AcDbLine
 10
13.7
 20
117.9273449999999
 30
0.0
 11
16.2
 21
119.2073449999999
 31
0.0
  0
LINE
  5
96
330
1E
100
AcDbEntity
  8
0
100
AcDbLine
 10
9.599999999999999
 20
136.526345
 30
0.0
 11
12.19999999999999
 21
138.326345
 31
0.0
  0
LINE
  5
97
330
1E
100
AcDbEntity
  8
0
100
AcDbLine
 10
12.19999999999999
 20
138.326345
 30
0.0
 11
15.09999999999999
 21
140.0263449999999
 31
0.0
  0
LINE
  5
98
330
1E
100
AcDbEntity
  8
0
100
AcDbLine
 10
16.14
 20
117.8093449999999
 30
0.0
 11
18.868
 21
118.6923449999999
 31
0.0
  0
LINE
  5
99
330
1E
100
AcDbEntity
  8
0
100
AcDbLine
 10
15.8876
 20
111.6773449999999
 30
0.0
 11
18.65579999999999
 21
112.5523449999999
 31
0.0
  0
LINE
  5
9A
330
1E
100
AcDbEntity
  8
0
100
AcDbLine
 10
15.2
 20
2.461565000000009
 30
0.0
 11
17.4
 21
1.47675500000001
 31
0.0
  0
LINE
  5
9C
330
1E
100
AcDbEntity
  8
0
100
AcDbLine
 10
17.0154
 20
18.484745
 30
0.0
 11
19.4761
 21
17.706945
 31
0.0
  0
LINE
  5
9F
330
1E
100
AcDbEntity
  8
0
100
AcDbLine
 10
19.4761
 20
17.706945
 30
0.0
 11
21.9368
 21
17.220845
 31
0.0
  0
LINE
  5
A0
330
1E
100
AcDbEntity
  8
0
100
AcDbLine
 10
18.868
 20
118.6923449999999
 30
0.0
 11
21.596
 21
119.2073449999999
 31
0.0
  0
LINE
  5
A2
330
1E
100
AcDbEntity
  8
0
100
AcDbLine
 10
18.65579999999999
 20
112.5523449999999
 30
0.0
 11
21.5267
 21
113.136345
 31
0.0
  0
LINE
  5
A3
330
1E
100
AcDbEntity
  8
0
100
AcDbLine
 10
17.4
 20
1.47675500000001
 30
0.0
 11
19.69999999999999
 21
0.6889050000000072
 31
0.0
  0
LINE
  5
A4
330
1E
100
AcDbEntity
  8
0
100
AcDbLine
 10
19.69999999999999
 20
0.6889050000000072
 30
0.0
 11
22.1
 21
0.196505000000007
 31
0.0
  0
LINE
  5
A5
330
1E
100
AcDbEntity
  8
0
100
AcDbLine
 10
16.2
 20
119.2073449999999
 30
0.0
 11
18.89999999999999
 21
120.0933449999999
 31
0.0
  0
LINE
  5
A6
330
1E
100
AcDbEntity
  8
0
100
AcDbLine
 10
18.89999999999999
 20
120.0933449999999
 30
0.0
 11
21.69999999999999
 21
120.586345
 31
0.0
  0
LINE
  5
A7
330
1E
100
AcDbEntity
  8
0
100
AcDbLine
 10
15.09999999999999
 20
140.0263449999999
 30
0.0
 11
18.1
 21
140.726345
 31
0.0
  0
LINE
  5
A8
330
1E
100
AcDbEntity
  8
0
100
AcDbLine
 10
18.1
 20
140.726345
 30
0.0
 11
21.3
 21
141.326345
 31
0.0
  0
LINE
  5
A9
330
1E
100
AcDbEntity
  8
0
100
AcDbLine
 10
21.9368
 20
17.220845
 30
0.0
 11
24.5
 21
17.026345
 31
0.0
  0
LINE
  5
AA
330
1E
100
AcDbEntity
  8
0
100
AcDbLine
 10
21.596
 20
119.2073449999999
 30
0.0
 11
24.5
 21
119.4273449999999
 31
0.0
  0
LINE
  5
AC
330
1E
100
AcDbEntity
  8
0
100
AcDbLine
 10
21.5267
 20
113.136345
 30
0.0
 11
24.5
 21
113.3303449999999
 31
0.0
  0
LINE
  5
B1
330
1E
100
AcDbEntity
  8
0
100
AcDbLine
 10
37.7
 20
5.415985000000009
 30
0.0
 11
39.29999999999999
 21
7.287125000000009
 31
0.0
  0
LINE
  5
B3
330
1E
100
AcDbEntity
  8
0
100
AcDbLine
 10
39.29999999999999
 20
7.287125000000009
 30
0.0
 11
40.7
 21
9.256735
 31
0.0
  0
LINE
  5
B5
330
1E
100
AcDbEntity
  8
0
100
AcDbLine
 10
40.7
 20
9.256735
 30
0.0
 11
41.7
 21
11.423345
 31
0.0
  0
LINE
  5
B7
330
1E
100
AcDbEntity
  8
0
100
AcDbLine
 10
41.7
 20
11.423345
 30
0.0
 11
42.5
 21
13.688345
 31
0.0
  0
LINE
  5
B9
330
1E
100
AcDbEntity
  8
0
100
AcDbLine
 10
35.8
 20
3.840295000000009
 30
0.0
 11
37.7
 21
5.415985000000009
 31
0.0
  0
LINE
  5
BB
330
1E
100
AcDbEntity
  8
0
100
AcDbLine
 10
33.79999999999999
 20
2.461565000000009
 30
0.0
 11
35.8
 21
3.840295000000009
 31
0.0
  0
LINE
  5
BD
330
1E
100
AcDbEntity
  8
0
100
AcDbLine
 10
31.6
 20
1.47675500000001
 30
0.0
 11
33.79999999999999
 21
2.461565000000009
 31
0.0
  0
LINE
  5
BF
330
1E
100
AcDbEntity
  8
0
100
AcDbLine
 10
29.3
 20
0.6889050000000072
 30
0.0
 11
31.6
 21
1.47675500000001
 31
0.0
  0
LINE
  5
C0
330
1E
100
AcDbEntity
  8
0
100
AcDbLine
 10
26.89999999999999
 20
0.196505000000007
 30
0.0
 11
29.3
 21
0.6889050000000072
 31
0.0
  0
LINE
  5
C1
330
1E
100
AcDbEntity
  8
0
100
AcDbLine
 10
24.5
 20
-0.0004559999999932
 30
0.0
 11
26.89999999999999
 21
0.196505000000007
 31
0.0
  0
LINE
  5
C2
330
1E
100
AcDbEntity
  8
0
100
AcDbLine
 10
24.5
 20
17.026345
 30
0.0
 11
27.06319999999999
 21
17.220845
 31
0.0
  0
LINE
  5
C3
330
1E
100
AcDbEntity
  8
0
100
AcDbLine
 10
27.06319999999999
 20
17.220845
 30
0.0
 11
29.5239
 21
17.706945
 31
0.0
  0
LINE
  5
C4
330
1E
100
AcDbEntity
  8
0
100
AcDbLine
 10
29.5239
 20
17.706945
 30
0.0
 11
31.9846
 21
18.484745
 31
0.0
  0
LINE
  5
C9
330
1E
100
AcDbEntity
  8
0
100
AcDbLine
 10
42.5
 20
13.688345
 30
0.0
 11
43.0
 21
16.051945
 31
0.0
  0
LINE
  5
CA
330
1E
100
AcDbEntity
  8
0
100
AcDbLine
 10
43.0
 20
16.051945
 30
0.0
 11
43.2
 21
18.415445
 31
0.0
  0
LINE
  5
CB
330
1E
100
AcDbEntity
  8
0
100
AcDbLine
 10
24.5
 20
119.4273449999999
 30
0.0
 11
27.404
 21
119.2073449999999
 31
0.0
  0
LINE
  5
CC
330
1E
100
AcDbEntity
  8
0
100
AcDbLine
 10
24.5
 20
113.3303449999999
 30
0.0
 11
27.47329999999999
 21
113.136345
 31
0.0
  0
LINE
  5
CD
330
1E
100
AcDbEntity
  8
0
100
AcDbLine
 10
31.9846
 20
18.484745
 30
0.0
 11
34.2402
 21
19.457045
 31
0.0
  0
LINE
  5
CF
330
1E
100
AcDbEntity
  8
0
100
AcDbLine
 10
30.3442
 20
112.5523449999999
 30
0.0
 11
33.1124
 21
111.6773449999999
 31
0.0
  0
LINE
  5
D0
330
1E
100
AcDbEntity
  8
0
100
AcDbLine
 10
30.13199999999999
 20
118.6923449999999
 30
0.0
 11
32.86
 21
117.8093449999999
 31
0.0
  0
LINE
  5
D1
330
1E
100
AcDbEntity
  8
0
100
AcDbLine
 10
27.404
 20
119.2073449999999
 30
0.0
 11
30.13199999999999
 21
118.6923449999999
 31
0.0
  0
LINE
  5
D2
330
1E
100
AcDbEntity
  8
0
100
AcDbLine
 10
27.47329999999999
 20
113.136345
 30
0.0
 11
30.3442
 21
112.5523449999999
 31
0.0
  0
LINE
  5
D3
330
1E
100
AcDbEntity
  8
0
100
AcDbLine
 10
34.2402
 20
19.457045
 30
0.0
 11
36.3934
 21
20.915445
 31
0.0
  0
LINE
  5
D4
330
1E
100
AcDbEntity
  8
0
100
AcDbLine
 10
35.5898
 20
88.04054499999999
 30
0.0
 11
35.84579999999999
 21
88.00454499999998
 31
0.0
  0
LINE
  5
D5
330
1E
100
AcDbEntity
  8
0
100
AcDbLine
 10
35.3498
 20
88.136545
 30
0.0
 11
35.5898
 21
88.04054499999999
 31
0.0
  0
LINE
  5
D6
330
1E
100
AcDbEntity
  8
0
100
AcDbLine
 10
35.1378
 20
88.296545
 30
0.0
 11
35.3498
 21
88.136545
 31
0.0
  0
LINE
  5
D7
330
1E
100
AcDbEntity
  8
0
100
AcDbLine
 10
34.9778
 20
88.508545
 30
0.0
 11
35.1378
 21
88.296545
 31
0.0
  0
LINE
  5
D8
330
1E
100
AcDbEntity
  8
0
100
AcDbLine
 10
34.88179999999999
 20
88.74854499999999
 30
0.0
 11
34.9778
 21
88.508545
 31
0.0
  0
LINE
  5
D9
330
1E
100
AcDbEntity
  8
0
100
AcDbLine
 10
35.5898
 20
89.96854499999999
 30
0.0
 11
35.84579999999999
 21
90.004545
 31
0.0
  0
LINE
  5
DA
330
1E
100
AcDbEntity
  8
0
100
AcDbLine
 10
35.3498
 20
89.872545
 30
0.0
 11
35.5898
 21
89.96854499999999
 31
0.0
  0
LINE
  5
DB
330
1E
100
AcDbEntity
  8
0
100
AcDbLine
 10
35.1378
 20
89.71254499999998
 30
0.0
 11
35.3498
 21
89.872545
 31
0.0
  0
LINE
  5
DC
330
1E
100
AcDbEntity
  8
0
100
AcDbLine
 10
34.9778
 20
89.50054499999998
 30
0.0
 11
35.1378
 21
89.71254499999998
 31
0.0
  0
LINE
  5
DD
330
1E
100
AcDbEntity
  8
0
100
AcDbLine
 10
34.88179999999999
 20
89.26054499999999
 30
0.0
 11
34.9778
 21
89.50054499999998
 31
0.0
  0
LINE
  5
DE
330
1E
100
AcDbEntity
  8
0
100
AcDbLine
 10
34.84579999999999
 20
89.004545
 30
0.0
 11
34.88179999999999
 21
88.74854499999999
 31
0.0
  0
LINE
  5
DF
330
1E
100
AcDbEntity
  8
0
100
AcDbLine
 10
34.84579999999999
 20
89.004545
 30
0.0
 11
34.88179999999999
 21
89.26054499999999
 31
0.0
  0
LINE
  5
E1
330
1E
100
AcDbEntity
  8
0
100
AcDbLine
 10
36.3934
 20
20.915445
 30
0.0
 11
38.2389
 21
22.47114499999999
 31
0.0
  0
LINE
  5
E2
330
1E
100
AcDbEntity
  8
0
100
AcDbLine
 10
35.84579999999999
 20
88.00454499999998
 30
0.0
 11
36.10179999999999
 21
88.04054499999999
 31
0.0
  0
LINE
  5
E3
330
1E
100
AcDbEntity
  8
0
100
AcDbLine
 10
36.10179999999999
 20
88.04054499999999
 30
0.0
 11
36.3418
 21
88.136545
 31
0.0
  0
LINE
  5
E4
330
1E
100
AcDbEntity
  8
0
100
AcDbLine
 10
36.3418
 20
88.136545
 30
0.0
 11
36.5538
 21
88.296545
 31
0.0
  0
LINE
  5
E5
330
1E
100
AcDbEntity
  8
0
100
AcDbLine
 10
36.5538
 20
88.296545
 30
0.0
 11
36.7138
 21
88.508545
 31
0.0
  0
LINE
  5
E6
330
1E
100
AcDbEntity
  8
0
100
AcDbLine
 10
36.10179999999999
 20
89.96854499999999
 30
0.0
 11
36.3418
 21
89.872545
 31
0.0
  0
LINE
  5
E7
330
1E
100
AcDbEntity
  8
0
100
AcDbLine
 10
36.3418
 20
89.872545
 30
0.0
 11
36.5538
 21
89.71254499999998
 31
0.0
  0
LINE
  5
E8
330
1E
100
AcDbEntity
  8
0
100
AcDbLine
 10
36.5538
 20
89.71254499999998
 30
0.0
 11
36.7138
 21
89.50054499999998
 31
0.0
  0
LINE
  5
E9
330
1E
100
AcDbEntity
  8
0
100
AcDbLine
 10
36.7138
 20
89.50054499999998
 30
0.0
 11
36.8098
 21
89.26054499999999
 31
0.0
  0
LINE
  5
EA
330
1E
100
AcDbEntity
  8
0
100
AcDbLine
 10
36.8098
 20
89.26054499999999
 30
0.0
 11
36.84579999999999
 21
89.004545
 31
0.0
  0
LINE
  5
EB
330
1E
100
AcDbEntity
  8
0
100
AcDbLine
 10
35.84579999999999
 20
90.004545
 30
0.0
 11
36.10179999999999
 21
89.96854499999999
 31
0.0
  0
LINE
  5
EC
330
1E
100
AcDbEntity
  8
0
100
AcDbLine
 10
36.7138
 20
88.508545
 30
0.0
 11
36.8098
 21
88.74854499999999
 31
0.0
  0
LINE
  5
ED
330
1E
100
AcDbEntity
  8
0
100
AcDbLine
 10
36.8098
 20
88.74854499999999
 30
0.0
 11
36.84579999999999
 21
89.004545
 31
0.0
  0
LINE
  5
EF
330
1E
100
AcDbEntity
  8
0
100
AcDbLine
 10
35.7782
 20
110.5113449999999
 30
0.0
 11
38.2389
 21
108.8583449999999
 31
0.0
  0
LINE
  5
F0
330
1E
100
AcDbEntity
  8
0
100
AcDbLine
 10
35.41199999999999
 20
116.7613449999999
 30
0.0
 11
37.87599999999999
 21
115.254345
 31
0.0
  0
LINE
  5
F1
330
1E
100
AcDbEntity
  8
0
100
AcDbLine
 10
32.86
 20
117.8093449999999
 30
0.0
 11
35.41199999999999
 21
116.7613449999999
 31
0.0
  0
LINE
  5
F2
330
1E
100
AcDbEntity
  8
0
100
AcDbLine
 10
33.1124
 20
111.6773449999999
 30
0.0
 11
35.7782
 21
110.5113449999999
 31
0.0
  0
LINE
  5
F3
330
1E
100
AcDbEntity
  8
0
100
AcDbLine
 10
38.2389
 20
22.47114499999999
 30
0.0
 11
39.8793
 21
24.221245
 31
0.0
  0
LINE
  5
F5
330
1E
100
AcDbEntity
  8
0
100
AcDbLine
 10
39.8793
 20
24.221245
 30
0.0
 11
41.41729999999999
 21
26.263045
 31
0.0
  0
LINE
  5
F6
330
1E
100
AcDbEntity
  8
0
100
AcDbLine
 10
41.41729999999999
 20
26.263045
 30
0.0
 11
42.44259999999999
 21
28.402045
 31
0.0
  0
LINE
  5
F8
330
1E
100
AcDbEntity
  8
0
100
AcDbLine
 10
42.44259999999999
 20
28.402045
 30
0.0
 11
43.26279999999999
 21
30.735445
 31
0.0
  0
LINE
  5
FB
330
1E
100
AcDbEntity
  8
0
100
AcDbLine
 10
41.924
 20
111.4843449999999
 30
0.0
 11
43.596
 21
109.190345
 31
0.0
  0
LINE
  5
FC
330
1E
100
AcDbEntity
  8
0
100
AcDbLine
 10
40.392
 20
107.0103449999999
 30
0.0
 11
42.34
 21
104.9693449999999
 31
0.0
  0
LINE
  5
FD
330
1E
100
AcDbEntity
  8
0
100
AcDbLine
 10
42.34
 20
104.9693449999999
 30
0.0
 11
44.08299999999999
 21
102.635345
 31
0.0
  0
LINE
  5
FE
330
1E
100
AcDbEntity
  8
0
100
AcDbLine
 10
38.2389
 20
108.8583449999999
 30
0.0
 11
40.392
 21
107.0103449999999
 31
0.0
  0
LINE
  5
FF
330
1E
100
AcDbEntity
  8
0
100
AcDbLine
 10
37.87599999999999
 20
115.254345
 30
0.0
 11
39.988
 21
113.4333449999999
 31
0.0
  0
LINE
  5
100
330
1E
100
AcDbEntity
  8
0
100
AcDbLine
 10
39.988
 20
113.4333449999999
 30
0.0
 11
41.924
 21
111.4843449999999
 31
0.0
  0
LINE
  5
101
330
1E
100
AcDbEntity
  8
0
100
AcDbLine
 10
39.8
 20
114.4803449999999
 30
0.0
 11
41.7
 21
112.412345
 31
0.0
  0
LINE
  5
102
330
1E
100
AcDbEntity
  8
0
100
AcDbLine
 10
41.7
 20
112.412345
 30
0.0
 11
43.3
 21
110.048345
 31
0.0
  0
LINE
  5
103
330
1E
100
AcDbEntity
  8
0
100
AcDbLine
 10
37.7
 20
116.3513449999999
 30
0.0
 11
39.8
 21
114.4803449999999
 31
0.0
  0
LINE
  5
104
330
1E
100
AcDbEntity
  8
0
100
AcDbLine
 10
35.29999999999999
 20
117.9273449999999
 30
0.0
 11
37.7
 21
116.3513449999999
 31
0.0
  0
LINE
  5
105
330
1E
100
AcDbEntity
  8
0
100
AcDbLine
 10
32.79999999999999
 20
119.2073449999999
 30
0.0
 11
35.29999999999999
 21
117.9273449999999
 31
0.0
  0
LINE
  5
106
330
1E
100
AcDbEntity
  8
0
100
AcDbLine
 10
30.1
 20
120.0933449999999
 30
0.0
 11
32.79999999999999
 21
119.2073449999999
 31
0.0
  0
LINE
  5
107
330
1E
100
AcDbEntity
  8
0
100
AcDbLine
 10
27.3
 20
120.586345
 30
0.0
 11
30.1
 21
120.0933449999999
 31
0.0
  0
LINE
  5
108
330
1E
100
AcDbEntity
  8
0
100
AcDbLine
 10
43.2
 20
18.415445
 30
0.0
 11
43.73611762651059
 21
32.8901205393336
 31
0.0
  0
LINE
  5
109
330
1E
100
AcDbEntity
  8
0
100
AcDbLine
 10
43.26279999999999
 20
30.735445
 30
0.0
 11
43.77539999999999
 21
33.068945
 31
0.0
  0
LINE
  5
10B
330
1E
100
AcDbEntity
  8
0
100
AcDbLine
 10
43.77539999999999
 20
33.068945
 30
0.0
 11
43.9805
 21
35.499645
 31
0.0
  0
LINE
  5
10D
330
1E
100
AcDbEntity
  8
0
100
AcDbLine
 10
43.9805
 20
35.499645
 30
0.0
 11
45.8581
 21
59.694545
 31
0.0
  0
LINE
  5
10F
330
1E
100
AcDbEntity
  8
0
100
AcDbLine
 10
46.3132411717532
 20
72.1232211499744
 30
0.0
 11
46.5087
 21
75.62744499999999
 31
0.0
  0
LINE
  5
110
330
1E
100
AcDbEntity
  8
0
100
AcDbLine
 10
46.5087
 20
75.62744499999999
 30
0.0
 11
46.6969
 21
79.92614499999999
 31
0.0
  0
LINE
  5
111
330
1E
100
AcDbEntity
  8
0
100
AcDbLine
 10
46.3132411717532
 20
72.1232211499744
 30
0.0
 11
46.5087
 21
75.62744499999999
 31
0.0
  0
LINE
  5
112
330
1E
100
AcDbEntity
  8
0
100
AcDbLine
 10
45.8581
 20
59.694545
 30
0.0
 11
46.3132411717532
 21
72.1232211499744
 31
0.0
  0
LINE
  5
115
330
1E
100
AcDbEntity
  8
0
100
AcDbLine
 10
46.97049999999999
 20
87.78114499999999
 30
0.0
 11
47.05639999999999
 21
91.940545
 31
0.0
  0
LINE
  5
116
330
1E
100
AcDbEntity
  8
0
100
AcDbLine
 10
46.8644
 20
84.125445
 30
0.0
 11
46.97049999999999
 21
87.78114499999999
 31
0.0
  0
LINE
  5
117
330
1E
100
AcDbEntity
  8
0
100
AcDbLine
 10
46.6969
 20
79.92614499999999
 30
0.0
 11
46.8644
 21
84.125445
 31
0.0
  0
LINE
  5
118
330
1E
100
AcDbEntity
  8
0
100
AcDbLine
 10
46.8513
 20
94.76014499999999
 30
0.0
 11
47.05639999999999
 21
91.940545
 31
0.0
  0
LINE
  5
119
330
1E
100
AcDbEntity
  8
0
100
AcDbLine
 10
46.6495403466256
 20
97.24397690695591
 30
0.0
 11
47.1509
 21
99.584345
 31
0.0
  0
LINE
  5
11C
330
1E
100
AcDbEntity
  8
0
100
AcDbLine
 10
45.708
 20
104.3173449999999
 30
0.0
 11
46.236
 21
101.7803449999999
 31
0.0
  0
LINE
  5
11D
330
1E
100
AcDbEntity
  8
0
100
AcDbLine
 10
46.236
 20
101.7803449999999
 30
0.0
 11
46.8513
 21
94.76014499999999
 31
0.0
  0
LINE
  5
11E
330
1E
100
AcDbEntity
  8
0
100
AcDbLine
 10
46.236
 20
101.7803449999999
 30
0.0
 11
46.5
 21
99.08494499999999
 31
0.0
  0
LINE
  5
11F
330
1E
100
AcDbEntity
  8
0
100
AcDbLine
 10
44.08299999999999
 20
102.635345
 30
0.0
 11
45.3134
 21
100.107345
 31
0.0
  0
LINE
  5
120
330
1E
100
AcDbEntity
  8
0
100
AcDbLine
 10
45.3134
 20
100.107345
 30
0.0
 11
46.2361
 21
97.48254500000001
 31
0.0
  0
LINE
  5
121
330
1E
100
AcDbEntity
  8
0
100
AcDbLine
 10
46.2361
 20
97.48254500000001
 30
0.0
 11
46.8513
 21
94.76014499999999
 31
0.0
  0
LINE
  5
122
330
1E
100
AcDbEntity
  8
0
100
AcDbLine
 10
43.596
 20
109.190345
 30
0.0
 11
44.74
 21
106.8363449999999
 31
0.0
  0
LINE
  5
123
330
1E
100
AcDbEntity
  8
0
100
AcDbLine
 10
43.3
 20
110.048345
 30
0.0
 11
44.59999999999999
 21
107.5863449999999
 31
0.0
  0
LINE
  5
124
330
1E
100
AcDbEntity
  8
0
100
AcDbLine
 10
44.74
 20
106.8363449999999
 30
0.0
 11
45.708
 21
104.3173449999999
 31
0.0
  0
LINE
  5
125
330
1E
100
AcDbEntity
  8
0
100
AcDbLine
 10
44.59999999999999
 20
107.5863449999999
 30
0.0
 11
45.49999999999999
 21
104.9273449999999
 31
0.0
  0
LINE
  5
126
330
1E
100
AcDbEntity
  8
0
100
AcDbLine
 10
45.49999999999999
 20
104.9273449999999
 30
0.0
 11
45.5236036092291
 21
104.797194698711
 31
0.0
  0
LINE
  5
127
330
1E
100
AcDbEntity
  8
0
100
AcDbLine
 10
47.3163
 20
102.0743449999999
 30
0.0
 11
47.56899999999999
 21
104.0823449999999
 31
0.0
  0
LINE
  5
128
330
1E
100
AcDbEntity
  8
0
100
AcDbLine
 10
47.1509
 20
99.584345
 30
0.0
 11
47.3163
 21
102.0743449999999
 31
0.0
  0
LINE
  5
129
330
1E
100
AcDbEntity
  8
0
100
AcDbLine
 10
48.79999999999999
 20
120.226345
 30
0.0
 11
49.0
 21
117.0263449999999
 31
0.0
  0
LINE
  5
12A
330
1E
100
AcDbEntity
  8
0
100
AcDbLine
 10
48.79999999999999
 20
113.8263449999999
 30
0.0
 11
49.0
 21
117.0263449999999
 31
0.0
  0
LINE
  5
12B
330
1E
100
AcDbEntity
  8
0
100
AcDbLine
 10
47.56899999999999
 20
104.0823449999999
 30
0.0
 11
48.79999999999999
 21
113.8263449999999
 31
0.0
  0
LINE
  5
12C
330
1E
100
AcDbEntity
  8
0
100
AcDbLine
 10
46.4884245824195
 20
99.20312825964622
 30
0.0
 11
46.5
 21
99.534345
 31
0.0
  0
LINE
  5
12D
330
1E
100
AcDbEntity
  8
0
100
AcDbLine
 10
43.2
 20
18.415445
 30
0.0
 11
43.73611762651059
 21
32.8901205393336
 31
0.0
  0
LINE
  5
12E
330
1E
100
AcDbEntity
  8
0
100
AcDbLine
 10
22.1
 20
0.196505000000007
 30
0.0
 11
24.5
 21
-0.0004559999999932
 31
0.0
  0
LINE
  5
149
330
1E
100
AcDbEntity
  8
0
100
AcDbLine
 10
24.5
 20
120.783345
 30
0.0
 11
27.3
 21
120.586345
 31
0.0
  0
LINE
  5
14A
330
1E
100
AcDbEntity
  8
0
100
AcDbLine
 10
48.2
 20
123.426345
 30
0.0
 11
48.79999999999999
 21
120.226345
 31
0.0
  0
LINE
  5
14B
330
1E
100
AcDbEntity
  8
0
100
AcDbLine
 10
47.5
 20
126.426345
 30
0.0
 11
48.2
 21
123.426345
 31
0.0
  0
LINE
  5
14C
330
1E
100
AcDbEntity
  8
0
100
AcDbLine
 10
45.8
 20
129.3263449999999
 30
0.0
 11
47.5
 21
126.426345
 31
0.0
  0
LINE
  5
14D
330
1E
100
AcDbEntity
  8
0
100
AcDbLine
 10
44.0
 20
131.926345
 30
0.0
 11
45.8
 21
129.3263449999999
 31
0.0
  0
LINE
  5
14E
330
1E
100
AcDbEntity
  8
0
100
AcDbLine
 10
41.79999999999999
 20
134.326345
 30
0.0
 11
44.0
 21
131.926345
 31
0.0
  0
LINE
  5
14F
330
1E
100
AcDbEntity
  8
0
100
AcDbLine
 10
39.39999999999999
 20
136.526345
 30
0.0
 11
41.79999999999999
 21
134.326345
 31
0.0
  0
LINE
  5
150
330
1E
100
AcDbEntity
  8
0
100
AcDbLine
 10
36.79999999999999
 20
138.326345
 30
0.0
 11
39.39999999999999
 21
136.526345
 31
0.0
  0
LINE
  5
151
330
1E
100
AcDbEntity
  8
0
100
AcDbLine
 10
33.9
 20
140.0263449999999
 30
0.0
 11
36.79999999999999
 21
138.326345
 31
0.0
  0
LINE
  5
152
330
1E
100
AcDbEntity
  8
0
100
AcDbLine
 10
30.89999999999999
 20
140.726345
 30
0.0
 11
33.9
 21
140.0263449999999
 31
0.0
  0
LINE
  5
153
330
1E
100
AcDbEntity
  8
0
100
AcDbLine
 10
27.7
 20
141.326345
 30
0.0
 11
30.89999999999999
 21
140.726345
 31
0.0
  0
LINE
  5
154
330
1E
100
AcDbEntity
  8
0
100
AcDbLine
 10
26.90319999999999
 20
141.376145
 30
0.0
 11
27.7
 21
141.326345
 31
0.0
  0
LINE
  5
155
330
1E
100
AcDbEntity
  8
0
100
AcDbLine
 10
21.69999999999999
 20
120.586345
 30
0.0
 11
24.5
 21
120.783345
 31
0.0
  0
LINE
  5
156
330
1E
100
AcDbEntity
  8
0
100
AcDbLine
 10
21.3
 20
141.326345
 30
0.0
 11
21.90319999999999
 21
141.364045
 31
0.0
  0
LINE
  5
15E
330
1E
100
AcDbEntity
  8
0
100
AcDbLine
 10
21.90319999999999
 20
141.364045
 30
0.0
 11
24.69812535168796
 21
141.6208163539617
 31
0.0
  0
LINE
  5
15F
330
1E
100
AcDbEntity
  8
0
100
AcDbLine
 10
24.69812535168796
 20
141.6208163539617
 30
0.0
 11
26.90319999999999
 21
141.376145
 31
0.0
  0
ENDSEC
  0
SECTION
  2
OBJECTS
  0
DICTIONARY
  5
C
330
0
100
AcDbDictionary
281
     1
  3
ACAD_GROUP
350
D
  3
ACAD_LAYOUT
350
19
  3
ACAD_MLINESTYLE
350
16
  3
ACAD_PLOTSETTINGS
350
18
  3
ACAD_PLOTSTYLENAME
350
E
  3
AcDbVariableDictionary
350
15B
  0
DICTIONARY
  5
D
102
{ACAD_REACTORS
330
C
102
}
330
C
100
AcDbDictionary
281
     1
  0
DICTIONARY
  5
19
102
{ACAD_REACTORS
330
C
102
}
330
C
100
AcDbDictionary
281
     1
  3
Layout1
350
1D
  3
Model
350
21
  0
DICTIONARY
  5
16
102
{ACAD_REACTORS
330
C
102
}
330
C
100
AcDbDictionary
281
     1
  3
Standard
350
17
  0
DICTIONARY
  5
18
102
{ACAD_REACTORS
330
C
102
}
330
C
100
AcDbDictionary
281
     1
  0
ACDBDICTIONARYWDFLT
  5
E
102
{ACAD_REACTORS
330
C
102
}
330
C
100
AcDbDictionary
281
     1
  3
Normal
350
F
100
AcDbDictionaryWithDefault
340
F
  0
DICTIONARY
  5
15B
102
{ACAD_REACTORS
330
C
102
}
330
C
100
AcDbDictionary
281
     1
  3
DIMASSOC
350
15C
  0
LAYOUT
  5
1D
102
{ACAD_REACTORS
330
19
102
}
330
19
100
AcDbPlotSettings
  1

  2
hp deskjet 980c series
  4

  6

 40
0.0
 41
0.0
 42
0.0
 43
0.0
 44
0.0
 45
0.0
 46
0.0
 47
0.0
 48
0.0
 49
0.0
140
0.0
141
0.0
142
1.0
143
1.0
 70
   688
 72
     0
 73
     0
 74
     5
  7

 75
    16
147
1.0
148
0.0
149
0.0
100
AcDbLayout
  1
Layout1
 70
     1
 71
     1
 10
0.0
 20
0.0
 11
12.0
 21
9.0
 12
0.0
 22
0.0
 32
0.0
 14
1.000000000000000E+20
 24
1.000000000000000E+20
 34
1.000000000000000E+20
 15
-1.000000000000000E+20
 25
-1.000000000000000E+20
 35
-1.000000000000000E+20
146
0.0
 13
0.0
 23
0.0
 33
0.0
 16
1.0
 26
0.0
 36
0.0
 17
0.0
 27
1.0
 37
0.0
 76
     0
330
1A
  0
LAYOUT
  5
21
102
{ACAD_REACTORS
330
19
102
}
330
19
100
AcDbPlotSettings
  1

  2
hp deskjet 980c series
  4

  6

 40
0.0
 41
0.0
 42
0.0
 43
0.0
 44
0.0
 45
0.0
 46
0.0
 47
0.0
 48
0.0
 49
0.0
140
0.0
141
0.0
142
1.0
143
1.0
 70
  1712
 72
     0
 73
     0
 74
     0
  7

 75
     0
147
1.0
148
0.0
149
0.0
100
AcDbLayout
  1
Model
 70
     1
 71
     0
 10
0.0
 20
0.0
 11
12.0
 21
9.0
 12
0.0
 22
0.0
 32
0.0
 14
0.0
 24
0.0
 34
0.0
 15
0.0
 25
0.0
 35
0.0
146
0.0
 13
0.0
 23
0.0
 33
0.0
 16
1.0
 26
0.0
 36
0.0
 17
0.0
 27
1.0
 37
0.0
 76
     0
330
1E
  0
MLINESTYLE
  5
17
102
{ACAD_REACTORS
330
16
102
}
330
16
100
AcDbMlineStyle
  2
STANDARD
 70
     0
  3

 62
   256
 51
90.0
 52
90.0
 71
     2
 49
0.5
 62
   256
  6
BYLAYER
 49
-0.5
 62
   256
  6
BYLAYER
  0
ACDBPLACEHOLDER
  5
F
102
{ACAD_REACTORS
330
E
102
}
330
E
  0
DICTIONARYVAR
  5
15C
102
{ACAD_REACTORS
330
15B
102
}
330
15B
100
DictionaryVariables
280
     0
  1
1
  0
ENDSEC
  0
EOF
