  0
SECTION
  2
HEADER
  9
$ACADVER
  1
AC1015
  9
$ACADMAINTVER
 70
     6
  9
$DWGCODEPAGE
  3
ANSI_1252
  9
$INSBASE
 10
0.0
 20
0.0
 30
0.0
  9
$EXTMIN
 10
0.009
 20
0.178817
 30
0.0
  9
$EXTMAX
 10
459.9912
 20
208.8217
 30
0.0
  9
$LIMMIN
 10
0.0
 20
0.0
  9
$LIMMAX
 10
12.0
 20
9.0
  9
$ORTHOMODE
 70
     0
  9
$REGENMODE
 70
     1
  9
$FILLMODE
 70
     1
  9
$QTEXTMODE
 70
     0
  9
$MIRRTEXT
 70
     1
  9
$LTSCALE
 40
1.0
  9
$ATTMODE
 70
     1
  9
$TEXTSIZE
 40
0.2
  9
$TRACEWID
 40
0.05
  9
$TEXTSTYLE
  7
Standard
  9
$CLAYER
  8
0
  9
$CELTYPE
  6
ByBlock
  9
$CECOLOR
 62
   256
  9
$CELTSCALE
 40
1.0
  9
$DISPSILH
 70
     0
  9
$DIMSCALE
 40
1.0
  9
$DIMASZ
 40
0.18
  9
$DIMEXO
 40
0.0625
  9
$DIMDLI
 40
0.38
  9
$DIMRND
 40
0.0
  9
$DIMDLE
 40
0.0
  9
$DIMEXE
 40
0.18
  9
$DIMTP
 40
0.0
  9
$DIMTM
 40
0.0
  9
$DIMTXT
 40
0.18
  9
$DIMCEN
 40
0.09
  9
$DIMTSZ
 40
0.0
  9
$DIMTOL
 70
     0
  9
$DIMLIM
 70
     0
  9
$DIMTIH
 70
     1
  9
$DIMTOH
 70
     1
  9
$DIMSE1
 70
     0
  9
$DIMSE2
 70
     0
  9
$DIMTAD
 70
     0
  9
$DIMZIN
 70
     0
  9
$DIMBLK
  1

  9
$DIMASO
 70
     1
  9
$DIMSHO
 70
     1
  9
$DIMPOST
  1

  9
$DIMAPOST
  1

  9
$DIMALT
 70
     0
  9
$DIMALTD
 70
     2
  9
$DIMALTF
 40
25.4
  9
$DIMLFAC
 40
1.0
  9
$DIMTOFL
 70
     0
  9
$DIMTVP
 40
0.0
  9
$DIMTIX
 70
     0
  9
$DIMSOXD
 70
     0
  9
$DIMSAH
 70
     0
  9
$DIMBLK1
  1

  9
$DIMBLK2
  1

  9
$DIMSTYLE
  2
Standard
  9
$DIMCLRD
 70
     0
  9
$DIMCLRE
 70
     0
  9
$DIMCLRT
 70
     0
  9
$DIMTFAC
 40
1.0
  9
$DIMGAP
 40
0.09
  9
$DIMJUST
 70
     0
  9
$DIMSD1
 70
     0
  9
$DIMSD2
 70
     0
  9
$DIMTOLJ
 70
     1
  9
$DIMTZIN
 70
     0
  9
$DIMALTZ
 70
     0
  9
$DIMALTTZ
 70
     0
  9
$DIMUPT
 70
     0
  9
$DIMDEC
 70
     4
  9
$DIMTDEC
 70
     4
  9
$DIMALTU
 70
     2
  9
$DIMALTTD
 70
     2
  9
$DIMTXSTY
  7
Standard
  9
$DIMAUNIT
 70
     0
  9
$DIMADEC
 70
     0
  9
$DIMALTRND
 40
0.0
  9
$DIMAZIN
 70
     0
  9
$DIMDSEP
 70
    46
  9
$DIMATFIT
 70
     3
  9
$DIMFRAC
 70
     0
  9
$DIMLDRBLK
  1

  9
$DIMLUNIT
 70
     2
  9
$DIMLWD
 70
    -2
  9
$DIMLWE
 70
    -2
  9
$DIMTMOVE
 70
     2
  9
$LUNITS
 70
     2
  9
$LUPREC
 70
     4
  9
$SKETCHINC
 40
0.1
  9
$FILLETRAD
 40
0.5
  9
$AUNITS
 70
     0
  9
$AUPREC
 70
     0
  9
$MENU
  1
.
  9
$ELEVATION
 40
0.0
  9
$PELEVATION
 40
0.0
  9
$THICKNESS
 40
0.0
  9
$LIMCHECK
 70
     0
  9
$CHAMFERA
 40
0.5
  9
$CHAMFERB
 40
0.5
  9
$CHAMFERC
 40
1.0
  9
$CHAMFERD
 40
0.0
  9
$SKPOLY
 70
     0
  9
$TDCREATE
 40
2456462.89964463
  9
$TDUCREATE
 40
2456462.816311296
  9
$TDUPDATE
 40
2456462.900608171
  9
$TDUUPDATE
 40
2456462.817274838
  9
$TDINDWG
 40
0.0009633681
  9
$TDUSRTIMER
 40
0.0009633681
  9
$USRTIMER
 70
     1
  9
$ANGBASE
 50
0.0
  9
$ANGDIR
 70
     0
  9
$PDMODE
 70
     0
  9
$PDSIZE
 40
0.0
  9
$PLINEWID
 40
0.0
  9
$SPLFRAME
 70
     0
  9
$SPLINETYPE
 70
     6
  9
$SPLINESEGS
 70
     8
  9
$HANDSEED
  5
A87
  9
$SURFTAB1
 70
     6
  9
$SURFTAB2
 70
     6
  9
$SURFTYPE
 70
     6
  9
$SURFU
 70
     6
  9
$SURFV
 70
     6
  9
$UCSBASE
  2

  9
$UCSNAME
  2

  9
$UCSORG
 10
0.0
 20
0.0
 30
0.0
  9
$UCSXDIR
 10
1.0
 20
0.0
 30
0.0
  9
$UCSYDIR
 10
0.0
 20
1.0
 30
0.0
  9
$UCSORTHOREF
  2

  9
$UCSORTHOVIEW
 70
     0
  9
$UCSORGTOP
 10
0.0
 20
0.0
 30
0.0
  9
$UCSORGBOTTOM
 10
0.0
 20
0.0
 30
0.0
  9
$UCSORGLEFT
 10
0.0
 20
0.0
 30
0.0
  9
$UCSORGRIGHT
 10
0.0
 20
0.0
 30
0.0
  9
$UCSORGFRONT
 10
0.0
 20
0.0
 30
0.0
  9
$UCSORGBACK
 10
0.0
 20
0.0
 30
0.0
  9
$PUCSBASE
  2

  9
$PUCSNAME
  2

  9
$PUCSORG
 10
0.0
 20
0.0
 30
0.0
  9
$PUCSXDIR
 10
1.0
 20
0.0
 30
0.0
  9
$PUCSYDIR
 10
0.0
 20
1.0
 30
0.0
  9
$PUCSORTHOREF
  2

  9
$PUCSORTHOVIEW
 70
     0
  9
$PUCSORGTOP
 10
0.0
 20
0.0
 30
0.0
  9
$PUCSORGBOTTOM
 10
0.0
 20
0.0
 30
0.0
  9
$PUCSORGLEFT
 10
0.0
 20
0.0
 30
0.0
  9
$PUCSORGRIGHT
 10
0.0
 20
0.0
 30
0.0
  9
$PUCSORGFRONT
 10
0.0
 20
0.0
 30
0.0
  9
$PUCSORGBACK
 10
0.0
 20
0.0
 30
0.0
  9
$USERI1
 70
     0
  9
$USERI2
 70
     0
  9
$USERI3
 70
     0
  9
$USERI4
 70
     0
  9
$USERI5
 70
     0
  9
$USERR1
 40
0.0
  9
$USERR2
 40
0.0
  9
$USERR3
 40
0.0
  9
$USERR4
 40
0.0
  9
$USERR5
 40
0.0
  9
$WORLDVIEW
 70
     1
  9
$SHADEDGE
 70
     3
  9
$SHADEDIF
 70
    70
  9
$TILEMODE
 70
     1
  9
$MAXACTVP
 70
    64
  9
$PINSBASE
 10
0.0
 20
0.0
 30
0.0
  9
$PLIMCHECK
 70
     0
  9
$PEXTMIN
 10
1.000000000000E+20
 20
1.000000000000E+20
 30
1.000000000000E+20
  9
$PEXTMAX
 10
-1.000000000000E+20
 20
-1.000000000000E+20
 30
-1.000000000000E+20
  9
$PLIMMIN
 10
0.0
 20
0.0
  9
$PLIMMAX
 10
12.0
 20
9.0
  9
$UNITMODE
 70
     0
  9
$VISRETAIN
 70
     1
  9
$PLINEGEN
 70
     0
  9
$PSLTSCALE
 70
     1
  9
$TREEDEPTH
 70
  3020
  9
$CMLSTYLE
  2
Standard
  9
$CMLJUST
 70
     0
  9
$CMLSCALE
 40
1.0
  9
$PROXYGRAPHICS
 70
     1
  9
$MEASUREMENT
 70
     0
  9
$CELWEIGHT
370
    -1
  9
$ENDCAPS
280
     0
  9
$JOINSTYLE
280
     0
  9
$LWDISPLAY
290
     0
  9
$INSUNITS
 70
     0
  9
$HYPERLINKBASE
  1

  9
$STYLESHEET
  1

  9
$XEDIT
290
     1
  9
$CEPSNTYPE
380
     0
  9
$PSTYLEMODE
290
     1
  9
$FINGERPRINTGUID
  2
{C42CD69E-CAEC-4FCB-BB9C-F79F85D3F744}
  9
$VERSIONGUID
  2
{FAEB1C32-E019-11D5-929B-00C0DF256EC4}
  9
$EXTNAMES
290
     1
  9
$PSVPSCALE
 40
0.0
  9
$OLESTARTUP
290
     0
  0
ENDSEC
  0
SECTION
  2
CLASSES
  0
CLASS
  1
ACDBDICTIONARYWDFLT
  2
AcDbDictionaryWithDefault
  3
ObjectDBX Classes
 90
        0
280
     0
281
     0
  0
CLASS
  1
SCALE
  2
AcDbScale
  3
ObjectDBX Classes
 90
     1153
280
     0
281
     0
  0
CLASS
  1
DICTIONARYVAR
  2
AcDbDictionaryVar
  3
ObjectDBX Classes
 90
        0
280
     0
281
     0
  0
CLASS
  1
ACDBPLACEHOLDER
  2
AcDbPlaceHolder
  3
ObjectDBX Classes
 90
        0
280
     0
281
     0
  0
CLASS
  1
LAYOUT
  2
AcDbLayout
  3
ObjectDBX Classes
 90
        0
280
     0
281
     0
  0
ENDSEC
  0
SECTION
  2
TABLES
  0
TABLE
  2
VPORT
  5
8
330
0
100
AcDbSymbolTable
 70
     1
  0
VPORT
  5
560
330
8
100
AcDbSymbolTableRecord
100
AcDbViewportTableRecord
  2
*Active
 70
     0
 10
0.0
 20
0.0
 11
1.0
 21
1.0
 12
229.9956
 22
104.41085
 13
0.0
 23
0.0
 14
0.5
 24
0.5
 15
0.5
 25
0.5
 16
0.0
 26
0.0
 36
1.0
 17
0.0
 27
0.0
 37
0.0
 40
251.786448852702
 41
1.863448275862
 42
50.0
 43
0.0
 44
0.0
 50
0.0
 51
0.0
 71
    16
 72
   100
 73
     1
 74
     3
 75
     0
 76
     0
 77
     0
 78
     0
281
     0
 65
     1
110
0.0
120
0.0
130
0.0
111
1.0
121
0.0
131
0.0
112
0.0
122
1.0
132
0.0
 79
     0
146
0.0
  0
ENDTAB
  0
TABLE
  2
LTYPE
  5
5
330
0
100
AcDbSymbolTable
 70
     1
  0
LTYPE
  5
14
330
5
100
AcDbSymbolTableRecord
100
AcDbLinetypeTableRecord
  2
ByBlock
 70
     0
  3

 72
    65
 73
     0
 40
0.0
  0
LTYPE
  5
15
330
5
100
AcDbSymbolTableRecord
100
AcDbLinetypeTableRecord
  2
ByLayer
 70
     0
  3

 72
    65
 73
     0
 40
0.0
  0
LTYPE
  5
16
330
5
100
AcDbSymbolTableRecord
100
AcDbLinetypeTableRecord
  2
Continuous
 70
     0
  3
Solid line
 72
    65
 73
     0
 40
0.0
  0
ENDTAB
  0
TABLE
  2
LAYER
  5
2
330
0
100
AcDbSymbolTable
 70
     1
  0
LAYER
  5
10
330
2
100
AcDbSymbolTableRecord
100
AcDbLayerTableRecord
  2
0
 70
     0
 62
     7
  6
Continuous
370
    -3
390
F
  0
ENDTAB
  0
TABLE
  2
STYLE
  5
3
330
0
100
AcDbSymbolTable
 70
     1
  0
STYLE
  5
11
330
3
100
AcDbSymbolTableRecord
100
AcDbTextStyleTableRecord
  2
Standard
 70
     0
 40
0.0
 41
1.0
 50
0.0
 71
     0
 42
0.2
  3
txt
  4

  0
ENDTAB
  0
TABLE
  2
VIEW
  5
6
330
0
100
AcDbSymbolTable
 70
     0
  0
ENDTAB
  0
TABLE
  2
UCS
  5
7
330
0
100
AcDbSymbolTable
 70
     0
  0
ENDTAB
  0
TABLE
  2
APPID
  5
9
330
0
100
AcDbSymbolTable
 70
     1
  0
APPID
  5
12
330
9
100
AcDbSymbolTableRecord
100
AcDbRegAppTableRecord
  2
ACAD
 70
     0
  0
ENDTAB
  0
TABLE
  2
DIMSTYLE
  5
A
330
0
100
AcDbSymbolTable
 70
     1
100
AcDbDimStyleTable
  0
DIMSTYLE
105
20
330
A
100
AcDbSymbolTableRecord
100
AcDbDimStyleTableRecord
  2
Standard
 70
     0
340
11
  0
ENDTAB
  0
TABLE
  2
BLOCK_RECORD
  5
1
330
0
100
AcDbSymbolTable
 70
     2
  0
BLOCK_RECORD
  5
1D
330
1
100
AcDbSymbolTableRecord
100
AcDbBlockTableRecord
  2
*Model_Space
340
1E
  0
BLOCK_RECORD
  5
1B
330
1
100
AcDbSymbolTableRecord
100
AcDbBlockTableRecord
  2
*Paper_Space
340
1C
  0
ENDTAB
  0
ENDSEC
  0
SECTION
  2
BLOCKS
  0
BLOCK
  5
563
330
1D
100
AcDbEntity
  8
0
100
AcDbBlockBegin
  2
*Model_Space
 70
     0
 10
0.0
 20
0.0
 30
0.0
  3
*Model_Space
  1
*Model_Space
  0
ENDBLK
  5
564
330
1D
100
AcDbEntity
  8
0
100
AcDbBlockEnd
  0
BLOCK
  5
561
330
1B
100
AcDbEntity
 67
     1
  8
0
100
AcDbBlockBegin
  2
*Paper_Space
 70
     0
 10
0.0
 20
0.0
 30
0.0
  3
*Paper_Space
  1
*Paper_Space
  0
ENDBLK
  5
562
330
1B
100
AcDbEntity
 67
     1
  8
0
100
AcDbBlockEnd
  0
ENDSEC
  0
SECTION
  2
ENTITIES
  0
LINE
  5
2E
330
1D
100
AcDbEntity
  8
0
100
AcDbLine
 10
0.759
 20
207.3617
 30
0.0
 11
1.509
 21
207.5627
 31
0.0
  0
LINE
  5
508
330
1D
100
AcDbEntity
  8
0
100
AcDbLine
 10
350.859
 20
203.0627
 30
0.0
 11
370.859
 21
203.0627
 31
0.0
  0
LINE
  5
7C6
330
1D
100
AcDbEntity
  8
0
100
AcDbLine
 10
336.8785
 20
41.4948
 30
0.0
 11
338.403567158046
 21
41.415937547888
 31
0.0
  0
LINE
  5
7C7
330
1D
100
AcDbEntity
  8
0
100
AcDbLine
 10
333.9933
 20
41.6851
 30
0.0
 11
336.8785
 21
41.4948
 31
0.0
  0
LINE
  5
7C8
330
1D
100
AcDbEntity
  8
0
100
AcDbLine
 10
330.8896
 20
41.9283
 30
0.0
 11
333.9933
 21
41.6851
 31
0.0
  0
LINE
  5
7C9
330
1D
100
AcDbEntity
  8
0
100
AcDbLine
 10
327.7249
 20
42.1716
 30
0.0
 11
330.8896
 21
41.9283
 31
0.0
  0
LINE
  5
7CA
330
1D
100
AcDbEntity
  8
0
100
AcDbLine
 10
324.8037
 20
42.6581
 30
0.0
 11
327.7249
 21
42.1716
 31
0.0
  0
LINE
  5
7CB
330
1D
100
AcDbEntity
  8
0
100
AcDbLine
 10
322.0043
 20
43.5095
 30
0.0
 11
324.8037
 21
42.6581
 31
0.0
  0
LINE
  5
7CC
330
1D
100
AcDbEntity
  8
0
100
AcDbLine
 10
337.1979
 20
43.9593
 30
0.0
 11
338.175121701823
 21
43.912800618204
 31
0.0
  0
LINE
  5
7CD
330
1D
100
AcDbEntity
  8
0
100
AcDbLine
 10
334.4312
 20
44.1416
 30
0.0
 11
337.1979
 21
43.9593
 31
0.0
  0
LINE
  5
7CE
330
1D
100
AcDbEntity
  8
0
100
AcDbLine
 10
331.2694
 20
44.415
 30
0.0
 11
334.4312
 21
44.1416
 31
0.0
  0
LINE
  5
7CF
330
1D
100
AcDbEntity
  8
0
100
AcDbLine
 10
328.1379
 20
44.6581
 30
0.0
 11
331.2694
 21
44.415
 31
0.0
  0
LINE
  5
7D0
330
1D
100
AcDbEntity
  8
0
100
AcDbLine
 10
325.5841
 20
45.0227
 30
0.0
 11
328.1379
 21
44.6581
 31
0.0
  0
LINE
  5
7D1
330
1D
100
AcDbEntity
  8
0
100
AcDbLine
 10
319.6916
 20
44.5434
 30
0.0
 11
322.0043
 21
43.5095
 31
0.0
  0
LINE
  5
7D2
330
1D
100
AcDbEntity
  8
0
100
AcDbLine
 10
322.9998
 20
45.7822
 30
0.0
 11
325.5841
 21
45.0227
 31
0.0
  0
LINE
  5
7D3
330
1D
100
AcDbEntity
  8
0
100
AcDbLine
 10
320.75
 20
46.8152
 30
0.0
 11
322.9998
 21
45.7822
 31
0.0
  0
LINE
  5
7D4
330
1D
100
AcDbEntity
  8
0
100
AcDbLine
 10
319.0475
 20
47.8481
 30
0.0
 11
320.75
 21
46.8152
 31
0.0
  0
LINE
  5
7D5
330
1D
100
AcDbEntity
  8
0
100
AcDbLine
 10
317.7442
 20
45.6989
 30
0.0
 11
319.6916
 21
44.5434
 31
0.0
  0
LINE
  5
7D6
330
1D
100
AcDbEntity
  8
0
100
AcDbLine
 10
315.9793
 20
46.976
 30
0.0
 11
317.7442
 21
45.6989
 31
0.0
  0
LINE
  5
7D7
330
1D
100
AcDbEntity
  8
0
100
AcDbLine
 10
312.7723
 20
50.183
 30
0.0
 11
314.259
 21
48.4627
 31
0.0
  0
LINE
  5
7D8
330
1D
100
AcDbEntity
  8
0
100
AcDbLine
 10
311.4952
 20
51.9479
 30
0.0
 11
312.7723
 21
50.183
 31
0.0
  0
LINE
  5
7D9
330
1D
100
AcDbEntity
  8
0
100
AcDbLine
 10
314.7381
 20
51.7919
 30
0.0
 11
316.059
 21
50.2627
 31
0.0
  0
LINE
  5
7DA
330
1D
100
AcDbEntity
  8
0
100
AcDbLine
 10
317.5882
 20
48.9418
 30
0.0
 11
319.0475
 21
47.8481
 31
0.0
  0
LINE
  5
7DB
330
1D
100
AcDbEntity
  8
0
100
AcDbLine
 10
316.059
 20
50.2627
 30
0.0
 11
317.5882
 21
48.9418
 31
0.0
  0
LINE
  5
7DC
330
1D
100
AcDbEntity
  8
0
100
AcDbLine
 10
314.259
 20
48.4627
 30
0.0
 11
315.9793
 21
46.976
 31
0.0
  0
LINE
  5
7DD
330
1D
100
AcDbEntity
  8
0
100
AcDbLine
 10
309.30583
 20
56.208
 30
0.0
 11
310.33969
 21
53.8953
 31
0.0
  0
LINE
  5
7DE
330
1D
100
AcDbEntity
  8
0
100
AcDbLine
 10
310.33969
 20
53.8953
 30
0.0
 11
311.4952
 21
51.9479
 31
0.0
  0
LINE
  5
7DF
330
1D
100
AcDbEntity
  8
0
100
AcDbLine
 10
332.6758
 20
56.0627
 30
0.0
 11
332.8464
 21
56.0627
 31
0.0
  0
LINE
  5
7E0
330
1D
100
AcDbEntity
  8
0
100
AcDbLine
 10
332.5264
 20
56.0627
 30
0.0
 11
332.6758
 21
56.0627
 31
0.0
  0
LINE
  5
7E1
330
1D
100
AcDbEntity
  8
0
100
AcDbLine
 10
332.8464
 20
56.0627
 30
0.0
 11
333.0422
 21
56.0627
 31
0.0
  0
LINE
  5
7E2
330
1D
100
AcDbEntity
  8
0
100
AcDbLine
 10
333.0422
 20
56.0627
 30
0.0
 11
333.2632
 21
56.0627
 31
0.0
  0
LINE
  5
7E3
330
1D
100
AcDbEntity
  8
0
100
AcDbLine
 10
333.2632
 20
56.0627
 30
0.0
 11
333.4948
 21
56.0627
 31
0.0
  0
LINE
  5
7E4
330
1D
100
AcDbEntity
  8
0
100
AcDbLine
 10
333.4948
 20
56.0627
 30
0.0
 11
333.7432
 21
56.0627
 31
0.0
  0
LINE
  5
7E5
330
1D
100
AcDbEntity
  8
0
100
AcDbLine
 10
335.4758
 20
56.0627
 30
0.0
 11
335.6716
 21
56.0627
 31
0.0
  0
LINE
  5
7E6
330
1D
100
AcDbEntity
  8
0
100
AcDbLine
 10
335.2548
 20
56.0627
 30
0.0
 11
335.4758
 21
56.0627
 31
0.0
  0
LINE
  5
7E7
330
1D
100
AcDbEntity
  8
0
100
AcDbLine
 10
335.0232
 20
56.0627
 30
0.0
 11
335.2548
 21
56.0627
 31
0.0
  0
LINE
  5
7E8
330
1D
100
AcDbEntity
  8
0
100
AcDbLine
 10
334.7748
 20
56.0627
 30
0.0
 11
335.0232
 21
56.0627
 31
0.0
  0
LINE
  5
7E9
330
1D
100
AcDbEntity
  8
0
100
AcDbLine
 10
334.5201
 20
56.0627
 30
0.0
 11
334.7748
 21
56.0627
 31
0.0
  0
LINE
  5
7EA
330
1D
100
AcDbEntity
  8
0
100
AcDbLine
 10
334.259
 20
56.0627
 30
0.0
 11
334.5201
 21
56.0627
 31
0.0
  0
LINE
  5
7EB
330
1D
100
AcDbEntity
  8
0
100
AcDbLine
 10
335.6716
 20
56.0627
 30
0.0
 11
335.8422
 21
56.0627
 31
0.0
  0
LINE
  5
7EC
330
1D
100
AcDbEntity
  8
0
100
AcDbLine
 10
335.8422
 20
56.0627
 30
0.0
 11
335.9916
 21
56.0627
 31
0.0
  0
LINE
  5
7ED
330
1D
100
AcDbEntity
  8
0
100
AcDbLine
 10
333.7432
 20
56.0627
 30
0.0
 11
333.998
 21
56.0627
 31
0.0
  0
LINE
  5
7EE
330
1D
100
AcDbEntity
  8
0
100
AcDbLine
 10
333.998
 20
56.0627
 30
0.0
 11
334.259
 21
56.0627
 31
0.0
  0
LINE
  5
7EF
330
1D
100
AcDbEntity
  8
0
100
AcDbLine
 10
312.6115
 20
54.9537
 30
0.0
 11
313.6444
 21
53.2512
 31
0.0
  0
LINE
  5
7F0
330
1D
100
AcDbEntity
  8
0
100
AcDbLine
 10
313.6444
 20
53.2512
 30
0.0
 11
314.7381
 21
51.7919
 31
0.0
  0
LINE
  5
7F1
330
1D
100
AcDbEntity
  8
0
100
AcDbLine
 10
307.96789
 20
61.9286
 30
0.0
 11
308.45442
 21
59.0074
 31
0.0
  0
LINE
  5
7F2
330
1D
100
AcDbEntity
  8
0
100
AcDbLine
 10
308.45442
 20
59.0074
 30
0.0
 11
309.30583
 21
56.208
 31
0.0
  0
LINE
  5
7F3
330
1D
100
AcDbEntity
  8
0
100
AcDbLine
 10
310.45439
 20
62.3416
 30
0.0
 11
310.81897
 21
59.7878
 31
0.0
  0
LINE
  5
7F4
330
1D
100
AcDbEntity
  8
0
100
AcDbLine
 10
319.2758
 20
58.0627
 30
0.0
 11
319.4464
 21
58.0627
 31
0.0
  0
LINE
  5
7F5
330
1D
100
AcDbEntity
  8
0
100
AcDbLine
 10
319.1264
 20
58.0627
 30
0.0
 11
319.2758
 21
58.0627
 31
0.0
  0
LINE
  5
7F6
330
1D
100
AcDbEntity
  8
0
100
AcDbLine
 10
319.4464
 20
58.0627
 30
0.0
 11
319.6422
 21
58.0627
 31
0.0
  0
LINE
  5
7F7
330
1D
100
AcDbEntity
  8
0
100
AcDbLine
 10
319.6422
 20
58.0627
 30
0.0
 11
319.8632
 21
58.0627
 31
0.0
  0
LINE
  5
7F8
330
1D
100
AcDbEntity
  8
0
100
AcDbLine
 10
319.8632
 20
58.0627
 30
0.0
 11
320.0948
 21
58.0627
 31
0.0
  0
LINE
  5
7F9
330
1D
100
AcDbEntity
  8
0
100
AcDbLine
 10
320.0948
 20
58.0627
 30
0.0
 11
320.3432
 21
58.0627
 31
0.0
  0
LINE
  5
7FA
330
1D
100
AcDbEntity
  8
0
100
AcDbLine
 10
322.0758
 20
58.0627
 30
0.0
 11
322.2716
 21
58.0627
 31
0.0
  0
LINE
  5
7FB
330
1D
100
AcDbEntity
  8
0
100
AcDbLine
 10
321.8548
 20
58.0627
 30
0.0
 11
322.0758
 21
58.0627
 31
0.0
  0
LINE
  5
7FC
330
1D
100
AcDbEntity
  8
0
100
AcDbLine
 10
321.6232
 20
58.0627
 30
0.0
 11
321.8548
 21
58.0627
 31
0.0
  0
LINE
  5
7FD
330
1D
100
AcDbEntity
  8
0
100
AcDbLine
 10
321.3748
 20
58.0627
 30
0.0
 11
321.6232
 21
58.0627
 31
0.0
  0
LINE
  5
7FE
330
1D
100
AcDbEntity
  8
0
100
AcDbLine
 10
321.1201
 20
58.0627
 30
0.0
 11
321.3748
 21
58.0627
 31
0.0
  0
LINE
  5
7FF
330
1D
100
AcDbEntity
  8
0
100
AcDbLine
 10
320.859
 20
58.0627
 30
0.0
 11
321.1201
 21
58.0627
 31
0.0
  0
LINE
  5
800
330
1D
100
AcDbEntity
  8
0
100
AcDbLine
 10
322.2716
 20
58.0627
 30
0.0
 11
322.4422
 21
58.0627
 31
0.0
  0
LINE
  5
801
330
1D
100
AcDbEntity
  8
0
100
AcDbLine
 10
322.4422
 20
58.0627
 30
0.0
 11
322.5916
 21
58.0627
 31
0.0
  0
LINE
  5
802
330
1D
100
AcDbEntity
  8
0
100
AcDbLine
 10
320.3432
 20
58.0627
 30
0.0
 11
320.5979
 21
58.0627
 31
0.0
  0
LINE
  5
803
330
1D
100
AcDbEntity
  8
0
100
AcDbLine
 10
320.5979
 20
58.0627
 30
0.0
 11
320.859
 21
58.0627
 31
0.0
  0
LINE
  5
804
330
1D
100
AcDbEntity
  8
0
100
AcDbLine
 10
310.81897
 20
59.7878
 30
0.0
 11
311.5785
 21
57.2035
 31
0.0
  0
LINE
  5
805
330
1D
100
AcDbEntity
  8
0
100
AcDbLine
 10
311.5785
 20
57.2035
 30
0.0
 11
312.6115
 21
54.9537
 31
0.0
  0
LINE
  5
806
330
1D
100
AcDbEntity
  8
0
100
AcDbLine
 10
307.72463
 20
65.0933
 30
0.0
 11
307.96789
 21
61.9286
 31
0.0
  0
LINE
  5
807
330
1D
100
AcDbEntity
  8
0
100
AcDbLine
 10
307.29106
 20
71.0822
 30
0.0
 11
307.48137
 21
68.197
 31
0.0
  0
LINE
  5
808
330
1D
100
AcDbEntity
  8
0
100
AcDbLine
 10
307.48137
 20
68.197
 30
0.0
 11
307.72463
 21
65.0933
 31
0.0
  0
LINE
  5
809
330
1D
100
AcDbEntity
  8
0
100
AcDbLine
 10
309.75563
 20
71.4016
 30
0.0
 11
309.93792
 21
68.6349
 31
0.0
  0
LINE
  5
80A
330
1D
100
AcDbEntity
  8
0
100
AcDbLine
 10
309.93792
 20
68.6349
 30
0.0
 11
310.21134
 21
65.4731
 31
0.0
  0
LINE
  5
80B
330
1D
100
AcDbEntity
  8
0
100
AcDbLine
 10
310.21134
 20
65.4731
 30
0.0
 11
310.45439
 21
62.3416
 31
0.0
  0
LINE
  5
80C
330
1D
100
AcDbEntity
  8
0
100
AcDbLine
 10
307.13064
 20
74.186
 30
0.0
 11
307.29106
 21
71.0822
 31
0.0
  0
LINE
  5
80D
330
1D
100
AcDbEntity
  8
0
100
AcDbLine
 10
309.60372
 20
74.5939
 30
0.0
 11
309.75563
 21
71.4016
 31
0.0
  0
LINE
  5
80E
330
1D
100
AcDbEntity
  8
0
100
AcDbLine
 10
306.99485
 20
77.7518
 30
0.0
 11
307.13064
 21
74.186
 31
0.0
  0
LINE
  5
80F
330
1D
100
AcDbEntity
  8
0
100
AcDbLine
 10
306.99485
 20
77.7518
 30
0.0
 11
307.13064
 21
74.186
 31
0.0
  0
LINE
  5
810
330
1D
100
AcDbEntity
  8
0
100
AcDbLine
 10
306.93404
 20
81.4641
 30
0.0
 11
306.99485
 21
77.7518
 31
0.0
  0
LINE
  5
811
330
1D
100
AcDbEntity
  8
0
100
AcDbLine
 10
309.45182
 20
81.5561
 30
0.0
 11
309.4822
 21
77.9382
 31
0.0
  0
LINE
  5
812
330
1D
100
AcDbEntity
  8
0
100
AcDbLine
 10
309.4822
 20
77.9382
 30
0.0
 11
309.60372
 21
74.5939
 31
0.0
  0
LINE
  5
813
330
1D
100
AcDbEntity
  8
0
100
AcDbLine
 10
306.859
 20
95.0627
 30
0.0
 11
306.859
 21
85.0627
 31
0.0
  0
LINE
  5
814
330
1D
100
AcDbEntity
  8
0
100
AcDbLine
 10
306.859
 20
95.0627
 30
0.0
 11
306.859
 21
105.0627
 31
0.0
  0
LINE
  5
815
330
1D
100
AcDbEntity
  8
0
100
AcDbLine
 10
306.859
 20
85.0627
 30
0.0
 11
306.93404
 21
81.4641
 31
0.0
  0
LINE
  5
816
330
1D
100
AcDbEntity
  8
0
100
AcDbLine
 10
306.859
 20
85.0627
 30
0.0
 11
306.859
 21
95.0627
 31
0.0
  0
LINE
  5
817
330
1D
100
AcDbEntity
  8
0
100
AcDbLine
 10
306.859
 20
105.0627
 30
0.0
 11
306.93404
 21
108.6617
 31
0.0
  0
LINE
  5
818
330
1D
100
AcDbEntity
  8
0
100
AcDbLine
 10
306.859
 20
105.0627
 30
0.0
 11
306.859
 21
95.0627
 31
0.0
  0
LINE
  5
819
330
1D
100
AcDbEntity
  8
0
100
AcDbLine
 10
306.93404
 20
108.6617
 30
0.0
 11
306.99485
 21
112.3737
 31
0.0
  0
LINE
  5
81A
330
1D
100
AcDbEntity
  8
0
100
AcDbLine
 10
306.99485
 20
112.3737
 30
0.0
 11
307.13064
 21
115.9397
 31
0.0
  0
LINE
  5
81B
330
1D
100
AcDbEntity
  8
0
100
AcDbLine
 10
307.13064
 20
115.9397
 30
0.0
 11
307.29106
 21
119.0427
 31
0.0
  0
LINE
  5
81C
330
1D
100
AcDbEntity
  8
0
100
AcDbLine
 10
307.29106
 20
119.0427
 30
0.0
 11
307.48137
 21
121.9287
 31
0.0
  0
LINE
  5
81D
330
1D
100
AcDbEntity
  8
0
100
AcDbLine
 10
307.48137
 20
121.9287
 30
0.0
 11
307.72463
 21
125.0317
 31
0.0
  0
LINE
  5
81E
330
1D
100
AcDbEntity
  8
0
100
AcDbLine
 10
307.72463
 20
125.0317
 30
0.0
 11
307.96789
 21
128.1967
 31
0.0
  0
LINE
  5
81F
330
1D
100
AcDbEntity
  8
0
100
AcDbLine
 10
307.96789
 20
128.1967
 30
0.0
 11
308.45442
 21
131.1177
 31
0.0
  0
LINE
  5
820
330
1D
100
AcDbEntity
  8
0
100
AcDbLine
 10
308.45442
 20
131.1177
 30
0.0
 11
309.30583
 21
133.9177
 31
0.0
  0
LINE
  5
821
330
1D
100
AcDbEntity
  8
0
100
AcDbLine
 10
309.359
 20
105.0627
 30
0.0
 11
309.45182
 21
108.5697
 31
0.0
  0
LINE
  5
822
330
1D
100
AcDbEntity
  8
0
100
AcDbLine
 10
309.359
 20
105.0627
 30
0.0
 11
309.359
 21
95.0627
 31
0.0
  0
LINE
  5
823
330
1D
100
AcDbEntity
  8
0
100
AcDbLine
 10
309.30583
 20
133.9177
 30
0.0
 11
310.33969
 21
136.2297
 31
0.0
  0
LINE
  5
824
330
1D
100
AcDbEntity
  8
0
100
AcDbLine
 10
309.359
 20
95.0627
 30
0.0
 11
309.359
 21
85.0627
 31
0.0
  0
LINE
  5
825
330
1D
100
AcDbEntity
  8
0
100
AcDbLine
 10
309.359
 20
95.0627
 30
0.0
 11
309.359
 21
105.0627
 31
0.0
  0
LINE
  5
826
330
1D
100
AcDbEntity
  8
0
100
AcDbLine
 10
309.45182
 20
108.5697
 30
0.0
 11
309.4822
 21
112.1867
 31
0.0
  0
LINE
  5
827
330
1D
100
AcDbEntity
  8
0
100
AcDbLine
 10
309.4822
 20
112.1867
 30
0.0
 11
309.60372
 21
115.5317
 31
0.0
  0
LINE
  5
828
330
1D
100
AcDbEntity
  8
0
100
AcDbLine
 10
309.60372
 20
115.5317
 30
0.0
 11
309.75563
 21
118.7237
 31
0.0
  0
LINE
  5
829
330
1D
100
AcDbEntity
  8
0
100
AcDbLine
 10
309.75563
 20
118.7237
 30
0.0
 11
309.93792
 21
121.4907
 31
0.0
  0
LINE
  5
82A
330
1D
100
AcDbEntity
  8
0
100
AcDbLine
 10
309.93792
 20
121.4907
 30
0.0
 11
310.21134
 21
124.6527
 31
0.0
  0
LINE
  5
82B
330
1D
100
AcDbEntity
  8
0
100
AcDbLine
 10
310.21134
 20
124.6527
 30
0.0
 11
310.45439
 21
127.7837
 31
0.0
  0
LINE
  5
82C
330
1D
100
AcDbEntity
  8
0
100
AcDbLine
 10
310.45439
 20
127.7837
 30
0.0
 11
310.81897
 21
130.3377
 31
0.0
  0
LINE
  5
82D
330
1D
100
AcDbEntity
  8
0
100
AcDbLine
 10
310.81897
 20
130.3377
 30
0.0
 11
311.5785
 21
132.9217
 31
0.0
  0
LINE
  5
82E
330
1D
100
AcDbEntity
  8
0
100
AcDbLine
 10
310.33969
 20
136.2297
 30
0.0
 11
311.4952
 21
138.1777
 31
0.0
  0
LINE
  5
82F
330
1D
100
AcDbEntity
  8
0
100
AcDbLine
 10
311.5785
 20
132.9217
 30
0.0
 11
312.6115
 21
135.1717
 31
0.0
  0
LINE
  5
830
330
1D
100
AcDbEntity
  8
0
100
AcDbLine
 10
312.6115
 20
135.1717
 30
0.0
 11
313.6444
 21
136.8737
 31
0.0
  0
LINE
  5
831
330
1D
100
AcDbEntity
  8
0
100
AcDbLine
 10
319.2758
 20
132.0627
 30
0.0
 11
319.4464
 21
132.0627
 31
0.0
  0
LINE
  5
832
330
1D
100
AcDbEntity
  8
0
100
AcDbLine
 10
319.1264
 20
132.0627
 30
0.0
 11
319.2758
 21
132.0627
 31
0.0
  0
LINE
  5
833
330
1D
100
AcDbEntity
  8
0
100
AcDbLine
 10
319.4464
 20
132.0627
 30
0.0
 11
319.6422
 21
132.0627
 31
0.0
  0
LINE
  5
834
330
1D
100
AcDbEntity
  8
0
100
AcDbLine
 10
319.6422
 20
132.0627
 30
0.0
 11
319.8632
 21
132.0627
 31
0.0
  0
LINE
  5
835
330
1D
100
AcDbEntity
  8
0
100
AcDbLine
 10
319.8632
 20
132.0627
 30
0.0
 11
320.0948
 21
132.0627
 31
0.0
  0
LINE
  5
836
330
1D
100
AcDbEntity
  8
0
100
AcDbLine
 10
320.0948
 20
132.0627
 30
0.0
 11
320.3432
 21
132.0627
 31
0.0
  0
LINE
  5
837
330
1D
100
AcDbEntity
  8
0
100
AcDbLine
 10
322.0758
 20
132.0627
 30
0.0
 11
322.2716
 21
132.0627
 31
0.0
  0
LINE
  5
838
330
1D
100
AcDbEntity
  8
0
100
AcDbLine
 10
321.8548
 20
132.0627
 30
0.0
 11
322.0758
 21
132.0627
 31
0.0
  0
LINE
  5
839
330
1D
100
AcDbEntity
  8
0
100
AcDbLine
 10
321.6232
 20
132.0627
 30
0.0
 11
321.8548
 21
132.0627
 31
0.0
  0
LINE
  5
83A
330
1D
100
AcDbEntity
  8
0
100
AcDbLine
 10
321.3748
 20
132.0627
 30
0.0
 11
321.6232
 21
132.0627
 31
0.0
  0
LINE
  5
83B
330
1D
100
AcDbEntity
  8
0
100
AcDbLine
 10
321.1201
 20
132.0627
 30
0.0
 11
321.3748
 21
132.0627
 31
0.0
  0
LINE
  5
83C
330
1D
100
AcDbEntity
  8
0
100
AcDbLine
 10
320.859
 20
132.0627
 30
0.0
 11
321.1201
 21
132.0627
 31
0.0
  0
LINE
  5
83D
330
1D
100
AcDbEntity
  8
0
100
AcDbLine
 10
322.2716
 20
132.0627
 30
0.0
 11
322.4422
 21
132.0627
 31
0.0
  0
LINE
  5
83E
330
1D
100
AcDbEntity
  8
0
100
AcDbLine
 10
322.4422
 20
132.0627
 30
0.0
 11
322.5916
 21
132.0627
 31
0.0
  0
LINE
  5
83F
330
1D
100
AcDbEntity
  8
0
100
AcDbLine
 10
320.3432
 20
132.0627
 30
0.0
 11
320.5979
 21
132.0627
 31
0.0
  0
LINE
  5
840
330
1D
100
AcDbEntity
  8
0
100
AcDbLine
 10
320.5979
 20
132.0627
 30
0.0
 11
320.859
 21
132.0627
 31
0.0
  0
LINE
  5
841
330
1D
100
AcDbEntity
  8
0
100
AcDbLine
 10
332.6758
 20
134.0627
 30
0.0
 11
332.8464
 21
134.0627
 31
0.0
  0
LINE
  5
842
330
1D
100
AcDbEntity
  8
0
100
AcDbLine
 10
332.5264
 20
134.0627
 30
0.0
 11
332.6758
 21
134.0627
 31
0.0
  0
LINE
  5
843
330
1D
100
AcDbEntity
  8
0
100
AcDbLine
 10
332.8464
 20
134.0627
 30
0.0
 11
333.0422
 21
134.0627
 31
0.0
  0
LINE
  5
844
330
1D
100
AcDbEntity
  8
0
100
AcDbLine
 10
333.0422
 20
134.0627
 30
0.0
 11
333.2632
 21
134.0627
 31
0.0
  0
LINE
  5
845
330
1D
100
AcDbEntity
  8
0
100
AcDbLine
 10
333.2632
 20
134.0627
 30
0.0
 11
333.4948
 21
134.0627
 31
0.0
  0
LINE
  5
846
330
1D
100
AcDbEntity
  8
0
100
AcDbLine
 10
333.4948
 20
134.0627
 30
0.0
 11
333.7432
 21
134.0627
 31
0.0
  0
LINE
  5
847
330
1D
100
AcDbEntity
  8
0
100
AcDbLine
 10
335.4758
 20
134.0627
 30
0.0
 11
335.6716
 21
134.0627
 31
0.0
  0
LINE
  5
848
330
1D
100
AcDbEntity
  8
0
100
AcDbLine
 10
335.2548
 20
134.0627
 30
0.0
 11
335.4758
 21
134.0627
 31
0.0
  0
LINE
  5
849
330
1D
100
AcDbEntity
  8
0
100
AcDbLine
 10
335.0232
 20
134.0627
 30
0.0
 11
335.2548
 21
134.0627
 31
0.0
  0
LINE
  5
84A
330
1D
100
AcDbEntity
  8
0
100
AcDbLine
 10
334.7748
 20
134.0627
 30
0.0
 11
335.0232
 21
134.0627
 31
0.0
  0
LINE
  5
84B
330
1D
100
AcDbEntity
  8
0
100
AcDbLine
 10
334.5201
 20
134.0627
 30
0.0
 11
334.7748
 21
134.0627
 31
0.0
  0
LINE
  5
84C
330
1D
100
AcDbEntity
  8
0
100
AcDbLine
 10
334.259
 20
134.0627
 30
0.0
 11
334.5201
 21
134.0627
 31
0.0
  0
LINE
  5
84D
330
1D
100
AcDbEntity
  8
0
100
AcDbLine
 10
335.6716
 20
134.0627
 30
0.0
 11
335.8422
 21
134.0627
 31
0.0
  0
LINE
  5
84E
330
1D
100
AcDbEntity
  8
0
100
AcDbLine
 10
335.8422
 20
134.0627
 30
0.0
 11
335.9916
 21
134.0627
 31
0.0
  0
LINE
  5
84F
330
1D
100
AcDbEntity
  8
0
100
AcDbLine
 10
333.7432
 20
134.0627
 30
0.0
 11
333.998
 21
134.0627
 31
0.0
  0
LINE
  5
850
330
1D
100
AcDbEntity
  8
0
100
AcDbLine
 10
333.998
 20
134.0627
 30
0.0
 11
334.259
 21
134.0627
 31
0.0
  0
LINE
  5
851
330
1D
100
AcDbEntity
  8
0
100
AcDbLine
 10
313.6444
 20
136.8737
 30
0.0
 11
314.7381
 21
138.3337
 31
0.0
  0
LINE
  5
852
330
1D
100
AcDbEntity
  8
0
100
AcDbLine
 10
316.059
 20
139.8627
 30
0.0
 11
317.5882
 21
141.1837
 31
0.0
  0
LINE
  5
853
330
1D
100
AcDbEntity
  8
0
100
AcDbLine
 10
314.7381
 20
138.3337
 30
0.0
 11
316.059
 21
139.8627
 31
0.0
  0
LINE
  5
854
330
1D
100
AcDbEntity
  8
0
100
AcDbLine
 10
311.4952
 20
138.1777
 30
0.0
 11
312.7723
 21
139.9427
 31
0.0
  0
LINE
  5
855
330
1D
100
AcDbEntity
  8
0
100
AcDbLine
 10
315.9793
 20
143.1497
 30
0.0
 11
317.7442
 21
144.4267
 31
0.0
  0
LINE
  5
856
330
1D
100
AcDbEntity
  8
0
100
AcDbLine
 10
314.259
 20
141.6627
 30
0.0
 11
315.9793
 21
143.1497
 31
0.0
  0
LINE
  5
857
330
1D
100
AcDbEntity
  8
0
100
AcDbLine
 10
319.6916
 20
145.5817
 30
0.0
 11
322.0043
 21
146.6157
 31
0.0
  0
LINE
  5
858
330
1D
100
AcDbEntity
  8
0
100
AcDbLine
 10
317.7442
 20
144.4267
 30
0.0
 11
319.6916
 21
145.5817
 31
0.0
  0
LINE
  5
859
330
1D
100
AcDbEntity
  8
0
100
AcDbLine
 10
324.8037
 20
147.4677
 30
0.0
 11
327.7249
 21
147.9537
 31
0.0
  0
LINE
  5
85A
330
1D
100
AcDbEntity
  8
0
100
AcDbLine
 10
322.0043
 20
146.6157
 30
0.0
 11
324.8037
 21
147.4677
 31
0.0
  0
LINE
  5
85B
330
1D
100
AcDbEntity
  8
0
100
AcDbLine
 10
330.8896
 20
148.1967
 30
0.0
 11
333.9933
 21
148.4407
 31
0.0
  0
LINE
  5
85C
330
1D
100
AcDbEntity
  8
0
100
AcDbLine
 10
327.7249
 20
147.9537
 30
0.0
 11
330.8896
 21
148.1967
 31
0.0
  0
LINE
  5
85D
330
1D
100
AcDbEntity
  8
0
100
AcDbLine
 10
336.8785
 20
148.6307
 30
0.0
 11
339.9823
 21
148.7907
 31
0.0
  0
LINE
  5
85E
330
1D
100
AcDbEntity
  8
0
100
AcDbLine
 10
333.9933
 20
148.4407
 30
0.0
 11
336.8785
 21
148.6307
 31
0.0
  0
LINE
  5
85F
330
1D
100
AcDbEntity
  8
0
100
AcDbLine
 10
343.5481
 20
148.9267
 30
0.0
 11
347.2604
 21
148.9877
 31
0.0
  0
LINE
  5
860
330
1D
100
AcDbEntity
  8
0
100
AcDbLine
 10
343.5481
 20
148.9267
 30
0.0
 11
346.859
 21
148.981104250734
 31
0.0
  0
LINE
  5
861
330
1D
100
AcDbEntity
  8
0
100
AcDbLine
 10
339.9823
 20
148.7907
 30
0.0
 11
343.5481
 21
148.9267
 31
0.0
  0
LINE
  5
862
330
1D
100
AcDbEntity
  8
0
100
AcDbLine
 10
343.7345
 20
146.4397
 30
0.0
 11
347.3524
 21
146.4697
 31
0.0
  0
LINE
  5
863
330
1D
100
AcDbEntity
  8
0
100
AcDbLine
 10
340.3902
 20
146.3177
 30
0.0
 11
343.7345
 21
146.4397
 31
0.0
  0
LINE
  5
864
330
1D
100
AcDbEntity
  8
0
100
AcDbLine
 10
337.1979
 20
146.1657
 30
0.0
 11
340.3902
 21
146.3177
 31
0.0
  0
LINE
  5
865
330
1D
100
AcDbEntity
  8
0
100
AcDbLine
 10
334.4312
 20
145.9837
 30
0.0
 11
337.1979
 21
146.1657
 31
0.0
  0
LINE
  5
866
330
1D
100
AcDbEntity
  8
0
100
AcDbLine
 10
331.2694
 20
145.7107
 30
0.0
 11
334.4312
 21
145.9837
 31
0.0
  0
LINE
  5
867
330
1D
100
AcDbEntity
  8
0
100
AcDbLine
 10
328.1379
 20
145.4677
 30
0.0
 11
331.2694
 21
145.7107
 31
0.0
  0
LINE
  5
868
330
1D
100
AcDbEntity
  8
0
100
AcDbLine
 10
325.5841
 20
145.1027
 30
0.0
 11
328.1379
 21
145.4677
 31
0.0
  0
LINE
  5
869
330
1D
100
AcDbEntity
  8
0
100
AcDbLine
 10
322.9998
 20
144.3437
 30
0.0
 11
325.5841
 21
145.1027
 31
0.0
  0
LINE
  5
86A
330
1D
100
AcDbEntity
  8
0
100
AcDbLine
 10
320.75
 20
143.3107
 30
0.0
 11
322.9998
 21
144.3437
 31
0.0
  0
LINE
  5
86B
330
1D
100
AcDbEntity
  8
0
100
AcDbLine
 10
319.0475
 20
142.2777
 30
0.0
 11
320.75
 21
143.3107
 31
0.0
  0
LINE
  5
86C
330
1D
100
AcDbEntity
  8
0
100
AcDbLine
 10
317.5882
 20
141.1837
 30
0.0
 11
319.0475
 21
142.2777
 31
0.0
  0
LINE
  5
86D
330
1D
100
AcDbEntity
  8
0
100
AcDbLine
 10
312.7723
 20
139.9427
 30
0.0
 11
314.259
 21
141.6627
 31
0.0
  0
LINE
  5
86E
330
1D
100
AcDbEntity
  8
0
100
AcDbLine
 10
309.359
 20
85.0627
 30
0.0
 11
309.45182
 21
81.5561
 31
0.0
  0
LINE
  5
86F
330
1D
100
AcDbEntity
  8
0
100
AcDbLine
 10
309.359
 20
85.0627
 30
0.0
 11
309.359
 21
95.0627
 31
0.0
  0
LINE
  5
870
330
1D
100
AcDbEntity
  8
0
100
AcDbLine
 10
314.859
 20
152.4467
 30
0.0
 11
314.859
 21
153.0227
 31
0.0
  0
LINE
  5
871
330
1D
100
AcDbEntity
  8
0
100
AcDbLine
 10
314.859
 20
152.4467
 30
0.0
 11
315.6282
 21
152.0627
 31
0.0
  0
LINE
  5
872
330
1D
100
AcDbEntity
  8
0
100
AcDbLine
 10
314.859
 20
153.0227
 30
0.0
 11
314.859
 21
154.5587
 31
0.0
  0
LINE
  5
873
330
1D
100
AcDbEntity
  8
0
100
AcDbLine
 10
314.859
 20
153.0227
 30
0.0
 11
314.859
 21
152.4467
 31
0.0
  0
LINE
  5
874
330
1D
100
AcDbEntity
  8
0
100
AcDbLine
 10
315.6282
 20
152.0627
 30
0.0
 11
344.0898
 21
152.0627
 31
0.0
  0
LINE
  5
875
330
1D
100
AcDbEntity
  8
0
100
AcDbLine
 10
344.859
 20
152.4467
 30
0.0
 11
344.859
 21
153.0227
 31
0.0
  0
LINE
  5
876
330
1D
100
AcDbEntity
  8
0
100
AcDbLine
 10
344.859
 20
153.0227
 30
0.0
 11
344.859
 21
154.5587
 31
0.0
  0
LINE
  5
877
330
1D
100
AcDbEntity
  8
0
100
AcDbLine
 10
344.859
 20
153.0227
 30
0.0
 11
344.859
 21
152.4467
 31
0.0
  0
LINE
  5
878
330
1D
100
AcDbEntity
  8
0
100
AcDbLine
 10
344.0898
 20
152.0627
 30
0.0
 11
344.859
 21
152.4467
 31
0.0
  0
LINE
  5
879
330
1D
100
AcDbEntity
  8
0
100
AcDbLine
 10
314.859
 20
154.5587
 30
0.0
 11
314.859
 21
157.0547
 31
0.0
  0
LINE
  5
87A
330
1D
100
AcDbEntity
  8
0
100
AcDbLine
 10
314.859
 20
154.5587
 30
0.0
 11
314.859
 21
153.0227
 31
0.0
  0
LINE
  5
87B
330
1D
100
AcDbEntity
  8
0
100
AcDbLine
 10
344.859
 20
154.5587
 30
0.0
 11
344.859
 21
157.0547
 31
0.0
  0
LINE
  5
87C
330
1D
100
AcDbEntity
  8
0
100
AcDbLine
 10
344.859
 20
154.5587
 30
0.0
 11
344.859
 21
153.0227
 31
0.0
  0
LINE
  5
87D
330
1D
100
AcDbEntity
  8
0
100
AcDbLine
 10
344.859
 20
157.0547
 30
0.0
 11
344.859
 21
160.3187
 31
0.0
  0
LINE
  5
87E
330
1D
100
AcDbEntity
  8
0
100
AcDbLine
 10
344.859
 20
157.0547
 30
0.0
 11
344.859
 21
154.5587
 31
0.0
  0
LINE
  5
87F
330
1D
100
AcDbEntity
  8
0
100
AcDbLine
 10
314.859
 20
157.0547
 30
0.0
 11
314.859
 21
160.3187
 31
0.0
  0
LINE
  5
880
330
1D
100
AcDbEntity
  8
0
100
AcDbLine
 10
314.859
 20
157.0547
 30
0.0
 11
314.859
 21
154.5587
 31
0.0
  0
LINE
  5
881
330
1D
100
AcDbEntity
  8
0
100
AcDbLine
 10
344.859
 20
160.3187
 30
0.0
 11
344.859
 21
164.0307
 31
0.0
  0
LINE
  5
882
330
1D
100
AcDbEntity
  8
0
100
AcDbLine
 10
344.859
 20
160.3187
 30
0.0
 11
344.859
 21
157.0547
 31
0.0
  0
LINE
  5
883
330
1D
100
AcDbEntity
  8
0
100
AcDbLine
 10
314.859
 20
160.3187
 30
0.0
 11
314.859
 21
164.0307
 31
0.0
  0
LINE
  5
884
330
1D
100
AcDbEntity
  8
0
100
AcDbLine
 10
314.859
 20
160.3187
 30
0.0
 11
314.859
 21
157.0547
 31
0.0
  0
LINE
  5
885
330
1D
100
AcDbEntity
  8
0
100
AcDbLine
 10
313.6873
 20
165.0627
 30
0.0
 11
315.6282
 21
165.0627
 31
0.0
  0
LINE
  5
886
330
1D
100
AcDbEntity
  8
0
100
AcDbLine
 10
313.6873
 20
165.0627
 30
0.0
 11
314.4177
 21
165.1707
 31
0.0
  0
LINE
  5
887
330
1D
100
AcDbEntity
  8
0
100
AcDbLine
 10
314.4177
 20
165.1707
 30
0.0
 11
315.1024
 21
165.4587
 31
0.0
  0
LINE
  5
888
330
1D
100
AcDbEntity
  8
0
100
AcDbLine
 10
312.9569
 20
165.1707
 30
0.0
 11
313.6873
 21
165.0627
 31
0.0
  0
LINE
  5
889
330
1D
100
AcDbEntity
  8
0
100
AcDbLine
 10
312.2721
 20
165.4587
 30
0.0
 11
312.9569
 21
165.1707
 31
0.0
  0
LINE
  5
88A
330
1D
100
AcDbEntity
  8
0
100
AcDbLine
 10
311.6672
 20
165.9387
 30
0.0
 11
312.2721
 21
165.4587
 31
0.0
  0
LINE
  5
88B
330
1D
100
AcDbEntity
  8
0
100
AcDbLine
 10
311.2107
 20
166.5747
 30
0.0
 11
311.6672
 21
165.9387
 31
0.0
  0
LINE
  5
88C
330
1D
100
AcDbEntity
  8
0
100
AcDbLine
 10
312.9569
 20
170.9547
 30
0.0
 11
313.6873
 21
171.0627
 31
0.0
  0
LINE
  5
88D
330
1D
100
AcDbEntity
  8
0
100
AcDbLine
 10
312.2721
 20
170.6667
 30
0.0
 11
312.9569
 21
170.9547
 31
0.0
  0
LINE
  5
88E
330
1D
100
AcDbEntity
  8
0
100
AcDbLine
 10
311.6672
 20
170.1867
 30
0.0
 11
312.2721
 21
170.6667
 31
0.0
  0
LINE
  5
88F
330
1D
100
AcDbEntity
  8
0
100
AcDbLine
 10
311.2107
 20
169.5507
 30
0.0
 11
311.6672
 21
170.1867
 31
0.0
  0
LINE
  5
890
330
1D
100
AcDbEntity
  8
0
100
AcDbLine
 10
310.9368
 20
168.8307
 30
0.0
 11
311.2107
 21
169.5507
 31
0.0
  0
LINE
  5
891
330
1D
100
AcDbEntity
  8
0
100
AcDbLine
 10
313.6873
 20
171.0627
 30
0.0
 11
314.4177
 21
170.9547
 31
0.0
  0
LINE
  5
892
330
1D
100
AcDbEntity
  8
0
100
AcDbLine
 10
313.6873
 20
171.0627
 30
0.0
 11
315.6282
 21
171.0627
 31
0.0
  0
LINE
  5
893
330
1D
100
AcDbEntity
  8
0
100
AcDbLine
 10
314.4177
 20
170.9547
 30
0.0
 11
315.1024
 21
170.6667
 31
0.0
  0
LINE
  5
894
330
1D
100
AcDbEntity
  8
0
100
AcDbLine
 10
310.9368
 20
167.2947
 30
0.0
 11
311.2107
 21
166.5747
 31
0.0
  0
LINE
  5
895
330
1D
100
AcDbEntity
  8
0
100
AcDbLine
 10
310.8341
 20
168.0627
 30
0.0
 11
310.9368
 21
167.2947
 31
0.0
  0
LINE
  5
896
330
1D
100
AcDbEntity
  8
0
100
AcDbLine
 10
310.8341
 20
168.0627
 30
0.0
 11
310.9368
 21
168.8307
 31
0.0
  0
LINE
  5
897
330
1D
100
AcDbEntity
  8
0
100
AcDbLine
 10
314.859
 20
172.0947
 30
0.0
 11
314.859
 21
175.8067
 31
0.0
  0
LINE
  5
898
330
1D
100
AcDbEntity
  8
0
100
AcDbLine
 10
314.859
 20
172.0947
 30
0.0
 11
314.859
 21
171.0627
 31
0.0
  0
LINE
  5
899
330
1D
100
AcDbEntity
  8
0
100
AcDbLine
 10
314.859
 20
171.0627
 30
0.0
 11
314.859
 21
172.0947
 31
0.0
  0
LINE
  5
89A
330
1D
100
AcDbEntity
  8
0
100
AcDbLine
 10
314.859
 20
165.0627
 30
0.0
 11
314.859
 21
164.0307
 31
0.0
  0
LINE
  5
89B
330
1D
100
AcDbEntity
  8
0
100
AcDbLine
 10
315.1024
 20
165.4587
 30
0.0
 11
315.7073
 21
165.9387
 31
0.0
  0
LINE
  5
89C
330
1D
100
AcDbEntity
  8
0
100
AcDbLine
 10
315.7073
 20
165.9387
 30
0.0
 11
316.1638
 21
166.5747
 31
0.0
  0
LINE
  5
89D
330
1D
100
AcDbEntity
  8
0
100
AcDbLine
 10
315.1024
 20
170.6667
 30
0.0
 11
315.7073
 21
170.1867
 31
0.0
  0
LINE
  5
89E
330
1D
100
AcDbEntity
  8
0
100
AcDbLine
 10
315.7073
 20
170.1867
 30
0.0
 11
316.1638
 21
169.5507
 31
0.0
  0
LINE
  5
89F
330
1D
100
AcDbEntity
  8
0
100
AcDbLine
 10
316.1638
 20
169.5507
 30
0.0
 11
316.4377
 21
168.8307
 31
0.0
  0
LINE
  5
8A0
330
1D
100
AcDbEntity
  8
0
100
AcDbLine
 10
316.4377
 20
168.8307
 30
0.0
 11
316.5404
 21
168.0627
 31
0.0
  0
LINE
  5
8A1
330
1D
100
AcDbEntity
  8
0
100
AcDbLine
 10
316.1638
 20
166.5747
 30
0.0
 11
316.4377
 21
167.2947
 31
0.0
  0
LINE
  5
8A2
330
1D
100
AcDbEntity
  8
0
100
AcDbLine
 10
316.4377
 20
167.2947
 30
0.0
 11
316.5404
 21
168.0627
 31
0.0
  0
LINE
  5
8A3
330
1D
100
AcDbEntity
  8
0
100
AcDbLine
 10
344.859
 20
172.0947
 30
0.0
 11
344.859
 21
175.8067
 31
0.0
  0
LINE
  5
8A4
330
1D
100
AcDbEntity
  8
0
100
AcDbLine
 10
344.859
 20
172.0947
 30
0.0
 11
344.859
 21
168.0627
 31
0.0
  0
LINE
  5
8A5
330
1D
100
AcDbEntity
  8
0
100
AcDbLine
 10
344.859
 20
168.0627
 30
0.0
 11
344.859
 21
164.0307
 31
0.0
  0
LINE
  5
8A6
330
1D
100
AcDbEntity
  8
0
100
AcDbLine
 10
344.859
 20
168.0627
 30
0.0
 11
344.859
 21
172.0947
 31
0.0
  0
LINE
  5
8A7
330
1D
100
AcDbEntity
  8
0
100
AcDbLine
 10
344.859
 20
164.0307
 30
0.0
 11
344.859
 21
168.0627
 31
0.0
  0
LINE
  5
8A8
330
1D
100
AcDbEntity
  8
0
100
AcDbLine
 10
344.859
 20
164.0307
 30
0.0
 11
344.859
 21
160.3187
 31
0.0
  0
LINE
  5
8A9
330
1D
100
AcDbEntity
  8
0
100
AcDbLine
 10
314.859
 20
164.0307
 30
0.0
 11
314.859
 21
165.0627
 31
0.0
  0
LINE
  5
8AA
330
1D
100
AcDbEntity
  8
0
100
AcDbLine
 10
314.859
 20
164.0307
 30
0.0
 11
314.859
 21
160.3187
 31
0.0
  0
LINE
  5
8AB
330
1D
100
AcDbEntity
  8
0
100
AcDbLine
 10
344.859
 20
163.8917
 30
0.0
 11
344.859
 21
160.0407
 31
0.0
  0
LINE
  5
8AC
330
1D
100
AcDbEntity
  8
0
100
AcDbLine
 10
344.859
 20
168.0187
 30
0.0
 11
344.859
 21
163.8917
 31
0.0
  0
LINE
  5
8AD
330
1D
100
AcDbEntity
  8
0
100
AcDbLine
 10
314.859
 20
179.0707
 30
0.0
 11
314.859
 21
181.5667
 31
0.0
  0
LINE
  5
8AE
330
1D
100
AcDbEntity
  8
0
100
AcDbLine
 10
314.859
 20
179.0707
 30
0.0
 11
314.859
 21
175.8067
 31
0.0
  0
LINE
  5
8AF
330
1D
100
AcDbEntity
  8
0
100
AcDbLine
 10
344.859
 20
179.0707
 30
0.0
 11
344.859
 21
181.5667
 31
0.0
  0
LINE
  5
8B0
330
1D
100
AcDbEntity
  8
0
100
AcDbLine
 10
344.859
 20
179.0707
 30
0.0
 11
344.859
 21
175.8067
 31
0.0
  0
LINE
  5
8B1
330
1D
100
AcDbEntity
  8
0
100
AcDbLine
 10
344.859
 20
175.8067
 30
0.0
 11
344.859
 21
179.0707
 31
0.0
  0
LINE
  5
8B2
330
1D
100
AcDbEntity
  8
0
100
AcDbLine
 10
344.859
 20
175.8067
 30
0.0
 11
344.859
 21
172.0947
 31
0.0
  0
LINE
  5
8B3
330
1D
100
AcDbEntity
  8
0
100
AcDbLine
 10
314.859
 20
175.8067
 30
0.0
 11
314.859
 21
179.0707
 31
0.0
  0
LINE
  5
8B4
330
1D
100
AcDbEntity
  8
0
100
AcDbLine
 10
314.859
 20
175.8067
 30
0.0
 11
314.859
 21
172.0947
 31
0.0
  0
LINE
  5
8B5
330
1D
100
AcDbEntity
  8
0
100
AcDbLine
 10
344.859
 20
172.1767
 30
0.0
 11
344.859
 21
168.0187
 31
0.0
  0
LINE
  5
8B6
330
1D
100
AcDbEntity
  8
0
100
AcDbLine
 10
344.859
 20
176.0787
 30
0.0
 11
344.859
 21
172.1767
 31
0.0
  0
LINE
  5
8B7
330
1D
100
AcDbEntity
  8
0
100
AcDbLine
 10
314.859
 20
183.1027
 30
0.0
 11
314.859
 21
183.6787
 31
0.0
  0
LINE
  5
8B8
330
1D
100
AcDbEntity
  8
0
100
AcDbLine
 10
314.859
 20
183.1027
 30
0.0
 11
314.859
 21
181.5667
 31
0.0
  0
LINE
  5
8B9
330
1D
100
AcDbEntity
  8
0
100
AcDbLine
 10
314.859
 20
183.6787
 30
0.0
 11
315.6282
 21
184.0627
 31
0.0
  0
LINE
  5
8BA
330
1D
100
AcDbEntity
  8
0
100
AcDbLine
 10
314.859
 20
183.6787
 30
0.0
 11
314.859
 21
183.1027
 31
0.0
  0
LINE
  5
8BB
330
1D
100
AcDbEntity
  8
0
100
AcDbLine
 10
314.859
 20
181.5667
 30
0.0
 11
314.859
 21
183.1027
 31
0.0
  0
LINE
  5
8BC
330
1D
100
AcDbEntity
  8
0
100
AcDbLine
 10
314.859
 20
181.5667
 30
0.0
 11
314.859
 21
179.0707
 31
0.0
  0
LINE
  5
8BD
330
1D
100
AcDbEntity
  8
0
100
AcDbLine
 10
315.6282
 20
184.0627
 30
0.0
 11
344.0898
 21
184.0627
 31
0.0
  0
LINE
  5
8BE
330
1D
100
AcDbEntity
  8
0
100
AcDbLine
 10
344.859
 20
183.1027
 30
0.0
 11
344.859
 21
183.6787
 31
0.0
  0
LINE
  5
8BF
330
1D
100
AcDbEntity
  8
0
100
AcDbLine
 10
344.859
 20
183.1027
 30
0.0
 11
344.859
 21
181.5667
 31
0.0
  0
LINE
  5
8C0
330
1D
100
AcDbEntity
  8
0
100
AcDbLine
 10
344.859
 20
181.5667
 30
0.0
 11
344.859
 21
183.1027
 31
0.0
  0
LINE
  5
8C1
330
1D
100
AcDbEntity
  8
0
100
AcDbLine
 10
344.859
 20
181.5667
 30
0.0
 11
344.859
 21
179.0707
 31
0.0
  0
LINE
  5
8C2
330
1D
100
AcDbEntity
  8
0
100
AcDbLine
 10
344.0898
 20
184.0627
 30
0.0
 11
344.859
 21
183.6787
 31
0.0
  0
LINE
  5
8C3
330
1D
100
AcDbEntity
  8
0
100
AcDbLine
 10
344.859
 20
179.3277
 30
0.0
 11
344.859
 21
176.0787
 31
0.0
  0
LINE
  5
8C4
330
1D
100
AcDbEntity
  8
0
100
AcDbLine
 10
344.859
 20
181.8977
 30
0.0
 11
344.859
 21
179.3277
 31
0.0
  0
LINE
  5
8C5
330
1D
100
AcDbEntity
  8
0
100
AcDbLine
 10
344.859
 20
160.0407
 30
0.0
 11
344.859
 21
156.7897
 31
0.0
  0
LINE
  5
8C6
330
1D
100
AcDbEntity
  8
0
100
AcDbLine
 10
344.859
 20
156.7897
 30
0.0
 11
344.859
 21
154.1627
 31
0.0
  0
LINE
  5
8C7
330
1D
100
AcDbEntity
  8
0
100
AcDbLine
 10
344.859
 20
154.1627
 30
0.0
 11
344.859
 21
152.6047
 31
0.0
  0
LINE
  5
8C8
330
1D
100
AcDbEntity
  8
0
100
AcDbLine
 10
344.859
 20
152.6047
 30
0.0
 11
344.859
 21
152.0027
 31
0.0
  0
LINE
  5
8C9
330
1D
100
AcDbEntity
  8
0
100
AcDbLine
 10
344.859
 20
152.0027
 30
0.0
 11
344.859
 21
152.4467
 31
0.0
  0
LINE
  5
8CA
330
1D
100
AcDbEntity
  8
0
100
AcDbLine
 10
344.859
 20
152.0027
 30
0.0
 11
384.549486797922
 21
152.0027
 31
0.0
  0
LINE
  5
8CB
330
1D
100
AcDbEntity
  8
0
100
AcDbLine
 10
344.859
 20
152.0027
 30
0.0
 11
384.549486797922
 21
152.0027
 31
0.0
  0
LINE
  5
8CC
330
1D
100
AcDbEntity
  8
0
100
AcDbLine
 10
344.859
 20
183.6787
 30
0.0
 11
344.859
 21
184.0787
 31
0.0
  0
LINE
  5
8CD
330
1D
100
AcDbEntity
  8
0
100
AcDbLine
 10
344.859
 20
183.6787
 30
0.0
 11
344.859
 21
183.1027
 31
0.0
  0
LINE
  5
8CE
330
1D
100
AcDbEntity
  8
0
100
AcDbLine
 10
344.859
 20
184.0787
 30
0.0
 11
344.859
 21
183.4277
 31
0.0
  0
LINE
  5
8CF
330
1D
100
AcDbEntity
  8
0
100
AcDbLine
 10
344.859
 20
184.0787
 30
0.0
 11
350.859
 21
184.0787
 31
0.0
  0
LINE
  5
8D0
330
1D
100
AcDbEntity
  8
0
100
AcDbLine
 10
344.859
 20
184.0787
 30
0.0
 11
350.859
 21
184.0787
 31
0.0
  0
LINE
  5
8D1
330
1D
100
AcDbEntity
  8
0
100
AcDbLine
 10
345.9758
 20
136.0627
 30
0.0
 11
346.1464
 21
136.0627
 31
0.0
  0
LINE
  5
8D2
330
1D
100
AcDbEntity
  8
0
100
AcDbLine
 10
345.8264
 20
136.0627
 30
0.0
 11
345.9758
 21
136.0627
 31
0.0
  0
LINE
  5
8D3
330
1D
100
AcDbEntity
  8
0
100
AcDbLine
 10
344.859
 20
183.4277
 30
0.0
 11
344.859
 21
181.8977
 31
0.0
  0
LINE
  5
8D4
330
1D
100
AcDbEntity
  8
0
100
AcDbLine
 10
346.1464
 20
136.0627
 30
0.0
 11
346.3422
 21
136.0627
 31
0.0
  0
LINE
  5
8D5
330
1D
100
AcDbEntity
  8
0
100
AcDbLine
 10
346.3422
 20
136.0627
 30
0.0
 11
346.5632
 21
136.0627
 31
0.0
  0
LINE
  5
8D6
330
1D
100
AcDbEntity
  8
0
100
AcDbLine
 10
346.5632
 20
136.0627
 30
0.0
 11
346.7948
 21
136.0627
 31
0.0
  0
LINE
  5
8D7
330
1D
100
AcDbEntity
  8
0
100
AcDbLine
 10
346.7948
 20
136.0627
 30
0.0
 11
347.0432
 21
136.0627
 31
0.0
  0
LINE
  5
8D8
330
1D
100
AcDbEntity
  8
0
100
AcDbLine
 10
347.0432
 20
136.0627
 30
0.0
 11
347.2979
 21
136.0627
 31
0.0
  0
LINE
  5
8D9
330
1D
100
AcDbEntity
  8
0
100
AcDbLine
 10
347.2979
 20
136.0627
 30
0.0
 11
347.559
 21
136.0627
 31
0.0
  0
LINE
  5
8DA
330
1D
100
AcDbEntity
  8
0
100
AcDbLine
 10
346.859
 20
148.981104250734
 30
0.0
 11
346.859
 21
152.0027
 31
0.0
  0
LINE
  5
8DB
330
1D
100
AcDbEntity
  8
0
100
AcDbLine
 10
346.859
 20
152.0027
 30
0.0
 11
346.859
 21
148.981104250734
 31
0.0
  0
LINE
  5
8DC
330
1D
100
AcDbEntity
  8
0
100
AcDbLine
 10
347.2604
 20
148.9877
 30
0.0
 11
350.859
 21
149.0627
 31
0.0
  0
LINE
  5
8DD
330
1D
100
AcDbEntity
  8
0
100
AcDbLine
 10
348.7758
 20
136.0627
 30
0.0
 11
348.9716
 21
136.0627
 31
0.0
  0
LINE
  5
8DE
330
1D
100
AcDbEntity
  8
0
100
AcDbLine
 10
348.5548
 20
136.0627
 30
0.0
 11
348.7758
 21
136.0627
 31
0.0
  0
LINE
  5
8DF
330
1D
100
AcDbEntity
  8
0
100
AcDbLine
 10
348.3232
 20
136.0627
 30
0.0
 11
348.5548
 21
136.0627
 31
0.0
  0
LINE
  5
8E0
330
1D
100
AcDbEntity
  8
0
100
AcDbLine
 10
348.0748
 20
136.0627
 30
0.0
 11
348.3232
 21
136.0627
 31
0.0
  0
LINE
  5
8E1
330
1D
100
AcDbEntity
  8
0
100
AcDbLine
 10
347.82
 20
136.0627
 30
0.0
 11
348.0748
 21
136.0627
 31
0.0
  0
LINE
  5
8E2
330
1D
100
AcDbEntity
  8
0
100
AcDbLine
 10
347.559
 20
136.0627
 30
0.0
 11
347.82
 21
136.0627
 31
0.0
  0
LINE
  5
8E3
330
1D
100
AcDbEntity
  8
0
100
AcDbLine
 10
348.9716
 20
136.0627
 30
0.0
 11
349.1422
 21
136.0627
 31
0.0
  0
LINE
  5
8E4
330
1D
100
AcDbEntity
  8
0
100
AcDbLine
 10
349.1422
 20
136.0627
 30
0.0
 11
349.2916
 21
136.0627
 31
0.0
  0
LINE
  5
8E5
330
1D
100
AcDbEntity
  8
0
100
AcDbLine
 10
347.3524
 20
146.4697
 30
0.0
 11
350.859
 21
146.5627
 31
0.0
  0
LINE
  5
8E6
330
1D
100
AcDbEntity
  8
0
100
AcDbLine
 10
350.859
 20
149.0627
 30
0.0
 11
360.859
 21
149.0627
 31
0.0
  0
LINE
  5
8E7
330
1D
100
AcDbEntity
  8
0
100
AcDbLine
 10
350.859
 20
146.5627
 30
0.0
 11
360.859
 21
146.5627
 31
0.0
  0
LINE
  5
8E8
330
1D
100
AcDbEntity
  8
0
100
AcDbLine
 10
351.311
 20
162.6067
 30
0.0
 11
353.071
 21
160.2747
 31
0.0
  0
LINE
  5
8E9
330
1D
100
AcDbEntity
  8
0
100
AcDbLine
 10
350.859
 20
172.3887
 30
0.0
 11
350.859
 21
203.0627
 31
0.0
  0
LINE
  5
8EA
330
1D
100
AcDbEntity
  8
0
100
AcDbLine
 10
351.311
 20
173.5187
 30
0.0
 11
353.071
 21
175.8507
 31
0.0
  0
LINE
  5
8EB
330
1D
100
AcDbEntity
  8
0
100
AcDbLine
 10
350.255
 20
170.8787
 30
0.0
 11
351.311
 21
173.5187
 31
0.0
  0
LINE
  5
8EC
330
1D
100
AcDbEntity
  8
0
100
AcDbLine
 10
350.255
 20
165.2467
 30
0.0
 11
351.311
 21
162.6067
 31
0.0
  0
LINE
  5
8ED
330
1D
100
AcDbEntity
  8
0
100
AcDbLine
 10
349.859
 20
168.0627
 30
0.0
 11
350.255
 21
165.2467
 31
0.0
  0
LINE
  5
8EE
330
1D
100
AcDbEntity
  8
0
100
AcDbLine
 10
349.859
 20
168.0627
 30
0.0
 11
350.255
 21
170.8787
 31
0.0
  0
LINE
  5
8EF
330
1D
100
AcDbEntity
  8
0
100
AcDbLine
 10
350.859
 20
203.0627
 30
0.0
 11
350.859
 21
172.3887
 31
0.0
  0
LINE
  5
8F0
330
1D
100
AcDbEntity
  8
0
100
AcDbLine
 10
350.859
 20
203.0627
 30
0.0
 11
370.859
 21
203.0627
 31
0.0
  0
LINE
  5
8F1
330
1D
100
AcDbEntity
  8
0
100
AcDbLine
 10
350.859
 20
203.0627
 30
0.0
 11
350.859
 21
184.0787
 31
0.0
  0
LINE
  5
8F2
330
1D
100
AcDbEntity
  8
0
100
AcDbLine
 10
350.859
 20
184.0787
 30
0.0
 11
350.859
 21
203.0627
 31
0.0
  0
LINE
  5
8F3
330
1D
100
AcDbEntity
  8
0
100
AcDbLine
 10
355.403
 20
158.5147
 30
0.0
 11
358.043
 21
157.4587
 31
0.0
  0
LINE
  5
8F4
330
1D
100
AcDbEntity
  8
0
100
AcDbLine
 10
353.071
 20
175.8507
 30
0.0
 11
355.403
 21
177.6107
 31
0.0
  0
LINE
  5
8F5
330
1D
100
AcDbEntity
  8
0
100
AcDbLine
 10
355.403
 20
177.6107
 30
0.0
 11
358.043
 21
178.6667
 31
0.0
  0
LINE
  5
8F6
330
1D
100
AcDbEntity
  8
0
100
AcDbLine
 10
353.071
 20
160.2747
 30
0.0
 11
355.403
 21
158.5147
 31
0.0
  0
LINE
  5
8F7
330
1D
100
AcDbEntity
  8
0
100
AcDbLine
 10
358.043
 20
178.6667
 30
0.0
 11
360.859
 21
179.0627
 31
0.0
  0
LINE
  5
8F8
330
1D
100
AcDbEntity
  8
0
100
AcDbLine
 10
358.043
 20
157.4587
 30
0.0
 11
360.859
 21
157.0627
 31
0.0
  0
LINE
  5
8F9
330
1D
100
AcDbEntity
  8
0
100
AcDbLine
 10
359.2758
 20
138.0627
 30
0.0
 11
359.4464
 21
138.0627
 31
0.0
  0
LINE
  5
8FA
330
1D
100
AcDbEntity
  8
0
100
AcDbLine
 10
359.1264
 20
138.0627
 30
0.0
 11
359.2758
 21
138.0627
 31
0.0
  0
LINE
  5
8FB
330
1D
100
AcDbEntity
  8
0
100
AcDbLine
 10
359.4464
 20
138.0627
 30
0.0
 11
359.6422
 21
138.0627
 31
0.0
  0
LINE
  5
8FC
330
1D
100
AcDbEntity
  8
0
100
AcDbLine
 10
359.6422
 20
138.0627
 30
0.0
 11
359.8632
 21
138.0627
 31
0.0
  0
LINE
  5
8FD
330
1D
100
AcDbEntity
  8
0
100
AcDbLine
 10
359.8632
 20
138.0627
 30
0.0
 11
360.0948
 21
138.0627
 31
0.0
  0
LINE
  5
8FE
330
1D
100
AcDbEntity
  8
0
100
AcDbLine
 10
360.0948
 20
138.0627
 30
0.0
 11
360.3432
 21
138.0627
 31
0.0
  0
LINE
  5
8FF
330
1D
100
AcDbEntity
  8
0
100
AcDbLine
 10
360.3432
 20
138.0627
 30
0.0
 11
360.5979
 21
138.0627
 31
0.0
  0
LINE
  5
900
330
1D
100
AcDbEntity
  8
0
100
AcDbLine
 10
360.859
 20
138.0627
 30
0.0
 11
361.1201
 21
138.0627
 31
0.0
  0
LINE
  5
901
330
1D
100
AcDbEntity
  8
0
100
AcDbLine
 10
360.5979
 20
138.0627
 30
0.0
 11
360.859
 21
138.0627
 31
0.0
  0
LINE
  5
902
330
1D
100
AcDbEntity
  8
0
100
AcDbLine
 10
360.859
 20
146.5627
 30
0.0
 11
370.859
 21
146.5627
 31
0.0
  0
LINE
  5
903
330
1D
100
AcDbEntity
  8
0
100
AcDbLine
 10
360.859
 20
149.0627
 30
0.0
 11
370.859
 21
149.0627
 31
0.0
  0
LINE
  5
904
330
1D
100
AcDbEntity
  8
0
100
AcDbLine
 10
362.0758
 20
138.0627
 30
0.0
 11
362.2716
 21
138.0627
 31
0.0
  0
LINE
  5
905
330
1D
100
AcDbEntity
  8
0
100
AcDbLine
 10
361.8548
 20
138.0627
 30
0.0
 11
362.0758
 21
138.0627
 31
0.0
  0
LINE
  5
906
330
1D
100
AcDbEntity
  8
0
100
AcDbLine
 10
361.6232
 20
138.0627
 30
0.0
 11
361.8548
 21
138.0627
 31
0.0
  0
LINE
  5
907
330
1D
100
AcDbEntity
  8
0
100
AcDbLine
 10
361.3748
 20
138.0627
 30
0.0
 11
361.6232
 21
138.0627
 31
0.0
  0
LINE
  5
908
330
1D
100
AcDbEntity
  8
0
100
AcDbLine
 10
361.1201
 20
138.0627
 30
0.0
 11
361.3748
 21
138.0627
 31
0.0
  0
LINE
  5
909
330
1D
100
AcDbEntity
  8
0
100
AcDbLine
 10
362.2716
 20
138.0627
 30
0.0
 11
362.4422
 21
138.0627
 31
0.0
  0
LINE
  5
90A
330
1D
100
AcDbEntity
  8
0
100
AcDbLine
 10
362.4422
 20
138.0627
 30
0.0
 11
362.5916
 21
138.0627
 31
0.0
  0
LINE
  5
90B
330
1D
100
AcDbEntity
  8
0
100
AcDbLine
 10
363.675
 20
157.4587
 30
0.0
 11
366.315
 21
158.5147
 31
0.0
  0
LINE
  5
90C
330
1D
100
AcDbEntity
  8
0
100
AcDbLine
 10
370.859
 20
146.5627
 30
0.0
 11
374.3656
 21
146.4697
 31
0.0
  0
LINE
  5
90D
330
1D
100
AcDbEntity
  8
0
100
AcDbLine
 10
370.859
 20
149.0627
 30
0.0
 11
374.4576
 21
148.9877
 31
0.0
  0
LINE
  5
90E
330
1D
100
AcDbEntity
  8
0
100
AcDbLine
 10
366.315
 20
158.5147
 30
0.0
 11
368.647
 21
160.2747
 31
0.0
  0
LINE
  5
90F
330
1D
100
AcDbEntity
  8
0
100
AcDbLine
 10
368.647
 20
160.2747
 30
0.0
 11
370.407
 21
162.6067
 31
0.0
  0
LINE
  5
910
330
1D
100
AcDbEntity
  8
0
100
AcDbLine
 10
360.859
 20
157.0627
 30
0.0
 11
363.675
 21
157.4587
 31
0.0
  0
LINE
  5
911
330
1D
100
AcDbEntity
  8
0
100
AcDbLine
 10
360.859
 20
179.0627
 30
0.0
 11
363.675
 21
178.6667
 31
0.0
  0
LINE
  5
912
330
1D
100
AcDbEntity
  8
0
100
AcDbLine
 10
363.675
 20
178.6667
 30
0.0
 11
366.315
 21
177.6107
 31
0.0
  0
LINE
  5
913
330
1D
100
AcDbEntity
  8
0
100
AcDbLine
 10
366.315
 20
177.6107
 30
0.0
 11
368.647
 21
175.8507
 31
0.0
  0
LINE
  5
914
330
1D
100
AcDbEntity
  8
0
100
AcDbLine
 10
368.647
 20
175.8507
 30
0.0
 11
370.407
 21
173.5187
 31
0.0
  0
LINE
  5
915
330
1D
100
AcDbEntity
  8
0
100
AcDbLine
 10
370.859
 20
172.3887
 30
0.0
 11
370.859
 21
203.0627
 31
0.0
  0
LINE
  5
916
330
1D
100
AcDbEntity
  8
0
100
AcDbLine
 10
370.407
 20
173.5187
 30
0.0
 11
371.463
 21
170.8787
 31
0.0
  0
LINE
  5
917
330
1D
100
AcDbEntity
  8
0
100
AcDbLine
 10
371.463
 20
170.8787
 30
0.0
 11
371.859
 21
168.0627
 31
0.0
  0
LINE
  5
918
330
1D
100
AcDbEntity
  8
0
100
AcDbLine
 10
370.407
 20
162.6067
 30
0.0
 11
371.463
 21
165.2467
 31
0.0
  0
LINE
  5
919
330
1D
100
AcDbEntity
  8
0
100
AcDbLine
 10
372.7464
 20
136.0627
 30
0.0
 11
372.9422
 21
136.0627
 31
0.0
  0
LINE
  5
91A
330
1D
100
AcDbEntity
  8
0
100
AcDbLine
 10
372.9422
 20
136.0627
 30
0.0
 11
373.1632
 21
136.0627
 31
0.0
  0
LINE
  5
91B
330
1D
100
AcDbEntity
  8
0
100
AcDbLine
 10
373.1632
 20
136.0627
 30
0.0
 11
373.3948
 21
136.0627
 31
0.0
  0
LINE
  5
91C
330
1D
100
AcDbEntity
  8
0
100
AcDbLine
 10
373.3948
 20
136.0627
 30
0.0
 11
373.6432
 21
136.0627
 31
0.0
  0
LINE
  5
91D
330
1D
100
AcDbEntity
  8
0
100
AcDbLine
 10
373.6432
 20
136.0627
 30
0.0
 11
373.8979
 21
136.0627
 31
0.0
  0
LINE
  5
91E
330
1D
100
AcDbEntity
  8
0
100
AcDbLine
 10
373.8979
 20
136.0627
 30
0.0
 11
374.159
 21
136.0627
 31
0.0
  0
LINE
  5
91F
330
1D
100
AcDbEntity
  8
0
100
AcDbLine
 10
372.5758
 20
136.0627
 30
0.0
 11
372.7464
 21
136.0627
 31
0.0
  0
LINE
  5
920
330
1D
100
AcDbEntity
  8
0
100
AcDbLine
 10
372.4264
 20
136.0627
 30
0.0
 11
372.5758
 21
136.0627
 31
0.0
  0
LINE
  5
921
330
1D
100
AcDbEntity
  8
0
100
AcDbLine
 10
375.5716
 20
136.0627
 30
0.0
 11
375.7422
 21
136.0627
 31
0.0
  0
LINE
  5
922
330
1D
100
AcDbEntity
  8
0
100
AcDbLine
 10
375.7422
 20
136.0627
 30
0.0
 11
375.8916
 21
136.0627
 31
0.0
  0
LINE
  5
923
330
1D
100
AcDbEntity
  8
0
100
AcDbLine
 10
375.3758
 20
136.0627
 30
0.0
 11
375.5716
 21
136.0627
 31
0.0
  0
LINE
  5
924
330
1D
100
AcDbEntity
  8
0
100
AcDbLine
 10
375.1548
 20
136.0627
 30
0.0
 11
375.3758
 21
136.0627
 31
0.0
  0
LINE
  5
925
330
1D
100
AcDbEntity
  8
0
100
AcDbLine
 10
374.9232
 20
136.0627
 30
0.0
 11
375.1548
 21
136.0627
 31
0.0
  0
LINE
  5
926
330
1D
100
AcDbEntity
  8
0
100
AcDbLine
 10
374.6748
 20
136.0627
 30
0.0
 11
374.9232
 21
136.0627
 31
0.0
  0
LINE
  5
927
330
1D
100
AcDbEntity
  8
0
100
AcDbLine
 10
374.4201
 20
136.0627
 30
0.0
 11
374.6748
 21
136.0627
 31
0.0
  0
LINE
  5
928
330
1D
100
AcDbEntity
  8
0
100
AcDbLine
 10
374.159
 20
136.0627
 30
0.0
 11
374.4201
 21
136.0627
 31
0.0
  0
LINE
  5
929
330
1D
100
AcDbEntity
  8
0
100
AcDbLine
 10
374.3656
 20
146.4697
 30
0.0
 11
377.9835
 21
146.4397
 31
0.0
  0
LINE
  5
92A
330
1D
100
AcDbEntity
  8
0
100
AcDbLine
 10
377.9835
 20
146.4397
 30
0.0
 11
381.3278
 21
146.3177
 31
0.0
  0
LINE
  5
92B
330
1D
100
AcDbEntity
  8
0
100
AcDbLine
 10
381.3278
 20
146.3177
 30
0.0
 11
384.064724815283
 21
146.187382494777
 31
0.0
  0
LINE
  5
92C
330
1D
100
AcDbEntity
  8
0
100
AcDbLine
 10
374.859
 20
148.981104250734
 30
0.0
 11
378.1699
 21
148.9267
 31
0.0
  0
LINE
  5
92D
330
1D
100
AcDbEntity
  8
0
100
AcDbLine
 10
374.859
 20
148.981104250734
 30
0.0
 11
374.859
 21
152.0027
 31
0.0
  0
LINE
  5
92E
330
1D
100
AcDbEntity
  8
0
100
AcDbLine
 10
374.859
 20
152.0027
 30
0.0
 11
374.859
 21
148.981104250734
 31
0.0
  0
LINE
  5
92F
330
1D
100
AcDbEntity
  8
0
100
AcDbLine
 10
374.4576
 20
148.9877
 30
0.0
 11
378.1699
 21
148.9267
 31
0.0
  0
LINE
  5
930
330
1D
100
AcDbEntity
  8
0
100
AcDbLine
 10
378.1699
 20
148.9267
 30
0.0
 11
381.7357
 21
148.7907
 31
0.0
  0
LINE
  5
931
330
1D
100
AcDbEntity
  8
0
100
AcDbLine
 10
381.7357
 20
148.7907
 30
0.0
 11
384.270842163421
 21
148.660014148416
 31
0.0
  0
LINE
  5
932
330
1D
100
AcDbEntity
  8
0
100
AcDbLine
 10
381.7357
 20
148.7907
 30
0.0
 11
384.270842163421
 21
148.660014148416
 31
0.0
  0
LINE
  5
933
330
1D
100
AcDbEntity
  8
0
100
AcDbLine
 10
371.463
 20
165.2467
 30
0.0
 11
371.859
 21
168.0627
 31
0.0
  0
LINE
  5
934
330
1D
100
AcDbEntity
  8
0
100
AcDbLine
 10
370.859
 20
203.0627
 30
0.0
 11
370.859
 21
172.3887
 31
0.0
  0
LINE
  5
935
330
1D
100
AcDbEntity
  8
0
100
AcDbLine
 10
370.859
 20
184.0787
 30
0.0
 11
384.859
 21
184.0787
 31
0.0
  0
LINE
  5
936
330
1D
100
AcDbEntity
  8
0
100
AcDbLine
 10
385.859
 20
156.801009281962
 30
0.0
 11
385.859
 21
166.643033333333
 31
0.0
  0
LINE
  5
937
330
1D
100
AcDbEntity
  8
0
100
AcDbLine
 10
386.1783
 20
157.4877
 30
0.0
 11
386.244908630497
 21
157.605226824161
 31
0.0
  0
LINE
  5
938
330
1D
100
AcDbEntity
  8
0
100
AcDbLine
 10
384.859
 20
184.0787
 30
0.0
 11
387.859
 21
184.0787
 31
0.0
  0
LINE
  5
939
330
1D
100
AcDbEntity
  8
0
100
AcDbLine
 10
385.859
 20
166.643033333333
 30
0.0
 11
385.859
 21
156.801009281962
 31
0.0
  0
LINE
  5
93A
330
1D
100
AcDbEntity
  8
0
100
AcDbLine
 10
387.859
 20
175.565842857143
 30
0.0
 11
387.859
 21
176.0787
 31
0.0
  0
LINE
  5
93B
330
1D
100
AcDbEntity
  8
0
100
AcDbLine
 10
387.859
 20
176.0787
 30
0.0
 11
387.859
 21
179.3277
 31
0.0
  0
LINE
  5
93C
330
1D
100
AcDbEntity
  8
0
100
AcDbLine
 10
387.859
 20
179.3277
 30
0.0
 11
387.859
 21
181.8977
 31
0.0
  0
LINE
  5
93D
330
1D
100
AcDbEntity
  8
0
100
AcDbLine
 10
387.859
 20
183.4277
 30
0.0
 11
387.859
 21
184.0787
 31
0.0
  0
LINE
  5
93E
330
1D
100
AcDbEntity
  8
0
100
AcDbLine
 10
387.859
 20
181.8977
 30
0.0
 11
387.859
 21
183.4277
 31
0.0
  0
LINE
  5
93F
330
1D
100
AcDbEntity
  8
0
100
AcDbLine
 10
387.559
 20
175.2317
 30
0.0
 11
389.659
 21
177.5707
 31
0.0
  0
LINE
  5
940
330
1D
100
AcDbEntity
  8
0
100
AcDbLine
 10
389.659
 20
177.5707
 30
0.0
 11
392.359
 21
179.3897
 31
0.0
  0
LINE
  5
941
330
1D
100
AcDbEntity
  8
0
100
AcDbLine
 10
390.0488
 20
201.8317
 30
0.0
 11
390.3119
 21
198.6887
 31
0.0
  0
LINE
  5
942
330
1D
100
AcDbEntity
  8
0
100
AcDbLine
 10
390.0488
 20
201.8317
 30
0.0
 11
391.0848
 21
204.7377
 31
0.0
  0
LINE
  5
943
330
1D
100
AcDbEntity
  8
0
100
AcDbLine
 10
390.3119
 20
198.6887
 30
0.0
 11
390.908817689948
 21
197.521144015259
 31
0.0
  0
LINE
  5
944
330
1D
100
AcDbEntity
  8
0
100
AcDbLine
 10
390.9187
 20
198.6817
 30
0.0
 11
390.9346
 21
200.5807
 31
0.0
  0
LINE
  5
945
330
1D
100
AcDbEntity
  8
0
100
AcDbLine
 10
390.8906
 20
195.3817
 30
0.0
 11
390.9187
 21
198.6817
 31
0.0
  0
LINE
  5
946
330
1D
100
AcDbEntity
  8
0
100
AcDbLine
 10
390.8487
 20
190.4817
 30
0.0
 11
390.8906
 21
195.3817
 31
0.0
  0
LINE
  5
947
330
1D
100
AcDbEntity
  8
0
100
AcDbLine
 10
390.7948
 20
184.0827
 30
0.0
 11
390.8487
 21
190.4817
 31
0.0
  0
LINE
  5
948
330
1D
100
AcDbEntity
  8
0
100
AcDbLine
 10
390.745322391315
 20
178.302559418445
 30
0.0
 11
390.7948
 21
184.0827
 31
0.0
  0
LINE
  5
949
330
1D
100
AcDbEntity
  8
0
100
AcDbLine
 10
392.359
 20
179.3897
 30
0.0
 11
395.459
 21
180.4287
 31
0.0
  0
LINE
  5
94A
330
1D
100
AcDbEntity
  8
0
100
AcDbLine
 10
395.459
 20
180.4287
 30
0.0
 11
398.859
 21
180.8617
 31
0.0
  0
LINE
  5
94B
330
1D
100
AcDbEntity
  8
0
100
AcDbLine
 10
393.0227
 20
207.1297
 30
0.0
 11
395.8205
 21
208.5587
 31
0.0
  0
LINE
  5
94C
330
1D
100
AcDbEntity
  8
0
100
AcDbLine
 10
391.0848
 20
204.7377
 30
0.0
 11
393.0227
 21
207.1297
 31
0.0
  0
LINE
  5
94D
330
1D
100
AcDbEntity
  8
0
100
AcDbLine
 10
395.8205
 20
208.5587
 30
0.0
 11
398.9643
 21
208.8217
 31
0.0
  0
LINE
  5
94E
330
1D
100
AcDbEntity
  8
0
100
AcDbLine
 10
396.1424
 20
164.4387
 30
0.0
 11
398.859
 21
164.6647
 31
0.0
  0
LINE
  5
94F
330
1D
100
AcDbEntity
  8
0
100
AcDbLine
 10
398.859
 20
180.8617
 30
0.0
 11
402.259
 21
180.4287
 31
0.0
  0
LINE
  5
950
330
1D
100
AcDbEntity
  8
0
100
AcDbLine
 10
398.859
 20
164.6647
 30
0.0
 11
401.576
 21
164.4387
 31
0.0
  0
LINE
  5
951
330
1D
100
AcDbEntity
  8
0
100
AcDbLine
 10
405.359
 20
179.3897
 30
0.0
 11
408.059
 21
177.5707
 31
0.0
  0
LINE
  5
952
330
1D
100
AcDbEntity
  8
0
100
AcDbLine
 10
402.259
 20
180.4287
 30
0.0
 11
405.359
 21
179.3897
 31
0.0
  0
LINE
  5
953
330
1D
100
AcDbEntity
  8
0
100
AcDbLine
 10
398.9643
 20
208.8217
 30
0.0
 11
402.098
 21
207.8867
 31
0.0
  0
LINE
  5
954
330
1D
100
AcDbEntity
  8
0
100
AcDbLine
 10
402.098
 20
207.8867
 30
0.0
 11
404.582
 21
206.0657
 31
0.0
  0
LINE
  5
955
330
1D
100
AcDbEntity
  8
0
100
AcDbLine
 10
404.582
 20
206.0657
 30
0.0
 11
406.361
 21
203.5497
 31
0.0
  0
LINE
  5
956
330
1D
100
AcDbEntity
  8
0
100
AcDbLine
 10
406.361
 20
203.5497
 30
0.0
 11
406.935
 21
200.4457
 31
0.0
  0
LINE
  5
957
330
1D
100
AcDbEntity
  8
0
100
AcDbLine
 10
406.919
 20
198.5447
 30
0.0
 11
406.935
 21
200.4457
 31
0.0
  0
LINE
  5
958
330
1D
100
AcDbEntity
  8
0
100
AcDbLine
 10
406.89
 20
195.2457
 30
0.0
 11
406.919
 21
198.5447
 31
0.0
  0
LINE
  5
959
330
1D
100
AcDbEntity
  8
0
100
AcDbLine
 10
406.849
 20
190.3457
 30
0.0
 11
406.89
 21
195.2457
 31
0.0
  0
LINE
  5
95A
330
1D
100
AcDbEntity
  8
0
100
AcDbLine
 10
406.794
 20
183.9457
 30
0.0
 11
406.849
 21
190.3457
 31
0.0
  0
LINE
  5
95B
330
1D
100
AcDbEntity
  8
0
100
AcDbLine
 10
406.747118351843
 20
178.454519525184
 30
0.0
 11
406.794
 21
183.9457
 31
0.0
  0
LINE
  5
95C
330
1D
100
AcDbEntity
  8
0
100
AcDbLine
 10
408.059
 20
177.5707
 30
0.0
 11
410.159
 21
175.2317
 31
0.0
  0
LINE
  5
95D
330
1D
100
AcDbEntity
  8
0
100
AcDbLine
 10
410.159
 20
175.2317
 30
0.0
 11
411.359
 21
172.5477
 31
0.0
  0
LINE
  5
95E
330
1D
100
AcDbEntity
  8
0
100
AcDbLine
 10
411.359
 20
172.5477
 30
0.0
 11
411.859
 21
169.6027
 31
0.0
  0
LINE
  5
95F
330
1D
100
AcDbEntity
  8
0
100
AcDbLine
 10
411.859
 20
157.112212195122
 30
0.0
 11
411.859
 21
169.6027
 31
0.0
  0
LINE
  5
960
330
1D
100
AcDbEntity
  8
0
100
AcDbLine
 10
411.859
 20
169.6027
 30
0.0
 11
411.859
 21
157.112212195122
 31
0.0
  0
LINE
  5
961
330
1D
100
AcDbEntity
  8
0
100
AcDbLine
 10
352.462
 20
10.4907
 30
0.0
 11
354.8314
 21
8.86115
 31
0.0
  0
LINE
  5
962
330
1D
100
AcDbEntity
  8
0
100
AcDbLine
 10
350.3268
 20
12.2872
 30
0.0
 11
352.462
 21
10.4907
 31
0.0
  0
LINE
  5
963
330
1D
100
AcDbEntity
  8
0
100
AcDbLine
 10
349.7464
 20
12.8106
 30
0.0
 11
350.3268
 21
12.2872
 31
0.0
  0
LINE
  5
964
330
1D
100
AcDbEntity
  8
0
100
AcDbLine
 10
347.8441
 20
14.7689
 30
0.0
 11
349.7464
 21
12.8106
 31
0.0
  0
LINE
  5
965
330
1D
100
AcDbEntity
  8
0
100
AcDbLine
 10
365.7467
 20
4.15844
 30
0.0
 11
368.6771
 21
3.36674
 31
0.0
  0
LINE
  5
966
330
1D
100
AcDbEntity
  8
0
100
AcDbLine
 10
362.8577
 20
5.09095
 30
0.0
 11
365.7467
 21
4.15844
 31
0.0
  0
LINE
  5
967
330
1D
100
AcDbEntity
  8
0
100
AcDbLine
 10
368.6771
 20
3.36674
 30
0.0
 11
374.6284
 21
2.12369
 31
0.0
  0
LINE
  5
968
330
1D
100
AcDbEntity
  8
0
100
AcDbLine
 10
360.0861
 20
6.16041
 30
0.0
 11
362.8577
 21
5.09095
 31
0.0
  0
LINE
  5
969
330
1D
100
AcDbEntity
  8
0
100
AcDbLine
 10
357.3851
 20
7.41836
 30
0.0
 11
360.0861
 21
6.16041
 31
0.0
  0
LINE
  5
96A
330
1D
100
AcDbEntity
  8
0
100
AcDbLine
 10
354.8314
 20
8.86115
 30
0.0
 11
357.3851
 21
7.41836
 31
0.0
  0
LINE
  5
96B
330
1D
100
AcDbEntity
  8
0
100
AcDbLine
 10
344.6511
 20
19.2976
 30
0.0
 11
346.1927
 21
16.8389
 31
0.0
  0
LINE
  5
96C
330
1D
100
AcDbEntity
  8
0
100
AcDbLine
 10
346.1927
 20
16.8389
 30
0.0
 11
347.8441
 21
14.7689
 31
0.0
  0
LINE
  5
96D
330
1D
100
AcDbEntity
  8
0
100
AcDbLine
 10
380.6474
 20
1.244703
 30
0.0
 11
385.13
 21
0.783467
 31
0.0
  0
LINE
  5
96E
330
1D
100
AcDbEntity
  8
0
100
AcDbLine
 10
374.6284
 20
2.12369
 30
0.0
 11
380.6474
 21
1.244703
 31
0.0
  0
LINE
  5
96F
330
1D
100
AcDbEntity
  8
0
100
AcDbLine
 10
394.2856
 20
0.256437
 30
0.0
 11
398.8592
 21
0.178817
 31
0.0
  0
LINE
  5
970
330
1D
100
AcDbEntity
  8
0
100
AcDbLine
 10
385.2915
 20
0.769266
 30
0.0
 11
389.7165
 21
0.451088
 31
0.0
  0
LINE
  5
971
330
1D
100
AcDbEntity
  8
0
100
AcDbLine
 10
389.7165
 20
0.451088
 30
0.0
 11
394.2856
 21
0.256437
 31
0.0
  0
LINE
  5
972
330
1D
100
AcDbEntity
  8
0
100
AcDbLine
 10
385.13
 20
0.783467
 30
0.0
 11
385.2915
 21
0.769266
 31
0.0
  0
LINE
  5
973
330
1D
100
AcDbEntity
  8
0
100
AcDbLine
 10
342.7989
 20
22.9031
 30
0.0
 11
343.0322
 21
22.3294
 31
0.0
  0
LINE
  5
974
330
1D
100
AcDbEntity
  8
0
100
AcDbLine
 10
343.0322
 20
22.3294
 30
0.0
 11
344.6511
 21
19.2976
 31
0.0
  0
LINE
  5
975
330
1D
100
AcDbEntity
  8
0
100
AcDbLine
 10
341.4354
 20
26.3173
 30
0.0
 11
342.7989
 21
22.9031
 31
0.0
  0
LINE
  5
976
330
1D
100
AcDbEntity
  8
0
100
AcDbLine
 10
340.3794
 20
29.7756
 30
0.0
 11
341.4354
 21
26.3173
 31
0.0
  0
LINE
  5
977
330
1D
100
AcDbEntity
  8
0
100
AcDbLine
 10
339.5702
 20
33.2776
 30
0.0
 11
340.3794
 21
29.7756
 31
0.0
  0
LINE
  5
978
330
1D
100
AcDbEntity
  8
0
100
AcDbLine
 10
337.727
 20
52.8838
 30
0.0
 11
337.8824
 21
57.8083
 31
0.0
  0
LINE
  5
979
330
1D
100
AcDbEntity
  8
0
100
AcDbLine
 10
337.727
 20
52.8838
 30
0.0
 11
337.8775
 21
47.9669
 31
0.0
  0
LINE
  5
97A
330
1D
100
AcDbEntity
  8
0
100
AcDbLine
 10
338.2673
 20
42.6614
 30
0.0
 11
338.7046
 21
38.672
 31
0.0
  0
LINE
  5
97B
330
1D
100
AcDbEntity
  8
0
100
AcDbLine
 10
337.8775
 20
47.9669
 30
0.0
 11
338.2673
 21
42.6614
 31
0.0
  0
LINE
  5
97C
330
1D
100
AcDbEntity
  8
0
100
AcDbLine
 10
338.7046
 20
38.672
 30
0.0
 11
338.9746
 21
36.7969
 31
0.0
  0
LINE
  5
97D
330
1D
100
AcDbEntity
  8
0
100
AcDbLine
 10
338.9746
 20
36.7969
 30
0.0
 11
339.5702
 21
33.2776
 31
0.0
  0
LINE
  5
97E
330
1D
100
AcDbEntity
  8
0
100
AcDbLine
 10
337.8824
 20
57.8083
 30
0.0
 11
338.3797
 21
62.7701
 31
0.0
  0
LINE
  5
97F
330
1D
100
AcDbEntity
  8
0
100
AcDbLine
 10
338.3797
 20
62.7701
 30
0.0
 11
339.2443
 21
67.8061
 31
0.0
  0
LINE
  5
980
330
1D
100
AcDbEntity
  8
0
100
AcDbLine
 10
339.2443
 20
67.8061
 30
0.0
 11
340.5005
 21
72.8249
 31
0.0
  0
LINE
  5
981
330
1D
100
AcDbEntity
  8
0
100
AcDbLine
 10
340.5005
 20
72.8249
 30
0.0
 11
340.5627
 21
73.0371
 31
0.0
  0
LINE
  5
982
330
1D
100
AcDbEntity
  8
0
100
AcDbLine
 10
340.5627
 20
73.0371
 30
0.0
 11
341.3581
 21
75.52
 31
0.0
  0
LINE
  5
983
330
1D
100
AcDbEntity
  8
0
100
AcDbLine
 10
341.3581
 20
75.52
 30
0.0
 11
342.2324
 21
77.778
 31
0.0
  0
LINE
  5
984
330
1D
100
AcDbEntity
  8
0
100
AcDbLine
 10
342.2324
 20
77.778
 30
0.0
 11
343.4283
 21
80.5194
 31
0.0
  0
LINE
  5
985
330
1D
100
AcDbEntity
  8
0
100
AcDbLine
 10
343.4283
 20
80.5194
 30
0.0
 11
344.6253
 21
82.7534
 31
0.0
  0
LINE
  5
986
330
1D
100
AcDbEntity
  8
0
100
AcDbLine
 10
347.8088
 20
87.2829
 30
0.0
 11
349.845
 21
89.4411
 31
0.0
  0
LINE
  5
987
330
1D
100
AcDbEntity
  8
0
100
AcDbLine
 10
352.0069
 20
91.352
 30
0.0
 11
354.2367
 21
92.8639
 31
0.0
  0
LINE
  5
988
330
1D
100
AcDbEntity
  8
0
100
AcDbLine
 10
349.845
 20
89.4411
 30
0.0
 11
352.0069
 21
91.352
 31
0.0
  0
LINE
  5
989
330
1D
100
AcDbEntity
  8
0
100
AcDbLine
 10
346.1053
 20
85.0702
 30
0.0
 11
347.8088
 21
87.2829
 31
0.0
  0
LINE
  5
98A
330
1D
100
AcDbEntity
  8
0
100
AcDbLine
 10
344.6253
 20
82.7534
 30
0.0
 11
346.1053
 21
85.0702
 31
0.0
  0
LINE
  5
98B
330
1D
100
AcDbEntity
  8
0
100
AcDbLine
 10
354.2367
 20
92.8639
 30
0.0
 11
356.3399
 21
94.2056
 31
0.0
  0
LINE
  5
98C
330
1D
100
AcDbEntity
  8
0
100
AcDbLine
 10
356.3399
 20
94.2056
 30
0.0
 11
358.4057
 21
95.2715
 31
0.0
  0
LINE
  5
98D
330
1D
100
AcDbEntity
  8
0
100
AcDbLine
 10
358.4057
 20
95.2715
 30
0.0
 11
358.463663078137
 21
95.29760332307
 31
0.0
  0
LINE
  5
98E
330
1D
100
AcDbEntity
  8
0
100
AcDbLine
 10
367.6221
 20
99.0202
 30
0.0
 11
372.4329
 21
100.3544
 31
0.0
  0
LINE
  5
98F
330
1D
100
AcDbEntity
  8
0
100
AcDbLine
 10
362.9409
 20
97.3139
 30
0.0
 11
367.6221
 21
99.0202
 31
0.0
  0
LINE
  5
990
330
1D
100
AcDbEntity
  8
0
100
AcDbLine
 10
372.4329
 20
100.3544
 30
0.0
 11
376.2914
 21
101.2417
 31
0.0
  0
LINE
  5
991
330
1D
100
AcDbEntity
  8
0
100
AcDbLine
 10
375.358420170822
 20
101.713420259839
 30
0.0
 11
375.4249
 21
101.7647
 31
0.0
  0
LINE
  5
992
330
1D
100
AcDbEntity
  8
0
100
AcDbLine
 10
375.412223653288
 20
101.754922000062
 30
0.0
 11
376.288042463179
 21
102.522596479376
 31
0.0
  0
LINE
  5
993
330
1D
100
AcDbEntity
  8
0
100
AcDbLine
 10
374.0126
 20
100.8397
 30
0.0
 11
375.358420170822
 21
101.713420259839
 31
0.0
  0
LINE
  5
994
330
1D
100
AcDbEntity
  8
0
100
AcDbLine
 10
373.628713632953
 20
100.629389098489
 30
0.0
 11
374.0126
 21
100.8397
 31
0.0
  0
LINE
  5
995
330
1D
100
AcDbEntity
  8
0
100
AcDbLine
 10
358.463663078137
 20
95.29760332307
 30
0.0
 11
362.9409
 21
97.3139
 31
0.0
  0
LINE
  5
996
330
1D
100
AcDbEntity
  8
0
100
AcDbLine
 10
376.288042463177
 20
102.522596479374
 30
0.0
 11
377.700619316782
 21
104.105015131535
 31
0.0
  0
LINE
  5
997
330
1D
100
AcDbEntity
  8
0
100
AcDbLine
 10
376.2914
 20
101.2417
 30
0.0
 11
383.4121
 21
102.6767
 31
0.0
  0
LINE
  5
998
330
1D
100
AcDbEntity
  8
0
100
AcDbLine
 10
377.700619316782
 20
104.105015131535
 30
0.0
 11
378.5486
 21
105.3327
 31
0.0
  0
LINE
  5
999
330
1D
100
AcDbEntity
  8
0
100
AcDbLine
 10
379.645
 20
107.7687
 30
0.0
 11
380.3387
 21
109.8547
 31
0.0
  0
LINE
  5
99A
330
1D
100
AcDbEntity
  8
0
100
AcDbLine
 10
380.3387
 20
109.8547
 30
0.0
 11
380.502618390147
 21
110.705350156353
 31
0.0
  0
LINE
  5
99B
330
1D
100
AcDbEntity
  8
0
100
AcDbLine
 10
380.502618390147
 20
110.705350156353
 30
0.0
 11
381.2404
 21
115.0507
 31
0.0
  0
LINE
  5
99C
330
1D
100
AcDbEntity
  8
0
100
AcDbLine
 10
381.2404
 20
115.0507
 30
0.0
 11
381.898
 21
121.1597
 31
0.0
  0
LINE
  5
99D
330
1D
100
AcDbEntity
  8
0
100
AcDbLine
 10
382.6806
 20
129.5807
 30
0.0
 11
384.751
 21
154.4187
 31
0.0
  0
LINE
  5
99E
330
1D
100
AcDbEntity
  8
0
100
AcDbLine
 10
381.898
 20
121.1597
 30
0.0
 11
382.6806
 21
129.5807
 31
0.0
  0
LINE
  5
99F
330
1D
100
AcDbEntity
  8
0
100
AcDbLine
 10
386.558424670376
 20
158.158053670332
 30
0.0
 11
387.278
 21
159.4277
 31
0.0
  0
LINE
  5
9A0
330
1D
100
AcDbEntity
  8
0
100
AcDbLine
 10
387.278
 20
159.4277
 30
0.0
 11
389.7929
 21
161.6997
 31
0.0
  0
LINE
  5
9A1
330
1D
100
AcDbEntity
  8
0
100
AcDbLine
 10
384.751
 20
154.4187
 30
0.0
 11
386.558424670376
 21
158.158053670332
 31
0.0
  0
LINE
  5
9A2
330
1D
100
AcDbEntity
  8
0
100
AcDbLine
 10
389.80960195636
 20
161.71478880864
 30
0.0
 11
391.2355
 21
162.7067
 31
0.0
  0
LINE
  5
9A3
330
1D
100
AcDbEntity
  8
0
100
AcDbLine
 10
391.2355
 20
162.7067
 30
0.0
 11
393.2751
 21
163.6817
 31
0.0
  0
LINE
  5
9A4
330
1D
100
AcDbEntity
  8
0
100
AcDbLine
 10
393.2751
 20
163.6817
 30
0.0
 11
396.1426
 21
164.4397
 31
0.0
  0
LINE
  5
9A5
330
1D
100
AcDbEntity
  8
0
100
AcDbLine
 10
396.1426
 20
164.4397
 30
0.0
 11
398.8592
 21
164.6647
 31
0.0
  0
LINE
  5
9A6
330
1D
100
AcDbEntity
  8
0
100
AcDbLine
 10
383.4121
 20
102.6767
 30
0.0
 11
387.982010229116
 21
103.412489487672
 31
0.0
  0
LINE
  5
9A7
330
1D
100
AcDbEntity
  8
0
100
AcDbLine
 10
387.982010229116
 20
103.412489487672
 30
0.0
 11
394.166018271008
 21
103.894929831365
 31
0.0
  0
LINE
  5
9A8
330
1D
100
AcDbEntity
  8
0
100
AcDbLine
 10
394.166018271008
 20
103.894929831365
 30
0.0
 11
398.8591
 21
103.9862585
 31
0.0
  0
LINE
  5
9A9
330
1D
100
AcDbEntity
  8
0
100
AcDbLine
 10
378.5486
 20
105.3327
 30
0.0
 11
378.7618
 21
105.7107
 31
0.0
  0
LINE
  5
9AA
330
1D
100
AcDbEntity
  8
0
100
AcDbLine
 10
378.7618
 20
105.7107
 30
0.0
 11
379.645
 21
107.7687
 31
0.0
  0
LINE
  5
9AB
330
1D
100
AcDbEntity
  8
0
100
AcDbLine
 10
453.0929
 20
82.7534
 30
0.0
 11
451.6129
 21
85.0702
 31
0.0
  0
LINE
  5
9AC
330
1D
100
AcDbEntity
  8
0
100
AcDbLine
 10
423.0898
 20
2.12369
 30
0.0
 11
417.0708
 21
1.244703
 31
0.0
  0
LINE
  5
9AD
330
1D
100
AcDbEntity
  8
0
100
AcDbLine
 10
459.4509
 20
42.6614
 30
0.0
 11
459.0136
 21
38.672
 31
0.0
  0
LINE
  5
9AE
330
1D
100
AcDbEntity
  8
0
100
AcDbLine
 10
440.3331
 20
7.41836
 30
0.0
 11
437.6321
 21
6.16041
 31
0.0
  0
LINE
  5
9AF
330
1D
100
AcDbEntity
  8
0
100
AcDbLine
 10
454.686
 20
22.3294
 30
0.0
 11
453.0671
 21
19.2976
 31
0.0
  0
LINE
  5
9B0
330
1D
100
AcDbEntity
  8
0
100
AcDbLine
 10
449.8741
 20
14.7689
 30
0.0
 11
447.9718
 21
12.8106
 31
0.0
  0
LINE
  5
9B1
330
1D
100
AcDbEntity
  8
0
100
AcDbLine
 10
453.0671
 20
19.2976
 30
0.0
 11
451.5255
 21
16.8389
 31
0.0
  0
LINE
  5
9B2
330
1D
100
AcDbEntity
  8
0
100
AcDbLine
 10
451.5255
 20
16.8389
 30
0.0
 11
449.8741
 21
14.7689
 31
0.0
  0
LINE
  5
9B3
330
1D
100
AcDbEntity
  8
0
100
AcDbLine
 10
447.3914
 20
12.2872
 30
0.0
 11
445.2562
 21
10.4907
 31
0.0
  0
LINE
  5
9B4
330
1D
100
AcDbEntity
  8
0
100
AcDbLine
 10
445.2562
 20
10.4907
 30
0.0
 11
442.8868
 21
8.86115
 31
0.0
  0
LINE
  5
9B5
330
1D
100
AcDbEntity
  8
0
100
AcDbLine
 10
442.8868
 20
8.86115
 30
0.0
 11
440.3331
 21
7.41836
 31
0.0
  0
LINE
  5
9B6
330
1D
100
AcDbEntity
  8
0
100
AcDbLine
 10
447.9718
 20
12.8106
 30
0.0
 11
447.3914
 21
12.2872
 31
0.0
  0
LINE
  5
9B7
330
1D
100
AcDbEntity
  8
0
100
AcDbLine
 10
458.148
 20
33.2776
 30
0.0
 11
457.3388
 21
29.7756
 31
0.0
  0
LINE
  5
9B8
330
1D
100
AcDbEntity
  8
0
100
AcDbLine
 10
454.9193
 20
22.9031
 30
0.0
 11
454.686
 21
22.3294
 31
0.0
  0
LINE
  5
9B9
330
1D
100
AcDbEntity
  8
0
100
AcDbLine
 10
456.2828
 20
26.3173
 30
0.0
 11
454.9193
 21
22.9031
 31
0.0
  0
LINE
  5
9BA
330
1D
100
AcDbEntity
  8
0
100
AcDbLine
 10
457.3388
 20
29.7756
 30
0.0
 11
456.2828
 21
26.3173
 31
0.0
  0
LINE
  5
9BB
330
1D
100
AcDbEntity
  8
0
100
AcDbLine
 10
459.0136
 20
38.672
 30
0.0
 11
458.7436
 21
36.7969
 31
0.0
  0
LINE
  5
9BC
330
1D
100
AcDbEntity
  8
0
100
AcDbLine
 10
458.7436
 20
36.7969
 30
0.0
 11
458.148
 21
33.2776
 31
0.0
  0
LINE
  5
9BD
330
1D
100
AcDbEntity
  8
0
100
AcDbLine
 10
431.9715
 20
4.15844
 30
0.0
 11
429.0411
 21
3.36674
 31
0.0
  0
LINE
  5
9BE
330
1D
100
AcDbEntity
  8
0
100
AcDbLine
 10
434.8605
 20
5.09095
 30
0.0
 11
431.9715
 21
4.15844
 31
0.0
  0
LINE
  5
9BF
330
1D
100
AcDbEntity
  8
0
100
AcDbLine
 10
429.0411
 20
3.36674
 30
0.0
 11
423.0898
 21
2.12369
 31
0.0
  0
LINE
  5
9C0
330
1D
100
AcDbEntity
  8
0
100
AcDbLine
 10
437.6321
 20
6.16041
 30
0.0
 11
434.8605
 21
5.09095
 31
0.0
  0
LINE
  5
9C1
330
1D
100
AcDbEntity
  8
0
100
AcDbLine
 10
459.3385
 20
62.7701
 30
0.0
 11
458.4739
 21
67.8061
 31
0.0
  0
LINE
  5
9C2
330
1D
100
AcDbEntity
  8
0
100
AcDbLine
 10
459.9912
 20
52.8838
 30
0.0
 11
459.8358
 21
57.8083
 31
0.0
  0
LINE
  5
9C3
330
1D
100
AcDbEntity
  8
0
100
AcDbLine
 10
459.9912
 20
52.8838
 30
0.0
 11
459.8407
 21
47.9669
 31
0.0
  0
LINE
  5
9C4
330
1D
100
AcDbEntity
  8
0
100
AcDbLine
 10
459.8407
 20
47.9669
 30
0.0
 11
459.4509
 21
42.6614
 31
0.0
  0
LINE
  5
9C5
330
1D
100
AcDbEntity
  8
0
100
AcDbLine
 10
459.8358
 20
57.8083
 30
0.0
 11
459.3385
 21
62.7701
 31
0.0
  0
LINE
  5
9C6
330
1D
100
AcDbEntity
  8
0
100
AcDbLine
 10
457.1555
 20
73.0371
 30
0.0
 11
456.3601
 21
75.52
 31
0.0
  0
LINE
  5
9C7
330
1D
100
AcDbEntity
  8
0
100
AcDbLine
 10
458.4739
 20
67.8061
 30
0.0
 11
457.2177
 21
72.8249
 31
0.0
  0
LINE
  5
9C8
330
1D
100
AcDbEntity
  8
0
100
AcDbLine
 10
457.2177
 20
72.8249
 30
0.0
 11
457.1555
 21
73.0371
 31
0.0
  0
LINE
  5
9C9
330
1D
100
AcDbEntity
  8
0
100
AcDbLine
 10
456.3601
 20
75.52
 30
0.0
 11
455.4858
 21
77.778
 31
0.0
  0
LINE
  5
9CA
330
1D
100
AcDbEntity
  8
0
100
AcDbLine
 10
455.4858
 20
77.778
 30
0.0
 11
454.2899
 21
80.5194
 31
0.0
  0
LINE
  5
9CB
330
1D
100
AcDbEntity
  8
0
100
AcDbLine
 10
454.2899
 20
80.5194
 30
0.0
 11
453.0929
 21
82.7534
 31
0.0
  0
LINE
  5
9CC
330
1D
100
AcDbEntity
  8
0
100
AcDbLine
 10
417.0708
 20
1.244703
 30
0.0
 11
412.5882
 21
0.783467
 31
0.0
  0
LINE
  5
9CD
330
1D
100
AcDbEntity
  8
0
100
AcDbLine
 10
403.4326
 20
0.256437
 30
0.0
 11
398.859
 21
0.178817
 31
0.0
  0
LINE
  5
9CE
330
1D
100
AcDbEntity
  8
0
100
AcDbLine
 10
412.4267
 20
0.769266
 30
0.0
 11
408.0017
 21
0.451088
 31
0.0
  0
LINE
  5
9CF
330
1D
100
AcDbEntity
  8
0
100
AcDbLine
 10
408.0017
 20
0.451088
 30
0.0
 11
403.4326
 21
0.256437
 31
0.0
  0
LINE
  5
9D0
330
1D
100
AcDbEntity
  8
0
100
AcDbLine
 10
412.5882
 20
0.783467
 30
0.0
 11
412.4267
 21
0.769266
 31
0.0
  0
LINE
  5
9D1
330
1D
100
AcDbEntity
  8
0
100
AcDbLine
 10
421.4268
 20
101.2417
 30
0.0
 11
414.3061
 21
102.6767
 31
0.0
  0
LINE
  5
9D2
330
1D
100
AcDbEntity
  8
0
100
AcDbLine
 10
418.9564
 20
105.7107
 30
0.0
 11
418.0732
 21
107.7687
 31
0.0
  0
LINE
  5
9D3
330
1D
100
AcDbEntity
  8
0
100
AcDbLine
 10
439.254536921863
 20
95.29760332307
 30
0.0
 11
434.7773
 21
97.3139
 31
0.0
  0
LINE
  5
9D4
330
1D
100
AcDbEntity
  8
0
100
AcDbLine
 10
449.9094
 20
87.2829
 30
0.0
 11
447.8732
 21
89.4411
 31
0.0
  0
LINE
  5
9D5
330
1D
100
AcDbEntity
  8
0
100
AcDbLine
 10
451.6129
 20
85.0702
 30
0.0
 11
449.9094
 21
87.2829
 31
0.0
  0
LINE
  5
9D6
330
1D
100
AcDbEntity
  8
0
100
AcDbLine
 10
441.3783
 20
94.2056
 30
0.0
 11
439.3125
 21
95.2715
 31
0.0
  0
LINE
  5
9D7
330
1D
100
AcDbEntity
  8
0
100
AcDbLine
 10
445.7113
 20
91.352
 30
0.0
 11
443.4815
 21
92.8639
 31
0.0
  0
LINE
  5
9D8
330
1D
100
AcDbEntity
  8
0
100
AcDbLine
 10
447.8732
 20
89.4411
 30
0.0
 11
445.7113
 21
91.352
 31
0.0
  0
LINE
  5
9D9
330
1D
100
AcDbEntity
  8
0
100
AcDbLine
 10
443.4815
 20
92.8639
 30
0.0
 11
441.3783
 21
94.2056
 31
0.0
  0
LINE
  5
9DA
330
1D
100
AcDbEntity
  8
0
100
AcDbLine
 10
439.3125
 20
95.2715
 30
0.0
 11
439.254536921863
 21
95.29760332307
 31
0.0
  0
LINE
  5
9DB
330
1D
100
AcDbEntity
  8
0
100
AcDbLine
 10
420.017580683218
 20
104.105015131535
 30
0.0
 11
419.1696
 21
105.3327
 31
0.0
  0
LINE
  5
9DC
330
1D
100
AcDbEntity
  8
0
100
AcDbLine
 10
430.0961
 20
99.0202
 30
0.0
 11
425.2853
 21
100.3544
 31
0.0
  0
LINE
  5
9DD
330
1D
100
AcDbEntity
  8
0
100
AcDbLine
 10
434.7773
 20
97.3139
 30
0.0
 11
430.0961
 21
99.0202
 31
0.0
  0
LINE
  5
9DE
330
1D
100
AcDbEntity
  8
0
100
AcDbLine
 10
425.2853
 20
100.3544
 30
0.0
 11
421.4268
 21
101.2417
 31
0.0
  0
LINE
  5
9DF
330
1D
100
AcDbEntity
  8
0
100
AcDbLine
 10
422.359779829178
 20
101.713420259839
 30
0.0
 11
422.2933
 21
101.7647
 31
0.0
  0
LINE
  5
9E0
330
1D
100
AcDbEntity
  8
0
100
AcDbLine
 10
424.089486367047
 20
100.629389098489
 30
0.0
 11
423.7056
 21
100.8397
 31
0.0
  0
LINE
  5
9E1
330
1D
100
AcDbEntity
  8
0
100
AcDbLine
 10
423.7056
 20
100.8397
 30
0.0
 11
422.359779829178
 21
101.713420259839
 31
0.0
  0
LINE
  5
9E2
330
1D
100
AcDbEntity
  8
0
100
AcDbLine
 10
422.305976346712
 20
101.754922000062
 30
0.0
 11
421.430157536821
 21
102.522596479376
 31
0.0
  0
LINE
  5
9E3
330
1D
100
AcDbEntity
  8
0
100
AcDbLine
 10
421.430157536823
 20
102.522596479374
 30
0.0
 11
420.017580683218
 21
104.105015131535
 31
0.0
  0
LINE
  5
9E4
330
1D
100
AcDbEntity
  8
0
100
AcDbLine
 10
419.1696
 20
105.3327
 30
0.0
 11
418.9564
 21
105.7107
 31
0.0
  0
LINE
  5
9E5
330
1D
100
AcDbEntity
  8
0
100
AcDbLine
 10
415.8202
 20
121.1597
 30
0.0
 11
415.0376
 21
129.5807
 31
0.0
  0
LINE
  5
9E6
330
1D
100
AcDbEntity
  8
0
100
AcDbLine
 10
414.3061
 20
102.6767
 30
0.0
 11
409.736189770884
 21
103.412489487672
 31
0.0
  0
LINE
  5
9E7
330
1D
100
AcDbEntity
  8
0
100
AcDbLine
 10
409.736189770884
 20
103.412489487672
 30
0.0
 11
403.552181728992
 21
103.894929831365
 31
0.0
  0
LINE
  5
9E8
330
1D
100
AcDbEntity
  8
0
100
AcDbLine
 10
403.552181728992
 20
103.894929831365
 30
0.0
 11
398.8591
 21
103.9862585
 31
0.0
  0
LINE
  5
9E9
330
1D
100
AcDbEntity
  8
0
100
AcDbLine
 10
418.0732
 20
107.7687
 30
0.0
 11
417.3795
 21
109.8547
 31
0.0
  0
LINE
  5
9EA
330
1D
100
AcDbEntity
  8
0
100
AcDbLine
 10
417.215581609853
 20
110.705350156353
 30
0.0
 11
416.4778
 21
115.0507
 31
0.0
  0
LINE
  5
9EB
330
1D
100
AcDbEntity
  8
0
100
AcDbLine
 10
416.4778
 20
115.0507
 30
0.0
 11
415.8202
 21
121.1597
 31
0.0
  0
LINE
  5
9EC
330
1D
100
AcDbEntity
  8
0
100
AcDbLine
 10
417.3795
 20
109.8547
 30
0.0
 11
417.215581609853
 21
110.705350156353
 31
0.0
  0
LINE
  5
9ED
330
1D
100
AcDbEntity
  8
0
100
AcDbLine
 10
415.0376
 20
129.5807
 30
0.0
 11
412.9672
 21
154.4187
 31
0.0
  0
LINE
  5
9EE
330
1D
100
AcDbEntity
  8
0
100
AcDbLine
 10
407.90859804364
 20
161.71478880864
 30
0.0
 11
406.4827
 21
162.7067
 31
0.0
  0
LINE
  5
9EF
330
1D
100
AcDbEntity
  8
0
100
AcDbLine
 10
411.159775329624
 20
158.158053670332
 30
0.0
 11
410.4402
 21
159.4277
 31
0.0
  0
LINE
  5
9F0
330
1D
100
AcDbEntity
  8
0
100
AcDbLine
 10
410.4402
 20
159.4277
 30
0.0
 11
407.9253
 21
161.6997
 31
0.0
  0
LINE
  5
9F1
330
1D
100
AcDbEntity
  8
0
100
AcDbLine
 10
412.9672
 20
154.4187
 30
0.0
 11
411.159775329624
 21
158.158053670332
 31
0.0
  0
LINE
  5
9F2
330
1D
100
AcDbEntity
  8
0
100
AcDbLine
 10
406.4827
 20
162.7067
 30
0.0
 11
404.4431
 21
163.6817
 31
0.0
  0
LINE
  5
9F3
330
1D
100
AcDbEntity
  8
0
100
AcDbLine
 10
404.4431
 20
163.6817
 30
0.0
 11
401.5756
 21
164.4397
 31
0.0
  0
LINE
  5
9F4
330
1D
100
AcDbEntity
  8
0
100
AcDbLine
 10
401.5756
 20
164.4397
 30
0.0
 11
398.859
 21
164.6647
 31
0.0
  0
LINE
  5
9F5
330
1D
100
AcDbEntity
  8
0
100
AcDbLine
 10
319.1264
 20
58.0627
 30
0.0
 11
319.1264
 21
132.0627
 31
0.0
  0
LINE
  5
9F6
330
1D
100
AcDbEntity
  8
0
100
AcDbLine
 10
322.5916
 20
132.0627
 30
0.0
 11
322.5916
 21
58.0627
 31
0.0
  0
LINE
  5
9F7
330
1D
100
AcDbEntity
  8
0
100
AcDbLine
 10
332.5264
 20
56.0627
 30
0.0
 11
332.5264
 21
134.0627
 31
0.0
  0
LINE
  5
9F8
330
1D
100
AcDbEntity
  8
0
100
AcDbLine
 10
335.9916
 20
134.0627
 30
0.0
 11
335.9916
 21
56.0627
 31
0.0
  0
LINE
  5
9F9
330
1D
100
AcDbEntity
  8
0
100
AcDbLine
 10
345.8264
 20
136.0627
 30
0.0
 11
346.1053
 21
85.0702
 31
0.0
  0
LINE
  5
9FA
330
1D
100
AcDbEntity
  8
0
100
AcDbLine
 10
349.2916
 20
136.0627
 30
0.0
 11
349.2916
 21
88.854542746292
 31
0.0
  0
LINE
  5
9FB
330
1D
100
AcDbEntity
  8
0
100
AcDbLine
 10
359.1264
 20
138.0627
 30
0.0
 11
359.1264
 21
95.643362779553
 31
0.0
  0
LINE
  5
9FC
330
1D
100
AcDbEntity
  8
0
100
AcDbLine
 10
362.5916
 20
138.0627
 30
0.0
 11
362.9409
 21
97.3139
 31
0.0
  0
LINE
  5
9FD
330
1D
100
AcDbEntity
  8
0
100
AcDbLine
 10
372.4264
 20
136.0627
 30
0.0
 11
372.4264
 21
100.352597326848
 31
0.0
  0
LINE
  5
9FE
330
1D
100
AcDbEntity
  8
0
100
AcDbLine
 10
375.8916
 20
136.0627
 30
0.0
 11
376.276837408371
 21
102.510044179881
 31
0.0
  0
LINE
  5
9FF
330
1D
100
AcDbEntity
  8
0
100
AcDbLine
 10
385.859
 20
166.643033333333
 30
0.0
 11
386.4538083994
 21
171.231742154385
 31
0.0
  0
LINE
  5
A00
330
1D
100
AcDbEntity
  8
0
100
AcDbLine
 10
386.4538083994
 20
171.231742154385
 30
0.0
 11
387.120095643476
 21
174.099674204976
 31
0.0
  0
LINE
  5
A01
330
1D
100
AcDbEntity
  8
0
100
AcDbLine
 10
387.120095643476
 20
174.099674204976
 30
0.0
 11
387.559
 21
175.2317
 31
0.0
  0
LINE
  5
A43
330
1D
100
AcDbEntity
  8
0
100
AcDbLine
 10
0.759
 20
207.3617
 30
0.0
 11
1.509
 21
207.5627
 31
0.0
  0
LINE
  5
A44
330
1D
100
AcDbEntity
  8
0
100
AcDbLine
 10
0.139
 20
88.4807
 30
0.0
 11
0.558
 21
85.7587
 31
0.0
  0
LINE
  5
A45
330
1D
100
AcDbEntity
  8
0
100
AcDbLine
 10
0.009
 20
91.2627
 30
0.0
 11
0.009
 21
206.0627
 31
0.0
  0
LINE
  5
A46
330
1D
100
AcDbEntity
  8
0
100
AcDbLine
 10
0.009
 20
91.2627
 30
0.0
 11
0.139
 21
88.4807
 31
0.0
  0
LINE
  5
A47
330
1D
100
AcDbEntity
  8
0
100
AcDbLine
 10
0.009
 20
206.0627
 30
0.0
 11
0.21
 21
206.8127
 31
0.0
  0
LINE
  5
A48
330
1D
100
AcDbEntity
  8
0
100
AcDbLine
 10
0.009
 20
206.0627
 30
0.0
 11
0.009
 21
91.2627
 31
0.0
  0
LINE
  5
A49
330
1D
100
AcDbEntity
  8
0
100
AcDbLine
 10
0.558
 20
85.7587
 30
0.0
 11
1.303
 21
83.1517
 31
0.0
  0
LINE
  5
A4A
330
1D
100
AcDbEntity
  8
0
100
AcDbLine
 10
0.21
 20
206.8127
 30
0.0
 11
0.759
 21
207.3617
 31
0.0
  0
LINE
  5
A4B
330
1D
100
AcDbEntity
  8
0
100
AcDbLine
 10
0.759
 20
207.3617
 30
0.0
 11
1.509
 21
207.5627
 31
0.0
  0
LINE
  5
A4C
330
1D
100
AcDbEntity
  8
0
100
AcDbLine
 10
1.303
 20
83.1517
 30
0.0
 11
2.404
 21
80.7107
 31
0.0
  0
LINE
  5
A4D
330
1D
100
AcDbEntity
  8
0
100
AcDbLine
 10
1.509
 20
207.5627
 30
0.0
 11
133.859
 21
207.5627
 31
0.0
  0
LINE
  5
A4E
330
1D
100
AcDbEntity
  8
0
100
AcDbLine
 10
1.509
 20
207.5627
 30
0.0
 11
133.859
 21
207.5627
 31
0.0
  0
LINE
  5
A4F
330
1D
100
AcDbEntity
  8
0
100
AcDbLine
 10
3.695
 20
78.7257
 30
0.0
 11
5.272
 21
76.9657
 31
0.0
  0
LINE
  5
A50
330
1D
100
AcDbEntity
  8
0
100
AcDbLine
 10
2.404
 20
80.7107
 30
0.0
 11
3.695
 21
78.7257
 31
0.0
  0
LINE
  5
A51
330
1D
100
AcDbEntity
  8
0
100
AcDbLine
 10
19.059
 20
72.2127
 30
0.0
 11
282.659
 21
72.2127
 31
0.0
  0
LINE
  5
A52
330
1D
100
AcDbEntity
  8
0
100
AcDbLine
 10
16.465
 20
72.3247
 30
0.0
 11
19.059
 21
72.2127
 31
0.0
  0
LINE
  5
A53
330
1D
100
AcDbEntity
  8
0
100
AcDbLine
 10
13.921
 20
72.6867
 30
0.0
 11
16.465
 21
72.3247
 31
0.0
  0
LINE
  5
A54
330
1D
100
AcDbEntity
  8
0
100
AcDbLine
 10
249.162
 20
71.8827
 30
0.0
 11
249.689
 21
71.7747
 31
0.0
  0
LINE
  5
A55
330
1D
100
AcDbEntity
  8
0
100
AcDbLine
 10
249.689
 20
71.7747
 30
0.0
 11
250.136
 21
71.4767
 31
0.0
  0
LINE
  5
A56
330
1D
100
AcDbEntity
  8
0
100
AcDbLine
 10
250.136
 20
71.4767
 30
0.0
 11
250.439
 21
71.0327
 31
0.0
  0
LINE
  5
A57
330
1D
100
AcDbEntity
  8
0
100
AcDbLine
 10
251.607
 20
47.5547
 30
0.0
 11
251.853
 21
47.5557
 31
0.0
  0
LINE
  5
A58
330
1D
100
AcDbEntity
  8
0
100
AcDbLine
 10
251.538
 20
47.5547
 30
0.0
 11
251.607
 21
47.5547
 31
0.0
  0
LINE
  5
A59
330
1D
100
AcDbEntity
  8
0
100
AcDbLine
 10
250.67863572777
 20
64.656034527691
 30
0.0
 11
250.943
 21
48.0417
 31
0.0
  0
LINE
  5
A5A
330
1D
100
AcDbEntity
  8
0
100
AcDbLine
 10
250.67863572777
 20
64.656034527691
 30
0.0
 11
250.943
 21
48.0417
 31
0.0
  0
LINE
  5
A5B
330
1D
100
AcDbEntity
  8
0
100
AcDbLine
 10
250.943
 20
48.0417
 30
0.0
 11
251.012
 21
47.7967
 31
0.0
  0
LINE
  5
A5C
330
1D
100
AcDbEntity
  8
0
100
AcDbLine
 10
251.853
 20
47.5557
 30
0.0
 11
253.452
 21
47.5737
 31
0.0
  0
LINE
  5
A5D
330
1D
100
AcDbEntity
  8
0
100
AcDbLine
 10
251.192
 20
47.6177
 30
0.0
 11
251.437
 21
47.5497
 31
0.0
  0
LINE
  5
A5E
330
1D
100
AcDbEntity
  8
0
100
AcDbLine
 10
251.012
 20
47.7967
 30
0.0
 11
251.192
 21
47.6177
 31
0.0
  0
LINE
  5
A5F
330
1D
100
AcDbEntity
  8
0
100
AcDbLine
 10
251.537
 20
47.5547
 30
0.0
 11
251.604568574051
 21
47.555370393163
 31
0.0
  0
LINE
  5
A60
330
1D
100
AcDbEntity
  8
0
100
AcDbLine
 10
262.776126530612
 20
48.0457
 30
0.0
 11
263.153
 21
70.5207
 31
0.0
  0
LINE
  5
A61
330
1D
100
AcDbEntity
  8
0
100
AcDbLine
 10
262.706
 20
47.7967
 30
0.0
 11
262.775
 21
48.0417
 31
0.0
  0
LINE
  5
A62
330
1D
100
AcDbEntity
  8
0
100
AcDbLine
 10
262.526
 20
47.6177
 30
0.0
 11
262.706
 21
47.7967
 31
0.0
  0
LINE
  5
A63
330
1D
100
AcDbEntity
  8
0
100
AcDbLine
 10
263.153
 20
70.5207
 30
0.0
 11
263.279
 21
71.0327
 31
0.0
  0
LINE
  5
A64
330
1D
100
AcDbEntity
  8
0
100
AcDbLine
 10
282.659
 20
72.2127
 30
0.0
 11
285.441
 21
72.3427
 31
0.0
  0
LINE
  5
A65
330
1D
100
AcDbEntity
  8
0
100
AcDbLine
 10
288.163
 20
72.7617
 30
0.0
 11
290.77
 21
73.5067
 31
0.0
  0
LINE
  5
A66
330
1D
100
AcDbEntity
  8
0
100
AcDbLine
 10
285.441
 20
72.3427
 30
0.0
 11
288.163
 21
72.7617
 31
0.0
  0
LINE
  5
A67
330
1D
100
AcDbEntity
  8
0
100
AcDbLine
 10
264.029
 20
71.7747
 30
0.0
 11
264.556
 21
71.8827
 31
0.0
  0
LINE
  5
A68
330
1D
100
AcDbEntity
  8
0
100
AcDbLine
 10
263.582
 20
71.4767
 30
0.0
 11
264.029
 21
71.7747
 31
0.0
  0
LINE
  5
A69
330
1D
100
AcDbEntity
  8
0
100
AcDbLine
 10
263.279
 20
71.0327
 30
0.0
 11
263.582
 21
71.4767
 31
0.0
  0
LINE
  5
A6A
330
1D
100
AcDbEntity
  8
0
100
AcDbLine
 10
250.439
 20
71.0327
 30
0.0
 11
250.551
 21
70.5067
 31
0.0
  0
LINE
  5
A6B
330
1D
100
AcDbEntity
  8
0
100
AcDbLine
 10
9.153
 20
74.2707
 30
0.0
 11
11.471
 21
73.3257
 31
0.0
  0
LINE
  5
A6C
330
1D
100
AcDbEntity
  8
0
100
AcDbLine
 10
11.471
 20
73.3257
 30
0.0
 11
13.921
 21
72.6867
 31
0.0
  0
LINE
  5
A6D
330
1D
100
AcDbEntity
  8
0
100
AcDbLine
 10
5.272
 20
76.9657
 30
0.0
 11
7.107
 21
75.4727
 31
0.0
  0
LINE
  5
A6E
330
1D
100
AcDbEntity
  8
0
100
AcDbLine
 10
7.107
 20
75.4727
 30
0.0
 11
9.153
 21
74.2707
 31
0.0
  0
LINE
  5
A6F
330
1D
100
AcDbEntity
  8
0
100
AcDbLine
 10
133.859
 20
207.5627
 30
0.0
 11
133.859
 21
207.0627
 31
0.0
  0
LINE
  5
A70
330
1D
100
AcDbEntity
  8
0
100
AcDbLine
 10
290.77
 20
73.5067
 30
0.0
 11
293.211
 21
74.6077
 31
0.0
  0
LINE
  5
A71
330
1D
100
AcDbEntity
  8
0
100
AcDbLine
 10
296.956
 20
77.4757
 30
0.0
 11
298.449
 21
79.3107
 31
0.0
  0
LINE
  5
A72
330
1D
100
AcDbEntity
  8
0
100
AcDbLine
 10
295.196
 20
75.8987
 30
0.0
 11
296.956
 21
77.4757
 31
0.0
  0
LINE
  5
A73
330
1D
100
AcDbEntity
  8
0
100
AcDbLine
 10
293.211
 20
74.6077
 30
0.0
 11
295.196
 21
75.8987
 31
0.0
  0
LINE
  5
A74
330
1D
100
AcDbEntity
  8
0
100
AcDbLine
 10
133.859
 20
207.5627
 30
0.0
 11
300.209
 21
207.5627
 31
0.0
  0
LINE
  5
A75
330
1D
100
AcDbEntity
  8
0
100
AcDbLine
 10
133.859
 20
207.0627
 30
0.0
 11
133.859
 21
207.5627
 31
0.0
  0
LINE
  5
A76
330
1D
100
AcDbEntity
  8
0
100
AcDbLine
 10
298.449
 20
79.3107
 30
0.0
 11
299.651
 21
81.3567
 31
0.0
  0
LINE
  5
A77
330
1D
100
AcDbEntity
  8
0
100
AcDbLine
 10
299.651
 20
81.3567
 30
0.0
 11
300.596
 21
83.6747
 31
0.0
  0
LINE
  5
A78
330
1D
100
AcDbEntity
  8
0
100
AcDbLine
 10
300.209
 20
207.5627
 30
0.0
 11
300.959
 21
207.3617
 31
0.0
  0
LINE
  5
A79
330
1D
100
AcDbEntity
  8
0
100
AcDbLine
 10
300.596
 20
83.6747
 30
0.0
 11
301.235
 21
86.1247
 31
0.0
  0
LINE
  5
A7A
330
1D
100
AcDbEntity
  8
0
100
AcDbLine
 10
301.235
 20
86.1247
 30
0.0
 11
301.597
 21
88.6687
 31
0.0
  0
LINE
  5
A7B
330
1D
100
AcDbEntity
  8
0
100
AcDbLine
 10
300.959
 20
207.3617
 30
0.0
 11
301.508
 21
206.8127
 31
0.0
  0
LINE
  5
A7C
330
1D
100
AcDbEntity
  8
0
100
AcDbLine
 10
301.597
 20
88.6687
 30
0.0
 11
301.709
 21
91.2627
 31
0.0
  0
LINE
  5
A7D
330
1D
100
AcDbEntity
  8
0
100
AcDbLine
 10
301.709
 20
91.2627
 30
0.0
 11
301.709
 21
206.0627
 31
0.0
  0
LINE
  5
A7E
330
1D
100
AcDbEntity
  8
0
100
AcDbLine
 10
301.508
 20
206.8127
 30
0.0
 11
301.709
 21
206.0627
 31
0.0
  0
LINE
  5
A7F
330
1D
100
AcDbEntity
  8
0
100
AcDbLine
 10
250.67863572777
 20
64.656034527691
 30
0.0
 11
250.551
 21
70.5067
 31
0.0
  0
LINE
  5
A80
330
1D
100
AcDbEntity
  8
0
100
AcDbLine
 10
253.452
 20
47.5737
 30
0.0
 11
262.526
 21
47.6177
 31
0.0
  0
ENDSEC
  0
SECTION
  2
OBJECTS
  0
DICTIONARY
  5
C
330
0
100
AcDbDictionary
281
     1
  3
ACAD_GROUP
350
D
  3
ACAD_LAYOUT
350
1A
  3
ACAD_MLEADERSTYLE
350
A83
  3
ACAD_MLINESTYLE
350
17
  3
ACAD_PLOTSETTINGS
350
19
  3
ACAD_PLOTSTYLENAME
350
E
  3
ACAD_SCALELIST
350
565
  3
AcDbVariableDictionary
350
A81
  3
DWGPROPS
350
A86
  0
DICTIONARY
  5
D
102
{ACAD_REACTORS
330
C
102
}
330
C
100
AcDbDictionary
281
     1
  0
DICTIONARY
  5
1A
102
{ACAD_REACTORS
330
C
102
}
330
C
100
AcDbDictionary
281
     1
  3
Layout1
350
1C
  3
Model
350
1E
  0
DICTIONARY
  5
A83
102
{ACAD_REACTORS
330
C
102
}
330
C
100
AcDbDictionary
281
     1
  0
DICTIONARY
  5
17
102
{ACAD_REACTORS
330
C
102
}
330
C
100
AcDbDictionary
281
     1
  3
Standard
350
18
  0
DICTIONARY
  5
19
102
{ACAD_REACTORS
330
C
102
}
330
C
100
AcDbDictionary
281
     1
  0
ACDBDICTIONARYWDFLT
  5
E
102
{ACAD_REACTORS
330
C
102
}
330
C
100
AcDbDictionary
281
     1
  3
Normal
350
F
100
AcDbDictionaryWithDefault
340
F
  0
DICTIONARY
  5
565
102
{ACAD_REACTORS
330
C
102
}
330
C
100
AcDbDictionary
281
     1
  3
A0
350
566
  3
A1
350
567
  3
A2
350
568
  3
A3
350
569
  3
A4
350
56A
  3
A5
350
56B
  3
A6
350
56C
  3
A7
350
56D
  3
A8
350
56E
  3
A9
350
56F
  3
B0
350
570
  3
B1
350
571
  3
B2
350
572
  3
B3
350
573
  3
B4
350
574
  3
B5
350
575
  3
B6
350
576
  3
B7
350
577
  3
B8
350
578
  3
B9
350
579
  3
C0
350
57A
  3
C1
350
57B
  3
C2
350
57C
  3
C3
350
57D
  3
C4
350
57E
  3
C5
350
57F
  3
C6
350
580
  3
C7
350
581
  3
C8
350
582
  3
C9
350
583
  3
D0
350
584
  3
D1
350
585
  3
D2
350
586
  0
DICTIONARY
  5
A81
102
{ACAD_REACTORS
330
C
102
}
330
C
100
AcDbDictionary
281
     1
  3
CANNOSCALE
350
A84
  0
XRECORD
  5
A86
102
{ACAD_REACTORS
330
C
102
}
330
C
100
AcDbXrecord
280
     1
  1
DWGPROPS COOKIE
  2

  3

  4

  6

  7

  8
MARTIN
  9

300
=
301
=
302
=
303
=
304
=
305
=
306
=
307
=
308
=
309
=
 40
0.0
 41
2456462.816311296
 42
2456462.817274838
  1

 90
        0
  0
LAYOUT
  5
1C
102
{ACAD_REACTORS
330
1A
102
}
330
1A
100
AcDbPlotSettings
  1

  2
none_device
  4

  6

 40
0.0
 41
0.0
 42
0.0
 43
0.0
 44
0.0
 45
0.0
 46
0.0
 47
0.0
 48
0.0
 49
0.0
140
0.0
141
0.0
142
1.0
143
1.0
 70
   688
 72
     0
 73
     0
 74
     5
  7

 75
    16
147
1.0
148
0.0
149
0.0
100
AcDbLayout
  1
Layout1
 70
     1
 71
     1
 10
0.0
 20
0.0
 11
12.0
 21
9.0
 12
0.0
 22
0.0
 32
0.0
 14
1.000000000000E+20
 24
1.000000000000E+20
 34
1.000000000000E+20
 15
-1.000000000000E+20
 25
-1.000000000000E+20
 35
-1.000000000000E+20
146
0.0
 13
0.0
 23
0.0
 33
0.0
 16
1.0
 26
0.0
 36
0.0
 17
0.0
 27
1.0
 37
0.0
 76
     0
330
1B
  0
LAYOUT
  5
1E
102
{ACAD_REACTORS
330
1A
102
}
330
1A
100
AcDbPlotSettings
  1

  2
none_device
  4

  6

 40
0.0
 41
0.0
 42
0.0
 43
0.0
 44
0.0
 45
0.0
 46
0.0
 47
0.0
 48
0.0
 49
0.0
140
0.0
141
0.0
142
1.0
143
1.0
 70
  1712
 72
     0
 73
     0
 74
     0
  7

 75
     0
147
1.0
148
0.0
149
0.0
100
AcDbLayout
  1
Model
 70
     1
 71
     0
 10
0.0
 20
0.0
 11
12.0
 21
9.0
 12
0.0
 22
0.0
 32
0.0
 14
0.009
 24
0.178817
 34
0.0
 15
459.9912
 25
208.8217
 35
0.0
146
0.0
 13
0.0
 23
0.0
 33
0.0
 16
1.0
 26
0.0
 36
0.0
 17
0.0
 27
1.0
 37
0.0
 76
     0
330
1D
331
560
  0
MLINESTYLE
  5
18
102
{ACAD_REACTORS
330
17
102
}
330
17
100
AcDbMlineStyle
  2
Standard
 70
     0
  3

 62
   256
 51
90.0
 52
90.0
 71
     2
 49
0.5
 62
   256
  6
BYLAYER
 49
-0.5
 62
   256
  6
BYLAYER
  0
ACDBPLACEHOLDER
  5
F
102
{ACAD_REACTORS
330
E
102
}
330
E
  0
SCALE
  5
566
102
{ACAD_REACTORS
330
565
102
}
330
565
100
AcDbScale
 70
     0
300
1:1
140
1.0
141
1.0
290
     1
  0
SCALE
  5
567
102
{ACAD_REACTORS
330
565
102
}
330
565
100
AcDbScale
 70
     0
300
1:2
140
1.0
141
2.0
290
     0
  0
SCALE
  5
568
102
{ACAD_REACTORS
330
565
102
}
330
565
100
AcDbScale
 70
     0
300
1:4
140
1.0
141
4.0
290
     0
  0
SCALE
  5
569
102
{ACAD_REACTORS
330
565
102
}
330
565
100
AcDbScale
 70
     0
300
1:5
140
1.0
141
5.0
290
     0
  0
SCALE
  5
56A
102
{ACAD_REACTORS
330
565
102
}
330
565
100
AcDbScale
 70
     0
300
1:8
140
1.0
141
8.0
290
     0
  0
SCALE
  5
56B
102
{ACAD_REACTORS
330
565
102
}
330
565
100
AcDbScale
 70
     0
300
1:10
140
1.0
141
10.0
290
     0
  0
SCALE
  5
56C
102
{ACAD_REACTORS
330
565
102
}
330
565
100
AcDbScale
 70
     0
300
1:16
140
1.0
141
16.0
290
     0
  0
SCALE
  5
56D
102
{ACAD_REACTORS
330
565
102
}
330
565
100
AcDbScale
 70
     0
300
1:20
140
1.0
141
20.0
290
     0
  0
SCALE
  5
56E
102
{ACAD_REACTORS
330
565
102
}
330
565
100
AcDbScale
 70
     0
300
1:30
140
1.0
141
30.0
290
     0
  0
SCALE
  5
56F
102
{ACAD_REACTORS
330
565
102
}
330
565
100
AcDbScale
 70
     0
300
1:40
140
1.0
141
40.0
290
     0
  0
SCALE
  5
570
102
{ACAD_REACTORS
330
565
102
}
330
565
100
AcDbScale
 70
     0
300
1:50
140
1.0
141
50.0
290
     0
  0
SCALE
  5
571
102
{ACAD_REACTORS
330
565
102
}
330
565
100
AcDbScale
 70
     0
300
1:100
140
1.0
141
100.0
290
     0
  0
SCALE
  5
572
102
{ACAD_REACTORS
330
565
102
}
330
565
100
AcDbScale
 70
     0
300
2:1
140
2.0
141
1.0
290
     0
  0
SCALE
  5
573
102
{ACAD_REACTORS
330
565
102
}
330
565
100
AcDbScale
 70
     0
300
4:1
140
4.0
141
1.0
290
     0
  0
SCALE
  5
574
102
{ACAD_REACTORS
330
565
102
}
330
565
100
AcDbScale
 70
     0
300
8:1
140
8.0
141
1.0
290
     0
  0
SCALE
  5
575
102
{ACAD_REACTORS
330
565
102
}
330
565
100
AcDbScale
 70
     0
300
10:1
140
10.0
141
1.0
290
     0
  0
SCALE
  5
576
102
{ACAD_REACTORS
330
565
102
}
330
565
100
AcDbScale
 70
     0
300
100:1
140
100.0
141
1.0
290
     0
  0
SCALE
  5
577
102
{ACAD_REACTORS
330
565
102
}
330
565
100
AcDbScale
 70
     0
300
1/128" = 1'-0"
140
0.0078125
141
12.0
290
     0
  0
SCALE
  5
578
102
{ACAD_REACTORS
330
565
102
}
330
565
100
AcDbScale
 70
     0
300
1/64" = 1'-0"
140
0.015625
141
12.0
290
     0
  0
SCALE
  5
579
102
{ACAD_REACTORS
330
565
102
}
330
565
100
AcDbScale
 70
     0
300
1/32" = 1'-0"
140
0.03125
141
12.0
290
     0
  0
SCALE
  5
57A
102
{ACAD_REACTORS
330
565
102
}
330
565
100
AcDbScale
 70
     0
300
1/16" = 1'-0"
140
0.0625
141
12.0
290
     0
  0
SCALE
  5
57B
102
{ACAD_REACTORS
330
565
102
}
330
565
100
AcDbScale
 70
     0
300
3/32" = 1'-0"
140
0.09375
141
12.0
290
     0
  0
SCALE
  5
57C
102
{ACAD_REACTORS
330
565
102
}
330
565
100
AcDbScale
 70
     0
300
1/8" = 1'-0"
140
0.125
141
12.0
290
     0
  0
SCALE
  5
57D
102
{ACAD_REACTORS
330
565
102
}
330
565
100
AcDbScale
 70
     0
300
3/16" = 1'-0"
140
0.1875
141
12.0
290
     0
  0
SCALE
  5
57E
102
{ACAD_REACTORS
330
565
102
}
330
565
100
AcDbScale
 70
     0
300
1/4" = 1'-0"
140
0.25
141
12.0
290
     0
  0
SCALE
  5
57F
102
{ACAD_REACTORS
330
565
102
}
330
565
100
AcDbScale
 70
     0
300
3/8" = 1'-0"
140
0.375
141
12.0
290
     0
  0
SCALE
  5
580
102
{ACAD_REACTORS
330
565
102
}
330
565
100
AcDbScale
 70
     0
300
1/2" = 1'-0"
140
0.5
141
12.0
290
     0
  0
SCALE
  5
581
102
{ACAD_REACTORS
330
565
102
}
330
565
100
AcDbScale
 70
     0
300
3/4" = 1'-0"
140
0.75
141
12.0
290
     0
  0
SCALE
  5
582
102
{ACAD_REACTORS
330
565
102
}
330
565
100
AcDbScale
 70
     0
300
1" = 1'-0"
140
1.0
141
12.0
290
     0
  0
SCALE
  5
583
102
{ACAD_REACTORS
330
565
102
}
330
565
100
AcDbScale
 70
     0
300
1-1/2" = 1'-0"
140
1.5
141
12.0
290
     0
  0
SCALE
  5
584
102
{ACAD_REACTORS
330
565
102
}
330
565
100
AcDbScale
 70
     0
300
3" = 1'-0"
140
3.0
141
12.0
290
     0
  0
SCALE
  5
585
102
{ACAD_REACTORS
330
565
102
}
330
565
100
AcDbScale
 70
     0
300
6" = 1'-0"
140
6.0
141
12.0
290
     0
  0
SCALE
  5
586
102
{ACAD_REACTORS
330
565
102
}
330
565
100
AcDbScale
 70
     0
300
1'-0" = 1'-0"
140
12.0
141
12.0
290
     0
  0
DICTIONARYVAR
  5
A84
102
{ACAD_REACTORS
330
A81
102
}
330
A81
100
DictionaryVariables
280
     0
  1
1:1
  0
ENDSEC
  0
SECTION
  2
THUMBNAILIMAGE
 90
    16364
310
28000000B40000005500000001000800000000000000000000000000000000000000000000000000FFFFFF000000FF0000FFFF0000FF0000FFFF0000FF000000FF00FF000000000080808000C0C0C0000000FF007F7FFF000000A5005252A50000007F003F3F7F0000004C0026264C000000260013132600003FFF007F9FFF
310
000029A5005267A500001F7F003F4F7F0000134C00262F4C000009260013172600007FFF007FBFFF000052A500527CA500003F7F003F5F7F0000264C0026394C0000132600131C260000BFFF007FDFFF00007CA5005291A500005F7F003F6F7F0000394C0026424C00001C26001321260000FFFF007FFFFF0000A5A50052A5
310
A500007F7F003F7F7F00004C4C00264C4C00002626001326260000FFBF007FFFDF0000A57C0052A59100007F5F003F7F6F00004C3900264C420000261C001326210000FF7F007FFFBF0000A5520052A57C00007F3F003F7F5F00004C2600264C39000026130013261C0000FF3F007FFF9F0000A5290052A56700007F1F003F
310
7F4F00004C1300264C2F00002609001326170000FF00007FFF7F0000A5000052A55200007F00003F7F3F00004C0000264C260000260000132613003FFF00009FFF7F0029A5000067A552001F7F00004F7F3F00134C00002F4C260009260000172613007FFF0000BFFF7F0052A500007CA552003F7F00005F7F3F00264C0000
310
394C2600132600001C261300BFFF0000DFFF7F007CA5000091A552005F7F00006F7F3F00394C0000424C26001C26000021261300FFFF0000FFFF7F00A5A50000A5A552007F7F00007F7F3F004C4C00004C4C26002626000026261300FFBF0000FFDF7F00A57C0000A59152007F5F00007F6F3F004C3900004C422600261C00
310
0026211300FF7F0000FFBF7F00A5520000A57C52007F3F00007F5F3F004C2600004C39260026130000261C1300FF3F0000FF9F7F00A5290000A56752007F1F00007F4F3F004C1300004C2F26002609000026171300FF000000FF7F7F00A5000000A55252007F0000007F3F3F004C0000004C2626002600000026131300FF00
310
3F00FF7F9F00A5002900A55267007F001F007F3F4F004C0013004C262F002600090026131700FF007F00FF7FBF00A5005200A5527C007F003F007F3F5F004C0026004C2639002600130026131C00FF00BF00FF7FDF00A5007C00A55291007F005F007F3F6F004C0039004C26420026001C0026132100FF00FF00FF7FFF00A5
310
00A500A552A5007F007F007F3F7F004C004C004C264C002600260026132600BF00FF00DF7FFF007C00A5009152A5005F007F006F3F7F0039004C0042264C001C002600211326007F00FF00BF7FFF005200A5007C52A5003F007F005F3F7F0026004C0039264C00130026001C1326003F00FF009F7FFF002900A5006752A500
310
1F007F004F3F7F0013004C002F264C000900260017132600000000002D2D2D005B5B5B0089898900B7B7B700B3B3B30000000000000000000000000000000000000000000000000000000000000000000000000000000000000000000000000000000000000000000000000000000000000000000000000000000000000000
310
00000000000000000000000000000000000000000000000000000000000000000000000000000000000000000000000000000000000000000000000000000000000000000000000000000000000000000000000000000000000000000000000000000000000000000000000000000000000000000000000000000000000000
310
00000000000000000000000000000000000000000000000000000000000000000000000000000000000000000000000000000000000000000000000000000000000000000000000000000000000000000000000000000000000000000000000000000000000000000000000000000000000000000000000000000000000000
310
00000000000000000000000000000000000000000000000000000000000000000000000000000000000000000000000000000000000000000000000000000000000000000000000000000000000000000000000000000000000000000000000000000000000000000000000000000000000000000000000000000000000000
310
00000000000000000000000000000000000000000000000000000000000000000000000000000000000000000000000000000000000000000000000000000000000000000000000000000000000000000000000000000000000000000000000000000000000000000000000000000000000000000000000000000000000000
310
00000000000000000000000000000000000000000000000000000000000000000000000000000000000000000000000000000000000000000000000000000000000000000000000000000000000000000000000000000000000000000000000000000000000000000000000000000000000000000000000000000000000000
310
00000000000000000000000000000000000000000000000000000000000000000000000000000000000000000000000000000000000000000000000000000000000000000000000000000000000000000000000000000000000000000000000000000000000000000000000000000000000000000000000000000000000000
310
00000000000000000000000000000000000000000000000000000000000000000000000000000000000000000000000000000000000000000000000000000000000000000000000000000000000000000000000000000000000000000000000000000000000000000000000000000000000000000000000000000000000000
310
00000000000000000000000000000000000000000000000000000000000000000000000000000000000000000000000000000000000000000000000000000000000000000000000000000000000000000000000000000000000000000000000000000000000000000000000000000000000000000000000000000000000000
310
00000000000000000000000000000000000000000000000000000000000000000000000000000000000000000000000000000000000000000000000000000000000000000000000000000000000000000000000000000000000000000000000000000000000000000000000000000000000000000000000000000000000000
310
00000707070007070700000000000000000000000000000000000000000000000000000000000000000000000000000000000000000000000000000000000000000000000000000000000000000000000000000000000000000000000000000000000000000000000000000000000000000000000000000000000000000000
310
00000000000000000000000000000000000000000000000000000000000000000000000000000000000000000000000007070707070707000000000000000707070707070700000000000000000000000000000000000000000000000000000000000000000000000000000000000000000000000000000000000000000000
310
00000000000000000000000000000000000000000000000000000000000000000000000000000000000000000000000000000000000000000000000000000000000000000000000000000000000000000000000000000000000000000000000000000707070000000000000000000000000000000000000000000707070000
310
00000000000000000000000000000000000000000000000000000000000000000000000000000000000000000000000000000000000000000000000000000000000000000000000000000000000000000000000000000000000000000000000000000000000000000000000000000000000000000000000000000000000000
310
00000000000000000000000000000000000000000000070700000000000000000000000000000000000000000000000000000007070000000000000000000000000000000000000000000000000000000000000000000000000000000000000000000000000000000000000000000000000000000000000000000000000000
310
00000000000000000000000000000000000000000000000000000000000000000000000000000000000000000000000000000000000000000000000000000000000000000000000000000700000000000000000000000000000000000000000000000000000000000000070000000000000000000000000000000000000000
310
00000000000000000000000000000000000000000000000000000000000000000000000000000000000000000000000000000000000000000000000000000000000000000000000000000000000000000000000000000000000000000000000000000000000000000000000000000000000000000000000000000000000007
310
00000000000000000000000000000000000000000000000000000000000000000007000000000000000000000000000000000000000000000000000000000000000000000000000000000000000000000000000000000000000000000000000000000000000000000000000000000000000000000000000000000000000000
310
00000000000000000000000000000000000000000000000000000000000000000000000000000000000000000000000000000007000000000000000000000000000000000000000000000000000000000000000000000007000000000000000000000000000000000000000000000000000000000000000000000000000000
310
00000000000000000000000000000000000000000000000000000000000000000000000000000000000000000000000000000000000000000000000000000000000000000000000000000000000000000000000000000000000000000000000000000000000000000700000000000000000000000000000000000000000000
310
00000000000000000000000000070000000000000000000000000000000000000000000000000000000000000000000000000000000000000000000000000000000000000000000000000000000000000000000000000000000000000000000000000000000000000000000000000000000000000000000000000000000000
310
00000000000000000000000000000000000000000000000000000000000700000000000000000000000000000000000000000000000000000000000000000000000000070000000000000000000000000000000000000000000000000000000000000000000000000000000000000000000000000000000000000000000000
310
00000000000000000000000000000000000000000000000000000000000000000000000000000000000000000000000000000000000000000000000000000000000000000000000000000000000000000000070000000000000000000000000000000000000000000000000000000000000000000000000007000000000000
310
00000000000000000000000000000000000000000000000000000000000000000000000000000000000000000000000000000000000000000000000000000000000000000000000000000000000000000000000000000000000000000000000000000000000000000000000000000000000000000000000000000000000000
310
00000000000000070000000000000000000000000000000000000000000000000000000000000000000000000000000700000000000000000000000000000000000000000000000000000000000000000000000000000000000000000000000000000000000000000000000000000000000000000000000000000000000000
310
00000000000000000000000000000000000000000000000000000000000000000000000000000000000000000000000000000000000000000000000007000000000000000000000000000000000000000000000000000000000000000000000000000000070000000000000000000000000000000000000000000000000000
310
00000000000000000000000000000000000000000000000000000000000000000000000000000000000000000000000000000000000000000000000000000000000000000000000000000000000000000000000000000000000000000000000000000000000000000000000000000000000700000000000000000000000000
310
00000000000000000000000000000000000000000000000000000700000000000000000000000000000000000000000000000000000000000000000000000000000000000000000000000000000000000000000000000000000000000000000000000000000000000000000000000000000000000000000000000000000000
310
00000000000000000000000000000000000000000000000000000000000000000000000000000007000000000000000000000000000000000000000000000000000000000000000000000000000000070000000000000000000000000000000000000000000000000000000000000000000000000000000000000000000000
310
00000000000000000000000000000000000000000000000000000000000000000000000000000000000000000000000000000000000000000000000000000000000000000000000000000000000000000000000000000000070707070700000000000000000000000000000000000000000000000000000000000000000000
310
00000000000700000000000000000000000000000000000000000000000000000000000000000000000000000000000000000000000000000000000000000000000000000000000000000000000000000000000000000000000000000000000000000000000000000000000000000000000000000000000000000000000000
310
00000000000000000000000707070707070707000000000000000000000000000000000000000000000000000000000000000000000000000000070000000000000000000000000000000000000000000000000000000000000000000000000000000000000000000000000000000000000000000000000000000000000000
310
00000000000000000000000000000000000000000000000000000000000000000000000000000000000707070707000000000000000000000000000000000007070700000000070000000000000000000000000000000000000000000000000000000000000000000000000000000000070000000000000000000000000000
310
00000000000000000000000000000000000000000000000000000000000000000000000000000000000000000000000000000000000000000000000000000000000000000000000000000000000000000000000000000000000000000000070000000700000000000000000000000000000000070707000000000007000000
310
00000000000000000000000000000000000000000000000000000000000000000000000000000700000000000000000000000000000000000000000000000000000000000000000000000000000000000000000000000000000000000000000000000000000000000000000000000000000000000000000000000000000000
310
00000000000000000000000000000000000000000700000007000000000000000000000000000000070707000000000000070000000000000000000000000000000000000000000000000000000000000000000000000000000000070000000000000000000000000000000000000000000000000000000000000000000000
310
00000000000000000000000000000000000000000000000000000000000000000000000000000000000000000000000000000000000000000000000000000000000000000000000000070000000700000000000000000000000000000007070000000000000707000000000000000000000000000000000000000000000000
310
00000000000000000000000000000000000700000000000000000000000000000000000000000000000000000000000000000000000000000000000000000000000000000000000000000000000000000000000000000000000000000000000000000000000000000000000000000000000000000000000000000000000007
310
00000007000000000000000000000000000007070700070700000007070000000000000000000000000000000000000000000000000000000000000000000000000000000000070000000000000000000000000000000000000000000000000000000000000000000000000000000000000000000000000000000000000000
310
00000000000000000000000000000000000000000000000000000000000000000000000000000000000000000000000000000000070000000700000000000000000000000000000707000007070000000707070000000000000000000000000000000000000000000000000000000000000000000000000000000700000000
310
00000000000000000000000000000000000000000000000000000000000000000000000000000000000000000000000000000000000000000000000000000000000000000000000000000000000000000000000000000000000000000000000000000000000000000007000000070000000000000000000000000000070700
310
00070700000007070700000000000000000000000000000000000000000000000000000000000000000000000000000007000000000000000000000000000000000000000000000000000000000000000000000000000000000000000000000000000000000000000000000000000000000000000000000000000000000000
310
00000000000000000000000000000000000000000000000000000000000000070000000700000000000000000000000000000707000007070000000707070000000000000000000000000000000000000000000000000000000000000000000000000000000700000000000000000000000000000000000000000000000000
310
00000000000000000000000000000000000000000000000000000000000000000000000000000000000000000000000000000000000000000000000000000000000000000000000000000000000000000000000007000000070000000000000000000000000000070700000707000000070707000000000000000000000000
310
00000000000000000000000000000000000000000000000000000007000000000000000000000000000000000000000000000000000000070707070707070707070707070707070707070707070707070707070707070707070707070707070707070707070707070707070707070707070707070707070707070707070707
310
07070707070707070707070707070707070707070707070707000000000707000007070000000707070000000000000000000000000000000000000000000000000000000000000000000000000000000700000000000000000000000000000000000000000000000000000707000000000000000000000000000000000000
310
00000000000000000000000000000000000000000000000000000000000000000000000000000000000000000000000000000000000000000000000000000000000000000000000000000000000007070000070700000707000000070700070000000000000000000000000000000000000000000000000000000000000000
310
00000000000700000000000000000000000000000000000000000000000000000707000000000000000000000000000000000000000000000000000000000000000000000000000000000000000000000000000000000000000000000000000000000000000000000000000000000000000000000000000000000000000000
310
00000000000700000707000007070000000707000700000000000000000000000000000000000000000000000000000000000000000000000000070000000000000000000000000000000000000000000000000000070000000000000000000000000000000000000000000000000000000000000000000000000000000000
310
00000000000000000000000000000000000000000000000000000000000000000000000000000000000000000000000000000000000000000000000700070700000707000000070700000700000000000000000000000000000000000000000000000000000000000000000000000700000000000000000000000000000000
310
00000000000000000000000700000000000000000000000000000000000000000000000000000000000000000000000000000000000000000000000000000000000000000000000000000000000000000000000000000000000000000000000000000000000000000000000000000000070007070000070700000007070000
310
07000000000000000000000000000000000000000000000000000000000000000000000007000000000000000000000000000000000000000000000000000007000000000000000000000000000000000000000000000000000000000000000000000000000000000000000000000000000000000000000000000000000000
310
00000000000000000000000000000000000000000000000000000000000000000000000000000700070700000707000000070700000707000000000000000000000000000000000000000000000000000000000000000000070000000000000000000000000000000000000000000000000000000700000000000000000000
310
00000000000000000000000000000000000000000000000000000000000000000000000000000000000000000000000000000000000000000000000000000000000000000000000000000000000000000000000000000000000000070007070000070700000007070000070707000000000000000000000000000000000000
310
00000000000000000000000000070000000000000000000000000000000000000000000000000000000007000000000000000000000000000000000000000000000000000000000000000000000000000000000000000000000000000000000000000000000000000000000000000000000000000000000000000000000000
310
00000000000000000000000000000000000700070700000707000000070700000707000707000000000000000000000000000000000000000000000000000000070700000000000000000000000000000000000000000000000000000000000700000000000000000000000000000000000000000000000000000000000000
310
00000000000000000000000000000000000000000000000000000000000000000000000000000000000000000000000000000000000000000000000000000000000000000000070007070000070700000007070000070700000007070000000000000000000000000000000000000000000000070700000000000000000000
310
00000000000000000000000000000000000000000007000000000000000000000000000000000000000000000000000000000000000000000000000000000000000000000000000000000000000000000000000000000000000000000000000000000000000000000000000000000000000000000000000000000007000707
310
00000707000000070700000707000000070707070707070000000000000000000000000007070707070000000000000000000000000000000000000000000000000000000000000000000700000000000000000000000000000000000000000000000000000000000000000000000000000000000000000000000000000000
310
00000000000000000000000000000000000000000000000000000000000000000000000000000000000000000000000000070007070000070700000007070000070700000007070000070707070707070707000707070707070707000000000000000000000000000000000000000000000000000000000000000000000000
310
07000000000000000000000000000000000000000000000000000000000000000000000000000000000000000000000000000000000000000000000000000000000000000000000000000000000000000000000000000000000000000000000000000000000007000707000007070000000707000007070000000707000007
310
07070000000000000000000000000007000000000000000000000000000000000000000000000000000000000000000000000000000700000000000000000000000000000000000000000000000000000000000000000000000000000000000000000000000000000000000000000000000000000000000000000000000000
310
00000000000000000000000000000000000000000000000000000000070007070000070700000007070000070700000007070000070700070000000000000000000000070000000000000000000000000000000000000000000000000000000000000000000000000000070000000000000000000000000000000000000000
310
00000000000000000000000000000000000000000000000000000000000000000000000000000000000000000000000000000000000000000000000000000000000000000000000000000000000000000007000707000007070000000707000007070000000707000007070007000000000000000000000007000000000000
310
00000000000000000000000000000000000000000000000000000000000000000700000000000000000000000000000000000000000000000000000000000000000000000000000000000000000000000000000000000000000000000000000000000000000000000000000000000000000000000000000000000000000000
310
00000000000000070007070000070700000007070000070700000007070000070700070000000000000000000000070000000000000000000000000000000000000000000000000000000000000000000000000000070000000000000000000000000000000000000000000000000000000000000000000000000000000000
310
00000000000000000000000000000000000000000000000000000000000000000000000000000000000000000000000000000000000000000000000007000707000007070000000707000007070000000707000007070007000000000000000000000007000000000000000000000000000000000000000000000000000000
310
00000000000000000000000700000000000000000000000000000000000000000000000000000000000000000000000000000000000000000000000000000000000000000000000000000000000000000000000000000000000000000000000000000000000000000000000000000000000700070700000707000000070700
310
00070700000007070000070700070000000000000000000000070000000000000000000000000000000000000000000000000000000000000000000000000000070000000000000000000000000000000000000000000000000000000000000000000000000000000000000000000000000000000000000000000000000000
310
00000000000000000000000000000000000000000000000000000000000000000000000000000007000707000007070000000707000007070000000707000007070007000000000000000000000007000000000000000000000000000000000000000000000000000000000000000000000000000007000000000000000000
310
00000000000000000000000000000000000000000000000000000000000000000000000000000000000000000000000000000000000000000000000000000000000000000000000000000000000000000000000000000000000000000700070700000707000000070700000707000000070700000707000007000000000000
310
00000007000000000000000000000000000000000000000000000000000000000000000000000000000000070000000000000000000000000000000000000000000000000000000000000000000000000000000000000000000000000000000000000000000000000000000000000000000000000000000000000000000000
310
00000000000000000000000000000000000007000707000007070000000707000007070000000707000007070000070000000000000000000700000000000000000000000000000000000000000000000000000000000000000000000000000007000000000000000000000000000000000000000000000000000000000000
310
00000000000000000000000000000000000000000000000000000000000000000000000000000000000000000000000000000000000000000000000000000000000000000000000700070707000707000000070700000707000000070700000707000007000000000000000000070000000000000000000000000000000000
310
00000000000000000000000000000000000000000000070000000000000000000000000000000000000000000000000000000000000000000000000000000000000000000000000000000000000000000000000000000000000000000000000000000000000000000000000000000000000000000000000000000000070000
310
07070000000000000707000007070000000707000007070000070000000000000000000700000000000000000000000000000000000000000000000000000000000000000000000000000007000000000000000000000000000000000000000000000000000000000000000000000000000000000000000000000000000000
310
00000000000000000000000000000000000000000000000000000000000000000000000000000000000000000000000000000700000007070000000000000000000000000000070700000000000007000000000000000000070000000000000000000000000000000000000000000000000000000000000000000000000000
310
00070000000000000000000000000000000000000000000000000000000000000000000000000000000000000000000000000000000000000000000000000000000000000000000000000000000000000000000000000000000000000000000000000000000000070000000700070000000000000000000000000000000000
310
00000000070000000000000000000700000000000000000000000000000000000000000000000000000000000000000000000000000007000000000000000000000000000000000000000000000000000000000000000000000000000000000000000000000000000000000000000000000000000000000000000000000000
310
00000000000000000000000000000000000000000000000000000000000700000000070707070707000000000000000000000000000000000007000000000000000000070000000000000000000000000000000000000000000000000000000000000000000000000000000700000000000000000000000000000000000000
310
00000000000000000000000000000000000000000000000000000000000000000000000000000000000000000000000000000000000000000000000000000000000000000000000000000000000000000000070000000000000707070707070707070707070707070707070707070700000000000000000007000000000000
310
00000000000000000000000000000000000000000000000000000000000000000007000000000000000000000000000000000000000000000000000000000000000000000000000000000000000000000000000000000000000000000000000000000000000000000000000000000000000000000000000000000000000000
310
00000000000000000700000000000000000000000000070707070707070707070707070007000000000000000000070000000000000000000000000000000000000000000000000000000000000000000000000000000700000000000000000000000000000000000000000000000000000000000000000000000000000000
310
00000000000000000000000000000000000000000000000000000000000000000000000000000000000000000000000000000000000000000000000000070000000007070707070707070707070707070707070707070707070700000000000000000007000000000000000000000000000000000000000000000000000000
310
00000000000000000000000007000000000000000000000000000000000000000000000000000000000000000000000000000000000000000000000000000000000000000000000000000000000000000000000000000000000000000000000000000000000000000000000000000000000007000000000700000000000000
310
00000700000007070700000000000007070000000000000007000000000000000000000000000000000000000000000000000000000000000000000000000000000700000000000000000000000000000000000000000000000000000000000000000000000000000000000000000000000000000000000000000000000000
310
00000000000000000000000000000000000000000000000000000000000000000000000000000000070000000007000000000000000000070000070000000707000000000007000000000000000700000000000000000000000000000000000000000000000000000000000000000000000000000000070000000000000000
310
00000000000000000000000000000000000000000000000000000000000000000000000000000000000000000000000000000000000000000000000000000000000000000000000000000000000000000000000000000000000000000007000000000700000000000000000007000700000000000700000000000707000000
310
00000707000000000000000000000000000000000000000000000000000000000000000000000000000000000700000000000000000000000000000000000000000000000000000000000000000000000000000000000000000000000000000000000000000000000000000000000000000000000000000000000000000000
310
00000000000000000000000000000000000000070000070707000000000000000000070007000000000000070000000007000707070707000700000000000000000000000000000000000000000000000000000000000000000000000000000000070000000000000000000000000000000000000000000000000000000000
310
00000000000000000000000000000000000000000000000000000000000000000000000000000000000000000000000000000000000000000000000000000000000000000000000007000007000700000000000000000007070000000000000000000000000700000000000000070000000000000000000000000000000000
310
00000000000000000000000000000000000000000000000700000000000000000000000000000000000000000000000000000000000000000000000000000000000000000000000000000000000000000000000000000000000000000000000000000000000000000000000000000000000000000000000000000000000700
310
00000707000000000000000000070007000000000000070000000007000000000000000700000000000000000000000000000000000000000000000000000000000000000000000000000000070000000000000000000000000000000000000000000000000000000000000000000000000000000000000000000000000000
310
00000000000000000000000000000000000000000000000000000000000000000000000000000000000000000000000000000007000000000700000000000000000007000700000000000707000000000700000000000000070000000000000000000000000000000000000000000000000000000000000000000000000000
310
00000700000000000000000000000000000000000000000000000000000000000000000000000000000000000000000000000000000000000000000000000000000000000000000000000000000000000000000000000000000000000000000000000000000000000700000000070000000000000000000700070700000007
310
07070000000007070000000000070000000000000000000000000000000000000000000000000000000000000000000000000000000000070000000000000000000000000000000000000000000000000000000000000000000000000000000000000000000000000000000000000000000000000000000000000000000000
310
00000000000000000000000000000000000000000000000000000000000007000000000700000000000000000007000700070707000007000000000707070707070707000000000000000000000000000000000000000000000000000000000000000000000000000000000007000000000000000000000000000000000000
310
00000000000000000000000000000000000000000000000000000000000000000000000000000000000000000000000000000000000000000000000000000000000000000000000000000000000000000000000700000000070707070707070707070707070000000000000707070707070700000000000700000000000000
310
00000000000000000000000000000000000000000000000000000000000000000000070000000000000000000000000000000000000000000000000000000000000000000000000000000000000000000000000000000000000000000000000000000000000000000000000000000000000000000000000000000000000000
310
00000000000000000007000000000000000000000000000000000700000000000007000000000007000000000007000000000000000000000000000000000000000000000000000000000000000000000000000000000007000000000000000000000000000000000000000000000000000000000000000000000000000000
310
00000000000000000000000000000000000000000000000000000000000000000000000000000000000000000000000000000000000000000000000000000700000000000000000000000000000000070000000000000700000000000700000000000700000000000000000000000000000000000000000000000000000000
310
00000000000000000000000000070000000000000000000000000000000000000000000000000000000000000000000000000000000000000000000000000000000000000000000000000000000000000000000000000000000000000000000000000000000000000000000000000000000000070000000000000000000000
310
00000000000700000000000007000000000007000000000007000000000000000000000000000000000000000000000000000000000000000000000000000000000007000000000000000000000000000000000000000000000000000000000000000000000000000000000000000000000000000000000000000000000000
310
00000000000000000000000000000000000000000000000000000000000000000000000000000000000700000000000000000000000000000000070000000000000700000000000700000000000700000000000000000000000000000000000000000000000000000000000000000000000000000000000700000000000000
310
00000000000000000000000000000000000000000000000000000000000000000000000000000000000000000000000000000000000000000000000000000000000000000000000000000000000000000000000000000000000000000000070000000000000000000000000000000007000000000000070000000000070000
310
00000007000000000000000000000000000000000000000000000000000000000000000000000000000000000007000000000000000000000000000000000000000000000000000000000000000000000000000000000000000000000000000000000000000000000000000000000000000000000000000000000000000000
310
00000000000000000000000000000000000000000700000000000000000000000000000000070000000000000700000000000700000000000000000000000000000000000000000000000000000000000000000000000000000000000000000000000700000000000000000000000000000000000000000000000000000000
310
00000000000000000000000000000000000000000000000000000000000000000000000000000000000000000000000000000000000000000000000000000000000000000000000000070000000000000000000000000000000007070707070707070000000000070000000000070000000000000000000000000000000000
310
00000000000000000000000000000000000000000000000007070707070707070707070707070707070707070707070707070707070707070707070707070707070707070707070707070707070707070707070707070707070707070707070707070707070707070707070707070707070707070707070707070707070707
310
00000000000000000000000000000000000000000000000000000000000007000007070000000000000000000000000000000000000000000000000000000000000000000000000000000000000000000000000000000000000000000000000000000000000000000000000000000000000000000000000000000000000000
310
00000000000000000000000000000000000000000000000000000000000000000000000000000000000000000000000000000000000000000000000000000000000000000000000000000000000000000000000007070000000000000000000000000000000000000000000000000000000000000000000000000000000000
310
00000000000000000000000000000000000000000000000000000000000000000000000000000000000000000000000000000000000000000000000000000000000000000000000000000000000000000000000000000000000000000000000000000000000000000000000000000000000000000000000000000000000000
310
00000000000000000000000000000000000000000000000000000000000000000000000000000000000000000000000000000000000000000000000000000000000000000000000000000000000000000000000000000000000000000000000000000000000000000000000000000000000000000000000000000000000000
310
00000000000000000000000000000000000000000000000000000000000000000000000000000000000000000000000000000000000000000000000000000000000000000000000000000000000000000000000000000000000000000000000000000000000000000000000000000000000000000000000000000000000000
310
00000000000000000000000000000000000000000000000000000000000000000000000000000000000000000000000000000000000000000000000000000000000000000000000000000000000000000000000000000000000000000000000000000000000000000000000000000000000000000000000000000000000000
310
00000000000000000000000000000000000000000000000000000000000000000000000000000000000000000000000000000000000000000000000000000000000000000000000000000000000000000000000000000000000000000000000000000000000000000000000000000000000000000000000000000000000000
310
00000000000000000000000000000000000000000000000000000000000000000000000000000000000000000000000000000000000000000000000000000000000000000000000000000000000000000000000000000000000000000000000000000000000000000000000000000000000000000000000000000000000000
310
00000000000000000000000000000000000000000000000000000000000000000000000000000000000000000000000000000000000000000000000000000000000000000000000000000000000000000000000000000000000000000000000000000000000000000000000000000000000000000000000000000000000000
310
00000000000000000000000000000000000000000000000000000000000000000000000000000000000000000000000000000000000000000000000000000000000000000000000000000000000000000000000000000000000000000000000000000000000000000000000000000000000000000000000000000000000000
310
00000000000000000000000000000000000000000000000000000000000000000000000000000000000000000000000000000000000000000000000000000000000000000000000000000000000000000000000000000000000000000000000000000000000000000000000000000000000000000000000000000000000000
310
000000000000000000000000000000000000000000000000000000000000000000000000000000000000000000000000000000000000000000000000000000000000000000000000000000000000000000000000000000000000000000000000000000000000000000000000
  0
ENDSEC
  0
EOF
