  0
SECTION
  2
HEADER
  9
$ACADVER
  1
AC1015
  9
$ACADMAINTVER
 70
     6
  9
$DWGCODEPAGE
  3
ANSI_1252
  9
$INSBASE
 10
0.0
 20
0.0
 30
0.0
  9
$EXTMIN
 10
-0.007
 20
-0.04116
 30
0.0
  9
$EXTMAX
 10
301.693
 20
154.04116
 30
0.0
  9
$LIMMIN
 10
0.0
 20
0.0
  9
$LIMMAX
 10
12.0
 20
9.0
  9
$ORTHOMODE
 70
     0
  9
$REGENMODE
 70
     1
  9
$FILLMODE
 70
     1
  9
$QTEXTMODE
 70
     0
  9
$MIRRTEXT
 70
     1
  9
$LTSCALE
 40
1.0
  9
$ATTMODE
 70
     1
  9
$TEXTSIZE
 40
0.2
  9
$TRACEWID
 40
0.05
  9
$TEXTSTYLE
  7
Standard
  9
$CLAYER
  8
0
  9
$CELTYPE
  6
ByBlock
  9
$CECOLOR
 62
   256
  9
$CELTSCALE
 40
1.0
  9
$DISPSILH
 70
     0
  9
$DIMSCALE
 40
1.0
  9
$DIMASZ
 40
0.18
  9
$DIMEXO
 40
0.0625
  9
$DIMDLI
 40
0.38
  9
$DIMRND
 40
0.0
  9
$DIMDLE
 40
0.0
  9
$DIMEXE
 40
0.18
  9
$DIMTP
 40
0.0
  9
$DIMTM
 40
0.0
  9
$DIMTXT
 40
0.18
  9
$DIMCEN
 40
0.09
  9
$DIMTSZ
 40
0.0
  9
$DIMTOL
 70
     0
  9
$DIMLIM
 70
     0
  9
$DIMTIH
 70
     1
  9
$DIMTOH
 70
     1
  9
$DIMSE1
 70
     0
  9
$DIMSE2
 70
     0
  9
$DIMTAD
 70
     0
  9
$DIMZIN
 70
     0
  9
$DIMBLK
  1

  9
$DIMASO
 70
     1
  9
$DIMSHO
 70
     1
  9
$DIMPOST
  1

  9
$DIMAPOST
  1

  9
$DIMALT
 70
     0
  9
$DIMALTD
 70
     2
  9
$DIMALTF
 40
25.4
  9
$DIMLFAC
 40
1.0
  9
$DIMTOFL
 70
     0
  9
$DIMTVP
 40
0.0
  9
$DIMTIX
 70
     0
  9
$DIMSOXD
 70
     0
  9
$DIMSAH
 70
     0
  9
$DIMBLK1
  1

  9
$DIMBLK2
  1

  9
$DIMSTYLE
  2
Standard
  9
$DIMCLRD
 70
     0
  9
$DIMCLRE
 70
     0
  9
$DIMCLRT
 70
     0
  9
$DIMTFAC
 40
1.0
  9
$DIMGAP
 40
0.09
  9
$DIMJUST
 70
     0
  9
$DIMSD1
 70
     0
  9
$DIMSD2
 70
     0
  9
$DIMTOLJ
 70
     1
  9
$DIMTZIN
 70
     0
  9
$DIMALTZ
 70
     0
  9
$DIMALTTZ
 70
     0
  9
$DIMUPT
 70
     0
  9
$DIMDEC
 70
     4
  9
$DIMTDEC
 70
     4
  9
$DIMALTU
 70
     2
  9
$DIMALTTD
 70
     2
  9
$DIMTXSTY
  7
Standard
  9
$DIMAUNIT
 70
     0
  9
$DIMADEC
 70
     0
  9
$DIMALTRND
 40
0.0
  9
$DIMAZIN
 70
     0
  9
$DIMDSEP
 70
    46
  9
$DIMATFIT
 70
     3
  9
$DIMFRAC
 70
     0
  9
$DIMLDRBLK
  1

  9
$DIMLUNIT
 70
     2
  9
$DIMLWD
 70
    -2
  9
$DIMLWE
 70
    -2
  9
$DIMTMOVE
 70
     2
  9
$LUNITS
 70
     2
  9
$LUPREC
 70
     4
  9
$SKETCHINC
 40
0.1
  9
$FILLETRAD
 40
0.5
  9
$AUNITS
 70
     0
  9
$AUPREC
 70
     0
  9
$MENU
  1
.
  9
$ELEVATION
 40
0.0
  9
$PELEVATION
 40
0.0
  9
$THICKNESS
 40
0.0
  9
$LIMCHECK
 70
     0
  9
$CHAMFERA
 40
0.5
  9
$CHAMFERB
 40
0.5
  9
$CHAMFERC
 40
1.0
  9
$CHAMFERD
 40
0.0
  9
$SKPOLY
 70
     0
  9
$TDCREATE
 40
2456462.889851158
  9
$TDUCREATE
 40
2456462.806517824
  9
$TDUPDATE
 40
2456462.893750174
  9
$TDUUPDATE
 40
2456462.81041684
  9
$TDINDWG
 40
0.0038988426
  9
$TDUSRTIMER
 40
0.0038988426
  9
$USRTIMER
 70
     1
  9
$ANGBASE
 50
0.0
  9
$ANGDIR
 70
     0
  9
$PDMODE
 70
     0
  9
$PDSIZE
 40
0.0
  9
$PLINEWID
 40
0.0
  9
$SPLFRAME
 70
     0
  9
$SPLINETYPE
 70
     6
  9
$SPLINESEGS
 70
     8
  9
$HANDSEED
  5
6E7
  9
$SURFTAB1
 70
     6
  9
$SURFTAB2
 70
     6
  9
$SURFTYPE
 70
     6
  9
$SURFU
 70
     6
  9
$SURFV
 70
     6
  9
$UCSBASE
  2

  9
$UCSNAME
  2

  9
$UCSORG
 10
0.0
 20
0.0
 30
0.0
  9
$UCSXDIR
 10
1.0
 20
0.0
 30
0.0
  9
$UCSYDIR
 10
0.0
 20
1.0
 30
0.0
  9
$UCSORTHOREF
  2

  9
$UCSORTHOVIEW
 70
     0
  9
$UCSORGTOP
 10
0.0
 20
0.0
 30
0.0
  9
$UCSORGBOTTOM
 10
0.0
 20
0.0
 30
0.0
  9
$UCSORGLEFT
 10
0.0
 20
0.0
 30
0.0
  9
$UCSORGRIGHT
 10
0.0
 20
0.0
 30
0.0
  9
$UCSORGFRONT
 10
0.0
 20
0.0
 30
0.0
  9
$UCSORGBACK
 10
0.0
 20
0.0
 30
0.0
  9
$PUCSBASE
  2

  9
$PUCSNAME
  2

  9
$PUCSORG
 10
0.0
 20
0.0
 30
0.0
  9
$PUCSXDIR
 10
1.0
 20
0.0
 30
0.0
  9
$PUCSYDIR
 10
0.0
 20
1.0
 30
0.0
  9
$PUCSORTHOREF
  2

  9
$PUCSORTHOVIEW
 70
     0
  9
$PUCSORGTOP
 10
0.0
 20
0.0
 30
0.0
  9
$PUCSORGBOTTOM
 10
0.0
 20
0.0
 30
0.0
  9
$PUCSORGLEFT
 10
0.0
 20
0.0
 30
0.0
  9
$PUCSORGRIGHT
 10
0.0
 20
0.0
 30
0.0
  9
$PUCSORGFRONT
 10
0.0
 20
0.0
 30
0.0
  9
$PUCSORGBACK
 10
0.0
 20
0.0
 30
0.0
  9
$USERI1
 70
     0
  9
$USERI2
 70
     0
  9
$USERI3
 70
     0
  9
$USERI4
 70
     0
  9
$USERI5
 70
     0
  9
$USERR1
 40
0.0
  9
$USERR2
 40
0.0
  9
$USERR3
 40
0.0
  9
$USERR4
 40
0.0
  9
$USERR5
 40
0.0
  9
$WORLDVIEW
 70
     1
  9
$SHADEDGE
 70
     3
  9
$SHADEDIF
 70
    70
  9
$TILEMODE
 70
     1
  9
$MAXACTVP
 70
    64
  9
$PINSBASE
 10
0.0
 20
0.0
 30
0.0
  9
$PLIMCHECK
 70
     0
  9
$PEXTMIN
 10
1.000000000000E+20
 20
1.000000000000E+20
 30
1.000000000000E+20
  9
$PEXTMAX
 10
-1.000000000000E+20
 20
-1.000000000000E+20
 30
-1.000000000000E+20
  9
$PLIMMIN
 10
0.0
 20
0.0
  9
$PLIMMAX
 10
12.0
 20
9.0
  9
$UNITMODE
 70
     0
  9
$VISRETAIN
 70
     1
  9
$PLINEGEN
 70
     0
  9
$PSLTSCALE
 70
     1
  9
$TREEDEPTH
 70
  3020
  9
$CMLSTYLE
  2
Standard
  9
$CMLJUST
 70
     0
  9
$CMLSCALE
 40
1.0
  9
$PROXYGRAPHICS
 70
     1
  9
$MEASUREMENT
 70
     0
  9
$CELWEIGHT
370
    -1
  9
$ENDCAPS
280
     0
  9
$JOINSTYLE
280
     0
  9
$LWDISPLAY
290
     0
  9
$INSUNITS
 70
     0
  9
$HYPERLINKBASE
  1

  9
$STYLESHEET
  1

  9
$XEDIT
290
     1
  9
$CEPSNTYPE
380
     0
  9
$PSTYLEMODE
290
     1
  9
$FINGERPRINTGUID
  2
{C0755D0A-6D8F-41E0-8653-5633728F645E}
  9
$VERSIONGUID
  2
{FAEB1C32-E019-11D5-929B-00C0DF256EC4}
  9
$EXTNAMES
290
     1
  9
$PSVPSCALE
 40
0.0
  9
$OLESTARTUP
290
     0
  0
ENDSEC
  0
SECTION
  2
CLASSES
  0
CLASS
  1
ACDBDICTIONARYWDFLT
  2
AcDbDictionaryWithDefault
  3
ObjectDBX Classes
 90
        0
280
     0
281
     0
  0
CLASS
  1
SCALE
  2
AcDbScale
  3
ObjectDBX Classes
 90
     1153
280
     0
281
     0
  0
CLASS
  1
DICTIONARYVAR
  2
AcDbDictionaryVar
  3
ObjectDBX Classes
 90
        0
280
     0
281
     0
  0
CLASS
  1
ACDBPLACEHOLDER
  2
AcDbPlaceHolder
  3
ObjectDBX Classes
 90
        0
280
     0
281
     0
  0
CLASS
  1
LAYOUT
  2
AcDbLayout
  3
ObjectDBX Classes
 90
        0
280
     0
281
     0
  0
ENDSEC
  0
SECTION
  2
TABLES
  0
TABLE
  2
VPORT
  5
8
330
0
100
AcDbSymbolTable
 70
     1
  0
VPORT
  5
41E
330
8
100
AcDbSymbolTableRecord
100
AcDbViewportTableRecord
  2
*Active
 70
     0
 10
0.0
 20
0.0
 11
1.0
 21
1.0
 12
150.843
 22
77.0
 13
0.0
 23
0.0
 14
0.5
 24
0.5
 15
0.5
 25
0.5
 16
0.0
 26
0.0
 36
1.0
 17
0.0
 27
0.0
 37
0.0
 40
165.142227979275
 41
1.863448275862
 42
50.0
 43
0.0
 44
0.0
 50
0.0
 51
0.0
 71
    16
 72
   100
 73
     1
 74
     3
 75
     0
 76
     0
 77
     0
 78
     0
281
     0
 65
     1
110
0.0
120
0.0
130
0.0
111
1.0
121
0.0
131
0.0
112
0.0
122
1.0
132
0.0
 79
     0
146
0.0
  0
ENDTAB
  0
TABLE
  2
LTYPE
  5
5
330
0
100
AcDbSymbolTable
 70
     1
  0
LTYPE
  5
14
330
5
100
AcDbSymbolTableRecord
100
AcDbLinetypeTableRecord
  2
ByBlock
 70
     0
  3

 72
    65
 73
     0
 40
0.0
  0
LTYPE
  5
15
330
5
100
AcDbSymbolTableRecord
100
AcDbLinetypeTableRecord
  2
ByLayer
 70
     0
  3

 72
    65
 73
     0
 40
0.0
  0
LTYPE
  5
16
330
5
100
AcDbSymbolTableRecord
100
AcDbLinetypeTableRecord
  2
Continuous
 70
     0
  3
Solid line
 72
    65
 73
     0
 40
0.0
  0
ENDTAB
  0
TABLE
  2
LAYER
  5
2
330
0
100
AcDbSymbolTable
 70
     1
  0
LAYER
  5
10
330
2
100
AcDbSymbolTableRecord
100
AcDbLayerTableRecord
  2
0
 70
     0
 62
     7
  6
Continuous
370
    -3
390
F
  0
ENDTAB
  0
TABLE
  2
STYLE
  5
3
330
0
100
AcDbSymbolTable
 70
     1
  0
STYLE
  5
11
330
3
100
AcDbSymbolTableRecord
100
AcDbTextStyleTableRecord
  2
Standard
 70
     0
 40
0.0
 41
1.0
 50
0.0
 71
     0
 42
0.2
  3
txt
  4

  0
ENDTAB
  0
TABLE
  2
VIEW
  5
6
330
0
100
AcDbSymbolTable
 70
     0
  0
ENDTAB
  0
TABLE
  2
UCS
  5
7
330
0
100
AcDbSymbolTable
 70
     0
  0
ENDTAB
  0
TABLE
  2
APPID
  5
9
330
0
100
AcDbSymbolTable
 70
     1
  0
APPID
  5
12
330
9
100
AcDbSymbolTableRecord
100
AcDbRegAppTableRecord
  2
ACAD
 70
     0
  0
ENDTAB
  0
TABLE
  2
DIMSTYLE
  5
A
330
0
100
AcDbSymbolTable
 70
     1
100
AcDbDimStyleTable
  0
DIMSTYLE
105
20
330
A
100
AcDbSymbolTableRecord
100
AcDbDimStyleTableRecord
  2
Standard
 70
     0
340
11
  0
ENDTAB
  0
TABLE
  2
BLOCK_RECORD
  5
1
330
0
100
AcDbSymbolTable
 70
     1
  0
BLOCK_RECORD
  5
1D
330
1
100
AcDbSymbolTableRecord
100
AcDbBlockTableRecord
  2
*Model_Space
340
1E
  0
BLOCK_RECORD
  5
1B
330
1
100
AcDbSymbolTableRecord
100
AcDbBlockTableRecord
  2
*Paper_Space
340
1C
  0
ENDTAB
  0
ENDSEC
  0
SECTION
  2
BLOCKS
  0
BLOCK
  5
421
330
1D
100
AcDbEntity
  8
0
100
AcDbBlockBegin
  2
*Model_Space
 70
     0
 10
0.0
 20
0.0
 30
0.0
  3
*Model_Space
  1
*Model_Space
  0
ENDBLK
  5
422
330
1D
100
AcDbEntity
  8
0
100
AcDbBlockEnd
  0
BLOCK
  5
41F
330
1B
100
AcDbEntity
 67
     1
  8
0
100
AcDbBlockBegin
  2
*Paper_Space
 70
     0
 10
0.0
 20
0.0
 30
0.0
  3
*Paper_Space
  1
*Paper_Space
  0
ENDBLK
  5
420
330
1B
100
AcDbEntity
 67
     1
  8
0
100
AcDbBlockEnd
  0
ENDSEC
  0
SECTION
  2
ENTITIES
  0
LINE
  5
57
330
1D
100
AcDbEntity
  8
0
100
AcDbLine
 10
129.911
 20
78.66446
 30
0.0
 11
130.44
 21
78.66446
 31
0.0
  0
LINE
  5
58
330
1D
100
AcDbEntity
  8
0
100
AcDbLine
 10
129.911
 20
78.66446
 30
0.0
 11
129.965
 21
78.66446
 31
0.0
  0
LINE
  5
59
330
1D
100
AcDbEntity
  8
0
100
AcDbLine
 10
130.44
 20
78.66446
 30
0.0
 11
131.499
 21
78.66446
 31
0.0
  0
LINE
  5
5A
330
1D
100
AcDbEntity
  8
0
100
AcDbLine
 10
132.985
 20
78.66446
 30
0.0
 11
134.753
 21
78.66446
 31
0.0
  0
LINE
  5
5B
330
1D
100
AcDbEntity
  8
0
100
AcDbLine
 10
131.499
 20
78.66446
 30
0.0
 11
132.985
 21
78.66446
 31
0.0
  0
LINE
  5
5C
330
1D
100
AcDbEntity
  8
0
100
AcDbLine
 10
125.662
 20
78.66446
 30
0.0
 11
139.014
 21
78.66446
 31
0.0
  0
LINE
  5
5D
330
1D
100
AcDbEntity
  8
0
100
AcDbLine
 10
146.447
 20
73.16286
 30
0.0
 11
147.482
 21
73.08686
 31
0.0
  0
LINE
  5
5E
330
1D
100
AcDbEntity
  8
0
100
AcDbLine
 10
147.482
 20
73.08686
 30
0.0
 11
148.548
 21
73.02996
 31
0.0
  0
LINE
  5
5F
330
1D
100
AcDbEntity
  8
0
100
AcDbLine
 10
148.548
 20
73.02996
 30
0.0
 11
149.638
 21
72.99406
 31
0.0
  0
LINE
  5
60
330
1D
100
AcDbEntity
  8
0
100
AcDbLine
 10
149.638
 20
72.99406
 30
0.0
 11
150.738
 21
72.97846
 31
0.0
  0
LINE
  5
61
330
1D
100
AcDbEntity
  8
0
100
AcDbLine
 10
150.738
 20
72.97846
 30
0.0
 11
151.014
 21
72.97986
 31
0.0
  0
LINE
  5
64
330
1D
100
AcDbEntity
  8
0
100
AcDbLine
 10
150.049
 20
73.25586
 30
0.0
 11
151.014
 21
73.24726
 31
0.0
  0
LINE
  5
66
330
1D
100
AcDbEntity
  8
0
100
AcDbLine
 10
145.455
 20
73.25846
 30
0.0
 11
146.447
 21
73.16286
 31
0.0
  0
LINE
  5
67
330
1D
100
AcDbEntity
  8
0
100
AcDbLine
 10
151.014
 20
73.24726
 30
0.0
 11
151.978
 21
73.25586
 31
0.0
  0
LINE
  5
69
330
1D
100
AcDbEntity
  8
0
100
AcDbLine
 10
151.978
 20
73.25586
 30
0.0
 11
153.005
 21
73.28546
 31
0.0
  0
LINE
  5
6A
330
1D
100
AcDbEntity
  8
0
100
AcDbLine
 10
155.58
 20
73.16286
 30
0.0
 11
156.572
 21
73.25846
 31
0.0
  0
LINE
  5
6B
330
1D
100
AcDbEntity
  8
0
100
AcDbLine
 10
154.546
 20
73.08686
 30
0.0
 11
155.58
 21
73.16286
 31
0.0
  0
LINE
  5
6C
330
1D
100
AcDbEntity
  8
0
100
AcDbLine
 10
153.479
 20
73.02996
 30
0.0
 11
154.546
 21
73.08686
 31
0.0
  0
LINE
  5
6D
330
1D
100
AcDbEntity
  8
0
100
AcDbLine
 10
152.389
 20
72.99406
 30
0.0
 11
153.479
 21
73.02996
 31
0.0
  0
LINE
  5
6E
330
1D
100
AcDbEntity
  8
0
100
AcDbLine
 10
151.289
 20
72.97846
 30
0.0
 11
152.389
 21
72.99406
 31
0.0
  0
LINE
  5
6F
330
1D
100
AcDbEntity
  8
0
100
AcDbLine
 10
151.014
 20
72.97986
 30
0.0
 11
151.289
 21
72.97846
 31
0.0
  0
LINE
  5
70
330
1D
100
AcDbEntity
  8
0
100
AcDbLine
 10
149.022
 20
73.28546
 30
0.0
 11
150.049
 21
73.25586
 31
0.0
  0
LINE
  5
74
330
1D
100
AcDbEntity
  8
0
100
AcDbLine
 10
148.017
 20
73.33586
 30
0.0
 11
149.022
 21
73.28546
 31
0.0
  0
LINE
  5
76
330
1D
100
AcDbEntity
  8
0
100
AcDbLine
 10
144.511
 20
73.37186
 30
0.0
 11
145.455
 21
73.25846
 31
0.0
  0
LINE
  5
7C
330
1D
100
AcDbEntity
  8
0
100
AcDbLine
 10
146.107
 20
73.49436
 30
0.0
 11
147.042
 21
73.40546
 31
0.0
  0
LINE
  5
7D
330
1D
100
AcDbEntity
  8
0
100
AcDbLine
 10
147.042
 20
73.40546
 30
0.0
 11
148.017
 21
73.33586
 31
0.0
  0
LINE
  5
7E
330
1D
100
AcDbEntity
  8
0
100
AcDbLine
 10
143.627
 20
73.50296
 30
0.0
 11
144.511
 21
73.37186
 31
0.0
  0
LINE
  5
7F
330
1D
100
AcDbEntity
  8
0
100
AcDbLine
 10
141.239
 20
74.01686
 30
0.0
 11
141.912
 21
73.83866
 31
0.0
  0
LINE
  5
80
330
1D
100
AcDbEntity
  8
0
100
AcDbLine
 10
141.912
 20
73.83866
 30
0.0
 11
142.668
 21
73.67506
 31
0.0
  0
LINE
  5
81
330
1D
100
AcDbEntity
  8
0
100
AcDbLine
 10
149.63
 20
73.59756
 30
0.0
 11
150.63
 21
73.57746
 31
0.0
  0
LINE
  5
83
330
1D
100
AcDbEntity
  8
0
100
AcDbLine
 10
150.63
 20
73.57746
 30
0.0
 11
151.014
 21
73.57846
 31
0.0
  0
LINE
  5
86
330
1D
100
AcDbEntity
  8
0
100
AcDbLine
 10
145.223
 20
73.60126
 30
0.0
 11
146.107
 21
73.49436
 31
0.0
  0
LINE
  5
89
330
1D
100
AcDbEntity
  8
0
100
AcDbLine
 10
142.962
 20
74.02036
 30
0.0
 11
143.641
 21
73.86546
 31
0.0
  0
LINE
  5
8A
330
1D
100
AcDbEntity
  8
0
100
AcDbLine
 10
143.641
 20
73.86546
 30
0.0
 11
144.398
 21
73.72576
 31
0.0
  0
LINE
  5
8C
330
1D
100
AcDbEntity
  8
0
100
AcDbLine
 10
145.271
 20
73.99516
 30
0.0
 11
146.0
 21
73.88436
 31
0.0
  0
LINE
  5
8D
330
1D
100
AcDbEntity
  8
0
100
AcDbLine
 10
146.0
 20
73.88436
 30
0.0
 11
146.784
 21
73.78886
 31
0.0
  0
LINE
  5
8E
330
1D
100
AcDbEntity
  8
0
100
AcDbLine
 10
146.784
 20
73.78886
 30
0.0
 11
147.693
 21
73.70386
 31
0.0
  0
LINE
  5
8F
330
1D
100
AcDbEntity
  8
0
100
AcDbLine
 10
147.693
 20
73.70386
 30
0.0
 11
148.646
 21
73.64016
 31
0.0
  0
LINE
  5
90
330
1D
100
AcDbEntity
  8
0
100
AcDbLine
 10
148.646
 20
73.64016
 30
0.0
 11
149.63
 21
73.59756
 31
0.0
  0
LINE
  5
91
330
1D
100
AcDbEntity
  8
0
100
AcDbLine
 10
144.398
 20
73.72576
 30
0.0
 11
145.223
 21
73.60126
 31
0.0
  0
LINE
  5
92
330
1D
100
AcDbEntity
  8
0
100
AcDbLine
 10
142.922232876722
 20
73.629230776254
 30
0.0
 11
143.499
 21
73.52526
 31
0.0
  0
LINE
  5
93
330
1D
100
AcDbEntity
  8
0
100
AcDbLine
 10
142.668
 20
73.67506
 30
0.0
 11
142.807768264948
 21
73.649864709881
 31
0.0
  0
LINE
  5
94
330
1D
100
AcDbEntity
  8
0
100
AcDbLine
 10
143.499
 20
73.52526
 30
0.0
 11
143.627
 21
73.50296
 31
0.0
  0
LINE
  5
95
330
1D
100
AcDbEntity
  8
0
100
AcDbLine
 10
153.381
 20
73.64016
 30
0.0
 11
154.334
 21
73.70386
 31
0.0
  0
LINE
  5
96
330
1D
100
AcDbEntity
  8
0
100
AcDbLine
 10
152.397
 20
73.59756
 30
0.0
 11
153.381
 21
73.64016
 31
0.0
  0
LINE
  5
97
330
1D
100
AcDbEntity
  8
0
100
AcDbLine
 10
151.396
 20
73.57746
 30
0.0
 11
152.397
 21
73.59756
 31
0.0
  0
LINE
  5
98
330
1D
100
AcDbEntity
  8
0
100
AcDbLine
 10
151.014
 20
73.57846
 30
0.0
 11
151.396
 21
73.57746
 31
0.0
  0
LINE
  5
9A
330
1D
100
AcDbEntity
  8
0
100
AcDbLine
 10
154.334
 20
73.70386
 30
0.0
 11
155.243
 21
73.78886
 31
0.0
  0
LINE
  5
9B
330
1D
100
AcDbEntity
  8
0
100
AcDbLine
 10
155.243
 20
73.78886
 30
0.0
 11
156.027
 21
73.88436
 31
0.0
  0
LINE
  5
9E
330
1D
100
AcDbEntity
  8
0
100
AcDbLine
 10
154.985
 20
73.40546
 30
0.0
 11
155.92
 21
73.49436
 31
0.0
  0
LINE
  5
9F
330
1D
100
AcDbEntity
  8
0
100
AcDbLine
 10
154.01
 20
73.33586
 30
0.0
 11
154.985
 21
73.40546
 31
0.0
  0
LINE
  5
A0
330
1D
100
AcDbEntity
  8
0
100
AcDbLine
 10
153.005
 20
73.28546
 30
0.0
 11
154.01
 21
73.33586
 31
0.0
  0
LINE
  5
A1
330
1D
100
AcDbEntity
  8
0
100
AcDbLine
 10
156.027
 20
73.88436
 30
0.0
 11
156.756
 21
73.99516
 31
0.0
  0
LINE
  5
A2
330
1D
100
AcDbEntity
  8
0
100
AcDbLine
 10
156.756
 20
73.99516
 30
0.0
 11
157.423
 21
74.12116
 31
0.0
  0
LINE
  5
A4
330
1D
100
AcDbEntity
  8
0
100
AcDbLine
 10
156.803
 20
73.60126
 30
0.0
 11
157.629
 21
73.72576
 31
0.0
  0
LINE
  5
A5
330
1D
100
AcDbEntity
  8
0
100
AcDbLine
 10
155.92
 20
73.49436
 30
0.0
 11
156.803
 21
73.60126
 31
0.0
  0
LINE
  5
A6
330
1D
100
AcDbEntity
  8
0
100
AcDbLine
 10
156.572
 20
73.25846
 30
0.0
 11
157.516
 21
73.37186
 31
0.0
  0
LINE
  5
A9
330
1D
100
AcDbEntity
  8
0
100
AcDbLine
 10
158.385
 20
73.86546
 30
0.0
 11
159.066
 21
74.02036
 31
0.0
  0
LINE
  5
AA
330
1D
100
AcDbEntity
  8
0
100
AcDbLine
 10
157.629
 20
73.72576
 30
0.0
 11
158.385
 21
73.86546
 31
0.0
  0
LINE
  5
AB
330
1D
100
AcDbEntity
  8
0
100
AcDbLine
 10
160.788
 20
74.01686
 30
0.0
 11
161.372
 21
74.20636
 31
0.0
  0
LINE
  5
AC
330
1D
100
AcDbEntity
  8
0
100
AcDbLine
 10
160.115
 20
73.83866
 30
0.0
 11
160.788
 21
74.01686
 31
0.0
  0
LINE
  5
AD
330
1D
100
AcDbEntity
  8
0
100
AcDbLine
 10
159.359
 20
73.67506
 30
0.0
 11
160.115
 21
73.83866
 31
0.0
  0
LINE
  5
AE
330
1D
100
AcDbEntity
  8
0
100
AcDbLine
 10
159.219231735052
 20
73.649864709881
 30
0.0
 11
159.359
 21
73.67506
 31
0.0
  0
LINE
  5
AF
330
1D
100
AcDbEntity
  8
0
100
AcDbLine
 10
158.528
 20
73.52526
 30
0.0
 11
159.104767123283
 21
73.629230776255
 31
0.0
  0
LINE
  5
B0
330
1D
100
AcDbEntity
  8
0
100
AcDbLine
 10
158.4
 20
73.50296
 30
0.0
 11
158.528
 21
73.52526
 31
0.0
  0
LINE
  5
B1
330
1D
100
AcDbEntity
  8
0
100
AcDbLine
 10
157.516
 20
73.37186
 30
0.0
 11
158.4
 21
73.50296
 31
0.0
  0
LINE
  5
B2
330
1D
100
AcDbEntity
  8
0
100
AcDbLine
 10
144.604
 20
74.12116
 30
0.0
 11
145.271
 21
73.99516
 31
0.0
  0
LINE
  5
B5
330
1D
100
AcDbEntity
  8
0
100
AcDbLine
 10
139.068
 20
75.41276
 30
0.0
 11
139.149
 21
75.18926
 31
0.0
  0
LINE
  5
B6
330
1D
100
AcDbEntity
  8
0
100
AcDbLine
 10
139.149
 20
75.18926
 30
0.0
 11
139.337
 21
74.96726
 31
0.0
  0
LINE
  5
B8
330
1D
100
AcDbEntity
  8
0
100
AcDbLine
 10
139.337
 20
74.96726
 30
0.0
 11
139.482
 21
74.82776
 31
0.0
  0
LINE
  5
C1
330
1D
100
AcDbEntity
  8
0
100
AcDbLine
 10
139.482
 20
74.82776
 30
0.0
 11
139.772
 21
74.61276
 31
0.0
  0
LINE
  5
C2
330
1D
100
AcDbEntity
  8
0
100
AcDbLine
 10
139.772
 20
74.61276
 30
0.0
 11
140.165
 21
74.40536
 31
0.0
  0
LINE
  5
C3
330
1D
100
AcDbEntity
  8
0
100
AcDbLine
 10
140.165
 20
74.40536
 30
0.0
 11
140.655
 21
74.20636
 31
0.0
  0
LINE
  5
C6
330
1D
100
AcDbEntity
  8
0
100
AcDbLine
 10
140.793
 20
75.38536
 30
0.0
 11
140.905
 21
75.58876
 31
0.0
  0
LINE
  5
C7
330
1D
100
AcDbEntity
  8
0
100
AcDbLine
 10
140.789
 20
75.26886
 30
0.0
 11
140.793
 21
75.15336
 31
0.0
  0
LINE
  5
C8
330
1D
100
AcDbEntity
  8
0
100
AcDbLine
 10
140.789
 20
75.26886
 30
0.0
 11
140.793
 21
75.38536
 31
0.0
  0
LINE
  5
CA
330
1D
100
AcDbEntity
  8
0
100
AcDbLine
 10
140.905
 20
75.58876
 30
0.0
 11
141.12
 21
75.78876
 31
0.0
  0
LINE
  5
CF
330
1D
100
AcDbEntity
  8
0
100
AcDbLine
 10
140.793
 20
75.15336
 30
0.0
 11
140.905
 21
74.94956
 31
0.0
  0
LINE
  5
D0
330
1D
100
AcDbEntity
  8
0
100
AcDbLine
 10
140.905
 20
74.94956
 30
0.0
 11
141.12
 21
74.74886
 31
0.0
  0
LINE
  5
D2
330
1D
100
AcDbEntity
  8
0
100
AcDbLine
 10
141.12
 20
74.74886
 30
0.0
 11
141.438
 21
74.55446
 31
0.0
  0
LINE
  5
D3
330
1D
100
AcDbEntity
  8
0
100
AcDbLine
 10
141.438
 20
74.55446
 30
0.0
 11
141.853
 21
74.36576
 31
0.0
  0
LINE
  5
D4
330
1D
100
AcDbEntity
  8
0
100
AcDbLine
 10
140.655
 20
74.20636
 30
0.0
 11
141.239
 21
74.01686
 31
0.0
  0
LINE
  5
D5
330
1D
100
AcDbEntity
  8
0
100
AcDbLine
 10
139.014
 20
75.72456
 30
0.0
 11
139.02
 21
75.66856
 31
0.0
  0
LINE
  5
D6
330
1D
100
AcDbEntity
  8
0
100
AcDbLine
 10
139.014
 20
75.72456
 30
0.0
 11
139.014
 21
78.66446
 31
0.0
  0
LINE
  5
D7
330
1D
100
AcDbEntity
  8
0
100
AcDbLine
 10
139.02
 20
75.741226666667
 30
0.0
 11
139.02
 21
78.66446
 31
0.0
  0
LINE
  5
D8
330
1D
100
AcDbEntity
  8
0
100
AcDbLine
 10
141.12
 20
75.78876
 30
0.0
 11
141.438
 21
75.98466
 31
0.0
  0
LINE
  5
D9
330
1D
100
AcDbEntity
  8
0
100
AcDbLine
 10
141.438
 20
75.98466
 30
0.0
 11
141.853
 21
76.17166
 31
0.0
  0
LINE
  5
DA
330
1D
100
AcDbEntity
  8
0
100
AcDbLine
 10
141.853
 20
76.17166
 30
0.0
 11
142.362
 21
76.35026
 31
0.0
  0
LINE
  5
DB
330
1D
100
AcDbEntity
  8
0
100
AcDbLine
 10
139.014
 20
75.61256
 30
0.0
 11
139.014
 21
78.66446
 31
0.0
  0
LINE
  5
DC
330
1D
100
AcDbEntity
  8
0
100
AcDbLine
 10
139.014
 20
75.61256
 30
0.0
 11
139.068
 21
75.41276
 31
0.0
  0
LINE
  5
DD
330
1D
100
AcDbEntity
  8
0
100
AcDbLine
 10
142.265
 20
75.54856
 30
0.0
 11
142.265
 21
75.09006
 31
0.0
  0
LINE
  5
DE
330
1D
100
AcDbEntity
  8
0
100
AcDbLine
 10
142.265
 20
75.54856
 30
0.0
 11
142.434
 21
75.72756
 31
0.0
  0
LINE
  5
E0
330
1D
100
AcDbEntity
  8
0
100
AcDbLine
 10
142.434
 20
75.72756
 30
0.0
 11
142.695
 21
75.90106
 31
0.0
  0
LINE
  5
E1
330
1D
100
AcDbEntity
  8
0
100
AcDbLine
 10
142.362
 20
76.35026
 30
0.0
 11
142.962
 21
76.51726
 31
0.0
  0
LINE
  5
E2
330
1D
100
AcDbEntity
  8
0
100
AcDbLine
 10
143.487
 20
74.40916
 30
0.0
 11
144.008
 21
74.25886
 31
0.0
  0
LINE
  5
E3
330
1D
100
AcDbEntity
  8
0
100
AcDbLine
 10
143.047
 20
74.56916
 30
0.0
 11
143.487
 21
74.40916
 31
0.0
  0
LINE
  5
E4
330
1D
100
AcDbEntity
  8
0
100
AcDbLine
 10
143.487
 20
76.22886
 30
0.0
 11
144.008
 21
76.37856
 31
0.0
  0
LINE
  5
E5
330
1D
100
AcDbEntity
  8
0
100
AcDbLine
 10
143.047
 20
76.06966
 30
0.0
 11
143.487
 21
76.22886
 31
0.0
  0
LINE
  5
E6
330
1D
100
AcDbEntity
  8
0
100
AcDbLine
 10
142.695
 20
75.90106
 30
0.0
 11
143.047
 21
76.06966
 31
0.0
  0
LINE
  5
E7
330
1D
100
AcDbEntity
  8
0
100
AcDbLine
 10
144.008
 20
76.37856
 30
0.0
 11
144.604
 21
76.51766
 31
0.0
  0
LINE
  5
E8
330
1D
100
AcDbEntity
  8
0
100
AcDbLine
 10
142.695
 20
74.73666
 30
0.0
 11
143.047
 21
74.56916
 31
0.0
  0
LINE
  5
E9
330
1D
100
AcDbEntity
  8
0
100
AcDbLine
 10
142.434
 20
74.91156
 30
0.0
 11
142.695
 21
74.73666
 31
0.0
  0
LINE
  5
EA
330
1D
100
AcDbEntity
  8
0
100
AcDbLine
 10
144.008
 20
74.25886
 30
0.0
 11
144.604
 21
74.12116
 31
0.0
  0
LINE
  5
EB
330
1D
100
AcDbEntity
  8
0
100
AcDbLine
 10
142.265
 20
75.09006
 30
0.0
 11
142.265
 21
75.54856
 31
0.0
  0
LINE
  5
EC
330
1D
100
AcDbEntity
  8
0
100
AcDbLine
 10
142.265
 20
75.09006
 30
0.0
 11
142.434
 21
74.91156
 31
0.0
  0
LINE
  5
ED
330
1D
100
AcDbEntity
  8
0
100
AcDbLine
 10
150.565
 20
76.47656
 30
0.0
 11
151.014
 21
76.47676
 31
0.0
  0
LINE
  5
EE
330
1D
100
AcDbEntity
  8
0
100
AcDbLine
 10
141.853
 20
74.36576
 30
0.0
 11
142.362
 21
74.18806
 31
0.0
  0
LINE
  5
EF
330
1D
100
AcDbEntity
  8
0
100
AcDbLine
 10
142.362
 20
74.18806
 30
0.0
 11
142.962
 21
74.02036
 31
0.0
  0
LINE
  5
F0
330
1D
100
AcDbEntity
  8
0
100
AcDbLine
 10
158.019
 20
74.25886
 30
0.0
 11
158.54
 21
74.40916
 31
0.0
  0
LINE
  5
F1
330
1D
100
AcDbEntity
  8
0
100
AcDbLine
 10
158.54
 20
74.40916
 30
0.0
 11
158.98
 21
74.56916
 31
0.0
  0
LINE
  5
F2
330
1D
100
AcDbEntity
  8
0
100
AcDbLine
 10
158.98
 20
74.56916
 30
0.0
 11
159.332
 21
74.73666
 31
0.0
  0
LINE
  5
F3
330
1D
100
AcDbEntity
  8
0
100
AcDbLine
 10
159.332
 20
74.73666
 30
0.0
 11
159.593
 21
74.91156
 31
0.0
  0
LINE
  5
F4
330
1D
100
AcDbEntity
  8
0
100
AcDbLine
 10
158.019
 20
76.37856
 30
0.0
 11
158.54
 21
76.22886
 31
0.0
  0
LINE
  5
F5
330
1D
100
AcDbEntity
  8
0
100
AcDbLine
 10
158.54
 20
76.22886
 30
0.0
 11
158.98
 21
76.06966
 31
0.0
  0
LINE
  5
F6
330
1D
100
AcDbEntity
  8
0
100
AcDbLine
 10
158.98
 20
76.06966
 30
0.0
 11
159.332
 21
75.90106
 31
0.0
  0
LINE
  5
F7
330
1D
100
AcDbEntity
  8
0
100
AcDbLine
 10
159.332
 20
75.90106
 30
0.0
 11
159.593
 21
75.72756
 31
0.0
  0
LINE
  5
F8
330
1D
100
AcDbEntity
  8
0
100
AcDbLine
 10
159.593
 20
75.72756
 30
0.0
 11
159.762
 21
75.54856
 31
0.0
  0
LINE
  5
F9
330
1D
100
AcDbEntity
  8
0
100
AcDbLine
 10
159.665
 20
76.35026
 30
0.0
 11
160.174
 21
76.17166
 31
0.0
  0
LINE
  5
FA
330
1D
100
AcDbEntity
  8
0
100
AcDbLine
 10
159.593
 20
74.91156
 30
0.0
 11
159.762
 21
75.09006
 31
0.0
  0
LINE
  5
FB
330
1D
100
AcDbEntity
  8
0
100
AcDbLine
 10
157.423
 20
74.12116
 30
0.0
 11
158.019
 21
74.25886
 31
0.0
  0
LINE
  5
FD
330
1D
100
AcDbEntity
  8
0
100
AcDbLine
 10
151.462
 20
76.47656
 30
0.0
 11
152.446
 21
76.49696
 31
0.0
  0
LINE
  5
FE
330
1D
100
AcDbEntity
  8
0
100
AcDbLine
 10
144.604
 20
76.51766
 30
0.0
 11
145.271
 21
76.64236
 31
0.0
  0
LINE
  5
FF
330
1D
100
AcDbEntity
  8
0
100
AcDbLine
 10
142.962
 20
76.51726
 30
0.0
 11
143.641
 21
76.67176
 31
0.0
  0
LINE
  5
100
330
1D
100
AcDbEntity
  8
0
100
AcDbLine
 10
145.271
 20
76.64236
 30
0.0
 11
146.0
 21
76.75356
 31
0.0
  0
LINE
  5
101
330
1D
100
AcDbEntity
  8
0
100
AcDbLine
 10
146.0
 20
76.75356
 30
0.0
 11
146.784
 21
76.84866
 31
0.0
  0
LINE
  5
102
330
1D
100
AcDbEntity
  8
0
100
AcDbLine
 10
143.641
 20
76.67176
 30
0.0
 11
144.398
 21
76.81226
 31
0.0
  0
LINE
  5
103
330
1D
100
AcDbEntity
  8
0
100
AcDbLine
 10
144.398
 20
76.81226
 30
0.0
 11
145.223
 21
76.93616
 31
0.0
  0
LINE
  5
104
330
1D
100
AcDbEntity
  8
0
100
AcDbLine
 10
146.784
 20
76.84866
 30
0.0
 11
147.693
 21
76.93426
 31
0.0
  0
LINE
  5
105
330
1D
100
AcDbEntity
  8
0
100
AcDbLine
 10
146.107
 20
77.04376
 30
0.0
 11
147.042
 21
77.13286
 31
0.0
  0
LINE
  5
106
330
1D
100
AcDbEntity
  8
0
100
AcDbLine
 10
145.223
 20
76.93616
 30
0.0
 11
146.107
 21
77.04376
 31
0.0
  0
LINE
  5
107
330
1D
100
AcDbEntity
  8
0
100
AcDbLine
 10
146.122630614307
 20
76.768435218649
 30
0.0
 11
146.784
 21
76.68726
 31
0.0
  0
LINE
  5
108
330
1D
100
AcDbEntity
  8
0
100
AcDbLine
 10
147.693
 20
76.93426
 30
0.0
 11
148.646
 21
76.99876
 31
0.0
  0
LINE
  5
109
330
1D
100
AcDbEntity
  8
0
100
AcDbLine
 10
147.042
 20
77.13286
 30
0.0
 11
148.017
 21
77.20286
 31
0.0
  0
LINE
  5
10A
330
1D
100
AcDbEntity
  8
0
100
AcDbLine
 10
148.017
 20
77.20286
 30
0.0
 11
149.022
 21
77.25256
 31
0.0
  0
LINE
  5
10B
330
1D
100
AcDbEntity
  8
0
100
AcDbLine
 10
146.784
 20
76.68726
 30
0.0
 11
147.678
 21
76.60356
 31
0.0
  0
LINE
  5
10C
330
1D
100
AcDbEntity
  8
0
100
AcDbLine
 10
147.678
 20
76.60356
 30
0.0
 11
148.615
 21
76.53966
 31
0.0
  0
LINE
  5
10D
330
1D
100
AcDbEntity
  8
0
100
AcDbLine
 10
148.646
 20
76.99876
 30
0.0
 11
149.63
 21
77.04076
 31
0.0
  0
LINE
  5
10E
330
1D
100
AcDbEntity
  8
0
100
AcDbLine
 10
152.397
 20
77.04076
 30
0.0
 11
153.381
 21
76.99876
 31
0.0
  0
LINE
  5
10F
330
1D
100
AcDbEntity
  8
0
100
AcDbLine
 10
151.396
 20
77.06096
 30
0.0
 11
152.397
 21
77.04076
 31
0.0
  0
LINE
  5
110
330
1D
100
AcDbEntity
  8
0
100
AcDbLine
 10
151.014
 20
77.05986
 30
0.0
 11
151.396
 21
77.06096
 31
0.0
  0
LINE
  5
111
330
1D
100
AcDbEntity
  8
0
100
AcDbLine
 10
149.63
 20
77.04076
 30
0.0
 11
150.63
 21
77.06096
 31
0.0
  0
LINE
  5
115
330
1D
100
AcDbEntity
  8
0
100
AcDbLine
 10
151.978
 20
77.28246
 30
0.0
 11
153.005
 21
77.25256
 31
0.0
  0
LINE
  5
116
330
1D
100
AcDbEntity
  8
0
100
AcDbLine
 10
150.63
 20
77.06096
 30
0.0
 11
151.014
 21
77.05986
 31
0.0
  0
LINE
  5
118
330
1D
100
AcDbEntity
  8
0
100
AcDbLine
 10
149.022
 20
77.25256
 30
0.0
 11
150.049
 21
77.28246
 31
0.0
  0
LINE
  5
11C
330
1D
100
AcDbEntity
  8
0
100
AcDbLine
 10
151.014
 20
77.29026
 30
0.0
 11
151.978
 21
77.28246
 31
0.0
  0
LINE
  5
11D
330
1D
100
AcDbEntity
  8
0
100
AcDbLine
 10
150.049
 20
77.28246
 30
0.0
 11
151.014
 21
77.29026
 31
0.0
  0
LINE
  5
11F
330
1D
100
AcDbEntity
  8
0
100
AcDbLine
 10
148.615
 20
76.53966
 30
0.0
 11
149.581
 21
76.49696
 31
0.0
  0
LINE
  5
120
330
1D
100
AcDbEntity
  8
0
100
AcDbLine
 10
149.581
 20
76.49696
 30
0.0
 11
150.565
 21
76.47656
 31
0.0
  0
LINE
  5
121
330
1D
100
AcDbEntity
  8
0
100
AcDbLine
 10
157.423
 20
76.51766
 30
0.0
 11
158.019
 21
76.37856
 31
0.0
  0
LINE
  5
122
330
1D
100
AcDbEntity
  8
0
100
AcDbLine
 10
159.066
 20
76.51726
 30
0.0
 11
159.665
 21
76.35026
 31
0.0
  0
LINE
  5
123
330
1D
100
AcDbEntity
  8
0
100
AcDbLine
 10
153.381
 20
76.99876
 30
0.0
 11
154.334
 21
76.93426
 31
0.0
  0
LINE
  5
124
330
1D
100
AcDbEntity
  8
0
100
AcDbLine
 10
154.334
 20
76.93426
 30
0.0
 11
155.243
 21
76.84866
 31
0.0
  0
LINE
  5
125
330
1D
100
AcDbEntity
  8
0
100
AcDbLine
 10
154.01
 20
77.20286
 30
0.0
 11
154.985
 21
77.13286
 31
0.0
  0
LINE
  5
126
330
1D
100
AcDbEntity
  8
0
100
AcDbLine
 10
153.005
 20
77.25256
 30
0.0
 11
154.01
 21
77.20286
 31
0.0
  0
LINE
  5
127
330
1D
100
AcDbEntity
  8
0
100
AcDbLine
 10
156.756
 20
76.64236
 30
0.0
 11
157.423
 21
76.51766
 31
0.0
  0
LINE
  5
128
330
1D
100
AcDbEntity
  8
0
100
AcDbLine
 10
158.385
 20
76.67176
 30
0.0
 11
159.066
 21
76.51726
 31
0.0
  0
LINE
  5
129
330
1D
100
AcDbEntity
  8
0
100
AcDbLine
 10
155.243
 20
76.84866
 30
0.0
 11
156.027
 21
76.75356
 31
0.0
  0
LINE
  5
12A
330
1D
100
AcDbEntity
  8
0
100
AcDbLine
 10
154.985
 20
77.13286
 30
0.0
 11
155.92
 21
77.04376
 31
0.0
  0
LINE
  5
12B
330
1D
100
AcDbEntity
  8
0
100
AcDbLine
 10
156.027
 20
76.75356
 30
0.0
 11
156.756
 21
76.64236
 31
0.0
  0
LINE
  5
12C
330
1D
100
AcDbEntity
  8
0
100
AcDbLine
 10
157.629
 20
76.81226
 30
0.0
 11
158.385
 21
76.67176
 31
0.0
  0
LINE
  5
12D
330
1D
100
AcDbEntity
  8
0
100
AcDbLine
 10
156.803
 20
76.93616
 30
0.0
 11
157.629
 21
76.81226
 31
0.0
  0
LINE
  5
12E
330
1D
100
AcDbEntity
  8
0
100
AcDbLine
 10
155.92
 20
77.04376
 30
0.0
 11
156.803
 21
76.93616
 31
0.0
  0
LINE
  5
12F
330
1D
100
AcDbEntity
  8
0
100
AcDbLine
 10
155.243
 20
76.68726
 30
0.0
 11
155.904369385693
 21
76.768435218649
 31
0.0
  0
LINE
  5
130
330
1D
100
AcDbEntity
  8
0
100
AcDbLine
 10
154.349
 20
76.60356
 30
0.0
 11
155.243
 21
76.68726
 31
0.0
  0
LINE
  5
131
330
1D
100
AcDbEntity
  8
0
100
AcDbLine
 10
153.412
 20
76.53966
 30
0.0
 11
154.349
 21
76.60356
 31
0.0
  0
LINE
  5
132
330
1D
100
AcDbEntity
  8
0
100
AcDbLine
 10
152.446
 20
76.49696
 30
0.0
 11
153.412
 21
76.53966
 31
0.0
  0
LINE
  5
133
330
1D
100
AcDbEntity
  8
0
100
AcDbLine
 10
151.014
 20
76.47676
 30
0.0
 11
151.462
 21
76.47656
 31
0.0
  0
LINE
  5
136
330
1D
100
AcDbEntity
  8
0
100
AcDbLine
 10
159.762
 20
75.54856
 30
0.0
 11
159.762
 21
75.09006
 31
0.0
  0
LINE
  5
139
330
1D
100
AcDbEntity
  8
0
100
AcDbLine
 10
159.762
 20
75.09006
 30
0.0
 11
159.762
 21
75.54856
 31
0.0
  0
LINE
  5
13B
330
1D
100
AcDbEntity
  8
0
100
AcDbLine
 10
161.122
 20
75.58876
 30
0.0
 11
161.234
 21
75.38536
 31
0.0
  0
LINE
  5
13E
330
1D
100
AcDbEntity
  8
0
100
AcDbLine
 10
161.234
 20
75.38536
 30
0.0
 11
161.238
 21
75.26886
 31
0.0
  0
LINE
  5
140
330
1D
100
AcDbEntity
  8
0
100
AcDbLine
 10
161.234
 20
75.15336
 30
0.0
 11
161.238
 21
75.26886
 31
0.0
  0
LINE
  5
141
330
1D
100
AcDbEntity
  8
0
100
AcDbLine
 10
161.122
 20
74.94956
 30
0.0
 11
161.234
 21
75.15336
 31
0.0
  0
LINE
  5
142
330
1D
100
AcDbEntity
  8
0
100
AcDbLine
 10
160.907
 20
74.74886
 30
0.0
 11
161.122
 21
74.94956
 31
0.0
  0
LINE
  5
143
330
1D
100
AcDbEntity
  8
0
100
AcDbLine
 10
160.589
 20
74.55446
 30
0.0
 11
160.907
 21
74.74886
 31
0.0
  0
LINE
  5
144
330
1D
100
AcDbEntity
  8
0
100
AcDbLine
 10
160.174
 20
74.36576
 30
0.0
 11
160.589
 21
74.55446
 31
0.0
  0
LINE
  5
149
330
1D
100
AcDbEntity
  8
0
100
AcDbLine
 10
162.69
 20
74.96726
 30
0.0
 11
162.878
 21
75.18926
 31
0.0
  0
LINE
  5
14A
330
1D
100
AcDbEntity
  8
0
100
AcDbLine
 10
162.545
 20
74.82776
 30
0.0
 11
162.69
 21
74.96726
 31
0.0
  0
LINE
  5
150
330
1D
100
AcDbEntity
  8
0
100
AcDbLine
 10
162.959
 20
75.41276
 30
0.0
 11
163.014
 21
75.61256
 31
0.0
  0
LINE
  5
151
330
1D
100
AcDbEntity
  8
0
100
AcDbLine
 10
162.878
 20
75.18926
 30
0.0
 11
162.959
 21
75.41276
 31
0.0
  0
LINE
  5
154
330
1D
100
AcDbEntity
  8
0
100
AcDbLine
 10
162.255
 20
74.61276
 30
0.0
 11
162.545
 21
74.82776
 31
0.0
  0
LINE
  5
155
330
1D
100
AcDbEntity
  8
0
100
AcDbLine
 10
161.862
 20
74.40536
 30
0.0
 11
162.255
 21
74.61276
 31
0.0
  0
LINE
  5
156
330
1D
100
AcDbEntity
  8
0
100
AcDbLine
 10
161.372
 20
74.20636
 30
0.0
 11
161.862
 21
74.40536
 31
0.0
  0
LINE
  5
157
330
1D
100
AcDbEntity
  8
0
100
AcDbLine
 10
163.014
 20
75.61256
 30
0.0
 11
163.014
 21
75.72456
 31
0.0
  0
LINE
  5
158
330
1D
100
AcDbEntity
  8
0
100
AcDbLine
 10
160.907
 20
75.78876
 30
0.0
 11
161.122
 21
75.58876
 31
0.0
  0
LINE
  5
159
330
1D
100
AcDbEntity
  8
0
100
AcDbLine
 10
160.589
 20
75.98466
 30
0.0
 11
160.907
 21
75.78876
 31
0.0
  0
LINE
  5
15A
330
1D
100
AcDbEntity
  8
0
100
AcDbLine
 10
160.174
 20
76.17166
 30
0.0
 11
160.589
 21
75.98466
 31
0.0
  0
LINE
  5
15C
330
1D
100
AcDbEntity
  8
0
100
AcDbLine
 10
163.014
 20
75.72456
 30
0.0
 11
163.014
 21
75.61256
 31
0.0
  0
LINE
  5
15D
330
1D
100
AcDbEntity
  8
0
100
AcDbLine
 10
163.014
 20
75.72456
 30
0.0
 11
163.014
 21
78.66446
 31
0.0
  0
LINE
  5
15E
330
1D
100
AcDbEntity
  8
0
100
AcDbLine
 10
159.665
 20
74.18806
 30
0.0
 11
160.174
 21
74.36576
 31
0.0
  0
LINE
  5
15F
330
1D
100
AcDbEntity
  8
0
100
AcDbLine
 10
159.066
 20
74.02036
 30
0.0
 11
159.665
 21
74.18806
 31
0.0
  0
LINE
  5
160
330
1D
100
AcDbEntity
  8
0
100
AcDbLine
 10
164.753
 20
78.66446
 30
0.0
 11
166.629
 21
78.66446
 31
0.0
  0
LINE
  5
161
330
1D
100
AcDbEntity
  8
0
100
AcDbLine
 10
166.629
 20
78.66446
 30
0.0
 11
168.431
 21
78.66446
 31
0.0
  0
LINE
  5
162
330
1D
100
AcDbEntity
  8
0
100
AcDbLine
 10
171.758
 20
78.66446
 30
0.0
 11
171.813
 21
78.66446
 31
0.0
  0
LINE
  5
163
330
1D
100
AcDbEntity
  8
0
100
AcDbLine
 10
171.127
 20
78.66446
 30
0.0
 11
171.758
 21
78.66446
 31
0.0
  0
LINE
  5
164
330
1D
100
AcDbEntity
  8
0
100
AcDbLine
 10
169.981
 20
78.66446
 30
0.0
 11
171.127
 21
78.66446
 31
0.0
  0
LINE
  5
165
330
1D
100
AcDbEntity
  8
0
100
AcDbLine
 10
168.431
 20
78.66446
 30
0.0
 11
169.981
 21
78.66446
 31
0.0
  0
LINE
  5
166
330
1D
100
AcDbEntity
  8
0
100
AcDbLine
 10
138.431
 20
78.66446
 30
0.0
 11
139.014
 21
78.66446
 31
0.0
  0
LINE
  5
167
330
1D
100
AcDbEntity
  8
0
100
AcDbLine
 10
176.062
 20
78.66446
 30
0.0
 11
177.212
 21
78.97256
 31
0.0
  0
LINE
  5
168
330
1D
100
AcDbEntity
  8
0
100
AcDbLine
 10
163.014
 20
78.66446
 30
0.0
 11
164.753
 21
78.66446
 31
0.0
  0
LINE
  5
169
330
1D
100
AcDbEntity
  8
0
100
AcDbLine
 10
163.014
 20
78.66446
 30
0.0
 11
176.062
 21
78.66446
 31
0.0
  0
LINE
  5
16A
330
1D
100
AcDbEntity
  8
0
100
AcDbLine
 10
136.629
 20
78.66446
 30
0.0
 11
138.431
 21
78.66446
 31
0.0
  0
LINE
  5
16B
330
1D
100
AcDbEntity
  8
0
100
AcDbLine
 10
130.596
 20
78.66446
 30
0.0
 11
131.743
 21
78.66446
 31
0.0
  0
LINE
  5
16C
330
1D
100
AcDbEntity
  8
0
100
AcDbLine
 10
129.965
 20
78.66446
 30
0.0
 11
130.596
 21
78.66446
 31
0.0
  0
LINE
  5
16D
330
1D
100
AcDbEntity
  8
0
100
AcDbLine
 10
126.358
 20
78.66446
 30
0.0
 11
127.078
 21
78.66446
 31
0.0
  0
LINE
  5
16E
330
1D
100
AcDbEntity
  8
0
100
AcDbLine
 10
125.993
 20
78.66446
 30
0.0
 11
126.358
 21
78.66446
 31
0.0
  0
LINE
  5
16F
330
1D
100
AcDbEntity
  8
0
100
AcDbLine
 10
129.424
 20
78.66446
 30
0.0
 11
131.176
 21
78.66446
 31
0.0
  0
LINE
  5
170
330
1D
100
AcDbEntity
  8
0
100
AcDbLine
 10
131.743
 20
78.66446
 30
0.0
 11
133.292
 21
78.66446
 31
0.0
  0
LINE
  5
171
330
1D
100
AcDbEntity
  8
0
100
AcDbLine
 10
132.801
 20
78.66446
 30
0.0
 11
144.838
 21
78.66446
 31
0.0
  0
LINE
  5
172
330
1D
100
AcDbEntity
  8
0
100
AcDbLine
 10
136.971
 20
78.66446
 30
0.0
 11
138.738
 21
78.66446
 31
0.0
  0
LINE
  5
173
330
1D
100
AcDbEntity
  8
0
100
AcDbLine
 10
131.176
 20
78.66446
 30
0.0
 11
132.801
 21
78.66446
 31
0.0
  0
LINE
  5
174
330
1D
100
AcDbEntity
  8
0
100
AcDbLine
 10
133.292
 20
78.66446
 30
0.0
 11
135.094
 21
78.66446
 31
0.0
  0
LINE
  5
175
330
1D
100
AcDbEntity
  8
0
100
AcDbLine
 10
125.662
 20
78.66446
 30
0.0
 11
125.749
 21
78.66446
 31
0.0
  0
LINE
  5
176
330
1D
100
AcDbEntity
  8
0
100
AcDbLine
 10
123.67
 20
79.81446
 30
0.0
 11
124.512
 21
78.97256
 31
0.0
  0
LINE
  5
177
330
1D
100
AcDbEntity
  8
0
100
AcDbLine
 10
123.362
 20
80.96446
 30
0.0
 11
123.362
 21
96.36436
 31
0.0
  0
LINE
  5
178
330
1D
100
AcDbEntity
  8
0
100
AcDbLine
 10
123.362
 20
80.96446
 30
0.0
 11
123.67
 21
79.81446
 31
0.0
  0
LINE
  5
179
330
1D
100
AcDbEntity
  8
0
100
AcDbLine
 10
124.512
 20
78.97256
 30
0.0
 11
125.662
 21
78.66446
 31
0.0
  0
LINE
  5
17A
330
1D
100
AcDbEntity
  8
0
100
AcDbLine
 10
135.094
 20
78.66446
 30
0.0
 11
136.971
 21
78.66446
 31
0.0
  0
LINE
  5
17B
330
1D
100
AcDbEntity
  8
0
100
AcDbLine
 10
138.442
 20
78.66446
 30
0.0
 11
138.857
 21
78.66446
 31
0.0
  0
LINE
  5
17C
330
1D
100
AcDbEntity
  8
0
100
AcDbLine
 10
139.02
 20
78.66446
 30
0.0
 11
139.02
 21
75.741226666667
 31
0.0
  0
LINE
  5
17D
330
1D
100
AcDbEntity
  8
0
100
AcDbLine
 10
139.014
 20
78.66446
 30
0.0
 11
139.014
 21
75.61256
 31
0.0
  0
LINE
  5
17E
330
1D
100
AcDbEntity
  8
0
100
AcDbLine
 10
139.014
 20
78.66446
 30
0.0
 11
139.014
 21
75.72456
 31
0.0
  0
LINE
  5
17F
330
1D
100
AcDbEntity
  8
0
100
AcDbLine
 10
138.857
 20
78.66446
 30
0.0
 11
139.616
 21
78.66446
 31
0.0
  0
LINE
  5
180
330
1D
100
AcDbEntity
  8
0
100
AcDbLine
 10
139.616
 20
78.66446
 30
0.0
 11
140.967
 21
78.66446
 31
0.0
  0
LINE
  5
181
330
1D
100
AcDbEntity
  8
0
100
AcDbLine
 10
142.742
 20
78.66446
 30
0.0
 11
144.837
 21
78.66446
 31
0.0
  0
LINE
  5
182
330
1D
100
AcDbEntity
  8
0
100
AcDbLine
 10
140.967
 20
78.66446
 30
0.0
 11
142.742
 21
78.66446
 31
0.0
  0
LINE
  5
183
330
1D
100
AcDbEntity
  8
0
100
AcDbLine
 10
138.84
 20
78.66446
 30
0.0
 11
139.014
 21
78.66446
 31
0.0
  0
LINE
  5
184
330
1D
100
AcDbEntity
  8
0
100
AcDbLine
 10
138.738
 20
78.66446
 30
0.0
 11
139.014
 21
78.66446
 31
0.0
  0
LINE
  5
185
330
1D
100
AcDbEntity
  8
0
100
AcDbLine
 10
147.191
 20
78.66446
 30
0.0
 11
149.029
 21
78.66446
 31
0.0
  0
LINE
  5
186
330
1D
100
AcDbEntity
  8
0
100
AcDbLine
 10
149.029
 20
78.66446
 30
0.0
 11
150.912
 21
78.66446
 31
0.0
  0
LINE
  5
187
330
1D
100
AcDbEntity
  8
0
100
AcDbLine
 10
152.792
 20
78.66446
 30
0.0
 11
154.643
 21
78.66446
 31
0.0
  0
LINE
  5
188
330
1D
100
AcDbEntity
  8
0
100
AcDbLine
 10
154.643
 20
78.66446
 30
0.0
 11
156.403
 21
78.66446
 31
0.0
  0
LINE
  5
189
330
1D
100
AcDbEntity
  8
0
100
AcDbLine
 10
158.032
 20
78.66446
 30
0.0
 11
159.515
 21
78.66446
 31
0.0
  0
LINE
  5
18A
330
1D
100
AcDbEntity
  8
0
100
AcDbLine
 10
159.515
 20
78.66446
 30
0.0
 11
160.791
 21
78.66446
 31
0.0
  0
LINE
  5
18B
330
1D
100
AcDbEntity
  8
0
100
AcDbLine
 10
156.403
 20
78.66446
 30
0.0
 11
158.032
 21
78.66446
 31
0.0
  0
LINE
  5
18C
330
1D
100
AcDbEntity
  8
0
100
AcDbLine
 10
161.831
 20
78.66446
 30
0.0
 11
162.883
 21
78.66446
 31
0.0
  0
LINE
  5
18E
330
1D
100
AcDbEntity
  8
0
100
AcDbLine
 10
162.883
 20
78.66446
 30
0.0
 11
163.342
 21
78.66446
 31
0.0
  0
LINE
  5
18F
330
1D
100
AcDbEntity
  8
0
100
AcDbLine
 10
163.282
 20
78.66446
 30
0.0
 11
163.342
 21
78.66446
 31
0.0
  0
LINE
  5
190
330
1D
100
AcDbEntity
  8
0
100
AcDbLine
 10
165.094
 20
78.66446
 30
0.0
 11
166.971
 21
78.66446
 31
0.0
  0
LINE
  5
191
330
1D
100
AcDbEntity
  8
0
100
AcDbLine
 10
166.971
 20
78.66446
 30
0.0
 11
168.738
 21
78.66446
 31
0.0
  0
LINE
  5
192
330
1D
100
AcDbEntity
  8
0
100
AcDbLine
 10
168.738
 20
78.66446
 30
0.0
 11
170.225
 21
78.66446
 31
0.0
  0
LINE
  5
193
330
1D
100
AcDbEntity
  8
0
100
AcDbLine
 10
163.014
 20
78.66446
 30
0.0
 11
163.292
 21
78.66446
 31
0.0
  0
LINE
  5
194
330
1D
100
AcDbEntity
  8
0
100
AcDbLine
 10
163.014
 20
78.66446
 30
0.0
 11
163.282
 21
78.66446
 31
0.0
  0
LINE
  5
195
330
1D
100
AcDbEntity
  8
0
100
AcDbLine
 10
163.014
 20
78.66446
 30
0.0
 11
163.014
 21
75.72456
 31
0.0
  0
LINE
  5
196
330
1D
100
AcDbEntity
  8
0
100
AcDbLine
 10
170.225
 20
78.66446
 30
0.0
 11
171.284
 21
78.66446
 31
0.0
  0
LINE
  5
197
330
1D
100
AcDbEntity
  8
0
100
AcDbLine
 10
171.284
 20
78.66446
 30
0.0
 11
171.813
 21
78.66446
 31
0.0
  0
LINE
  5
198
330
1D
100
AcDbEntity
  8
0
100
AcDbLine
 10
160.791
 20
78.66446
 30
0.0
 11
161.831
 21
78.66446
 31
0.0
  0
LINE
  5
199
330
1D
100
AcDbEntity
  8
0
100
AcDbLine
 10
150.912
 20
78.66446
 30
0.0
 11
152.792
 21
78.66446
 31
0.0
  0
LINE
  5
19A
330
1D
100
AcDbEntity
  8
0
100
AcDbLine
 10
144.837
 20
78.66446
 30
0.0
 11
147.191
 21
78.66446
 31
0.0
  0
LINE
  5
19B
330
1D
100
AcDbEntity
  8
0
100
AcDbLine
 10
178.362
 20
80.96446
 30
0.0
 11
178.362
 21
96.36446
 31
0.0
  0
LINE
  5
19C
330
1D
100
AcDbEntity
  8
0
100
AcDbLine
 10
163.292
 20
78.66446
 30
0.0
 11
165.094
 21
78.66446
 31
0.0
  0
LINE
  5
19D
330
1D
100
AcDbEntity
  8
0
100
AcDbLine
 10
138.381
 20
78.66446
 30
0.0
 11
138.84
 21
78.66446
 31
0.0
  0
LINE
  5
19E
330
1D
100
AcDbEntity
  8
0
100
AcDbLine
 10
138.381
 20
78.66446
 30
0.0
 11
138.442
 21
78.66446
 31
0.0
  0
LINE
  5
19F
330
1D
100
AcDbEntity
  8
0
100
AcDbLine
 10
134.753
 20
78.66446
 30
0.0
 11
136.629
 21
78.66446
 31
0.0
  0
LINE
  5
1B4
330
1D
100
AcDbEntity
  8
0
100
AcDbLine
 10
0.791
 20
154.04116
 30
0.0
 11
1.245
 21
154.04116
 31
0.0
  0
LINE
  5
1B6
330
1D
100
AcDbEntity
  8
0
100
AcDbLine
 10
0.65
 20
154.04116
 30
0.0
 11
0.791
 21
154.04116
 31
0.0
  0
LINE
  5
1BC
330
1D
100
AcDbEntity
  8
0
100
AcDbLine
 10
1.245
 20
154.04116
 30
0.0
 11
1.958
 21
154.04116
 31
0.0
  0
LINE
  5
200
330
1D
100
AcDbEntity
  8
0
100
AcDbLine
 10
123.362
 20
96.62386
 30
0.0
 11
123.362
 21
96.36436
 31
0.0
  0
LINE
  5
201
330
1D
100
AcDbEntity
  8
0
100
AcDbLine
 10
123.362
 20
96.62386
 30
0.0
 11
123.362
 21
97.37616
 31
0.0
  0
LINE
  5
202
330
1D
100
AcDbEntity
  8
0
100
AcDbLine
 10
123.362
 20
97.37616
 30
0.0
 11
123.362
 21
96.62386
 31
0.0
  0
LINE
  5
203
330
1D
100
AcDbEntity
  8
0
100
AcDbLine
 10
123.362
 20
97.37616
 30
0.0
 11
123.362
 21
98.54916
 31
0.0
  0
LINE
  5
204
330
1D
100
AcDbEntity
  8
0
100
AcDbLine
 10
123.362
 20
98.54916
 30
0.0
 11
123.362
 21
97.37616
 31
0.0
  0
LINE
  5
205
330
1D
100
AcDbEntity
  8
0
100
AcDbLine
 10
123.362
 20
98.54916
 30
0.0
 11
123.362
 21
100.02616
 31
0.0
  0
LINE
  5
206
330
1D
100
AcDbEntity
  8
0
100
AcDbLine
 10
125.662
 20
98.66416
 30
0.0
 11
125.738
 21
98.66416
 31
0.0
  0
LINE
  5
207
330
1D
100
AcDbEntity
  8
0
100
AcDbLine
 10
124.512
 20
98.35616
 30
0.0
 11
125.662
 21
98.66416
 31
0.0
  0
LINE
  5
208
330
1D
100
AcDbEntity
  8
0
100
AcDbLine
 10
123.67
 20
97.51416
 30
0.0
 11
124.512
 21
98.35616
 31
0.0
  0
LINE
  5
209
330
1D
100
AcDbEntity
  8
0
100
AcDbLine
 10
123.362
 20
96.36436
 30
0.0
 11
123.362
 21
80.96446
 31
0.0
  0
LINE
  5
20A
330
1D
100
AcDbEntity
  8
0
100
AcDbLine
 10
123.362
 20
96.36436
 30
0.0
 11
123.67
 21
97.51416
 31
0.0
  0
LINE
  5
20B
330
1D
100
AcDbEntity
  8
0
100
AcDbLine
 10
123.362
 20
96.36436
 30
0.0
 11
123.362
 21
96.62386
 31
0.0
  0
LINE
  5
20C
330
1D
100
AcDbEntity
  8
0
100
AcDbLine
 10
130.689
 20
98.66416
 30
0.0
 11
132.801
 21
98.66416
 31
0.0
  0
LINE
  5
20D
330
1D
100
AcDbEntity
  8
0
100
AcDbLine
 10
129.248
 20
98.66416
 30
0.0
 11
130.689
 21
98.66416
 31
0.0
  0
LINE
  5
20E
330
1D
100
AcDbEntity
  8
0
100
AcDbLine
 10
128.044
 20
98.66416
 30
0.0
 11
129.248
 21
98.66416
 31
0.0
  0
LINE
  5
20F
330
1D
100
AcDbEntity
  8
0
100
AcDbLine
 10
127.078
 20
98.66416
 30
0.0
 11
128.044
 21
98.66416
 31
0.0
  0
LINE
  5
210
330
1D
100
AcDbEntity
  8
0
100
AcDbLine
 10
126.358
 20
98.66416
 30
0.0
 11
127.078
 21
98.66416
 31
0.0
  0
LINE
  5
211
330
1D
100
AcDbEntity
  8
0
100
AcDbLine
 10
125.738
 20
98.66416
 30
0.0
 11
125.993
 21
98.66416
 31
0.0
  0
LINE
  5
212
330
1D
100
AcDbEntity
  8
0
100
AcDbLine
 10
132.801
 20
98.66416
 30
0.0
 11
144.838
 21
98.66416
 31
0.0
  0
LINE
  5
217
330
1D
100
AcDbEntity
  8
0
100
AcDbLine
 10
178.362
 20
96.62376
 30
0.0
 11
178.362
 21
96.36446
 31
0.0
  0
LINE
  5
218
330
1D
100
AcDbEntity
  8
0
100
AcDbLine
 10
178.362
 20
96.62376
 30
0.0
 11
178.362
 21
97.37716
 31
0.0
  0
LINE
  5
219
330
1D
100
AcDbEntity
  8
0
100
AcDbLine
 10
178.362
 20
97.37716
 30
0.0
 11
178.362
 21
96.62376
 31
0.0
  0
LINE
  5
21A
330
1D
100
AcDbEntity
  8
0
100
AcDbLine
 10
178.362
 20
97.37716
 30
0.0
 11
178.362
 21
98.54916
 31
0.0
  0
LINE
  5
21B
330
1D
100
AcDbEntity
  8
0
100
AcDbLine
 10
176.062
 20
98.66416
 30
0.0
 11
177.212
 21
98.35616
 31
0.0
  0
LINE
  5
21C
330
1D
100
AcDbEntity
  8
0
100
AcDbLine
 10
178.362
 20
98.54916
 30
0.0
 11
178.362
 21
97.37716
 31
0.0
  0
LINE
  5
21D
330
1D
100
AcDbEntity
  8
0
100
AcDbLine
 10
178.362
 20
98.54916
 30
0.0
 11
178.362
 21
100.02616
 31
0.0
  0
LINE
  5
21E
330
1D
100
AcDbEntity
  8
0
100
AcDbLine
 10
177.212
 20
98.35616
 30
0.0
 11
178.054
 21
97.51416
 31
0.0
  0
LINE
  5
21F
330
1D
100
AcDbEntity
  8
0
100
AcDbLine
 10
178.054
 20
97.51416
 30
0.0
 11
178.362
 21
96.36446
 31
0.0
  0
LINE
  5
221
330
1D
100
AcDbEntity
  8
0
100
AcDbLine
 10
175.866
 20
98.66416
 30
0.0
 11
176.062
 21
98.66416
 31
0.0
  0
LINE
  5
222
330
1D
100
AcDbEntity
  8
0
100
AcDbLine
 10
144.838
 20
98.66416
 30
0.0
 11
156.885
 21
98.66416
 31
0.0
  0
LINE
  5
223
330
1D
100
AcDbEntity
  8
0
100
AcDbLine
 10
156.885
 20
98.66416
 30
0.0
 11
176.062
 21
98.66416
 31
0.0
  0
LINE
  5
225
330
1D
100
AcDbEntity
  8
0
100
AcDbLine
 10
178.362
 20
96.36446
 30
0.0
 11
178.362
 21
80.96446
 31
0.0
  0
LINE
  5
226
330
1D
100
AcDbEntity
  8
0
100
AcDbLine
 10
178.362
 20
96.36446
 30
0.0
 11
178.362
 21
96.62376
 31
0.0
  0
LINE
  5
249
330
1D
100
AcDbEntity
  8
0
100
AcDbLine
 10
123.362
 20
100.02616
 30
0.0
 11
123.362
 21
98.54916
 31
0.0
  0
LINE
  5
24A
330
1D
100
AcDbEntity
  8
0
100
AcDbLine
 10
123.362
 20
100.02616
 30
0.0
 11
123.362
 21
101.66416
 31
0.0
  0
LINE
  5
24B
330
1D
100
AcDbEntity
  8
0
100
AcDbLine
 10
178.362
 20
100.02616
 30
0.0
 11
178.362
 21
98.54916
 31
0.0
  0
LINE
  5
24C
330
1D
100
AcDbEntity
  8
0
100
AcDbLine
 10
178.362
 20
100.02616
 30
0.0
 11
178.362
 21
101.66416
 31
0.0
  0
LINE
  5
28E
330
1D
100
AcDbEntity
  8
0
100
AcDbLine
 10
123.362
 20
101.66416
 30
0.0
 11
123.362
 21
100.02616
 31
0.0
  0
LINE
  5
28F
330
1D
100
AcDbEntity
  8
0
100
AcDbLine
 10
123.362
 20
101.66416
 30
0.0
 11
123.362
 21
103.09416
 31
0.0
  0
LINE
  5
290
330
1D
100
AcDbEntity
  8
0
100
AcDbLine
 10
123.522
 20
103.68116
 30
0.0
 11
123.556
 21
103.74916
 31
0.0
  0
LINE
  5
291
330
1D
100
AcDbEntity
  8
0
100
AcDbLine
 10
178.362
 20
101.66416
 30
0.0
 11
178.362
 21
100.02616
 31
0.0
  0
LINE
  5
292
330
1D
100
AcDbEntity
  8
0
100
AcDbLine
 10
178.362
 20
101.66416
 30
0.0
 11
178.362
 21
103.09416
 31
0.0
  0
LINE
  5
293
330
1D
100
AcDbEntity
  8
0
100
AcDbLine
 10
178.362
 20
103.09416
 30
0.0
 11
178.362
 21
101.66416
 31
0.0
  0
LINE
  5
294
330
1D
100
AcDbEntity
  8
0
100
AcDbLine
 10
123.556
 20
103.74916
 30
0.0
 11
123.987
 21
104.18016
 31
0.0
  0
LINE
  5
295
330
1D
100
AcDbEntity
  8
0
100
AcDbLine
 10
177.687
 20
104.21916
 30
0.0
 11
178.104
 21
103.78616
 31
0.0
  0
LINE
  5
296
330
1D
100
AcDbEntity
  8
0
100
AcDbLine
 10
178.104
 20
103.78616
 30
0.0
 11
178.201
 21
103.68116
 31
0.0
  0
LINE
  5
297
330
1D
100
AcDbEntity
  8
0
100
AcDbLine
 10
178.201
 20
103.68116
 30
0.0
 11
178.362
 21
103.09416
 31
0.0
  0
LINE
  5
298
330
1D
100
AcDbEntity
  8
0
100
AcDbLine
 10
123.362
 20
103.09416
 30
0.0
 11
123.522
 21
103.68116
 31
0.0
  0
LINE
  5
299
330
1D
100
AcDbEntity
  8
0
100
AcDbLine
 10
123.362
 20
103.09416
 30
0.0
 11
123.362
 21
101.66416
 31
0.0
  0
LINE
  5
2D8
330
1D
100
AcDbEntity
  8
0
100
AcDbLine
 10
63.4912
 20
119.68216
 30
0.0
 11
66.3735
 21
117.50016
 31
0.0
  0
LINE
  5
2DA
330
1D
100
AcDbEntity
  8
0
100
AcDbLine
 10
63.2077
 20
118.91316
 30
0.0
 11
66.2727
 21
116.67216
 31
0.0
  0
LINE
  5
2DB
330
1D
100
AcDbEntity
  8
0
100
AcDbLine
 10
60.8225
 20
121.87116
 30
0.0
 11
63.2077
 21
118.91316
 31
0.0
  0
LINE
  5
2E1
330
1D
100
AcDbEntity
  8
0
100
AcDbLine
 10
61.3088
 20
122.56516
 30
0.0
 11
63.4912
 21
119.68216
 31
0.0
  0
LINE
  5
2E3
330
1D
100
AcDbEntity
  8
0
100
AcDbLine
 10
59.95
 20
125.90016
 30
0.0
 11
61.3088
 21
122.56516
 31
0.0
  0
LINE
  5
2E5
330
1D
100
AcDbEntity
  8
0
100
AcDbLine
 10
59.2901
 20
125.34516
 30
0.0
 11
60.8225
 21
121.87116
 31
0.0
  0
LINE
  5
2E6
330
1D
100
AcDbEntity
  8
0
100
AcDbLine
 10
59.4559
 20
129.44116
 30
0.0
 11
59.95
 21
125.90016
 31
0.0
  0
LINE
  5
2E7
330
1D
100
AcDbEntity
  8
0
100
AcDbLine
 10
59.4559
 20
129.44116
 30
0.0
 11
59.95
 21
132.98216
 31
0.0
  0
LINE
  5
2EA
330
1D
100
AcDbEntity
  8
0
100
AcDbLine
 10
59.95
 20
132.98216
 30
0.0
 11
61.3088
 21
136.31816
 31
0.0
  0
LINE
  5
2EC
330
1D
100
AcDbEntity
  8
0
100
AcDbLine
 10
59.109
 20
132.87416
 30
0.0
 11
60.4806
 21
136.41716
 31
0.0
  0
LINE
  5
2EE
330
1D
100
AcDbEntity
  8
0
100
AcDbLine
 10
58.7028
 20
129.09816
 30
0.0
 11
59.2901
 21
125.34516
 31
0.0
  0
LINE
  5
2EF
330
1D
100
AcDbEntity
  8
0
100
AcDbLine
 10
58.7028
 20
129.09816
 30
0.0
 11
59.109
 21
132.87416
 31
0.0
  0
LINE
  5
2FB
330
1D
100
AcDbEntity
  8
0
100
AcDbLine
 10
61.3088
 20
136.31816
 30
0.0
 11
63.4912
 21
139.20016
 31
0.0
  0
LINE
  5
2FD
330
1D
100
AcDbEntity
  8
0
100
AcDbLine
 10
63.4912
 20
139.20016
 30
0.0
 11
66.3735
 21
141.38216
 31
0.0
  0
LINE
  5
2FF
330
1D
100
AcDbEntity
  8
0
100
AcDbLine
 10
60.4806
 20
136.41716
 30
0.0
 11
62.7211
 21
139.48416
 31
0.0
  0
LINE
  5
315
330
1D
100
AcDbEntity
  8
0
100
AcDbLine
 10
62.7211
 20
139.48416
 30
0.0
 11
65.6814
 21
141.86716
 31
0.0
  0
LINE
  5
316
330
1D
100
AcDbEntity
  8
0
100
AcDbLine
 10
69.7088
 20
116.14116
 30
0.0
 11
73.25
 21
115.64716
 31
0.0
  0
LINE
  5
319
330
1D
100
AcDbEntity
  8
0
100
AcDbLine
 10
66.3735
 20
141.38216
 30
0.0
 11
69.7088
 21
142.74116
 31
0.0
  0
LINE
  5
31A
330
1D
100
AcDbEntity
  8
0
100
AcDbLine
 10
69.7088
 20
142.74116
 30
0.0
 11
73.25
 21
143.23516
 31
0.0
  0
LINE
  5
31C
330
1D
100
AcDbEntity
  8
0
100
AcDbLine
 10
66.3735
 20
117.50016
 30
0.0
 11
69.7088
 21
116.14116
 31
0.0
  0
LINE
  5
31E
330
1D
100
AcDbEntity
  8
0
100
AcDbLine
 10
66.2727
 20
116.67216
 30
0.0
 11
69.8164
 21
115.30216
 31
0.0
  0
LINE
  5
31F
330
1D
100
AcDbEntity
  8
0
100
AcDbLine
 10
69.8164
 20
115.30216
 30
0.0
 11
73.5933
 21
114.89516
 31
0.0
  0
LINE
  5
320
330
1D
100
AcDbEntity
  8
0
100
AcDbLine
 10
69.1527
 20
143.40316
 30
0.0
 11
72.9055
 21
143.98716
 31
0.0
  0
LINE
  5
321
330
1D
100
AcDbEntity
  8
0
100
AcDbLine
 10
65.6814
 20
141.86716
 30
0.0
 11
69.1527
 21
143.40316
 31
0.0
  0
LINE
  5
324
330
1D
100
AcDbEntity
  8
0
100
AcDbLine
 10
76.7912
 20
116.14116
 30
0.0
 11
80.1265
 21
117.50016
 31
0.0
  0
LINE
  5
325
330
1D
100
AcDbEntity
  8
0
100
AcDbLine
 10
73.25
 20
115.64716
 30
0.0
 11
76.7912
 21
116.14116
 31
0.0
  0
LINE
  5
326
330
1D
100
AcDbEntity
  8
0
100
AcDbLine
 10
80.1265
 20
117.50016
 30
0.0
 11
83.0088
 21
119.68216
 31
0.0
  0
LINE
  5
327
330
1D
100
AcDbEntity
  8
0
100
AcDbLine
 10
80.8213
 20
117.01616
 30
0.0
 11
83.7777
 21
119.39816
 31
0.0
  0
LINE
  5
328
330
1D
100
AcDbEntity
  8
0
100
AcDbLine
 10
83.0088
 20
119.68216
 30
0.0
 11
85.1912
 21
122.56516
 31
0.0
  0
LINE
  5
329
330
1D
100
AcDbEntity
  8
0
100
AcDbLine
 10
85.1912
 20
122.56516
 30
0.0
 11
86.55
 21
125.90016
 31
0.0
  0
LINE
  5
32A
330
1D
100
AcDbEntity
  8
0
100
AcDbLine
 10
83.7777
 20
119.39816
 30
0.0
 11
86.0181
 21
122.46516
 31
0.0
  0
LINE
  5
33E
330
1D
100
AcDbEntity
  8
0
100
AcDbLine
 10
86.55
 20
125.90016
 30
0.0
 11
87.0441
 21
129.44116
 31
0.0
  0
LINE
  5
33F
330
1D
100
AcDbEntity
  8
0
100
AcDbLine
 10
86.0181
 20
122.46516
 30
0.0
 11
87.3897
 21
126.00816
 31
0.0
  0
LINE
  5
340
330
1D
100
AcDbEntity
  8
0
100
AcDbLine
 10
86.55
 20
132.98216
 30
0.0
 11
87.0441
 21
129.44116
 31
0.0
  0
LINE
  5
35E
330
1D
100
AcDbEntity
  8
0
100
AcDbLine
 10
87.3897
 20
126.00816
 30
0.0
 11
87.7959
 21
129.78416
 31
0.0
  0
LINE
  5
35F
330
1D
100
AcDbEntity
  8
0
100
AcDbLine
 10
77.3461
 20
115.48016
 30
0.0
 11
80.8213
 21
117.01616
 31
0.0
  0
LINE
  5
360
330
1D
100
AcDbEntity
  8
0
100
AcDbLine
 10
80.1265
 20
141.38216
 30
0.0
 11
83.0088
 21
139.20016
 31
0.0
  0
LINE
  5
361
330
1D
100
AcDbEntity
  8
0
100
AcDbLine
 10
83.0088
 20
139.20016
 30
0.0
 11
85.1912
 21
136.31816
 31
0.0
  0
LINE
  5
364
330
1D
100
AcDbEntity
  8
0
100
AcDbLine
 10
73.25
 20
143.23516
 30
0.0
 11
76.7912
 21
142.74116
 31
0.0
  0
LINE
  5
366
330
1D
100
AcDbEntity
  8
0
100
AcDbLine
 10
76.7912
 20
142.74116
 30
0.0
 11
80.1265
 21
141.38216
 31
0.0
  0
LINE
  5
368
330
1D
100
AcDbEntity
  8
0
100
AcDbLine
 10
76.6824
 20
143.58016
 30
0.0
 11
80.226
 21
142.21016
 31
0.0
  0
LINE
  5
369
330
1D
100
AcDbEntity
  8
0
100
AcDbLine
 10
80.226
 20
142.21016
 30
0.0
 11
83.291
 21
139.97016
 31
0.0
  0
LINE
  5
36A
330
1D
100
AcDbEntity
  8
0
100
AcDbLine
 10
85.1912
 20
136.31816
 30
0.0
 11
86.55
 21
132.98216
 31
0.0
  0
LINE
  5
3A9
330
1D
100
AcDbEntity
  8
0
100
AcDbLine
 10
85.6762
 20
137.01116
 30
0.0
 11
87.2127
 21
133.53716
 31
0.0
  0
LINE
  5
3AA
330
1D
100
AcDbEntity
  8
0
100
AcDbLine
 10
83.291
 20
139.97016
 30
0.0
 11
85.6762
 21
137.01116
 31
0.0
  0
LINE
  5
3AB
330
1D
100
AcDbEntity
  8
0
100
AcDbLine
 10
87.2127
 20
133.53716
 30
0.0
 11
87.7959
 21
129.78416
 31
0.0
  0
LINE
  5
3AC
330
1D
100
AcDbEntity
  8
0
100
AcDbLine
 10
72.9055
 20
143.98716
 30
0.0
 11
76.6824
 21
143.58016
 31
0.0
  0
LINE
  5
3AD
330
1D
100
AcDbEntity
  8
0
100
AcDbLine
 10
73.5933
 20
114.89516
 30
0.0
 11
77.3461
 21
115.48016
 31
0.0
  0
LINE
  5
3C2
330
1D
100
AcDbEntity
  8
0
100
AcDbLine
 10
1.958
 20
154.04116
 30
0.0
 11
3.197
 21
154.04116
 31
0.0
  0
LINE
  5
3C4
330
1D
100
AcDbEntity
  8
0
100
AcDbLine
 10
3.197
 20
154.04116
 30
0.0
 11
4.215
 21
154.04116
 31
0.0
  0
LINE
  5
3C5
330
1D
100
AcDbEntity
  8
0
100
AcDbLine
 10
4.215
 20
154.04116
 30
0.0
 11
5.409
 21
154.04116
 31
0.0
  0
LINE
  5
3C9
330
1D
100
AcDbEntity
  8
0
100
AcDbLine
 10
5.409
 20
154.04116
 30
0.0
 11
7.331
 21
154.04116
 31
0.0
  0
LINE
  5
3CA
330
1D
100
AcDbEntity
  8
0
100
AcDbLine
 10
7.331
 20
154.04116
 30
0.0
 11
9.515
 21
154.04116
 31
0.0
  0
LINE
  5
3CE
330
1D
100
AcDbEntity
  8
0
100
AcDbLine
 10
12.727
 20
154.04116
 30
0.0
 11
16.182
 21
154.04116
 31
0.0
  0
LINE
  5
3CF
330
1D
100
AcDbEntity
  8
0
100
AcDbLine
 10
16.182
 20
154.04116
 30
0.0
 11
19.2
 21
154.04116
 31
0.0
  0
LINE
  5
3D0
330
1D
100
AcDbEntity
  8
0
100
AcDbLine
 10
9.515
 20
154.04116
 30
0.0
 11
12.727
 21
154.04116
 31
0.0
  0
LINE
  5
3D1
330
1D
100
AcDbEntity
  8
0
100
AcDbLine
 10
19.2
 20
154.04116
 30
0.0
 11
282.8
 21
154.04116
 31
0.0
  0
LINE
  5
3F9
330
1D
100
AcDbEntity
  8
0
100
AcDbLine
 10
285.668
 20
154.04116
 30
0.0
 11
288.457
 21
154.04116
 31
0.0
  0
LINE
  5
3FA
330
1D
100
AcDbEntity
  8
0
100
AcDbLine
 10
282.8
 20
154.04116
 30
0.0
 11
285.668
 21
154.04116
 31
0.0
  0
LINE
  5
3FB
330
1D
100
AcDbEntity
  8
0
100
AcDbLine
 10
290.862
 20
154.04116
 30
0.0
 11
293.485
 21
154.04116
 31
0.0
  0
LINE
  5
3FC
330
1D
100
AcDbEntity
  8
0
100
AcDbLine
 10
288.457
 20
154.04116
 30
0.0
 11
290.862
 21
154.04116
 31
0.0
  0
LINE
  5
40A
330
1D
100
AcDbEntity
  8
0
100
AcDbLine
 10
300.552
 20
154.04116
 30
0.0
 11
301.193
 21
154.04116
 31
0.0
  0
LINE
  5
40B
330
1D
100
AcDbEntity
  8
0
100
AcDbLine
 10
299.343
 20
154.04116
 30
0.0
 11
300.552
 21
154.04116
 31
0.0
  0
LINE
  5
40C
330
1D
100
AcDbEntity
  8
0
100
AcDbLine
 10
298.037
 20
154.04116
 30
0.0
 11
299.343
 21
154.04116
 31
0.0
  0
LINE
  5
40D
330
1D
100
AcDbEntity
  8
0
100
AcDbLine
 10
296.39
 20
154.04116
 30
0.0
 11
298.037
 21
154.04116
 31
0.0
  0
LINE
  5
40E
330
1D
100
AcDbEntity
  8
0
100
AcDbLine
 10
295.009
 20
154.04116
 30
0.0
 11
296.39
 21
154.04116
 31
0.0
  0
LINE
  5
40F
330
1D
100
AcDbEntity
  8
0
100
AcDbLine
 10
293.485
 20
154.04116
 30
0.0
 11
295.009
 21
154.04116
 31
0.0
  0
LINE
  5
593
330
1D
100
AcDbEntity
  8
0
100
AcDbLine
 10
4.379
 20
80.37146
 30
0.0
 11
17.844
 21
80.37146
 31
0.0
  0
LINE
  5
594
330
1D
100
AcDbEntity
  8
0
100
AcDbLine
 10
4.379
 20
80.37146
 30
0.0
 11
17.844
 21
80.37146
 31
0.0
  0
LINE
  5
595
330
1D
100
AcDbEntity
  8
0
100
AcDbLine
 10
2.767
 20
80.76666
 30
0.0
 11
4.379
 21
80.37146
 31
0.0
  0
LINE
  5
596
330
1D
100
AcDbEntity
  8
0
100
AcDbLine
 10
20.048
 20
80.62656
 30
0.0
 11
20.487
 21
80.81136
 31
0.0
  0
LINE
  5
597
330
1D
100
AcDbEntity
  8
0
100
AcDbLine
 10
19.833
 20
80.58396
 30
0.0
 11
20.048
 21
80.62656
 31
0.0
  0
LINE
  5
598
330
1D
100
AcDbEntity
  8
0
100
AcDbLine
 10
18.767
 20
80.40966
 30
0.0
 11
19.833
 21
80.58396
 31
0.0
  0
LINE
  5
599
330
1D
100
AcDbEntity
  8
0
100
AcDbLine
 10
17.844
 20
80.37146
 30
0.0
 11
18.767
 21
80.40966
 31
0.0
  0
LINE
  5
59A
330
1D
100
AcDbEntity
  8
0
100
AcDbLine
 10
20.487
 20
80.81136
 30
0.0
 11
20.82
 21
80.98536
 31
0.0
  0
LINE
  5
59B
330
1D
100
AcDbEntity
  8
0
100
AcDbLine
 10
21.842
 20
81.25306
 30
0.0
 11
23.594
 21
81.42606
 31
0.0
  0
LINE
  5
59C
330
1D
100
AcDbEntity
  8
0
100
AcDbLine
 10
20.82
 20
80.98536
 30
0.0
 11
21.896659855548
 21
81.25845734875
 31
0.0
  0
LINE
  5
59D
330
1D
100
AcDbEntity
  8
0
100
AcDbLine
 10
44.3066
 20
59.95886
 30
0.0
 11
44.3066
 21
-0.04116
 31
0.0
  0
LINE
  5
59E
330
1D
100
AcDbEntity
  8
0
100
AcDbLine
 10
44.3066
 20
59.95886
 30
0.0
 11
44.6066
 21
59.95886
 31
0.0
  0
LINE
  5
59F
330
1D
100
AcDbEntity
  8
0
100
AcDbLine
 10
44.3066
 20
-0.04116
 30
0.0
 11
44.6696
 21
-0.01486
 31
0.0
  0
LINE
  5
5A0
330
1D
100
AcDbEntity
  8
0
100
AcDbLine
 10
44.3066
 20
-0.04116
 30
0.0
 11
44.3066
 21
59.95886
 31
0.0
  0
LINE
  5
5A1
330
1D
100
AcDbEntity
  8
0
100
AcDbLine
 10
44.3066
 20
-0.04116
 30
0.0
 11
44.6696
 21
-0.01486
 31
0.0
  0
LINE
  5
5A2
330
1D
100
AcDbEntity
  8
0
100
AcDbLine
 10
44.6696
 20
-0.01486
 30
0.0
 11
45.3446
 21
0.06004
 31
0.0
  0
LINE
  5
5A3
330
1D
100
AcDbEntity
  8
0
100
AcDbLine
 10
48.0836
 20
1.10954
 30
0.0
 11
49.8836
 21
2.23404
 31
0.0
  0
LINE
  5
5A4
330
1D
100
AcDbEntity
  8
0
100
AcDbLine
 10
48.1066
 20
59.95886
 30
0.0
 11
49.9066
 21
59.95886
 31
0.0
  0
LINE
  5
5A5
330
1D
100
AcDbEntity
  8
0
100
AcDbLine
 10
48.0836
 20
1.10954
 30
0.0
 11
49.8836
 21
2.23404
 31
0.0
  0
LINE
  5
5A6
330
1D
100
AcDbEntity
  8
0
100
AcDbLine
 10
46.5066
 20
59.95886
 30
0.0
 11
48.1066
 21
59.95886
 31
0.0
  0
LINE
  5
5A7
330
1D
100
AcDbEntity
  8
0
100
AcDbLine
 10
46.5826
 20
0.43494
 30
0.0
 11
48.0836
 21
1.10954
 31
0.0
  0
LINE
  5
5A8
330
1D
100
AcDbEntity
  8
0
100
AcDbLine
 10
45.3066
 20
59.95886
 30
0.0
 11
46.5066
 21
59.95886
 31
0.0
  0
LINE
  5
5A9
330
1D
100
AcDbEntity
  8
0
100
AcDbLine
 10
45.3446
 20
0.06004
 30
0.0
 11
46.5826
 21
0.43494
 31
0.0
  0
LINE
  5
5AA
330
1D
100
AcDbEntity
  8
0
100
AcDbLine
 10
44.6066
 20
59.95886
 30
0.0
 11
45.3066
 21
59.95886
 31
0.0
  0
LINE
  5
5AB
330
1D
100
AcDbEntity
  8
0
100
AcDbLine
 10
44.6696
 20
-0.01486
 30
0.0
 11
45.3446
 21
0.06004
 31
0.0
  0
LINE
  5
5AC
330
1D
100
AcDbEntity
  8
0
100
AcDbLine
 10
51.8346
 20
4.22064
 30
0.0
 11
53.5976
 21
5.57004
 31
0.0
  0
LINE
  5
5AD
330
1D
100
AcDbEntity
  8
0
100
AcDbLine
 10
53.5976
 20
5.57004
 30
0.0
 11
55.4356
 21
6.76944
 31
0.0
  0
LINE
  5
5AE
330
1D
100
AcDbEntity
  8
0
100
AcDbLine
 10
55.4356
 20
6.76944
 30
0.0
 11
57.2366
 21
7.96886
 31
0.0
  0
LINE
  5
5AF
330
1D
100
AcDbEntity
  8
0
100
AcDbLine
 10
57.2366
 20
7.96886
 30
0.0
 11
58.3246
 21
9.01836
 31
0.0
  0
LINE
  5
5B0
330
1D
100
AcDbEntity
  8
0
100
AcDbLine
 10
58.3246
 20
9.01836
 30
0.0
 11
59.0376
 21
9.73056
 31
0.0
  0
LINE
  5
5B1
330
1D
100
AcDbEntity
  8
0
100
AcDbLine
 10
51.8066
 20
59.95886
 30
0.0
 11
53.7066
 21
59.95886
 31
0.0
  0
LINE
  5
5B2
330
1D
100
AcDbEntity
  8
0
100
AcDbLine
 10
51.8066
 20
59.95886
 30
0.0
 11
54.5066
 21
59.95886
 31
0.0
  0
LINE
  5
5B3
330
1D
100
AcDbEntity
  8
0
100
AcDbLine
 10
54.5066
 20
59.95886
 30
0.0
 11
57.0066
 21
59.95886
 31
0.0
  0
LINE
  5
5B4
330
1D
100
AcDbEntity
  8
0
100
AcDbLine
 10
57.0066
 20
59.95886
 30
0.0
 11
59.2066
 21
59.95886
 31
0.0
  0
LINE
  5
5B5
330
1D
100
AcDbEntity
  8
0
100
AcDbLine
 10
53.7066
 20
59.95886
 30
0.0
 11
55.5066
 21
59.95886
 31
0.0
  0
LINE
  5
5B6
330
1D
100
AcDbEntity
  8
0
100
AcDbLine
 10
55.5066
 20
59.95886
 30
0.0
 11
57.1066
 21
59.95886
 31
0.0
  0
LINE
  5
5B7
330
1D
100
AcDbEntity
  8
0
100
AcDbLine
 10
57.1066
 20
59.95886
 30
0.0
 11
58.3066
 21
59.95886
 31
0.0
  0
LINE
  5
5B8
330
1D
100
AcDbEntity
  8
0
100
AcDbLine
 10
58.3066
 20
59.95886
 30
0.0
 11
59.0066
 21
59.95886
 31
0.0
  0
LINE
  5
5B9
330
1D
100
AcDbEntity
  8
0
100
AcDbLine
 10
59.3066
 20
59.95886
 30
0.0
 11
60.9066
 21
59.95886
 31
0.0
  0
LINE
  5
5BA
330
1D
100
AcDbEntity
  8
0
100
AcDbLine
 10
59.3066
 20
59.95886
 30
0.0
 11
59.3066
 21
9.95886
 31
0.0
  0
LINE
  5
5BB
330
1D
100
AcDbEntity
  8
0
100
AcDbLine
 10
59.2066
 20
59.95886
 30
0.0
 11
60.9066
 21
59.95886
 31
0.0
  0
LINE
  5
5BC
330
1D
100
AcDbEntity
  8
0
100
AcDbLine
 10
60.9066
 20
59.95886
 30
0.0
 11
61.9066
 21
59.95886
 31
0.0
  0
LINE
  5
5BD
330
1D
100
AcDbEntity
  8
0
100
AcDbLine
 10
62.3066
 20
59.95886
 30
0.0
 11
63.3066
 21
89.95886
 31
0.0
  0
LINE
  5
5BE
330
1D
100
AcDbEntity
  8
0
100
AcDbLine
 10
61.9066
 20
59.95886
 30
0.0
 11
62.3066
 21
59.95886
 31
0.0
  0
LINE
  5
5BF
330
1D
100
AcDbEntity
  8
0
100
AcDbLine
 10
59.3066
 20
9.95886
 30
0.0
 11
59.3066
 21
59.95886
 31
0.0
  0
LINE
  5
5C0
330
1D
100
AcDbEntity
  8
0
100
AcDbLine
 10
59.0066
 20
59.95886
 30
0.0
 11
59.3066
 21
59.95886
 31
0.0
  0
LINE
  5
5C1
330
1D
100
AcDbEntity
  8
0
100
AcDbLine
 10
59.0376
 20
9.73056
 30
0.0
 11
59.3066
 21
9.95886
 31
0.0
  0
LINE
  5
5C2
330
1D
100
AcDbEntity
  8
0
100
AcDbLine
 10
49.9066
 20
59.95886
 30
0.0
 11
51.8066
 21
59.95886
 31
0.0
  0
LINE
  5
5C3
330
1D
100
AcDbEntity
  8
0
100
AcDbLine
 10
49.8836
 20
2.23404
 30
0.0
 11
51.8346
 21
4.22064
 31
0.0
  0
LINE
  5
5C4
330
1D
100
AcDbEntity
  8
0
100
AcDbLine
 10
49.1066
 20
59.95886
 30
0.0
 11
51.8066
 21
59.95886
 31
0.0
  0
LINE
  5
5C5
330
1D
100
AcDbEntity
  8
0
100
AcDbLine
 10
46.6066
 20
59.95886
 30
0.0
 11
49.1066
 21
59.95886
 31
0.0
  0
LINE
  5
5C6
330
1D
100
AcDbEntity
  8
0
100
AcDbLine
 10
44.4066
 20
59.95886
 30
0.0
 11
46.6066
 21
59.95886
 31
0.0
  0
LINE
  5
5C7
330
1D
100
AcDbEntity
  8
0
100
AcDbLine
 10
42.7066
 20
59.95886
 30
0.0
 11
44.4066
 21
59.95886
 31
0.0
  0
LINE
  5
5C8
330
1D
100
AcDbEntity
  8
0
100
AcDbLine
 10
42.7066
 20
59.95886
 30
0.0
 11
44.3066
 21
59.95886
 31
0.0
  0
LINE
  5
5C9
330
1D
100
AcDbEntity
  8
0
100
AcDbLine
 10
41.7066
 20
59.95886
 30
0.0
 11
42.7066
 21
59.95886
 31
0.0
  0
LINE
  5
5CA
330
1D
100
AcDbEntity
  8
0
100
AcDbLine
 10
41.3066
 20
59.95886
 30
0.0
 11
41.7066
 21
59.95886
 31
0.0
  0
LINE
  5
5CB
330
1D
100
AcDbEntity
  8
0
100
AcDbLine
 10
280.108
 20
81.20686
 30
0.0
 11
280.903
 21
81.00876
 31
0.0
  0
LINE
  5
5CC
330
1D
100
AcDbEntity
  8
0
100
AcDbLine
 10
279.097
 20
81.35126
 30
0.0
 11
280.108
 21
81.20686
 31
0.0
  0
LINE
  5
5CD
330
1D
100
AcDbEntity
  8
0
100
AcDbLine
 10
277.135
 20
81.44846
 30
0.0
 11
279.097
 21
81.35126
 31
0.0
  0
LINE
  5
5CE
330
1D
100
AcDbEntity
  8
0
100
AcDbLine
 10
178.362
 20
80.96446
 30
0.0
 11
277.135
 21
81.44846
 31
0.0
  0
LINE
  5
5CF
330
1D
100
AcDbEntity
  8
0
100
AcDbLine
 10
24.551
 20
81.44846
 30
0.0
 11
40.59028
 21
81.44846
 31
0.0
  0
LINE
  5
5D0
330
1D
100
AcDbEntity
  8
0
100
AcDbLine
 10
23.594
 20
81.42606
 30
0.0
 11
24.551
 21
81.44846
 31
0.0
  0
LINE
  5
5D1
330
1D
100
AcDbEntity
  8
0
100
AcDbLine
 10
0.884
 20
83.42106
 30
0.0
 11
1.511
 21
81.86306
 31
0.0
  0
LINE
  5
5D2
330
1D
100
AcDbEntity
  8
0
100
AcDbLine
 10
0.843
 20
109.01216
 30
0.0
 11
0.843
 21
148.94116
 31
0.0
  0
LINE
  5
5D3
330
1D
100
AcDbEntity
  8
0
100
AcDbLine
 10
0.843
 20
109.01216
 30
0.0
 11
0.843
 21
108.13116
 31
0.0
  0
LINE
  5
5D4
330
1D
100
AcDbEntity
  8
0
100
AcDbLine
 10
0.843
 20
108.13116
 30
0.0
 11
0.843
 21
109.01216
 31
0.0
  0
LINE
  5
5D5
330
1D
100
AcDbEntity
  8
0
100
AcDbLine
 10
0.843
 20
108.13116
 30
0.0
 11
0.843
 21
83.96546
 31
0.0
  0
LINE
  5
5D6
330
1D
100
AcDbEntity
  8
0
100
AcDbLine
 10
0.493
 20
150.04116
 30
0.0
 11
0.626
 21
150.04116
 31
0.0
  0
LINE
  5
5D7
330
1D
100
AcDbEntity
  8
0
100
AcDbLine
 10
0.253
 20
150.99516
 30
0.0
 11
0.493
 21
150.04116
 31
0.0
  0
LINE
  5
5D8
330
1D
100
AcDbEntity
  8
0
100
AcDbLine
 10
0.253
 20
153.08716
 30
0.0
 11
0.493
 21
154.04116
 31
0.0
  0
LINE
  5
5D9
330
1D
100
AcDbEntity
  8
0
100
AcDbLine
 10
-0.007
 20
152.04116
 30
0.0
 11
0.253
 21
153.08716
 31
0.0
  0
LINE
  5
5DA
330
1D
100
AcDbEntity
  8
0
100
AcDbLine
 10
-0.007
 20
152.04116
 30
0.0
 11
0.253
 21
150.99516
 31
0.0
  0
LINE
  5
5DB
330
1D
100
AcDbEntity
  8
0
100
AcDbLine
 10
0.493
 20
150.04116
 30
0.0
 11
0.635
 21
150.04116
 31
0.0
  0
LINE
  5
5DC
330
1D
100
AcDbEntity
  8
0
100
AcDbLine
 10
0.634
 20
154.04116
 30
0.0
 11
1.088
 21
154.04116
 31
0.0
  0
LINE
  5
5DD
330
1D
100
AcDbEntity
  8
0
100
AcDbLine
 10
0.635
 20
150.04116
 30
0.0
 11
1.088
 21
150.04116
 31
0.0
  0
LINE
  5
5DE
330
1D
100
AcDbEntity
  8
0
100
AcDbLine
 10
0.493
 20
154.04116
 30
0.0
 11
0.634
 21
154.04116
 31
0.0
  0
LINE
  5
5DF
330
1D
100
AcDbEntity
  8
0
100
AcDbLine
 10
0.626
 20
150.04116
 30
0.0
 11
0.993
 21
150.04116
 31
0.0
  0
LINE
  5
5E0
330
1D
100
AcDbEntity
  8
0
100
AcDbLine
 10
0.993
 20
150.04116
 30
0.0
 11
1.493
 21
150.04116
 31
0.0
  0
LINE
  5
5E1
330
1D
100
AcDbEntity
  8
0
100
AcDbLine
 10
0.883
 20
149.09116
 30
0.0
 11
0.993
 21
149.20116
 31
0.0
  0
LINE
  5
5E2
330
1D
100
AcDbEntity
  8
0
100
AcDbLine
 10
0.843
 20
148.94116
 30
0.0
 11
0.883
 21
149.09116
 31
0.0
  0
LINE
  5
5E3
330
1D
100
AcDbEntity
  8
0
100
AcDbLine
 10
0.843
 20
148.94116
 30
0.0
 11
0.843
 21
109.01216
 31
0.0
  0
LINE
  5
5E4
330
1D
100
AcDbEntity
  8
0
100
AcDbLine
 10
1.088
 20
154.04116
 30
0.0
 11
1.801
 21
154.04116
 31
0.0
  0
LINE
  5
5E5
330
1D
100
AcDbEntity
  8
0
100
AcDbLine
 10
1.088
 20
150.04116
 30
0.0
 11
1.801
 21
150.04116
 31
0.0
  0
LINE
  5
5E6
330
1D
100
AcDbEntity
  8
0
100
AcDbLine
 10
1.143
 20
149.24116
 30
0.0
 11
1.356
 21
149.24116
 31
0.0
  0
LINE
  5
5E7
330
1D
100
AcDbEntity
  8
0
100
AcDbLine
 10
0.993
 20
149.20116
 30
0.0
 11
1.143
 21
149.24116
 31
0.0
  0
LINE
  5
5E8
330
1D
100
AcDbEntity
  8
0
100
AcDbLine
 10
0.843
 20
83.96546
 30
0.0
 11
0.884
 21
83.42106
 31
0.0
  0
LINE
  5
5E9
330
1D
100
AcDbEntity
  8
0
100
AcDbLine
 10
0.843
 20
83.96546
 30
0.0
 11
0.843
 21
108.13116
 31
0.0
  0
LINE
  5
5EA
330
1D
100
AcDbEntity
  8
0
100
AcDbLine
 10
1.511
 20
81.86306
 30
0.0
 11
2.767
 21
80.76666
 31
0.0
  0
LINE
  5
5F8
330
1D
100
AcDbEntity
  8
0
100
AcDbLine
 10
40.7066
 20
89.95886
 30
0.0
 11
41.8066
 21
89.95886
 31
0.0
  0
LINE
  5
5F9
330
1D
100
AcDbEntity
  8
0
100
AcDbLine
 10
40.3066
 20
89.95886
 30
0.0
 11
41.3066
 21
59.95886
 31
0.0
  0
LINE
  5
5FA
330
1D
100
AcDbEntity
  8
0
100
AcDbLine
 10
40.3066
 20
89.95886
 30
0.0
 11
40.7066
 21
89.95886
 31
0.0
  0
LINE
  5
5FB
330
1D
100
AcDbEntity
  8
0
100
AcDbLine
 10
40.8066
 20
90.31886
 30
0.0
 11
41.0706
 21
89.95886
 31
0.0
  0
LINE
  5
5FC
330
1D
100
AcDbEntity
  8
0
100
AcDbLine
 10
40.8066
 20
90.31886
 30
0.0
 11
40.8066
 21
95.480646526316
 31
0.0
  0
LINE
  5
5FD
330
1D
100
AcDbEntity
  8
0
100
AcDbLine
 10
40.8066
 20
90.31886
 30
0.0
 11
41.2026
 21
90.31886
 31
0.0
  0
LINE
  5
5FE
330
1D
100
AcDbEntity
  8
0
100
AcDbLine
 10
41.2026
 20
90.31886
 30
0.0
 11
42.2586
 21
90.31886
 31
0.0
  0
LINE
  5
5FF
330
1D
100
AcDbEntity
  8
0
100
AcDbLine
 10
40.8066
 20
95.480646526316
 30
0.0
 11
40.8066
 21
90.31886
 31
0.0
  0
LINE
  5
609
330
1D
100
AcDbEntity
  8
0
100
AcDbLine
 10
43.7066
 20
89.95886
 30
0.0
 11
46.1066
 21
89.95886
 31
0.0
  0
LINE
  5
60A
330
1D
100
AcDbEntity
  8
0
100
AcDbLine
 10
41.8066
 20
89.95886
 30
0.0
 11
43.7066
 21
89.95886
 31
0.0
  0
LINE
  5
60B
330
1D
100
AcDbEntity
  8
0
100
AcDbLine
 10
46.1066
 20
89.95886
 30
0.0
 11
48.8066
 21
89.95886
 31
0.0
  0
LINE
  5
60C
330
1D
100
AcDbEntity
  8
0
100
AcDbLine
 10
46.3506
 20
90.31886
 30
0.0
 11
48.9906
 21
90.31886
 31
0.0
  0
LINE
  5
60D
330
1D
100
AcDbEntity
  8
0
100
AcDbLine
 10
44.0186
 20
90.31886
 30
0.0
 11
46.3506
 21
90.31886
 31
0.0
  0
LINE
  5
60E
330
1D
100
AcDbEntity
  8
0
100
AcDbLine
 10
42.2586
 20
90.31886
 30
0.0
 11
44.0186
 21
90.31886
 31
0.0
  0
LINE
  5
613
330
1D
100
AcDbEntity
  8
0
100
AcDbLine
 10
51.8066
 20
89.95886
 30
0.0
 11
54.8066
 21
89.95886
 31
0.0
  0
LINE
  5
614
330
1D
100
AcDbEntity
  8
0
100
AcDbLine
 10
48.8066
 20
89.95886
 30
0.0
 11
51.8066
 21
89.95886
 31
0.0
  0
LINE
  5
615
330
1D
100
AcDbEntity
  8
0
100
AcDbLine
 10
48.9906
 20
90.31886
 30
0.0
 11
51.8066
 21
90.31886
 31
0.0
  0
LINE
  5
616
330
1D
100
AcDbEntity
  8
0
100
AcDbLine
 10
54.8066
 20
89.95886
 30
0.0
 11
57.5066
 21
89.95886
 31
0.0
  0
LINE
  5
617
330
1D
100
AcDbEntity
  8
0
100
AcDbLine
 10
51.8066
 20
90.31886
 30
0.0
 11
54.6226
 21
90.31886
 31
0.0
  0
LINE
  5
618
330
1D
100
AcDbEntity
  8
0
100
AcDbLine
 10
54.6226
 20
90.31886
 30
0.0
 11
57.2626
 21
90.31886
 31
0.0
  0
LINE
  5
619
330
1D
100
AcDbEntity
  8
0
100
AcDbLine
 10
57.5066
 20
89.95886
 30
0.0
 11
59.9066
 21
89.95886
 31
0.0
  0
LINE
  5
61A
330
1D
100
AcDbEntity
  8
0
100
AcDbLine
 10
59.9066
 20
89.95886
 30
0.0
 11
61.8066
 21
89.95886
 31
0.0
  0
LINE
  5
61B
330
1D
100
AcDbEntity
  8
0
100
AcDbLine
 10
57.2626
 20
90.31886
 30
0.0
 11
59.5946
 21
90.31886
 31
0.0
  0
LINE
  5
61C
330
1D
100
AcDbEntity
  8
0
100
AcDbLine
 10
59.5946
 20
90.31886
 30
0.0
 11
61.3546
 21
90.31886
 31
0.0
  0
LINE
  5
61D
330
1D
100
AcDbEntity
  8
0
100
AcDbLine
 10
61.8066
 20
89.95886
 30
0.0
 11
62.9066
 21
89.95886
 31
0.0
  0
LINE
  5
61E
330
1D
100
AcDbEntity
  8
0
100
AcDbLine
 10
61.3546
 20
90.31886
 30
0.0
 11
62.4106
 21
90.31886
 31
0.0
  0
LINE
  5
61F
330
1D
100
AcDbEntity
  8
0
100
AcDbLine
 10
62.4106
 20
90.31886
 30
0.0
 11
62.8066
 21
90.31886
 31
0.0
  0
LINE
  5
620
330
1D
100
AcDbEntity
  8
0
100
AcDbLine
 10
62.9066
 20
89.95886
 30
0.0
 11
63.3066
 21
89.95886
 31
0.0
  0
LINE
  5
621
330
1D
100
AcDbEntity
  8
0
100
AcDbLine
 10
62.5426
 20
89.95886
 30
0.0
 11
62.8066
 21
90.31886
 31
0.0
  0
LINE
  5
622
330
1D
100
AcDbEntity
  8
0
100
AcDbLine
 10
249.764
 20
92.68026
 30
0.0
 11
253.266
 21
91.98546
 31
0.0
  0
LINE
  5
623
330
1D
100
AcDbEntity
  8
0
100
AcDbLine
 10
62.8066
 20
90.31886
 30
0.0
 11
62.8066
 21
95.492141694847
 31
0.0
  0
LINE
  5
624
330
1D
100
AcDbEntity
  8
0
100
AcDbLine
 10
253.266
 20
91.98546
 30
0.0
 11
256.856
 21
91.69606
 31
0.0
  0
LINE
  5
625
330
1D
100
AcDbEntity
  8
0
100
AcDbLine
 10
253.1
 20
92.81496
 30
0.0
 11
253.477
 21
92.81496
 31
0.0
  0
LINE
  5
626
330
1D
100
AcDbEntity
  8
0
100
AcDbLine
 10
254.077
 20
92.81496
 30
0.0
 11
254.877
 21
92.81496
 31
0.0
  0
LINE
  5
627
330
1D
100
AcDbEntity
  8
0
100
AcDbLine
 10
253.994
 20
92.89196
 30
0.0
 11
254.818
 21
92.89196
 31
0.0
  0
LINE
  5
628
330
1D
100
AcDbEntity
  8
0
100
AcDbLine
 10
256.856
 20
91.69606
 30
0.0
 11
260.445
 21
91.98546
 31
0.0
  0
LINE
  5
629
330
1D
100
AcDbEntity
  8
0
100
AcDbLine
 10
254.877
 20
92.81496
 30
0.0
 11
255.794
 21
92.81496
 31
0.0
  0
LINE
  5
62A
330
1D
100
AcDbEntity
  8
0
100
AcDbLine
 10
255.794
 20
92.81496
 30
0.0
 11
256.782
 21
92.81496
 31
0.0
  0
LINE
  5
62B
330
1D
100
AcDbEntity
  8
0
100
AcDbLine
 10
257.771
 20
92.81496
 30
0.0
 11
258.688
 21
92.81496
 31
0.0
  0
LINE
  5
62C
330
1D
100
AcDbEntity
  8
0
100
AcDbLine
 10
256.782
 20
92.81496
 30
0.0
 11
257.771
 21
92.81496
 31
0.0
  0
LINE
  5
62D
330
1D
100
AcDbEntity
  8
0
100
AcDbLine
 10
258.688
 20
92.81496
 30
0.0
 11
259.488
 21
92.81496
 31
0.0
  0
LINE
  5
62E
330
1D
100
AcDbEntity
  8
0
100
AcDbLine
 10
260.445
 20
91.98546
 30
0.0
 11
263.948
 21
92.68026
 31
0.0
  0
LINE
  5
62F
330
1D
100
AcDbEntity
  8
0
100
AcDbLine
 10
260.088
 20
92.81496
 30
0.0
 11
260.465
 21
92.81496
 31
0.0
  0
LINE
  5
630
330
1D
100
AcDbEntity
  8
0
100
AcDbLine
 10
260.465
 20
92.81496
 30
0.0
 11
260.606
 21
92.81496
 31
0.0
  0
LINE
  5
631
330
1D
100
AcDbEntity
  8
0
100
AcDbLine
 10
259.571
 20
92.89196
 30
0.0
 11
260.194
 21
92.89196
 31
0.0
  0
LINE
  5
632
330
1D
100
AcDbEntity
  8
0
100
AcDbLine
 10
260.194
 20
92.89196
 30
0.0
 11
260.582
 21
92.89196
 31
0.0
  0
LINE
  5
633
330
1D
100
AcDbEntity
  8
0
100
AcDbLine
 10
263.948
 20
92.68026
 30
0.0
 11
267.364
 21
93.83816
 31
0.0
  0
LINE
  5
634
330
1D
100
AcDbEntity
  8
0
100
AcDbLine
 10
260.606
 20
92.81496
 30
0.0
 11
260.724
 21
92.89196
 31
0.0
  0
LINE
  5
635
330
1D
100
AcDbEntity
  8
0
100
AcDbLine
 10
260.724
 20
92.89196
 30
0.0
 11
260.782
 21
93.04576
 31
0.0
  0
LINE
  5
636
330
1D
100
AcDbEntity
  8
0
100
AcDbLine
 10
260.582
 20
92.89196
 30
0.0
 11
260.724
 21
92.89196
 31
0.0
  0
LINE
  5
637
330
1D
100
AcDbEntity
  8
0
100
AcDbLine
 10
258.747
 20
92.89196
 30
0.0
 11
259.571
 21
92.89196
 31
0.0
  0
LINE
  5
638
330
1D
100
AcDbEntity
  8
0
100
AcDbLine
 10
257.794
 20
92.89196
 30
0.0
 11
258.747
 21
92.89196
 31
0.0
  0
LINE
  5
639
330
1D
100
AcDbEntity
  8
0
100
AcDbLine
 10
256.782
 20
92.89196
 30
0.0
 11
257.794
 21
92.89196
 31
0.0
  0
LINE
  5
63A
330
1D
100
AcDbEntity
  8
0
100
AcDbLine
 10
254.818
 20
92.89196
 30
0.0
 11
255.771
 21
92.89196
 31
0.0
  0
LINE
  5
63B
330
1D
100
AcDbEntity
  8
0
100
AcDbLine
 10
255.771
 20
92.89196
 30
0.0
 11
256.782
 21
92.89196
 31
0.0
  0
LINE
  5
63C
330
1D
100
AcDbEntity
  8
0
100
AcDbLine
 10
253.371
 20
92.89196
 30
0.0
 11
253.994
 21
92.89196
 31
0.0
  0
LINE
  5
63D
330
1D
100
AcDbEntity
  8
0
100
AcDbLine
 10
260.782
 20
93.04576
 30
0.0
 11
260.782
 21
99.124020759494
 31
0.0
  0
LINE
  5
63E
330
1D
100
AcDbEntity
  8
0
100
AcDbLine
 10
252.982
 20
92.89196
 30
0.0
 11
253.371
 21
92.89196
 31
0.0
  0
LINE
  5
63F
330
1D
100
AcDbEntity
  8
0
100
AcDbLine
 10
252.841
 20
92.89196
 30
0.0
 11
252.982
 21
92.89196
 31
0.0
  0
LINE
  5
640
330
1D
100
AcDbEntity
  8
0
100
AcDbLine
 10
252.841
 20
92.89196
 30
0.0
 11
252.959
 21
92.81496
 31
0.0
  0
LINE
  5
641
330
1D
100
AcDbEntity
  8
0
100
AcDbLine
 10
240.124
 20
97.42716
 30
0.0
 11
243.164
 21
95.37236
 31
0.0
  0
LINE
  5
642
330
1D
100
AcDbEntity
  8
0
100
AcDbLine
 10
243.164
 20
95.37236
 30
0.0
 11
246.348
 21
93.83816
 31
0.0
  0
LINE
  5
643
330
1D
100
AcDbEntity
  8
0
100
AcDbLine
 10
246.348
 20
93.83816
 30
0.0
 11
249.764
 21
92.68026
 31
0.0
  0
LINE
  5
644
330
1D
100
AcDbEntity
  8
0
100
AcDbLine
 10
62.8066
 20
95.492141694847
 30
0.0
 11
62.8066
 21
90.31886
 31
0.0
  0
LINE
  5
645
330
1D
100
AcDbEntity
  8
0
100
AcDbLine
 10
252.73
 20
99.15816
 30
0.0
 11
252.782
 21
99.147871229947
 31
0.0
  0
LINE
  5
646
330
1D
100
AcDbEntity
  8
0
100
AcDbLine
 10
252.782
 20
99.149110458716
 30
0.0
 11
252.782
 21
93.04576
 31
0.0
  0
LINE
  5
647
330
1D
100
AcDbEntity
  8
0
100
AcDbLine
 10
237.432
 20
99.77216
 30
0.0
 11
240.124
 21
97.42716
 31
0.0
  0
LINE
  5
648
330
1D
100
AcDbEntity
  8
0
100
AcDbLine
 10
260.782
 20
99.124020759494
 30
0.0
 11
260.782
 21
93.04576
 31
0.0
  0
LINE
  5
649
330
1D
100
AcDbEntity
  8
0
100
AcDbLine
 10
252.782
 20
93.04576
 30
0.0
 11
252.782
 21
99.149110458716
 31
0.0
  0
LINE
  5
64A
330
1D
100
AcDbEntity
  8
0
100
AcDbLine
 10
252.782
 20
93.04576
 30
0.0
 11
252.841
 21
92.89196
 31
0.0
  0
LINE
  5
64B
330
1D
100
AcDbEntity
  8
0
100
AcDbLine
 10
270.548
 20
95.37236
 30
0.0
 11
273.587
 21
97.42716
 31
0.0
  0
LINE
  5
64C
330
1D
100
AcDbEntity
  8
0
100
AcDbLine
 10
267.364
 20
93.83816
 30
0.0
 11
270.548
 21
95.37236
 31
0.0
  0
LINE
  5
64D
330
1D
100
AcDbEntity
  8
0
100
AcDbLine
 10
276.28
 20
99.77216
 30
0.0
 11
278.624
 21
102.46416
 31
0.0
  0
LINE
  5
64E
330
1D
100
AcDbEntity
  8
0
100
AcDbLine
 10
273.587
 20
97.42716
 30
0.0
 11
276.28
 21
99.77216
 31
0.0
  0
LINE
  5
64F
330
1D
100
AcDbEntity
  8
0
100
AcDbLine
 10
235.087
 20
102.46416
 30
0.0
 11
237.432
 21
99.77216
 31
0.0
  0
LINE
  5
650
330
1D
100
AcDbEntity
  8
0
100
AcDbLine
 10
233.032
 20
105.50416
 30
0.0
 11
235.087
 21
102.46416
 31
0.0
  0
LINE
  5
651
330
1D
100
AcDbEntity
  8
0
100
AcDbLine
 10
231.498
 20
108.68816
 30
0.0
 11
233.032
 21
105.50416
 31
0.0
  0
LINE
  5
652
330
1D
100
AcDbEntity
  8
0
100
AcDbLine
 10
230.34
 20
112.10416
 30
0.0
 11
231.498
 21
108.68816
 31
0.0
  0
LINE
  5
653
330
1D
100
AcDbEntity
  8
0
100
AcDbLine
 10
229.645
 20
115.60616
 30
0.0
 11
230.34
 21
112.10416
 31
0.0
  0
LINE
  5
654
330
1D
100
AcDbEntity
  8
0
100
AcDbLine
 10
229.356
 20
119.19616
 30
0.0
 11
229.645
 21
115.60616
 31
0.0
  0
LINE
  5
655
330
1D
100
AcDbEntity
  8
0
100
AcDbLine
 10
229.356
 20
119.19616
 30
0.0
 11
229.645
 21
122.78516
 31
0.0
  0
LINE
  5
656
330
1D
100
AcDbEntity
  8
0
100
AcDbLine
 10
278.624
 20
102.46416
 30
0.0
 11
280.68
 21
105.50416
 31
0.0
  0
LINE
  5
657
330
1D
100
AcDbEntity
  8
0
100
AcDbLine
 10
280.68
 20
105.50416
 30
0.0
 11
282.214
 21
108.68816
 31
0.0
  0
LINE
  5
662
330
1D
100
AcDbEntity
  8
0
100
AcDbLine
 10
229.645
 20
122.78516
 30
0.0
 11
230.34
 21
126.28816
 31
0.0
  0
LINE
  5
663
330
1D
100
AcDbEntity
  8
0
100
AcDbLine
 10
230.34
 20
126.28816
 30
0.0
 11
231.498
 21
129.70416
 31
0.0
  0
LINE
  5
664
330
1D
100
AcDbEntity
  8
0
100
AcDbLine
 10
231.498
 20
129.70416
 30
0.0
 11
233.032
 21
132.88816
 31
0.0
  0
LINE
  5
665
330
1D
100
AcDbEntity
  8
0
100
AcDbLine
 10
233.032
 20
132.88816
 30
0.0
 11
235.087
 21
135.92716
 31
0.0
  0
LINE
  5
666
330
1D
100
AcDbEntity
  8
0
100
AcDbLine
 10
235.087
 20
135.92716
 30
0.0
 11
237.432
 21
138.62016
 31
0.0
  0
LINE
  5
667
330
1D
100
AcDbEntity
  8
0
100
AcDbLine
 10
237.432
 20
138.62016
 30
0.0
 11
240.124
 21
140.96416
 31
0.0
  0
LINE
  5
668
330
1D
100
AcDbEntity
  8
0
100
AcDbLine
 10
240.124
 20
140.96416
 30
0.0
 11
243.164
 21
143.02016
 31
0.0
  0
LINE
  5
669
330
1D
100
AcDbEntity
  8
0
100
AcDbLine
 10
278.624
 20
135.92716
 30
0.0
 11
280.68
 21
132.88816
 31
0.0
  0
LINE
  5
66A
330
1D
100
AcDbEntity
  8
0
100
AcDbLine
 10
280.68
 20
132.88816
 30
0.0
 11
282.214
 21
129.70416
 31
0.0
  0
LINE
  5
66B
330
1D
100
AcDbEntity
  8
0
100
AcDbLine
 10
273.587
 20
140.96416
 30
0.0
 11
276.28
 21
138.62016
 31
0.0
  0
LINE
  5
66C
330
1D
100
AcDbEntity
  8
0
100
AcDbLine
 10
276.28
 20
138.62016
 30
0.0
 11
278.624
 21
135.92716
 31
0.0
  0
LINE
  5
674
330
1D
100
AcDbEntity
  8
0
100
AcDbLine
 10
270.548
 20
143.02016
 30
0.0
 11
273.587
 21
140.96416
 31
0.0
  0
LINE
  5
675
330
1D
100
AcDbEntity
  8
0
100
AcDbLine
 10
243.164
 20
143.02016
 30
0.0
 11
246.348
 21
144.55416
 31
0.0
  0
LINE
  5
67A
330
1D
100
AcDbEntity
  8
0
100
AcDbLine
 10
246.348
 20
144.55416
 30
0.0
 11
249.764
 21
145.71216
 31
0.0
  0
LINE
  5
67B
330
1D
100
AcDbEntity
  8
0
100
AcDbLine
 10
267.364
 20
144.55416
 30
0.0
 11
270.548
 21
143.02016
 31
0.0
  0
LINE
  5
67C
330
1D
100
AcDbEntity
  8
0
100
AcDbLine
 10
263.948
 20
145.71216
 30
0.0
 11
267.364
 21
144.55416
 31
0.0
  0
LINE
  5
67D
330
1D
100
AcDbEntity
  8
0
100
AcDbLine
 10
260.445
 20
146.40616
 30
0.0
 11
263.948
 21
145.71216
 31
0.0
  0
LINE
  5
67E
330
1D
100
AcDbEntity
  8
0
100
AcDbLine
 10
249.764
 20
145.71216
 30
0.0
 11
253.266
 21
146.40616
 31
0.0
  0
LINE
  5
67F
330
1D
100
AcDbEntity
  8
0
100
AcDbLine
 10
256.856
 20
146.69616
 30
0.0
 11
260.445
 21
146.40616
 31
0.0
  0
LINE
  5
680
330
1D
100
AcDbEntity
  8
0
100
AcDbLine
 10
253.266
 20
146.40616
 30
0.0
 11
256.856
 21
146.69616
 31
0.0
  0
LINE
  5
681
330
1D
100
AcDbEntity
  8
0
100
AcDbLine
 10
19.043
 20
149.24116
 30
0.0
 11
282.643
 21
149.24116
 31
0.0
  0
LINE
  5
683
330
1D
100
AcDbEntity
  8
0
100
AcDbLine
 10
14.837
 20
149.24116
 30
0.0
 11
19.043
 21
149.24116
 31
0.0
  0
LINE
  5
684
330
1D
100
AcDbEntity
  8
0
100
AcDbLine
 10
11.598
 20
149.24116
 30
0.0
 11
14.837
 21
149.24116
 31
0.0
  0
LINE
  5
685
330
1D
100
AcDbEntity
  8
0
100
AcDbLine
 10
8.372
 20
149.24116
 30
0.0
 11
11.598
 21
149.24116
 31
0.0
  0
LINE
  5
686
330
1D
100
AcDbEntity
  8
0
100
AcDbLine
 10
5.656
 20
149.24116
 30
0.0
 11
8.372
 21
149.24116
 31
0.0
  0
LINE
  5
687
330
1D
100
AcDbEntity
  8
0
100
AcDbLine
 10
3.485
 20
149.24116
 30
0.0
 11
5.656
 21
149.24116
 31
0.0
  0
LINE
  5
688
330
1D
100
AcDbEntity
  8
0
100
AcDbLine
 10
1.493
 20
150.04116
 30
0.0
 11
133.843
 21
150.04116
 31
0.0
  0
LINE
  5
689
330
1D
100
AcDbEntity
  8
0
100
AcDbLine
 10
1.801
 20
150.04116
 30
0.0
 11
3.038
 21
150.04116
 31
0.0
  0
LINE
  5
68A
330
1D
100
AcDbEntity
  8
0
100
AcDbLine
 10
3.038
 20
150.04116
 30
0.0
 11
4.057
 21
150.04116
 31
0.0
  0
LINE
  5
68B
330
1D
100
AcDbEntity
  8
0
100
AcDbLine
 10
4.057
 20
150.04116
 30
0.0
 11
5.252
 21
150.04116
 31
0.0
  0
LINE
  5
68C
330
1D
100
AcDbEntity
  8
0
100
AcDbLine
 10
5.252
 20
150.04116
 30
0.0
 11
7.174
 21
150.04116
 31
0.0
  0
LINE
  5
68D
330
1D
100
AcDbEntity
  8
0
100
AcDbLine
 10
7.174
 20
150.04116
 30
0.0
 11
9.358
 21
150.04116
 31
0.0
  0
LINE
  5
68E
330
1D
100
AcDbEntity
  8
0
100
AcDbLine
 10
16.025
 20
150.04116
 30
0.0
 11
19.044
 21
150.04116
 31
0.0
  0
LINE
  5
68F
330
1D
100
AcDbEntity
  8
0
100
AcDbLine
 10
19.044
 20
150.04116
 30
0.0
 11
282.643
 21
150.04116
 31
0.0
  0
LINE
  5
690
330
1D
100
AcDbEntity
  8
0
100
AcDbLine
 10
12.57
 20
150.04116
 30
0.0
 11
16.025
 21
150.04116
 31
0.0
  0
LINE
  5
691
330
1D
100
AcDbEntity
  8
0
100
AcDbLine
 10
9.358
 20
150.04116
 30
0.0
 11
12.57
 21
150.04116
 31
0.0
  0
LINE
  5
692
330
1D
100
AcDbEntity
  8
0
100
AcDbLine
 10
19.044
 20
150.04116
 30
0.0
 11
282.643
 21
150.04116
 31
0.0
  0
LINE
  5
693
330
1D
100
AcDbEntity
  8
0
100
AcDbLine
 10
133.843
 20
150.04116
 30
0.0
 11
300.193
 21
150.04116
 31
0.0
  0
LINE
  5
694
330
1D
100
AcDbEntity
  8
0
100
AcDbLine
 10
133.843
 20
150.04116
 30
0.0
 11
300.193
 21
150.04116
 31
0.0
  0
LINE
  5
695
330
1D
100
AcDbEntity
  8
0
100
AcDbLine
 10
1.801
 20
154.04116
 30
0.0
 11
3.04
 21
154.04116
 31
0.0
  0
LINE
  5
696
330
1D
100
AcDbEntity
  8
0
100
AcDbLine
 10
3.04
 20
154.04116
 30
0.0
 11
4.058
 21
154.04116
 31
0.0
  0
LINE
  5
697
330
1D
100
AcDbEntity
  8
0
100
AcDbLine
 10
4.058
 20
154.04116
 30
0.0
 11
5.252
 21
154.04116
 31
0.0
  0
LINE
  5
698
330
1D
100
AcDbEntity
  8
0
100
AcDbLine
 10
5.252
 20
154.04116
 30
0.0
 11
7.174
 21
154.04116
 31
0.0
  0
LINE
  5
699
330
1D
100
AcDbEntity
  8
0
100
AcDbLine
 10
7.174
 20
154.04116
 30
0.0
 11
9.358
 21
154.04116
 31
0.0
  0
LINE
  5
69A
330
1D
100
AcDbEntity
  8
0
100
AcDbLine
 10
12.57
 20
154.04116
 30
0.0
 11
16.025
 21
154.04116
 31
0.0
  0
LINE
  5
69B
330
1D
100
AcDbEntity
  8
0
100
AcDbLine
 10
16.025
 20
154.04116
 30
0.0
 11
19.043
 21
154.04116
 31
0.0
  0
LINE
  5
69C
330
1D
100
AcDbEntity
  8
0
100
AcDbLine
 10
9.358
 20
154.04116
 30
0.0
 11
12.57
 21
154.04116
 31
0.0
  0
LINE
  5
69D
330
1D
100
AcDbEntity
  8
0
100
AcDbLine
 10
19.043
 20
154.04116
 30
0.0
 11
282.643
 21
154.04116
 31
0.0
  0
LINE
  5
69E
330
1D
100
AcDbEntity
  8
0
100
AcDbLine
 10
1.493
 20
150.04116
 30
0.0
 11
133.843
 21
150.04116
 31
0.0
  0
LINE
  5
69F
330
1D
100
AcDbEntity
  8
0
100
AcDbLine
 10
2.037
 20
149.24116
 30
0.0
 11
3.485
 21
149.24116
 31
0.0
  0
LINE
  5
6A0
330
1D
100
AcDbEntity
  8
0
100
AcDbLine
 10
1.356
 20
149.24116
 30
0.0
 11
2.037
 21
149.24116
 31
0.0
  0
LINE
  5
6A1
330
1D
100
AcDbEntity
  8
0
100
AcDbLine
 10
283.599
 20
80.37406
 30
0.0
 11
283.84
 21
80.37146
 31
0.0
  0
LINE
  5
6A2
330
1D
100
AcDbEntity
  8
0
100
AcDbLine
 10
283.84
 20
80.37146
 30
0.0
 11
297.307
 21
80.37146
 31
0.0
  0
LINE
  5
6A3
330
1D
100
AcDbEntity
  8
0
100
AcDbLine
 10
298.144
 20
80.47376
 30
0.0
 11
299.225
 21
80.94616
 31
0.0
  0
LINE
  5
6A4
330
1D
100
AcDbEntity
  8
0
100
AcDbLine
 10
297.307
 20
80.37146
 30
0.0
 11
298.144
 21
80.47376
 31
0.0
  0
LINE
  5
6A5
330
1D
100
AcDbEntity
  8
0
100
AcDbLine
 10
282.214
 20
129.70416
 30
0.0
 11
283.372
 21
126.28816
 31
0.0
  0
LINE
  5
6A6
330
1D
100
AcDbEntity
  8
0
100
AcDbLine
 10
282.214
 20
108.68816
 30
0.0
 11
283.372
 21
112.10416
 31
0.0
  0
LINE
  5
6A7
330
1D
100
AcDbEntity
  8
0
100
AcDbLine
 10
283.372
 20
112.10416
 30
0.0
 11
284.066
 21
115.60616
 31
0.0
  0
LINE
  5
6A8
330
1D
100
AcDbEntity
  8
0
100
AcDbLine
 10
283.372
 20
126.28816
 30
0.0
 11
284.066
 21
122.78516
 31
0.0
  0
LINE
  5
6A9
330
1D
100
AcDbEntity
  8
0
100
AcDbLine
 10
284.066
 20
122.78516
 30
0.0
 11
284.356
 21
119.19616
 31
0.0
  0
LINE
  5
6AA
330
1D
100
AcDbEntity
  8
0
100
AcDbLine
 10
284.066
 20
115.60616
 30
0.0
 11
284.356
 21
119.19616
 31
0.0
  0
LINE
  5
6AB
330
1D
100
AcDbEntity
  8
0
100
AcDbLine
 10
300.09
 20
81.74816
 30
0.0
 11
300.65
 21
82.79456
 31
0.0
  0
LINE
  5
6AC
330
1D
100
AcDbEntity
  8
0
100
AcDbLine
 10
299.225
 20
80.94616
 30
0.0
 11
300.09
 21
81.74816
 31
0.0
  0
LINE
  5
6AD
330
1D
100
AcDbEntity
  8
0
100
AcDbLine
 10
300.65
 20
82.79456
 30
0.0
 11
300.843
 21
83.96556
 31
0.0
  0
LINE
  5
6AE
330
1D
100
AcDbEntity
  8
0
100
AcDbLine
 10
300.843
 20
83.96556
 30
0.0
 11
300.843
 21
109.01116
 31
0.0
  0
LINE
  5
6AF
330
1D
100
AcDbEntity
  8
0
100
AcDbLine
 10
300.843
 20
148.94116
 30
0.0
 11
300.843
 21
109.01116
 31
0.0
  0
LINE
  5
6B0
330
1D
100
AcDbEntity
  8
0
100
AcDbLine
 10
300.843
 20
109.01116
 30
0.0
 11
300.843
 21
148.94116
 31
0.0
  0
LINE
  5
6B1
330
1D
100
AcDbEntity
  8
0
100
AcDbLine
 10
300.843
 20
109.01116
 30
0.0
 11
300.843
 21
83.96556
 31
0.0
  0
LINE
  5
6B2
330
1D
100
AcDbEntity
  8
0
100
AcDbLine
 10
300.803
 20
149.09116
 30
0.0
 11
300.843
 21
148.94116
 31
0.0
  0
LINE
  5
6B3
330
1D
100
AcDbEntity
  8
0
100
AcDbLine
 10
300.693
 20
149.20116
 30
0.0
 11
300.803
 21
149.09116
 31
0.0
  0
LINE
  5
6B4
330
1D
100
AcDbEntity
  8
0
100
AcDbLine
 10
300.543
 20
149.24116
 30
0.0
 11
300.693
 21
149.20116
 31
0.0
  0
LINE
  5
6B5
330
1D
100
AcDbEntity
  8
0
100
AcDbLine
 10
300.22
 20
149.24116
 30
0.0
 11
300.543
 21
149.24116
 31
0.0
  0
LINE
  5
6B6
330
1D
100
AcDbEntity
  8
0
100
AcDbLine
 10
299.415
 20
149.24116
 30
0.0
 11
300.22
 21
149.24116
 31
0.0
  0
LINE
  5
6B7
330
1D
100
AcDbEntity
  8
0
100
AcDbLine
 10
295.716
 20
149.24116
 30
0.0
 11
297.898
 21
149.24116
 31
0.0
  0
LINE
  5
6B8
330
1D
100
AcDbEntity
  8
0
100
AcDbLine
 10
292.801
 20
149.24116
 30
0.0
 11
295.716
 21
149.24116
 31
0.0
  0
LINE
  5
6B9
330
1D
100
AcDbEntity
  8
0
100
AcDbLine
 10
289.357
 20
149.24116
 30
0.0
 11
292.801
 21
149.24116
 31
0.0
  0
LINE
  5
6BA
330
1D
100
AcDbEntity
  8
0
100
AcDbLine
 10
285.045
 20
149.24116
 30
0.0
 11
289.357
 21
149.24116
 31
0.0
  0
LINE
  5
6BB
330
1D
100
AcDbEntity
  8
0
100
AcDbLine
 10
282.643
 20
149.24116
 30
0.0
 11
285.045
 21
149.24116
 31
0.0
  0
LINE
  5
6BC
330
1D
100
AcDbEntity
  8
0
100
AcDbLine
 10
300.193
 20
150.04116
 30
0.0
 11
300.693
 21
150.04116
 31
0.0
  0
LINE
  5
6BD
330
1D
100
AcDbEntity
  8
0
100
AcDbLine
 10
282.643
 20
150.04116
 30
0.0
 11
285.51
 21
150.04116
 31
0.0
  0
LINE
  5
6BE
330
1D
100
AcDbEntity
  8
0
100
AcDbLine
 10
285.51
 20
150.04116
 30
0.0
 11
288.3
 21
150.04116
 31
0.0
  0
LINE
  5
6BF
330
1D
100
AcDbEntity
  8
0
100
AcDbLine
 10
290.704
 20
150.04116
 30
0.0
 11
293.328
 21
150.04116
 31
0.0
  0
LINE
  5
6C0
330
1D
100
AcDbEntity
  8
0
100
AcDbLine
 10
288.3
 20
150.04116
 30
0.0
 11
290.704
 21
150.04116
 31
0.0
  0
LINE
  5
6C1
330
1D
100
AcDbEntity
  8
0
100
AcDbLine
 10
285.511
 20
154.04116
 30
0.0
 11
288.3
 21
154.04116
 31
0.0
  0
LINE
  5
6C2
330
1D
100
AcDbEntity
  8
0
100
AcDbLine
 10
282.643
 20
154.04116
 30
0.0
 11
285.511
 21
154.04116
 31
0.0
  0
LINE
  5
6C3
330
1D
100
AcDbEntity
  8
0
100
AcDbLine
 10
290.705
 20
154.04116
 30
0.0
 11
293.328
 21
154.04116
 31
0.0
  0
LINE
  5
6C4
330
1D
100
AcDbEntity
  8
0
100
AcDbLine
 10
288.3
 20
154.04116
 30
0.0
 11
290.705
 21
154.04116
 31
0.0
  0
LINE
  5
6C5
330
1D
100
AcDbEntity
  8
0
100
AcDbLine
 10
294.851
 20
150.04116
 30
0.0
 11
296.233
 21
150.04116
 31
0.0
  0
LINE
  5
6C6
330
1D
100
AcDbEntity
  8
0
100
AcDbLine
 10
293.328
 20
150.04116
 30
0.0
 11
294.851
 21
150.04116
 31
0.0
  0
LINE
  5
6C7
330
1D
100
AcDbEntity
  8
0
100
AcDbLine
 10
299.188
 20
150.04116
 30
0.0
 11
300.395
 21
150.04116
 31
0.0
  0
LINE
  5
6C8
330
1D
100
AcDbEntity
  8
0
100
AcDbLine
 10
297.88
 20
150.04116
 30
0.0
 11
299.188
 21
150.04116
 31
0.0
  0
LINE
  5
6C9
330
1D
100
AcDbEntity
  8
0
100
AcDbLine
 10
296.233
 20
150.04116
 30
0.0
 11
297.88
 21
150.04116
 31
0.0
  0
LINE
  5
6CA
330
1D
100
AcDbEntity
  8
0
100
AcDbLine
 10
301.036
 20
150.04116
 30
0.0
 11
301.193
 21
150.04116
 31
0.0
  0
LINE
  5
6CB
330
1D
100
AcDbEntity
  8
0
100
AcDbLine
 10
300.395
 20
150.04116
 30
0.0
 11
301.036
 21
150.04116
 31
0.0
  0
LINE
  5
6CC
330
1D
100
AcDbEntity
  8
0
100
AcDbLine
 10
301.036
 20
154.04116
 30
0.0
 11
301.193
 21
154.04116
 31
0.0
  0
LINE
  5
6CD
330
1D
100
AcDbEntity
  8
0
100
AcDbLine
 10
300.395
 20
154.04116
 30
0.0
 11
301.036
 21
154.04116
 31
0.0
  0
LINE
  5
6CE
330
1D
100
AcDbEntity
  8
0
100
AcDbLine
 10
299.186
 20
154.04116
 30
0.0
 11
300.395
 21
154.04116
 31
0.0
  0
LINE
  5
6CF
330
1D
100
AcDbEntity
  8
0
100
AcDbLine
 10
297.88
 20
154.04116
 30
0.0
 11
299.186
 21
154.04116
 31
0.0
  0
LINE
  5
6D0
330
1D
100
AcDbEntity
  8
0
100
AcDbLine
 10
296.233
 20
154.04116
 30
0.0
 11
297.88
 21
154.04116
 31
0.0
  0
LINE
  5
6D1
330
1D
100
AcDbEntity
  8
0
100
AcDbLine
 10
294.852
 20
154.04116
 30
0.0
 11
296.233
 21
154.04116
 31
0.0
  0
LINE
  5
6D2
330
1D
100
AcDbEntity
  8
0
100
AcDbLine
 10
293.328
 20
154.04116
 30
0.0
 11
294.852
 21
154.04116
 31
0.0
  0
LINE
  5
6D3
330
1D
100
AcDbEntity
  8
0
100
AcDbLine
 10
300.693
 20
150.04116
 30
0.0
 11
301.06
 21
150.04116
 31
0.0
  0
LINE
  5
6D4
330
1D
100
AcDbEntity
  8
0
100
AcDbLine
 10
301.193
 20
154.04116
 30
0.0
 11
301.45
 21
153.08716
 31
0.0
  0
LINE
  5
6D5
330
1D
100
AcDbEntity
  8
0
100
AcDbLine
 10
301.193
 20
150.04116
 30
0.0
 11
301.45
 21
150.99516
 31
0.0
  0
LINE
  5
6D6
330
1D
100
AcDbEntity
  8
0
100
AcDbLine
 10
301.45
 20
153.08716
 30
0.0
 11
301.693
 21
152.04116
 31
0.0
  0
LINE
  5
6D7
330
1D
100
AcDbEntity
  8
0
100
AcDbLine
 10
301.45
 20
150.99516
 30
0.0
 11
301.693
 21
152.04116
 31
0.0
  0
LINE
  5
6D8
330
1D
100
AcDbEntity
  8
0
100
AcDbLine
 10
301.06
 20
150.04116
 30
0.0
 11
301.193
 21
150.04116
 31
0.0
  0
LINE
  5
6D9
330
1D
100
AcDbEntity
  8
0
100
AcDbLine
 10
297.898
 20
149.24116
 30
0.0
 11
299.415
 21
149.24116
 31
0.0
  0
LINE
  5
6DA
330
1D
100
AcDbEntity
  8
0
100
AcDbLine
 10
281.449
 20
80.75586
 30
0.0
 11
282.253
 21
80.49386
 31
0.0
  0
LINE
  5
6DB
330
1D
100
AcDbEntity
  8
0
100
AcDbLine
 10
282.253
 20
80.49386
 30
0.0
 11
283.599
 21
80.37406
 31
0.0
  0
LINE
  5
6DC
330
1D
100
AcDbEntity
  8
0
100
AcDbLine
 10
280.903
 20
81.00876
 30
0.0
 11
281.449
 21
80.75586
 31
0.0
  0
CIRCLE
  5
6DD
330
1D
100
AcDbEntity
  8
0
100
AcDbCircle
 10
257.497846237324
 20
118.776935055904
 30
0.0
 40
21.09050905381971
  0
LINE
  5
6DE
330
1D
100
AcDbEntity
  8
0
100
AcDbLine
 10
177.212
 20
78.97256
 30
0.0
 11
177.971091570514
 21
79.743806603631
 31
0.0
  0
LINE
  5
6DF
330
1D
100
AcDbEntity
  8
0
100
AcDbLine
 10
177.971091570514
 20
79.743806603631
 30
0.0
 11
178.362
 21
80.96446
 31
0.0
  0
LINE
  5
6E0
330
1D
100
AcDbEntity
  8
0
100
AcDbLine
 10
63.02292
 20
81.44846
 30
0.0
 11
123.362
 21
80.96446
 31
0.0
  0
ENDSEC
  0
SECTION
  2
OBJECTS
  0
DICTIONARY
  5
C
330
0
100
AcDbDictionary
281
     1
  3
ACAD_GROUP
350
D
  3
ACAD_LAYOUT
350
1A
  3
ACAD_MLEADERSTYLE
350
6E3
  3
ACAD_MLINESTYLE
350
17
  3
ACAD_PLOTSETTINGS
350
19
  3
ACAD_PLOTSTYLENAME
350
E
  3
ACAD_SCALELIST
350
423
  3
AcDbVariableDictionary
350
6E1
  3
DWGPROPS
350
6E6
  0
DICTIONARY
  5
D
102
{ACAD_REACTORS
330
C
102
}
330
C
100
AcDbDictionary
281
     1
  0
DICTIONARY
  5
1A
102
{ACAD_REACTORS
330
C
102
}
330
C
100
AcDbDictionary
281
     1
  3
Layout1
350
1C
  3
Model
350
1E
  0
DICTIONARY
  5
6E3
102
{ACAD_REACTORS
330
C
102
}
330
C
100
AcDbDictionary
281
     1
  0
DICTIONARY
  5
17
102
{ACAD_REACTORS
330
C
102
}
330
C
100
AcDbDictionary
281
     1
  3
Standard
350
18
  0
DICTIONARY
  5
19
102
{ACAD_REACTORS
330
C
102
}
330
C
100
AcDbDictionary
281
     1
  0
ACDBDICTIONARYWDFLT
  5
E
102
{ACAD_REACTORS
330
C
102
}
330
C
100
AcDbDictionary
281
     1
  3
Normal
350
F
100
AcDbDictionaryWithDefault
340
F
  0
DICTIONARY
  5
423
102
{ACAD_REACTORS
330
C
102
}
330
C
100
AcDbDictionary
281
     1
  3
A0
350
424
  3
A1
350
425
  3
A2
350
426
  3
A3
350
427
  3
A4
350
428
  3
A5
350
429
  3
A6
350
42A
  3
A7
350
42B
  3
A8
350
42C
  3
A9
350
42D
  3
B0
350
42E
  3
B1
350
42F
  3
B2
350
430
  3
B3
350
431
  3
B4
350
432
  3
B5
350
433
  3
B6
350
434
  3
B7
350
435
  3
B8
350
436
  3
B9
350
437
  3
C0
350
438
  3
C1
350
439
  3
C2
350
43A
  3
C3
350
43B
  3
C4
350
43C
  3
C5
350
43D
  3
C6
350
43E
  3
C7
350
43F
  3
C8
350
440
  3
C9
350
441
  3
D0
350
442
  3
D1
350
443
  3
D2
350
444
  0
DICTIONARY
  5
6E1
102
{ACAD_REACTORS
330
C
102
}
330
C
100
AcDbDictionary
281
     1
  3
CANNOSCALE
350
6E4
  0
XRECORD
  5
6E6
102
{ACAD_REACTORS
330
C
102
}
330
C
100
AcDbXrecord
280
     1
  1
DWGPROPS COOKIE
  2

  3

  4

  6

  7

  8
MARTIN
  9

300
=
301
=
302
=
303
=
304
=
305
=
306
=
307
=
308
=
309
=
 40
0.0
 41
2456462.806517824
 42
2456462.81041684
  1

 90
        0
  0
LAYOUT
  5
1C
102
{ACAD_REACTORS
330
1A
102
}
330
1A
100
AcDbPlotSettings
  1

  2
none_device
  4

  6

 40
0.0
 41
0.0
 42
0.0
 43
0.0
 44
0.0
 45
0.0
 46
0.0
 47
0.0
 48
0.0
 49
0.0
140
0.0
141
0.0
142
1.0
143
1.0
 70
   688
 72
     0
 73
     0
 74
     5
  7

 75
    16
147
1.0
148
0.0
149
0.0
100
AcDbLayout
  1
Layout1
 70
     1
 71
     1
 10
0.0
 20
0.0
 11
12.0
 21
9.0
 12
0.0
 22
0.0
 32
0.0
 14
1.000000000000E+20
 24
1.000000000000E+20
 34
1.000000000000E+20
 15
-1.000000000000E+20
 25
-1.000000000000E+20
 35
-1.000000000000E+20
146
0.0
 13
0.0
 23
0.0
 33
0.0
 16
1.0
 26
0.0
 36
0.0
 17
0.0
 27
1.0
 37
0.0
 76
     0
330
1B
  0
LAYOUT
  5
1E
102
{ACAD_REACTORS
330
1A
102
}
330
1A
100
AcDbPlotSettings
  1

  2
none_device
  4

  6

 40
0.0
 41
0.0
 42
0.0
 43
0.0
 44
0.0
 45
0.0
 46
0.0
 47
0.0
 48
0.0
 49
0.0
140
0.0
141
0.0
142
1.0
143
1.0
 70
  1712
 72
     0
 73
     0
 74
     0
  7

 75
     0
147
1.0
148
0.0
149
0.0
100
AcDbLayout
  1
Model
 70
     1
 71
     0
 10
0.0
 20
0.0
 11
12.0
 21
9.0
 12
0.0
 22
0.0
 32
0.0
 14
-0.007
 24
-0.04116
 34
0.0
 15
301.693
 25
154.04116
 35
0.0
146
0.0
 13
0.0
 23
0.0
 33
0.0
 16
1.0
 26
0.0
 36
0.0
 17
0.0
 27
1.0
 37
0.0
 76
     0
330
1D
331
41E
  0
MLINESTYLE
  5
18
102
{ACAD_REACTORS
330
17
102
}
330
17
100
AcDbMlineStyle
  2
Standard
 70
     0
  3

 62
   256
 51
90.0
 52
90.0
 71
     2
 49
0.5
 62
   256
  6
BYLAYER
 49
-0.5
 62
   256
  6
BYLAYER
  0
ACDBPLACEHOLDER
  5
F
102
{ACAD_REACTORS
330
E
102
}
330
E
  0
SCALE
  5
424
102
{ACAD_REACTORS
330
423
102
}
330
423
100
AcDbScale
 70
     0
300
1:1
140
1.0
141
1.0
290
     1
  0
SCALE
  5
425
102
{ACAD_REACTORS
330
423
102
}
330
423
100
AcDbScale
 70
     0
300
1:2
140
1.0
141
2.0
290
     0
  0
SCALE
  5
426
102
{ACAD_REACTORS
330
423
102
}
330
423
100
AcDbScale
 70
     0
300
1:4
140
1.0
141
4.0
290
     0
  0
SCALE
  5
427
102
{ACAD_REACTORS
330
423
102
}
330
423
100
AcDbScale
 70
     0
300
1:5
140
1.0
141
5.0
290
     0
  0
SCALE
  5
428
102
{ACAD_REACTORS
330
423
102
}
330
423
100
AcDbScale
 70
     0
300
1:8
140
1.0
141
8.0
290
     0
  0
SCALE
  5
429
102
{ACAD_REACTORS
330
423
102
}
330
423
100
AcDbScale
 70
     0
300
1:10
140
1.0
141
10.0
290
     0
  0
SCALE
  5
42A
102
{ACAD_REACTORS
330
423
102
}
330
423
100
AcDbScale
 70
     0
300
1:16
140
1.0
141
16.0
290
     0
  0
SCALE
  5
42B
102
{ACAD_REACTORS
330
423
102
}
330
423
100
AcDbScale
 70
     0
300
1:20
140
1.0
141
20.0
290
     0
  0
SCALE
  5
42C
102
{ACAD_REACTORS
330
423
102
}
330
423
100
AcDbScale
 70
     0
300
1:30
140
1.0
141
30.0
290
     0
  0
SCALE
  5
42D
102
{ACAD_REACTORS
330
423
102
}
330
423
100
AcDbScale
 70
     0
300
1:40
140
1.0
141
40.0
290
     0
  0
SCALE
  5
42E
102
{ACAD_REACTORS
330
423
102
}
330
423
100
AcDbScale
 70
     0
300
1:50
140
1.0
141
50.0
290
     0
  0
SCALE
  5
42F
102
{ACAD_REACTORS
330
423
102
}
330
423
100
AcDbScale
 70
     0
300
1:100
140
1.0
141
100.0
290
     0
  0
SCALE
  5
430
102
{ACAD_REACTORS
330
423
102
}
330
423
100
AcDbScale
 70
     0
300
2:1
140
2.0
141
1.0
290
     0
  0
SCALE
  5
431
102
{ACAD_REACTORS
330
423
102
}
330
423
100
AcDbScale
 70
     0
300
4:1
140
4.0
141
1.0
290
     0
  0
SCALE
  5
432
102
{ACAD_REACTORS
330
423
102
}
330
423
100
AcDbScale
 70
     0
300
8:1
140
8.0
141
1.0
290
     0
  0
SCALE
  5
433
102
{ACAD_REACTORS
330
423
102
}
330
423
100
AcDbScale
 70
     0
300
10:1
140
10.0
141
1.0
290
     0
  0
SCALE
  5
434
102
{ACAD_REACTORS
330
423
102
}
330
423
100
AcDbScale
 70
     0
300
100:1
140
100.0
141
1.0
290
     0
  0
SCALE
  5
435
102
{ACAD_REACTORS
330
423
102
}
330
423
100
AcDbScale
 70
     0
300
1/128" = 1'-0"
140
0.0078125
141
12.0
290
     0
  0
SCALE
  5
436
102
{ACAD_REACTORS
330
423
102
}
330
423
100
AcDbScale
 70
     0
300
1/64" = 1'-0"
140
0.015625
141
12.0
290
     0
  0
SCALE
  5
437
102
{ACAD_REACTORS
330
423
102
}
330
423
100
AcDbScale
 70
     0
300
1/32" = 1'-0"
140
0.03125
141
12.0
290
     0
  0
SCALE
  5
438
102
{ACAD_REACTORS
330
423
102
}
330
423
100
AcDbScale
 70
     0
300
1/16" = 1'-0"
140
0.0625
141
12.0
290
     0
  0
SCALE
  5
439
102
{ACAD_REACTORS
330
423
102
}
330
423
100
AcDbScale
 70
     0
300
3/32" = 1'-0"
140
0.09375
141
12.0
290
     0
  0
SCALE
  5
43A
102
{ACAD_REACTORS
330
423
102
}
330
423
100
AcDbScale
 70
     0
300
1/8" = 1'-0"
140
0.125
141
12.0
290
     0
  0
SCALE
  5
43B
102
{ACAD_REACTORS
330
423
102
}
330
423
100
AcDbScale
 70
     0
300
3/16" = 1'-0"
140
0.1875
141
12.0
290
     0
  0
SCALE
  5
43C
102
{ACAD_REACTORS
330
423
102
}
330
423
100
AcDbScale
 70
     0
300
1/4" = 1'-0"
140
0.25
141
12.0
290
     0
  0
SCALE
  5
43D
102
{ACAD_REACTORS
330
423
102
}
330
423
100
AcDbScale
 70
     0
300
3/8" = 1'-0"
140
0.375
141
12.0
290
     0
  0
SCALE
  5
43E
102
{ACAD_REACTORS
330
423
102
}
330
423
100
AcDbScale
 70
     0
300
1/2" = 1'-0"
140
0.5
141
12.0
290
     0
  0
SCALE
  5
43F
102
{ACAD_REACTORS
330
423
102
}
330
423
100
AcDbScale
 70
     0
300
3/4" = 1'-0"
140
0.75
141
12.0
290
     0
  0
SCALE
  5
440
102
{ACAD_REACTORS
330
423
102
}
330
423
100
AcDbScale
 70
     0
300
1" = 1'-0"
140
1.0
141
12.0
290
     0
  0
SCALE
  5
441
102
{ACAD_REACTORS
330
423
102
}
330
423
100
AcDbScale
 70
     0
300
1-1/2" = 1'-0"
140
1.5
141
12.0
290
     0
  0
SCALE
  5
442
102
{ACAD_REACTORS
330
423
102
}
330
423
100
AcDbScale
 70
     0
300
3" = 1'-0"
140
3.0
141
12.0
290
     0
  0
SCALE
  5
443
102
{ACAD_REACTORS
330
423
102
}
330
423
100
AcDbScale
 70
     0
300
6" = 1'-0"
140
6.0
141
12.0
290
     0
  0
SCALE
  5
444
102
{ACAD_REACTORS
330
423
102
}
330
423
100
AcDbScale
 70
     0
300
1'-0" = 1'-0"
140
12.0
141
12.0
290
     0
  0
DICTIONARYVAR
  5
6E4
102
{ACAD_REACTORS
330
6E1
102
}
330
6E1
100
DictionaryVariables
280
     0
  1
1:1
  0
ENDSEC
  0
SECTION
  2
THUMBNAILIMAGE
 90
    16364
310
28000000B40000005500000001000800000000000000000000000000000000000000000000000000FFFFFF000000FF0000FFFF0000FF0000FFFF0000FF000000FF00FF000000000080808000C0C0C0000000FF007F7FFF000000A5005252A50000007F003F3F7F0000004C0026264C000000260013132600003FFF007F9FFF
310
000029A5005267A500001F7F003F4F7F0000134C00262F4C000009260013172600007FFF007FBFFF000052A500527CA500003F7F003F5F7F0000264C0026394C0000132600131C260000BFFF007FDFFF00007CA5005291A500005F7F003F6F7F0000394C0026424C00001C26001321260000FFFF007FFFFF0000A5A50052A5
310
A500007F7F003F7F7F00004C4C00264C4C00002626001326260000FFBF007FFFDF0000A57C0052A59100007F5F003F7F6F00004C3900264C420000261C001326210000FF7F007FFFBF0000A5520052A57C00007F3F003F7F5F00004C2600264C39000026130013261C0000FF3F007FFF9F0000A5290052A56700007F1F003F
310
7F4F00004C1300264C2F00002609001326170000FF00007FFF7F0000A5000052A55200007F00003F7F3F00004C0000264C260000260000132613003FFF00009FFF7F0029A5000067A552001F7F00004F7F3F00134C00002F4C260009260000172613007FFF0000BFFF7F0052A500007CA552003F7F00005F7F3F00264C0000
310
394C2600132600001C261300BFFF0000DFFF7F007CA5000091A552005F7F00006F7F3F00394C0000424C26001C26000021261300FFFF0000FFFF7F00A5A50000A5A552007F7F00007F7F3F004C4C00004C4C26002626000026261300FFBF0000FFDF7F00A57C0000A59152007F5F00007F6F3F004C3900004C422600261C00
310
0026211300FF7F0000FFBF7F00A5520000A57C52007F3F00007F5F3F004C2600004C39260026130000261C1300FF3F0000FF9F7F00A5290000A56752007F1F00007F4F3F004C1300004C2F26002609000026171300FF000000FF7F7F00A5000000A55252007F0000007F3F3F004C0000004C2626002600000026131300FF00
310
3F00FF7F9F00A5002900A55267007F001F007F3F4F004C0013004C262F002600090026131700FF007F00FF7FBF00A5005200A5527C007F003F007F3F5F004C0026004C2639002600130026131C00FF00BF00FF7FDF00A5007C00A55291007F005F007F3F6F004C0039004C26420026001C0026132100FF00FF00FF7FFF00A5
310
00A500A552A5007F007F007F3F7F004C004C004C264C002600260026132600BF00FF00DF7FFF007C00A5009152A5005F007F006F3F7F0039004C0042264C001C002600211326007F00FF00BF7FFF005200A5007C52A5003F007F005F3F7F0026004C0039264C00130026001C1326003F00FF009F7FFF002900A5006752A500
310
1F007F004F3F7F0013004C002F264C000900260017132600000000002D2D2D005B5B5B0089898900B7B7B700B3B3B30000000000000000000000000000000000000000000000000000000000000000000000000000000000000000000000000000000000000000000000000000000000000000000000000000000000000000
310
00000000000000000000000000000000000000000000000000000000000000000000000000000000000000000000000000000000000000000000000000000000000000000000000000000000000000000000000000000000000000000000000000000000000000000000000000000000000000000000000000000000000000
310
00000000000000000000000000000000000000000000000000000000000000000000000000000000000000000000000000000000000000000000000000000000000000000000000000000000000000000000000000000000000000000000000000000000000000000000000000000000000000000000000000000000000000
310
00000000000000000000000000000000000000000000000000000000000000000000000000000000000000000000000000000000000000000000000000000707070000000000000000000000000000000000000000000000000000000000000000000000000000000000000000000000000000000000000000000000000000
310
00000000000000000000000000000000000000000000000000000000000000000000000000000000000000000000000000000000000000000000000000000000000000000000000000000000000000000000000000000000000000000000000000000000000000000000000000000000000000070000070000000000000000
310
00000000000000000000000000000000000000000000000000000000000000000000000000000000000000000000000000000000000000000000000000000000000000000000000000000000000000000000000000000000000000000000000000000000000000000000000000000000000000000000000000000000000000
310
00000000000000000000000000000000000000000000000000000000000000000000000000000000000700000007000000000000000000000000000000000000000000000000000000000000000000000000000000000000000000000000000000000000000000000000000000000000000000000000000000000000000000
310
00000000000000000000000000000000000000000000000000000000000000000000000000000000000000000000000000000000000000000000000000000000000000000000000000000000000000000000000000000000000000000000070000000007070000000000000000000000000000000000000000000000000000
310
00000000000000000000000000000000000000000000000000000000000000000000000000000000000000000000000000000000000000000000000000000000000000000000000000000000000000000000000000000000000000000000000000000000000000000000000000000000000000000000000000000000000000
310
00000000000000000000000000000000000000000700000000000007000000000000000000000000000000000000000000000000000000000000000000000000000000000000000000000000000000000000000000000000000000000000000000000000000000000000000000000000000000000000000000000000000000
310
00000000000000000000000000000000000000000000000000000000000000000000000000000000000000000000000000000000000000000000000000000000000000000000000000070000000000000707000000000000000000000000000000000000000000000000000000000000000000000000000000000000000000
310
00000000000000000000000000000000000000000000000000000000000000000000000000000000000000000000000000000000000000000000000000000000000000000000000000000000000000000000000000000000000000000000000000000000000000000000000000000000000000000000000000000000000007
310
00000000000000070000000000000000000000000000000000000000000000000000000000000000000000000000000000000000000000000000000000000000000000000000000000000000000000000000000000000000000000000000000000000000000000000000000000000000000000000000000000000000000000
310
00000000000000000000000000000000000000000000000000000000000000000000000000000000000000000000000000000000070000000000000007000000000000000000000000000000000000000000000000000000000000000000000000000000000000000000000000000000000000000000000000000000000000
310
00000000000000000000000000000000000000000000000000000000000000000000000000000000000000000000000000000000000000000000000000000000000000000000000000000000000000000000000000000000000000000000000000000000000000000007000000000000000700000000000000000000000000
310
00000000000000000000000000000000000000000000000000000000000000000000000000000000000000000000000000000000000000000000000000000000000000000000000000000000000000000000000000000000000000000000000000000000000000000000000000000000000000000000000000000000000000
310
00000000000000000000000000000000000000000000000000000000000000070000000000000007000000000000000000000000000000000000000000000000000000000000000000000000000000000000000000000000000000000000000000000000000000000000000000000000000000000000000000000000000000
310
00000000000000000000000000000000000000000000000000000000000000000000000000000000000000000000000000000000000000000000000000000000000000000000000000000000000000000000000007000000000000000700000000000000000000000000000000000000000000000000000000000000000000
310
00000000000000000000000000000000000000000000000000000000000000000000000000000000000000000000000000000000000000000000000000000000000000000000000000000000000000000000000000000000000000000000000000000000000000000000000000000000000000000000000000000000000000
310
00000000000000000000070000000000000007000000000000000000000000000000000000000000000000000000000000000000000000000000000000000000000000000000000000000000000000000000000000000000000000000000000000000000000000000000000000000000000000000000000000000000000000
310
00000000000000000000000000000000000000000000000000000000000000000000000000000000000000000000000000000000000000000000000000000007000000000000000700000000000000000000000000000000000000000000000000000000000000000000000000000000000000000000000000000000000000
310
00000000000000000000000000000000000000000000000000000000000000000000000000000000000000000000000000000000000000000000000000000000000000000000000000000000000000000000000000000000000000000000000000000000000000000000000000000000000000000700000000000000070000
310
00000000000000000000000000000000000000000000000000000000000000000000000000000000000000000000000000000000000000000000000000000000000000000000000000000000000000000000000000000000000000000000000000000000000000000000000000000000000000000000000000000000000000
310
00000000000000000000000000000000000000000000000000000000000000000000000000000000000007000000000000000700000000000000000000000000000000000000000000000000000000000000000000000000000000000000000000000000000000000000000000000000000000000000000000000000000000
310
00000000000000000000000000000000000000000000000000000000000000000000000000000000000000000000000000000000000000000000000000000000000000000000000000000000000000000000000000000000000000000000000700000000000000070000000000000000000000000000000000000000000000
310
00000000000000000000000000000000000000000000000000000000000000000000000000000000000000000000000000000000000000000000000000000000000000000000000000000000000000000000000000000000000000000000000000000000000000000000000000000000000000000000000000000000000000
310
00000000000000000000000000000000000000000007000000000000000700000000000000000000000000000000000000000000000000000000000000000000000000000000000000000000000000000000000000000000000000000000000000000000000000000000000000000000000000000000000000000000000000
310
00000000000000000000000000000000000000000000000000000000000000000000000000000000000000000000000000000000000000000000000000000000000000000000000000000700000000000000070000000000000000000000000000000000000000000000000000000000000000000000000000000000000000
310
00000000000000000000000000000000000000000000000000000000000000000000000000000000000000000000000000000000000000000000000000000000000000000000000000000000000000000000000000000000000000000000000000000000000000000000000000000000000000000000000000000000000000
310
07000000000000000700000000000000000000000000000000000000000000000000000000000000000000000000000000000000000000000000000000000000000000000000000000000000000000000000000000000000000000000000000000000000000000000000000000000000000000000000000000000000000000
310
00000000000000000000000000000000000000000000000000000000000000000000000000000000000000000000000000000000000700000000000000070000000000000000000000000000000000000000000000000000000000000000000000000000000000000000000000000000000000000000000000000000000000
310
00000000000000000000000000000000000000000000000000000000000000000000000000000000000000000000000000000000000000000000000000000000000000000000000000000000000000000000000000000000000000000000000000000000000000000000070000000000000007000000000000000000000000
310
00000000000000000000000000000000000000000000000000000000000000000000000000000000000000000000000000000000000000000000000000000000000000000000000000000000000000000000000000000000000000000000000000000000000000000000000000000000000000000000000000000000000000
310
00000000000000000000000000000000000000000000000000000000000000000700000000000000070000000000000000000000000000000000000000000000000000000000000000000000000000000000000000000000000000000000000000000000000000000000000000000000000000000000000000000000000000
310
00000000000000000000000000000000000000000000000000000000000000000000000000000000000000000000000000000000000000000000000000000000000000000000000000000000000000000000000000070000000000000007000000000000000000000000000000000000000000000000000000000000000000
310
00000000000000000000000000000000000000000000000000000000000000000000000000000000000000000000000000000000000000000000000000000000000000000000000000000000000000000000000000000000000000000000000000000000000000000000000000000000000000000000000000000000000000
310
00000000000000000000000700000000000000070000000000000000000000000000000000000000000000000000000000000000000000000000000000000000000000000000000000000000000000000000000000000000000000000000000000000000000000000000000000000000000000000000000000000000000000
310
00000000000000000000000000000000000000000000000000000000000000000000000000000000000000000000000000000000000000000000000000000000070000000000000007000000000000000000000000000000000000000000000000000000000000000000000000000000000000000000000000000000000000
310
00000000000000000000000000000000000000000000000000000000000000000000000000000000000000000000000000000000000000000000000000000000000000000000000000000000000000000000000000000000000000000000000000000000000000000000000000000000000000000007000000000000000700
310
00000000000000000000000000000000000000000000000000000000000000000000000000000000000000000000000000000000000000000000000000000000000000000000000000000000000000000000000000000000000000000000000000000000000000000000000000000000000000000000000000000000000000
310
00000000000000000000000000000000000000000000000000000000000000000000000000000000000000070000000000000007000000000000000000000000000000000000000000000000000000000000000000000000000000000000000000000000000000000000000000000000000000000000000000000000000000
310
00000000000000000000000000000000000000000000000000000000000000000000000000000000000000000000000000000000000000000000000000000000000000000000000000000000000000000000000000000000000000000000000007000000000000000700000000000000000000000000000000000000000000
310
00000000000000000000000000000000000000000000000000000000000000000000000000000000000000000000000000000000000000000000000000000000000000000000000000000000000000000000000000000000000000000000000000000000000000000000000000000000000000000000000000000000000000
310
00000000000000000000000000000000000000000000070000000000000007000000000000000000000000000000000000000000000000000000000000000000000000000000000000000000000000000000000000000000000000000000000000000000000000000000000000000000000000000000000000000000000000
310
00000000000000000000000000000000000000000000000000000000000000000000000000000000000000000000000000000000000000000000000000000000000000000000000000000007000000000000000700000000000000000000000000000000000000000000000000000000000000000000000000000000000000
310
00000000000000000000000000000000000000000000000000000000000000000000000000000000000000000000000000000000000000000000000000000000000000000000000000000000000000000000000000000000000000000000000000000000000000000000000000000000000000000000000000000000000000
310
00070000000000000007000000000000000000000000000000000000000000000000000000000000000000000000000000000000000000000000000000000000000000000000000000000000000000000000000000000000000000000000000000000000000000000000000000000000000000000000000000000000000000
310
00000000000000000000000000000000000000000000000000000000000000000000000000000000000000000000000000000000000707070707070707070707000000000000000000000000000000000000000000000000000000000000000000000000000000000000000000000000000000000000000000000000000000
310
00000000000000000000000000000000000000000000000000000000000000000000000000000000000000000000000000000000000000000000000000000000000000000000000000000000000000000000000000000000000000000000000000000000000000000000070000000000000000000700000000000000000000
310
00000000000000000000000000000000000000000000000000000000000000000000000000000000000000000000000000000000000000000000000000000000000000000000000000000000000000000000000000000000000000000000000000000000000000000000000000000000000000000000000000000000000000
310
00000000000000000000000000000000000000000000000000000000000000000700000000000000000007000000000000000000000000000000000000000000000000000000000000000000000000000000000000000000000000000000000000000000000000000000000000000000000000000000000000000000000000
310
00000000000000000000000000000000000000000000000000000000000000000000000000000000000000000000000000000000000000000000000000000000000000000000000000000000000000000000000000070000000000000000000700000000000000000000000000000000000000000000000000000000000000
310
00000000000000000000000000000000000000000000000000000000000000000000000000000000000000000000000000000000000000000000000000000000000000000000000000000000000000000000000000000000000000000000000000000000000000000000000000000000000000000000000000000000000000
310
00000000000000000000000700000000000000000007000000000000000000000000000000000000000000000000000000000000000000000000000000000000000000000000000000000000000000000000000000000000000000000000000000000000000000000000000000000000000000000000000000000000000000
310
00000000000000000000000000000000000000000000000000000000000000000000000000000000000000000000000000000000000000000000000000000000070000000000000000000700000000000000000000000000000000000000000000000000000000000000000000000000000000000000000000000000000000
310
00000000000000000000000000000000000000000000000000000000000000000000000000000000000000000000000000000000000000000000000000000000000000000000000000000000000000000000000000000000000000000000000000000000000000000000000000000000000000000007000000000000000000
310
07000000000000000000000000000000000000000000000000000000000000000000000000000000000000000707070707000000000000000000000000000000000000000000000000000000000000000000000000000000000000000000000000000000000000000000000000000000000000000000000000000000000000
310
00000000000000000000000000000000000000000000000000000000000000000000000000000000000000070000000000000000000700000000000000000000000000000000000000000000000000000000000000000000000000000007070707070707070707070707000000000000000000000000000000000000000000
310
00000000000000000000000000000000000000000000000000000000000000000000000000000000000000000000000000000000000000000000000000000000000000000000000000000000000000000000000000000000000000000000000700000000000000000000000700000000000000000000000000000000000000
310
00000000000000000000000000000000000000070707070707070707070707070000000000000000000000000000000000000000000000000000000000000000000000000000000000000000000000000000000000000000000000000000000000000000000000000000000000000000000000000000000000000000000000
310
00000000000000000000000000000000000000000007000000000000000000000007000000000000000000000000000000000000000000000000000000000000000707070707070707070707070707070707070707070707070707070000000000000000000000000000000000000000000000000000000000000000000000
310
00000000000000000000000000000000000000000000000000000000000000000000000000000000000000000000000000000000000000070707070707070707070000000000000000000700000000000000000000000700000000000000000000000000000000000000000000000000000000000007000000000000000000
310
00000000000000000000000000000000000007000000000000000000000000000000000000000000000000000000000000000000000000000000000000000000000000000000000707070707070707070700000000000000000000000000000000000000000000000000000700000000000000000007070707070707070707
310
07000000000000000000000007070707070707070707070707070707070707070707070707070707070707070000000000000000000000000000000000000000000000000000000707070707070707070707070707070707070707070707070707070707070707070707070707070707070707070707070707070707070000
310
00000000000007070000000000000000000000000000000000000000000000000007000000000000000000000000000000000000000700000000000000000000000700000000000000000000000000000000000000000000000000000000000007000000000000000000000000000000000000000000000000000000070000
310
00000000000000000000000000000000000000000000000000000000000000000000000000000000000000000000000000000000000000000000000007000000000000000000000000000000000000000000000000000700000000000000000000000000000000000000070000000000000000000000070000000000000000
310
00000000000000000000000000000000000000000000070000000000000000000000000000000000000000000000000000000700000000000000000000000000000000000000000000000000000000000000000000000000000000000000000000000000000000000000000000000000000700000000000000000000000000
310
00000000000000000000000007000000000000000000000000000000000000000700000000000000000000000700000000000000000000000000000000000000000000000000000000000007000000000000000000000000000000000000000000000000000000070000000000000000000000000000000000000000000000
310
00000000000000000000000000000000000000000000000000000000000000000000000000000007000000000000000000000000000000000000000000000000000700000000000000000000000000000000000000070707070707070707070707070000000000000000000000000000000000000000000000000000000000
310
00070000000000000000000000000000000000000000000000000000000700000000000000000000000000000000000000000000000000000000000000000000000000000000000000000000000000000000000000000000000000000700000000000000000000000000000000000000000000000000070000000000000000
310
00000000000000000000000700000000000000000000000700000000000000000000000000000000000000000000000000000000000007000000000000000000000000000000000000000000000000000000070000000000000000000000000000000000000000000000000000000000000000000000000000070707070000
310
00000000000000000000000000000000000007000000000000000000000000000000000000000000000000000700000000000000000000000000000000000000070000000000000000000000070000000000000000000000000000000000000000000000000000000000000700000000000000000000000000000000000000
310
00000000000000000700000000000000000000000000000000000000000000000000000000000000000000070707070707070707070707000000000000000000000000000000000700000000000000000000000000000000000000000000000000070000000000000000000000000000000000000007000000000000000000
310
00000700000000000000000000000000000000000000000000000000000000000007000000000000000000000000000000000000000000000000000000070000000000000000000000000000000000000000000000000000000000000000000700000007000000000700000007070000000000000000000000000000070000
310
00000000000000000000000000000000000000000000000700000000000000000000000000000000000000000000000000000000000000000000000000000000000000000000000000000000000000000000000000000700000000000000000000000000000000000000000000000000000007000000000000000000000000
310
00000000000000000000000000000000000000070700000000070007070707000000000007000000000000000000000000000700000000000000000000000000000000000000000000000000070000000000000000000000000000000000000000000000000000000000000000000000000000000000000000000000000000
310
00000000000000000000000007070707070707070707070707070707070707070707070707070707070000000000000000000000000000000000000000000000000000000000000700000000070707070000000707000000000007070000000000000000000000070000000000000000000000000000000000000000000000
310
00000700000000000000000000000000000000000000000000000000000000000000000000000000000000000000000000000000000000000000000000000000000700000000000000000000000000000000000000000000000000000007000000000000000000000000000000000000000000000000000000000007000000
310
00070000000000000000000707000000000700000000000000000000000700000000000000000000000000000000000000000000000000070000000000000000000000000000000000000000000000000000000000000000000000000000000000000000000000000000000000000000000000000000070000000000000000
310
00000000000000000000000000000000000000070000000000000000000000000000000000000000000000000000000007000000000700000000000000000000000007070000000700000000000000000000070000000000000000000000000000000000000000000000000007000000000000000000000000000000000000
310
00000000000000000000000000000000000000000000000000000000000000000000000000000000000000000000000000000000000000000000000000000000000000000000000007000000000000000000000000000000000000000000000000000000070000000007000000000000000000000000000000070000000700
310
00000000000000000700000000000000000000000000000000000000000000000000070000000000000000000000000000000000000000000000000000000000000000000000000000000000000000000000000000000000000000000000000000000000000000000000000000000000000000000000000000000000000000
310
00000000000000000000000000000000000000000000000000000700000007000000000000000000000000000000000700000007000000000000000000070000000000000000000000000000000000000000000000000007000000000000000000000000000000000000000000000000000000000000000000000000000000
310
00000000000000000000000000000000000000000000000000000000000000000000000000000000000000000000000000000000000000000000000000000000000000000000000000000000000000070000000700000000000000000000000000000000000700000007000000000000000007000000000000000000000000
310
00000000000000000000000000070000000000000000000000000000000000000000000000000000000000000000000000000000000000000000000000000000000000000000000000000000000000000000000000000000000000000000000000000000000000000000000000000000000000000000000000000000000000
310
00000000070000000700000000000000000000000000000000000007000000070000000000000000070000000000000000000000000000000000000000000000000007000000000000000000000000000000000000000000000000000000000000000000000000000000000000000000000000000000000000000000000000
310
00000000000000000000000000000000000000000000000000000000000000000000000000000000000000000000000000000000000000000007000000070000000000000000000000000000000000000007000007000000000000000007000000000000000000000000000000000000000000000000000700000000000000
310
00000000000000000000000000000000000000000000000000000007070707070000000000000000000000000000000000000000000000000000000000000000000000000000000000000000000000000000000000000000000000000000000000000000000000000000000000000700000007000000000000000000000000
310
00000000000000070000000700000000000000070000000000000000000000000000000000000000000000000007000000000000000000000000000000000000000000000000000000000000000007070707000707070700000000000000000000000000000000000000000000000000000000000000000000000000000000
310
00000000000000000000000000000000000000000000000000000000000000000000000700000007000000000000000000000000000000000000000007000000070000000000000007000000000000000000000000000000000000000000000000000700000000000000000000000000000000000000000000000000000000
310
00000007070000000000000000070000000000000000000000000000000000000000000000000000000000000000000000000000000000000000000000000000000000000000000000000000000000000000000000000000070000000700000000000000000000000000000000000000000700000000000000000000000700
310
00000000000000000000000000000000000000000000000007000000000000000000000000000000000000000000000000000000000000070000000000000000000007070000000000000000000000000000000000000000000000000000000000000000000000000000000000000000000000000000000000000000000000
310
00000000000000000000000000000700000007000000000000000000000000000000000000000007000000070000000000000007000000000000000000000000000000000000000000000000000700000000000000000000000000000000000000000000000000000000000007000000000000000000000007070000000000
310
00000000000000000000000000000000000000000000000000000000000000000000000000000000000000000000000000000000000000000000000000000000000000000700000007000000000000000000000000000000000000000700000007000000000000000700000000000000000000000000000000000000000000
310
00000007000000000000000000000000000000000000000000000000000000000007000000000000000000000000070700000000000000000000000000000000000000000000000000000000000000000000000000000000000000000000000000000000000000000000000000000000000000000000000000070000000700
310
00000000000000000000000000000000000007000007000000000000000007000000000000000000000000000000000000000000000000000700000000000000000000000000000000000000000000000000000000000700000000000000000000000000070000000000000000000000000000000000000000000000000000
310
00000000000000000000000000000000000000000000000000000000000000000000000000000000000000000000000700000007000000000000000000000000000000000000070000000700000000000000000700000000000000000000000000000000000000000000000000070000000000000000000000000000000000
310
00000000000000000000000007000000000000000000000000000700000000000000000000000000000000000000000000000000000000000000000000000000000000000000000000000000000000000000000000000000000000000000000000000000070000000007000000000000000000000000000000000007000000
310
07000000000000000007000000000000000000000000000000000000000000000000000700000000000000000000000000000000000000000000000000000000000700000000000000000000000000070000000000000000000000000000000000000000000000000000000000000000000000000000000000000000000000
310
00000000000000000000000000000000000000000000000000000007000000070000000000000000000000000000000007000000000700000000000000000700000000000000000000000000000000000000000000000000070000000000000000000000000000000000000000000000000000000000070000000000000000
310
00000000000700000000000000000000000000000000000000000000000000000000000000000000000000000000000000000000000000000000000000000000000000000000000000000000000000000700000000070000000000000000000000000000000700000007000000000000000000070000000000000000000000
310
00000000000000000000000000000700000000000000000000000000000000000000000000000000000000000700000000000000000000000007070000000000000000000000000000000000000000000000000000000000000000000000000000000000000000000000000000000000000000000000000000000000000000
310
00000000000007000000000007000000000000000000000000000700000007000000000000000000000700000000000000000000000000000000000000000000000000070000000000000000000000000000000000000000000000000000000000070700000000000000000000000700000000000000000000000000000000
310
00000000000000000000000000000000000000000000000000000000000000000000000000000000000000000000000000000000000000000000000007000000000007000000000000000000000707000000000700000000000000000000070000000000000000000000000000000000000000000000000007000000000000
310
00000000000000000000000000000000000000000000000007000000000000000000000700000000000000000000000000000000000000000000000000000000000000000000000000000000000000000000000000000000000000000000000000000000000000000000000000000000000007070000000007070700000000
310
00070700000000000700000000000000000000000700000000000000000000000000000000000000000000000000070000000000000000000000000000000000000000000000000000000000000007000000000000000000070000000000000000000000000000000000000000000000000000000000000000000000000000
310
00000000000000000000000000000000000000000000000000000000000000000000000000000000000007000000000000070707070700000000000707000000000000000000000000070000000000000000000000000000000000000000000000000007000000000000000000000000000000000000000000000000000000
310
00000000000707070000000707070000000000000000000000000000000000000000000000000000000000000000000000000000000000000000000000000000000000000000000000000000000000000000000000000000000000000000000007070000000000000000000000000007000000000000000000000000000007
310
00000000000000000000000000000000000000000000000000070000000000000000000000000000000000000000000000000000000000000000000707070707070700000000000000000000000000000000000000000000000000000000000000000000000000000000000000000000000000000000000000000000000000
310
00000000000000000000000000000000000000000000000007000000000000000000000707000000000000000000000000000000070000000000000000000000000000000000000000000000000007000000000000000000000000000000000000000000000000000000000000000000000000000000000000000000000000
310
00000000000000000000000000000000000000000000000000000000000000000000000000000000000000000000000000000000000000000000000000000000000000000000000000000000000007070707070707070707000000000000000000000000000000000007000000000000000000000000000000000000000000
310
00000000070000000000000000000000000000000000000000000000000000000000000000000000000000000000000000000000000000000000000000000000000000000000000000000000000000000000000000000000000000000000000000000000000000000000000000000000000000000000000000000000000000
310
00000000000000000000000000000000000000000000000000000000000000070000000000000000000000000000000000000000000000000007070707070707070707070707070707070707070707070707070707070707070707070707070707070707070707070707070707070707070707070707070707070707070707
310
07070707070707070707070707070707070707070707070707070707070707070707070707070707070707070707070707070707070707070707070707070707070707070707070707070707070707070707070707000000000000000000000000000000000000000000000000070000000000000000000000000000000000
310
00000000000000000000000000000000000000000000000000000000000000000000000000000000000000000000000000000000000000000000000000000000000000000000000000000000000000000000000000000000000000000000000000000000000000000000000000000000000000000000000000000000000000
310
00000000000000000000000700000000000000000000000000000000000000000000000707070707070707070707070707070707070707070707070707070707070707070707070707070707070707070707070707070707070707070707070707070707070707070707070707070707070707070707070707070707070707
310
07070707070707070707070707070707070707070707070707070707070707070707070707070707070707070707070707070707070707070707070707070707070000000000000000000000000000000000000000000000000000000000000000000000000000000000000000000000000000000000000000000000000000
310
00000000000000000000000000000000000000000000000000000000000000000000000000000000000000000000000000000000000000000000000000000000000000000000000000000000000000000000000000000000000000000000000000000000000000000000000000000000000000000000000000000000000000
310
00000000000000000000000000000000000000000000000000000000000000000000000000000000000000000000000000000000000000000000000000000000000000000000000000000000000000000000000000000000000000000000000000000000000000000000000000000000000000000000000000000000000000
310
00000000000000000000000000000000000000000000000000000000000000000000000000000000000000000000000000000000000000000000000000000000000000000000000000000000000000000000000000000000000000000000000000000000000000000000000000000000000000000000000000000000000000
310
000000000000000000000000000000000000000000000000000000000000000000000000000000000000000000000000000000000000000000000000000000000000000000000000000000000000000000000000000000000000000000000000000000000000000000000000
  0
ENDSEC
  0
EOF
