  0
SECTION
  2
HEADER
  9
$ACADVER
  1
AC1015
  9
$ACADMAINTVER
 70
     6
  9
$DWGCODEPAGE
  3
ANSI_1252
  9
$INSBASE
 10
0.0
 20
0.0
 30
0.0
  9
$EXTMIN
 10
-0.579338082866
 20
0.0
 30
0.0
  9
$EXTMAX
 10
193.823
 20
1008.0
 30
0.0
  9
$LIMMIN
 10
0.0
 20
0.0
  9
$LIMMAX
 10
12.0
 20
9.0
  9
$ORTHOMODE
 70
     0
  9
$REGENMODE
 70
     1
  9
$FILLMODE
 70
     1
  9
$QTEXTMODE
 70
     0
  9
$MIRRTEXT
 70
     1
  9
$LTSCALE
 40
1.0
  9
$ATTMODE
 70
     1
  9
$TEXTSIZE
 40
0.2
  9
$TRACEWID
 40
0.05
  9
$TEXTSTYLE
  7
Standard
  9
$CLAYER
  8
0
  9
$CELTYPE
  6
ByBlock
  9
$CECOLOR
 62
   256
  9
$CELTSCALE
 40
1.0
  9
$DISPSILH
 70
     0
  9
$DIMSCALE
 40
1.0
  9
$DIMASZ
 40
0.18
  9
$DIMEXO
 40
0.0625
  9
$DIMDLI
 40
0.38
  9
$DIMRND
 40
0.0
  9
$DIMDLE
 40
0.0
  9
$DIMEXE
 40
0.18
  9
$DIMTP
 40
0.0
  9
$DIMTM
 40
0.0
  9
$DIMTXT
 40
0.18
  9
$DIMCEN
 40
0.09
  9
$DIMTSZ
 40
0.0
  9
$DIMTOL
 70
     0
  9
$DIMLIM
 70
     0
  9
$DIMTIH
 70
     1
  9
$DIMTOH
 70
     1
  9
$DIMSE1
 70
     0
  9
$DIMSE2
 70
     0
  9
$DIMTAD
 70
     0
  9
$DIMZIN
 70
     0
  9
$DIMBLK
  1

  9
$DIMASO
 70
     1
  9
$DIMSHO
 70
     1
  9
$DIMPOST
  1

  9
$DIMAPOST
  1

  9
$DIMALT
 70
     0
  9
$DIMALTD
 70
     2
  9
$DIMALTF
 40
25.4
  9
$DIMLFAC
 40
1.0
  9
$DIMTOFL
 70
     0
  9
$DIMTVP
 40
0.0
  9
$DIMTIX
 70
     0
  9
$DIMSOXD
 70
     0
  9
$DIMSAH
 70
     0
  9
$DIMBLK1
  1

  9
$DIMBLK2
  1

  9
$DIMSTYLE
  2
Standard
  9
$DIMCLRD
 70
     0
  9
$DIMCLRE
 70
     0
  9
$DIMCLRT
 70
     0
  9
$DIMTFAC
 40
1.0
  9
$DIMGAP
 40
0.09
  9
$DIMJUST
 70
     0
  9
$DIMSD1
 70
     0
  9
$DIMSD2
 70
     0
  9
$DIMTOLJ
 70
     1
  9
$DIMTZIN
 70
     0
  9
$DIMALTZ
 70
     0
  9
$DIMALTTZ
 70
     0
  9
$DIMUPT
 70
     0
  9
$DIMDEC
 70
     4
  9
$DIMTDEC
 70
     4
  9
$DIMALTU
 70
     2
  9
$DIMALTTD
 70
     2
  9
$DIMTXSTY
  7
Standard
  9
$DIMAUNIT
 70
     0
  9
$DIMADEC
 70
     0
  9
$DIMALTRND
 40
0.0
  9
$DIMAZIN
 70
     0
  9
$DIMDSEP
 70
    46
  9
$DIMATFIT
 70
     3
  9
$DIMFRAC
 70
     0
  9
$DIMLDRBLK
  1

  9
$DIMLUNIT
 70
     2
  9
$DIMLWD
 70
    -2
  9
$DIMLWE
 70
    -2
  9
$DIMTMOVE
 70
     2
  9
$LUNITS
 70
     2
  9
$LUPREC
 70
     4
  9
$SKETCHINC
 40
0.1
  9
$FILLETRAD
 40
0.5
  9
$AUNITS
 70
     0
  9
$AUPREC
 70
     0
  9
$MENU
  1
.
  9
$ELEVATION
 40
0.0
  9
$PELEVATION
 40
0.0
  9
$THICKNESS
 40
0.0
  9
$LIMCHECK
 70
     0
  9
$CHAMFERA
 40
0.5
  9
$CHAMFERB
 40
0.5
  9
$CHAMFERC
 40
1.0
  9
$CHAMFERD
 40
0.0
  9
$SKPOLY
 70
     0
  9
$TDCREATE
 40
2456466.628939155
  9
$TDUCREATE
 40
2456466.545605822
  9
$TDUPDATE
 40
2456466.630735671
  9
$TDUUPDATE
 40
2456466.547402338
  9
$TDINDWG
 40
0.0017957986
  9
$TDUSRTIMER
 40
0.0017957986
  9
$USRTIMER
 70
     1
  9
$ANGBASE
 50
0.0
  9
$ANGDIR
 70
     0
  9
$PDMODE
 70
     0
  9
$PDSIZE
 40
0.0
  9
$PLINEWID
 40
0.0
  9
$SPLFRAME
 70
     0
  9
$SPLINETYPE
 70
     6
  9
$SPLINESEGS
 70
     8
  9
$HANDSEED
  5
10DB
  9
$SURFTAB1
 70
     6
  9
$SURFTAB2
 70
     6
  9
$SURFTYPE
 70
     6
  9
$SURFU
 70
     6
  9
$SURFV
 70
     6
  9
$UCSBASE
  2

  9
$UCSNAME
  2

  9
$UCSORG
 10
0.0
 20
0.0
 30
0.0
  9
$UCSXDIR
 10
1.0
 20
0.0
 30
0.0
  9
$UCSYDIR
 10
0.0
 20
1.0
 30
0.0
  9
$UCSORTHOREF
  2

  9
$UCSORTHOVIEW
 70
     0
  9
$UCSORGTOP
 10
0.0
 20
0.0
 30
0.0
  9
$UCSORGBOTTOM
 10
0.0
 20
0.0
 30
0.0
  9
$UCSORGLEFT
 10
0.0
 20
0.0
 30
0.0
  9
$UCSORGRIGHT
 10
0.0
 20
0.0
 30
0.0
  9
$UCSORGFRONT
 10
0.0
 20
0.0
 30
0.0
  9
$UCSORGBACK
 10
0.0
 20
0.0
 30
0.0
  9
$PUCSBASE
  2

  9
$PUCSNAME
  2

  9
$PUCSORG
 10
0.0
 20
0.0
 30
0.0
  9
$PUCSXDIR
 10
1.0
 20
0.0
 30
0.0
  9
$PUCSYDIR
 10
0.0
 20
1.0
 30
0.0
  9
$PUCSORTHOREF
  2

  9
$PUCSORTHOVIEW
 70
     0
  9
$PUCSORGTOP
 10
0.0
 20
0.0
 30
0.0
  9
$PUCSORGBOTTOM
 10
0.0
 20
0.0
 30
0.0
  9
$PUCSORGLEFT
 10
0.0
 20
0.0
 30
0.0
  9
$PUCSORGRIGHT
 10
0.0
 20
0.0
 30
0.0
  9
$PUCSORGFRONT
 10
0.0
 20
0.0
 30
0.0
  9
$PUCSORGBACK
 10
0.0
 20
0.0
 30
0.0
  9
$USERI1
 70
     0
  9
$USERI2
 70
     0
  9
$USERI3
 70
     0
  9
$USERI4
 70
     0
  9
$USERI5
 70
     0
  9
$USERR1
 40
0.0
  9
$USERR2
 40
0.0
  9
$USERR3
 40
0.0
  9
$USERR4
 40
0.0
  9
$USERR5
 40
0.0
  9
$WORLDVIEW
 70
     1
  9
$SHADEDGE
 70
     3
  9
$SHADEDIF
 70
    70
  9
$TILEMODE
 70
     1
  9
$MAXACTVP
 70
    64
  9
$PINSBASE
 10
0.0
 20
0.0
 30
0.0
  9
$PLIMCHECK
 70
     0
  9
$PEXTMIN
 10
1.000000000000E+20
 20
1.000000000000E+20
 30
1.000000000000E+20
  9
$PEXTMAX
 10
-1.000000000000E+20
 20
-1.000000000000E+20
 30
-1.000000000000E+20
  9
$PLIMMIN
 10
0.0
 20
0.0
  9
$PLIMMAX
 10
12.0
 20
9.0
  9
$UNITMODE
 70
     0
  9
$VISRETAIN
 70
     1
  9
$PLINEGEN
 70
     0
  9
$PSLTSCALE
 70
     1
  9
$TREEDEPTH
 70
  3020
  9
$CMLSTYLE
  2
Standard
  9
$CMLJUST
 70
     0
  9
$CMLSCALE
 40
1.0
  9
$PROXYGRAPHICS
 70
     1
  9
$MEASUREMENT
 70
     0
  9
$CELWEIGHT
370
    -1
  9
$ENDCAPS
280
     0
  9
$JOINSTYLE
280
     0
  9
$LWDISPLAY
290
     0
  9
$INSUNITS
 70
     0
  9
$HYPERLINKBASE
  1

  9
$STYLESHEET
  1

  9
$XEDIT
290
     1
  9
$CEPSNTYPE
380
     0
  9
$PSTYLEMODE
290
     1
  9
$FINGERPRINTGUID
  2
{231B3741-EA1C-4ADB-AFA3-EA0CDCCDD344}
  9
$VERSIONGUID
  2
{FAEB1C32-E019-11D5-929B-00C0DF256EC4}
  9
$EXTNAMES
290
     1
  9
$PSVPSCALE
 40
0.0
  9
$OLESTARTUP
290
     0
  0
ENDSEC
  0
SECTION
  2
CLASSES
  0
CLASS
  1
ACDBDICTIONARYWDFLT
  2
AcDbDictionaryWithDefault
  3
ObjectDBX Classes
 90
        0
280
     0
281
     0
  0
CLASS
  1
SCALE
  2
AcDbScale
  3
ObjectDBX Classes
 90
     1153
280
     0
281
     0
  0
CLASS
  1
DICTIONARYVAR
  2
AcDbDictionaryVar
  3
ObjectDBX Classes
 90
        0
280
     0
281
     0
  0
CLASS
  1
ACDBPLACEHOLDER
  2
AcDbPlaceHolder
  3
ObjectDBX Classes
 90
        0
280
     0
281
     0
  0
CLASS
  1
LAYOUT
  2
AcDbLayout
  3
ObjectDBX Classes
 90
        0
280
     0
281
     0
  0
ENDSEC
  0
SECTION
  2
TABLES
  0
TABLE
  2
VPORT
  5
8
330
0
100
AcDbSymbolTable
 70
     1
  0
VPORT
  5
91E
330
8
100
AcDbSymbolTableRecord
100
AcDbViewportTableRecord
  2
*Active
 70
     0
 10
0.0
 20
0.0
 11
1.0
 21
1.0
 12
96.621830958567
 22
504.0
 13
0.0
 23
0.0
 14
0.5
 24
0.5
 15
0.5
 25
0.5
 16
0.0
 26
0.0
 36
1.0
 17
0.0
 27
0.0
 37
0.0
 40
1028.16
 41
1.863448275862
 42
50.0
 43
0.0
 44
0.0
 50
0.0
 51
0.0
 71
    16
 72
   100
 73
     1
 74
     3
 75
     0
 76
     0
 77
     0
 78
     0
281
     0
 65
     1
110
0.0
120
0.0
130
0.0
111
1.0
121
0.0
131
0.0
112
0.0
122
1.0
132
0.0
 79
     0
146
0.0
  0
ENDTAB
  0
TABLE
  2
LTYPE
  5
5
330
0
100
AcDbSymbolTable
 70
     1
  0
LTYPE
  5
14
330
5
100
AcDbSymbolTableRecord
100
AcDbLinetypeTableRecord
  2
ByBlock
 70
     0
  3

 72
    65
 73
     0
 40
0.0
  0
LTYPE
  5
15
330
5
100
AcDbSymbolTableRecord
100
AcDbLinetypeTableRecord
  2
ByLayer
 70
     0
  3

 72
    65
 73
     0
 40
0.0
  0
LTYPE
  5
16
330
5
100
AcDbSymbolTableRecord
100
AcDbLinetypeTableRecord
  2
Continuous
 70
     0
  3
Solid line
 72
    65
 73
     0
 40
0.0
  0
ENDTAB
  0
TABLE
  2
LAYER
  5
2
330
0
100
AcDbSymbolTable
 70
     1
  0
LAYER
  5
10
330
2
100
AcDbSymbolTableRecord
100
AcDbLayerTableRecord
  2
0
 70
     0
 62
     7
  6
Continuous
370
    -3
390
F
  0
ENDTAB
  0
TABLE
  2
STYLE
  5
3
330
0
100
AcDbSymbolTable
 70
     1
  0
STYLE
  5
11
330
3
100
AcDbSymbolTableRecord
100
AcDbTextStyleTableRecord
  2
Standard
 70
     0
 40
0.0
 41
1.0
 50
0.0
 71
     0
 42
0.2
  3
txt
  4

  0
ENDTAB
  0
TABLE
  2
VIEW
  5
6
330
0
100
AcDbSymbolTable
 70
     0
  0
ENDTAB
  0
TABLE
  2
UCS
  5
7
330
0
100
AcDbSymbolTable
 70
     0
  0
ENDTAB
  0
TABLE
  2
APPID
  5
9
330
0
100
AcDbSymbolTable
 70
     1
  0
APPID
  5
12
330
9
100
AcDbSymbolTableRecord
100
AcDbRegAppTableRecord
  2
ACAD
 70
     0
  0
ENDTAB
  0
TABLE
  2
DIMSTYLE
  5
A
330
0
100
AcDbSymbolTable
 70
     1
100
AcDbDimStyleTable
  0
DIMSTYLE
105
20
330
A
100
AcDbSymbolTableRecord
100
AcDbDimStyleTableRecord
  2
Standard
 70
     0
340
11
  0
ENDTAB
  0
TABLE
  2
BLOCK_RECORD
  5
1
330
0
100
AcDbSymbolTable
 70
     1
  0
BLOCK_RECORD
  5
1D
330
1
100
AcDbSymbolTableRecord
100
AcDbBlockTableRecord
  2
*Model_Space
340
1E
  0
BLOCK_RECORD
  5
1B
330
1
100
AcDbSymbolTableRecord
100
AcDbBlockTableRecord
  2
*Paper_Space
340
1C
  0
ENDTAB
  0
ENDSEC
  0
SECTION
  2
BLOCKS
  0
BLOCK
  5
921
330
1D
100
AcDbEntity
  8
0
100
AcDbBlockBegin
  2
*Model_Space
 70
     0
 10
0.0
 20
0.0
 30
0.0
  3
*Model_Space
  1
*Model_Space
  0
ENDBLK
  5
922
330
1D
100
AcDbEntity
  8
0
100
AcDbBlockEnd
  0
BLOCK
  5
91F
330
1B
100
AcDbEntity
 67
     1
  8
0
100
AcDbBlockBegin
  2
*Paper_Space
 70
     0
 10
0.0
 20
0.0
 30
0.0
  3
*Paper_Space
  1
*Paper_Space
  0
ENDBLK
  5
920
330
1B
100
AcDbEntity
 67
     1
  8
0
100
AcDbBlockEnd
  0
ENDSEC
  0
SECTION
  2
ENTITIES
  0
LINE
  5
22
330
1D
100
AcDbEntity
  8
0
100
AcDbLine
 10
107.064
 20
212.0
 30
0.0
 11
115.164
 21
212.0
 31
0.0
  0
LINE
  5
23
330
1D
100
AcDbEntity
  8
0
100
AcDbLine
 10
115.164
 20
212.0
 30
0.0
 11
123.064
 21
212.0
 31
0.0
  0
LINE
  5
24
330
1D
100
AcDbEntity
  8
0
100
AcDbLine
 10
123.064
 20
212.0
 30
0.0
 11
130.764
 21
212.0
 31
0.0
  0
LINE
  5
25
330
1D
100
AcDbEntity
  8
0
100
AcDbLine
 10
98.964
 20
212.0
 30
0.0
 11
107.064
 21
212.0
 31
0.0
  0
LINE
  5
26
330
1D
100
AcDbEntity
  8
0
100
AcDbLine
 10
91.064
 20
212.0
 30
0.0
 11
98.964
 21
212.0
 31
0.0
  0
LINE
  5
27
330
1D
100
AcDbEntity
  8
0
100
AcDbLine
 10
83.364
 20
212.0
 30
0.0
 11
91.064
 21
212.0
 31
0.0
  0
LINE
  5
28
330
1D
100
AcDbEntity
  8
0
100
AcDbLine
 10
76.164
 20
212.0
 30
0.0
 11
83.364
 21
212.0
 31
0.0
  0
LINE
  5
29
330
1D
100
AcDbEntity
  8
0
100
AcDbLine
 10
69.364
 20
212.0
 30
0.0
 11
76.164
 21
212.0
 31
0.0
  0
LINE
  5
2A
330
1D
100
AcDbEntity
  8
0
100
AcDbLine
 10
63.264
 20
212.0
 30
0.0
 11
69.364
 21
212.0
 31
0.0
  0
LINE
  5
2B
330
1D
100
AcDbEntity
  8
0
100
AcDbLine
 10
57.964
 20
212.0
 30
0.0
 11
63.264
 21
212.0
 31
0.0
  0
LINE
  5
2C
330
1D
100
AcDbEntity
  8
0
100
AcDbLine
 10
53.364
 20
212.0
 30
0.0
 11
57.964
 21
212.0
 31
0.0
  0
LINE
  5
2D
330
1D
100
AcDbEntity
  8
0
100
AcDbLine
 10
49.864
 20
212.0
 30
0.0
 11
53.364
 21
212.0
 31
0.0
  0
LINE
  5
2E
330
1D
100
AcDbEntity
  8
0
100
AcDbLine
 10
47.264
 20
212.0
 30
0.0
 11
49.864
 21
212.0
 31
0.0
  0
LINE
  5
3C
330
1D
100
AcDbEntity
  8
0
100
AcDbLine
 10
45.664
 20
212.0
 30
0.0
 11
47.264
 21
212.0
 31
0.0
  0
LINE
  5
3D
330
1D
100
AcDbEntity
  8
0
100
AcDbLine
 10
45.064
 20
212.0
 30
0.0
 11
45.664
 21
212.0
 31
0.0
  0
LINE
  5
428
330
1D
100
AcDbEntity
  8
0
100
AcDbLine
 10
42.064
 20
238.0
 30
0.0
 11
42.064
 21
215.0
 31
0.0
  0
LINE
  5
429
330
1D
100
AcDbEntity
  8
0
100
AcDbLine
 10
42.064
 20
238.0
 30
0.0
 11
42.764
 21
238.0
 31
0.0
  0
LINE
  5
42A
330
1D
100
AcDbEntity
  8
0
100
AcDbLine
 10
42.064
 20
215.0
 30
0.0
 11
42.564
 21
213.5
 31
0.0
  0
LINE
  5
42B
330
1D
100
AcDbEntity
  8
0
100
AcDbLine
 10
42.064
 20
215.0
 30
0.0
 11
42.064
 21
238.0
 31
0.0
  0
LINE
  5
42C
330
1D
100
AcDbEntity
  8
0
100
AcDbLine
 10
55.564
 20
238.0
 30
0.0
 11
61.164
 21
238.0
 31
0.0
  0
LINE
  5
42D
330
1D
100
AcDbEntity
  8
0
100
AcDbLine
 10
50.764
 20
238.0
 30
0.0
 11
55.564
 21
238.0
 31
0.0
  0
LINE
  5
42E
330
1D
100
AcDbEntity
  8
0
100
AcDbLine
 10
47.164
 20
238.0
 30
0.0
 11
50.764
 21
238.0
 31
0.0
  0
LINE
  5
42F
330
1D
100
AcDbEntity
  8
0
100
AcDbLine
 10
44.364
 20
238.0
 30
0.0
 11
47.164
 21
238.0
 31
0.0
  0
LINE
  5
430
330
1D
100
AcDbEntity
  8
0
100
AcDbLine
 10
42.764
 20
238.0
 30
0.0
 11
44.364
 21
238.0
 31
0.0
  0
LINE
  5
431
330
1D
100
AcDbEntity
  8
0
100
AcDbLine
 10
61.164
 20
238.0
 30
0.0
 11
67.564
 21
238.0
 31
0.0
  0
LINE
  5
432
330
1D
100
AcDbEntity
  8
0
100
AcDbLine
 10
67.564
 20
238.0
 30
0.0
 11
74.664
 21
238.0
 31
0.0
  0
LINE
  5
433
330
1D
100
AcDbEntity
  8
0
100
AcDbLine
 10
74.664
 20
238.0
 30
0.0
 11
82.264
 21
238.0
 31
0.0
  0
LINE
  5
434
330
1D
100
AcDbEntity
  8
0
100
AcDbLine
 10
82.264
 20
238.0
 30
0.0
 11
90.264
 21
238.0
 31
0.0
  0
LINE
  5
435
330
1D
100
AcDbEntity
  8
0
100
AcDbLine
 10
123.864
 20
238.0
 30
0.0
 11
131.864
 21
238.0
 31
0.0
  0
LINE
  5
436
330
1D
100
AcDbEntity
  8
0
100
AcDbLine
 10
115.564
 20
238.0
 30
0.0
 11
123.864
 21
238.0
 31
0.0
  0
LINE
  5
437
330
1D
100
AcDbEntity
  8
0
100
AcDbLine
 10
107.064
 20
238.0
 30
0.0
 11
115.564
 21
238.0
 31
0.0
  0
LINE
  5
438
330
1D
100
AcDbEntity
  8
0
100
AcDbLine
 10
90.264
 20
238.0
 30
0.0
 11
98.564
 21
238.0
 31
0.0
  0
LINE
  5
7BC
330
1D
100
AcDbEntity
  8
0
100
AcDbLine
 10
98.564
 20
238.0
 30
0.0
 11
107.064
 21
238.0
 31
0.0
  0
LINE
  5
7BD
330
1D
100
AcDbEntity
  8
0
100
AcDbLine
 10
42.564
 20
213.5
 30
0.0
 11
43.564
 21
212.5
 31
0.0
  0
LINE
  5
7BE
330
1D
100
AcDbEntity
  8
0
100
AcDbLine
 10
43.564
 20
212.5
 30
0.0
 11
45.064
 21
212.0
 31
0.0
  0
LINE
  5
7C0
330
1D
100
AcDbEntity
  8
0
100
AcDbLine
 10
139.176
 20
200.0
 30
0.0
 11
141.736
 21
200.0
 31
0.0
  0
LINE
  5
7C1
330
1D
100
AcDbEntity
  8
0
100
AcDbLine
 10
137.64
 20
200.0
 30
0.0
 11
139.176
 21
200.0
 31
0.0
  0
LINE
  5
7C2
330
1D
100
AcDbEntity
  8
0
100
AcDbLine
 10
137.064
 20
200.0
 30
0.0
 11
137.64
 21
200.0
 31
0.0
  0
LINE
  5
7C3
330
1D
100
AcDbEntity
  8
0
100
AcDbLine
 10
137.064
 20
200.0
 30
0.0
 11
137.064
 21
212.0
 31
0.0
  0
LINE
  5
7C4
330
1D
100
AcDbEntity
  8
0
100
AcDbLine
 10
131.864
 20
238.0
 30
0.0
 11
139.464
 21
238.0
 31
0.0
  0
LINE
  5
7C6
330
1D
100
AcDbEntity
  8
0
100
AcDbLine
 10
130.764
 20
212.0
 30
0.0
 11
137.964
 21
212.0
 31
0.0
  0
LINE
  5
7C7
330
1D
100
AcDbEntity
  8
0
100
AcDbLine
 10
137.964
 20
212.0
 30
0.0
 11
144.764
 21
212.0
 31
0.0
  0
LINE
  5
7C8
330
1D
100
AcDbEntity
  8
0
100
AcDbLine
 10
139.176
 20
212.0
 30
0.0
 11
141.736
 21
212.0
 31
0.0
  0
LINE
  5
7CA
330
1D
100
AcDbEntity
  8
0
100
AcDbLine
 10
137.64
 20
212.0
 30
0.0
 11
139.176
 21
212.0
 31
0.0
  0
LINE
  5
7CB
330
1D
100
AcDbEntity
  8
0
100
AcDbLine
 10
137.064
 20
212.0
 30
0.0
 11
137.064
 21
200.0
 31
0.0
  0
LINE
  5
7CC
330
1D
100
AcDbEntity
  8
0
100
AcDbLine
 10
137.064
 20
212.0
 30
0.0
 11
137.64
 21
212.0
 31
0.0
  0
LINE
  5
7CD
330
1D
100
AcDbEntity
  8
0
100
AcDbLine
 10
139.064
 20
200.0
 30
0.0
 11
139.568
 21
200.0
 31
0.0
  0
LINE
  5
7CE
330
1D
100
AcDbEntity
  8
0
100
AcDbLine
 10
139.064
 20
200.0
 30
0.0
 11
141.064
 21
200.0
 31
0.0
  0
LINE
  5
7D0
330
1D
100
AcDbEntity
  8
0
100
AcDbLine
 10
138.024
 20
665.032
 30
0.0
 11
139.56
 21
668.744
 31
0.0
  0
LINE
  5
7D2
330
1D
100
AcDbEntity
  8
0
100
AcDbLine
 10
137.448
 20
661.0
 30
0.0
 11
138.024
 21
656.968
 31
0.0
  0
LINE
  5
7D3
330
1D
100
AcDbEntity
  8
0
100
AcDbLine
 10
137.448
 20
661.0
 30
0.0
 11
138.024
 21
665.032
 31
0.0
  0
LINE
  5
7D7
330
1D
100
AcDbEntity
  8
0
100
AcDbLine
 10
138.024
 20
656.968
 30
0.0
 11
139.56
 21
653.256
 31
0.0
  0
LINE
  5
7DE
330
1D
100
AcDbEntity
  8
0
100
AcDbLine
 10
142.064
 20
0.384615
 30
0.0
 11
142.46
 21
0.384615
 31
0.0
  0
LINE
  5
7DF
330
1D
100
AcDbEntity
  8
0
100
AcDbLine
 10
142.064
 20
0.384615
 30
0.0
 11
142.328
 21
0.0
 31
0.0
  0
LINE
  5
7E0
330
1D
100
AcDbEntity
  8
0
100
AcDbLine
 10
142.064
 20
0.384615
 30
0.0
 11
142.064
 21
69.6154
 31
0.0
  0
LINE
  5
7E1
330
1D
100
AcDbEntity
  8
0
100
AcDbLine
 10
142.064
 20
0.384615
 30
0.0
 11
142.328
 21
0.0
 31
0.0
  0
LINE
  5
7E2
330
1D
100
AcDbEntity
  8
0
100
AcDbLine
 10
142.064
 20
69.6154
 30
0.0
 11
142.46
 21
69.6154
 31
0.0
  0
LINE
  5
7E3
330
1D
100
AcDbEntity
  8
0
100
AcDbLine
 10
142.064
 20
69.6154
 30
0.0
 11
142.328
 21
70.0
 31
0.0
  0
LINE
  5
7E4
330
1D
100
AcDbEntity
  8
0
100
AcDbLine
 10
142.064
 20
69.6154
 30
0.0
 11
142.064
 21
0.384615
 31
0.0
  0
LINE
  5
7E5
330
1D
100
AcDbEntity
  8
0
100
AcDbLine
 10
142.064
 20
70.6
 30
0.0
 11
142.328
 21
70.0
 31
0.0
  0
LINE
  5
7E6
330
1D
100
AcDbEntity
  8
0
100
AcDbLine
 10
142.064
 20
70.6
 30
0.0
 11
142.064
 21
200.0
 31
0.0
  0
LINE
  5
7E7
330
1D
100
AcDbEntity
  8
0
100
AcDbLine
 10
139.464
 20
238.0
 30
0.0
 11
146.564
 21
238.0
 31
0.0
  0
LINE
  5
7E8
330
1D
100
AcDbEntity
  8
0
100
AcDbLine
 10
141.496
 20
200.0
 30
0.0
 11
142.648
 21
200.0
 31
0.0
  0
LINE
  5
7E9
330
1D
100
AcDbEntity
  8
0
100
AcDbLine
 10
141.496
 20
200.0
 30
0.0
 11
142.064
 21
200.0
 31
0.0
  0
LINE
  5
7EA
330
1D
100
AcDbEntity
  8
0
100
AcDbLine
 10
141.064
 20
200.0
 30
0.0
 11
141.496
 21
200.0
 31
0.0
  0
LINE
  5
7EB
330
1D
100
AcDbEntity
  8
0
100
AcDbLine
 10
141.736
 20
200.0
 30
0.0
 11
142.064
 21
200.0
 31
0.0
  0
LINE
  5
7EC
330
1D
100
AcDbEntity
  8
0
100
AcDbLine
 10
141.736
 20
200.0
 30
0.0
 11
145.128
 21
200.0
 31
0.0
  0
LINE
  5
7ED
330
1D
100
AcDbEntity
  8
0
100
AcDbLine
 10
141.736
 20
212.0
 30
0.0
 11
145.128
 21
212.0
 31
0.0
  0
LINE
  5
7EE
330
1D
100
AcDbEntity
  8
0
100
AcDbLine
 10
140.912
 20
200.0
 30
0.0
 11
142.064
 21
200.0
 31
0.0
  0
LINE
  5
7EF
330
1D
100
AcDbEntity
  8
0
100
AcDbLine
 10
140.912
 20
200.0
 30
0.0
 11
143.152
 21
200.0
 31
0.0
  0
LINE
  5
7F0
330
1D
100
AcDbEntity
  8
0
100
AcDbLine
 10
139.568
 20
200.0
 30
0.0
 11
140.912
 21
200.0
 31
0.0
  0
LINE
  5
7F2
330
1D
100
AcDbEntity
  8
0
100
AcDbLine
 10
142.064
 20
238.0
 30
0.0
 11
142.064
 21
504.0
 31
0.0
  0
LINE
  5
7F3
330
1D
100
AcDbEntity
  8
0
100
AcDbLine
 10
142.064
 20
200.0
 30
0.0
 11
142.064
 21
70.6
 31
0.0
  0
LINE
  5
7F4
330
1D
100
AcDbEntity
  8
0
100
AcDbLine
 10
142.328
 20
0.0
 30
0.0
 11
142.724
 21
0.0
 31
0.0
  0
LINE
  5
7F5
330
1D
100
AcDbEntity
  8
0
100
AcDbLine
 10
142.46
 20
0.384615
 30
0.0
 11
143.516
 21
0.384615
 31
0.0
  0
LINE
  5
7F6
330
1D
100
AcDbEntity
  8
0
100
AcDbLine
 10
142.724
 20
0.0
 30
0.0
 11
143.78
 21
0.0
 31
0.0
  0
LINE
  5
7F7
330
1D
100
AcDbEntity
  8
0
100
AcDbLine
 10
143.516
 20
0.384615
 30
0.0
 11
145.276
 21
0.384615
 31
0.0
  0
LINE
  5
7F8
330
1D
100
AcDbEntity
  8
0
100
AcDbLine
 10
142.46
 20
69.6154
 30
0.0
 11
143.516
 21
69.6154
 31
0.0
  0
LINE
  5
7F9
330
1D
100
AcDbEntity
  8
0
100
AcDbLine
 10
143.516
 20
69.6154
 30
0.0
 11
145.276
 21
69.6154
 31
0.0
  0
LINE
  5
7FA
330
1D
100
AcDbEntity
  8
0
100
AcDbLine
 10
142.328
 20
70.0
 30
0.0
 11
142.724
 21
70.0
 31
0.0
  0
LINE
  5
7FB
330
1D
100
AcDbEntity
  8
0
100
AcDbLine
 10
142.648
 20
200.0
 30
0.0
 11
144.568
 21
200.0
 31
0.0
  0
LINE
  5
7FC
330
1D
100
AcDbEntity
  8
0
100
AcDbLine
 10
143.152
 20
200.0
 30
0.0
 11
146.12
 21
200.0
 31
0.0
  0
LINE
  5
7FD
330
1D
100
AcDbEntity
  8
0
100
AcDbLine
 10
142.064
 20
504.0
 30
0.0
 11
142.064
 21
673.863212282962
 31
0.0
  0
LINE
  5
7FE
330
1D
100
AcDbEntity
  8
0
100
AcDbLine
 10
142.724
 20
70.0
 30
0.0
 11
143.78
 21
70.0
 31
0.0
  0
LINE
  5
7FF
330
1D
100
AcDbEntity
  8
0
100
AcDbLine
 10
142.064
 20
238.0
 30
0.0
 11
142.064
 21
504.0
 31
0.0
  0
LINE
  5
800
330
1D
100
AcDbEntity
  8
0
100
AcDbLine
 10
139.56
 20
668.744
 30
0.0
 11
142.056
 21
672.008
 31
0.0
  0
LINE
  5
801
330
1D
100
AcDbEntity
  8
0
100
AcDbLine
 10
139.56
 20
653.256
 30
0.0
 11
142.056
 21
649.992
 31
0.0
  0
LINE
  5
808
330
1D
100
AcDbEntity
  8
0
100
AcDbLine
 10
143.431
 20
671.747
 30
0.0
 11
143.778
 21
671.948
 31
0.0
  0
LINE
  5
809
330
1D
100
AcDbEntity
  8
0
100
AcDbLine
 10
143.78
 20
0.0
 30
0.0
 11
145.496
 21
0.0
 31
0.0
  0
LINE
  5
80A
330
1D
100
AcDbEntity
  8
0
100
AcDbLine
 10
145.276
 20
0.384615
 30
0.0
 11
147.608
 21
0.384615
 31
0.0
  0
LINE
  5
80B
330
1D
100
AcDbEntity
  8
0
100
AcDbLine
 10
145.496
 20
0.0
 30
0.0
 11
147.74
 21
0.0
 31
0.0
  0
LINE
  5
80C
330
1D
100
AcDbEntity
  8
0
100
AcDbLine
 10
145.276
 20
69.6154
 30
0.0
 11
147.608
 21
69.6154
 31
0.0
  0
LINE
  5
80D
330
1D
100
AcDbEntity
  8
0
100
AcDbLine
 10
143.78
 20
70.0
 30
0.0
 11
145.496
 21
70.0
 31
0.0
  0
LINE
  5
80E
330
1D
100
AcDbEntity
  8
0
100
AcDbLine
 10
147.74
 20
0.0
 30
0.0
 11
150.292
 21
0.0
 31
0.0
  0
LINE
  5
80F
330
1D
100
AcDbEntity
  8
0
100
AcDbLine
 10
147.608
 20
0.384615
 30
0.0
 11
150.248
 21
0.384615
 31
0.0
  0
LINE
  5
810
330
1D
100
AcDbEntity
  8
0
100
AcDbLine
 10
147.608
 20
69.6154
 30
0.0
 11
150.248
 21
69.6154
 31
0.0
  0
LINE
  5
811
330
1D
100
AcDbEntity
  8
0
100
AcDbLine
 10
145.496
 20
70.0
 30
0.0
 11
147.74
 21
70.0
 31
0.0
  0
LINE
  5
812
330
1D
100
AcDbEntity
  8
0
100
AcDbLine
 10
144.568
 20
200.0
 30
0.0
 11
147.112
 21
200.0
 31
0.0
  0
LINE
  5
813
330
1D
100
AcDbEntity
  8
0
100
AcDbLine
 10
145.128
 20
200.0
 30
0.0
 11
148.968
 21
200.0
 31
0.0
  0
LINE
  5
814
330
1D
100
AcDbEntity
  8
0
100
AcDbLine
 10
144.764
 20
212.0
 30
0.0
 11
150.864
 21
212.0
 31
0.0
  0
LINE
  5
815
330
1D
100
AcDbEntity
  8
0
100
AcDbLine
 10
147.112
 20
200.0
 30
0.0
 11
149.992
 21
200.0
 31
0.0
  0
LINE
  5
816
330
1D
100
AcDbEntity
  8
0
100
AcDbLine
 10
146.12
 20
200.0
 30
0.0
 11
149.48
 21
200.0
 31
0.0
  0
LINE
  5
817
330
1D
100
AcDbEntity
  8
0
100
AcDbLine
 10
146.564
 20
238.0
 30
0.0
 11
152.964
 21
238.0
 31
0.0
  0
LINE
  5
819
330
1D
100
AcDbEntity
  8
0
100
AcDbLine
 10
145.128
 20
212.0
 30
0.0
 11
148.968
 21
212.0
 31
0.0
  0
LINE
  5
81A
330
1D
100
AcDbEntity
  8
0
100
AcDbLine
 10
147.74
 20
70.0
 30
0.0
 11
150.292
 21
70.0
 31
0.0
  0
LINE
  5
81B
330
1D
100
AcDbEntity
  8
0
100
AcDbLine
 10
150.292
 20
0.0
 30
0.0
 11
153.064
 21
0.0
 31
0.0
  0
LINE
  5
81C
330
1D
100
AcDbEntity
  8
0
100
AcDbLine
 10
150.248
 20
0.384615
 30
0.0
 11
153.064
 21
0.384615
 31
0.0
  0
LINE
  5
81D
330
1D
100
AcDbEntity
  8
0
100
AcDbLine
 10
148.968
 20
200.0
 30
0.0
 11
153.064
 21
200.0
 31
0.0
  0
LINE
  5
81E
330
1D
100
AcDbEntity
  8
0
100
AcDbLine
 10
149.992
 20
200.0
 30
0.0
 11
153.064
 21
200.0
 31
0.0
  0
LINE
  5
81F
330
1D
100
AcDbEntity
  8
0
100
AcDbLine
 10
149.48
 20
200.0
 30
0.0
 11
153.064
 21
200.0
 31
0.0
  0
LINE
  5
820
330
1D
100
AcDbEntity
  8
0
100
AcDbLine
 10
148.968
 20
212.0
 30
0.0
 11
153.064
 21
212.0
 31
0.0
  0
LINE
  5
821
330
1D
100
AcDbEntity
  8
0
100
AcDbLine
 10
150.248
 20
69.6154
 30
0.0
 11
153.064
 21
69.6154
 31
0.0
  0
LINE
  5
822
330
1D
100
AcDbEntity
  8
0
100
AcDbLine
 10
153.064
 20
0.0
 30
0.0
 11
155.836
 21
0.0
 31
0.0
  0
LINE
  5
823
330
1D
100
AcDbEntity
  8
0
100
AcDbLine
 10
153.064
 20
0.384615
 30
0.0
 11
155.88
 21
0.384615
 31
0.0
  0
LINE
  5
824
330
1D
100
AcDbEntity
  8
0
100
AcDbLine
 10
153.064
 20
69.6154
 30
0.0
 11
155.88
 21
69.6154
 31
0.0
  0
LINE
  5
825
330
1D
100
AcDbEntity
  8
0
100
AcDbLine
 10
150.864
 20
212.0
 30
0.0
 11
156.164
 21
212.0
 31
0.0
  0
LINE
  5
826
330
1D
100
AcDbEntity
  8
0
100
AcDbLine
 10
153.064
 20
200.0
 30
0.0
 11
157.16
 21
200.0
 31
0.0
  0
LINE
  5
827
330
1D
100
AcDbEntity
  8
0
100
AcDbLine
 10
153.064
 20
200.0
 30
0.0
 11
156.648
 21
200.0
 31
0.0
  0
LINE
  5
828
330
1D
100
AcDbEntity
  8
0
100
AcDbLine
 10
153.064
 20
200.0
 30
0.0
 11
156.136
 21
200.0
 31
0.0
  0
LINE
  5
829
330
1D
100
AcDbEntity
  8
0
100
AcDbLine
 10
153.064
 20
212.0
 30
0.0
 11
157.16
 21
212.0
 31
0.0
  0
LINE
  5
82A
330
1D
100
AcDbEntity
  8
0
100
AcDbLine
 10
152.964
 20
238.0
 30
0.0
 11
158.564
 21
238.0
 31
0.0
  0
LINE
  5
82C
330
1D
100
AcDbEntity
  8
0
100
AcDbLine
 10
153.064
 20
70.0
 30
0.0
 11
155.836
 21
70.0
 31
0.0
  0
LINE
  5
82D
330
1D
100
AcDbEntity
  8
0
100
AcDbLine
 10
150.292
 20
70.0
 30
0.0
 11
153.064
 21
70.0
 31
0.0
  0
LINE
  5
831
330
1D
100
AcDbEntity
  8
0
100
AcDbLine
 10
155.836
 20
0.0
 30
0.0
 11
158.388
 21
0.0
 31
0.0
  0
LINE
  5
832
330
1D
100
AcDbEntity
  8
0
100
AcDbLine
 10
160.632
 20
0.0
 30
0.0
 11
162.348
 21
0.0
 31
0.0
  0
LINE
  5
833
330
1D
100
AcDbEntity
  8
0
100
AcDbLine
 10
158.388
 20
0.0
 30
0.0
 11
160.632
 21
0.0
 31
0.0
  0
LINE
  5
834
330
1D
100
AcDbEntity
  8
0
100
AcDbLine
 10
160.852
 20
0.384615
 30
0.0
 11
162.612
 21
0.384615
 31
0.0
  0
LINE
  5
835
330
1D
100
AcDbEntity
  8
0
100
AcDbLine
 10
157.581333532474
 20
25.0
 30
0.0
 11
177.900556259239
 21
25.0
 31
0.0
  0
LINE
  5
836
330
1D
100
AcDbEntity
  8
0
100
AcDbLine
 10
158.52
 20
0.384615
 30
0.0
 11
160.852
 21
0.384615
 31
0.0
  0
LINE
  5
837
330
1D
100
AcDbEntity
  8
0
100
AcDbLine
 10
155.88
 20
0.384615
 30
0.0
 11
158.52
 21
0.384615
 31
0.0
  0
LINE
  5
838
330
1D
100
AcDbEntity
  8
0
100
AcDbLine
 10
156.136
 20
200.0
 30
0.0
 11
159.016
 21
200.0
 31
0.0
  0
LINE
  5
839
330
1D
100
AcDbEntity
  8
0
100
AcDbLine
 10
156.648
 20
200.0
 30
0.0
 11
160.008
 21
200.0
 31
0.0
  0
LINE
  5
83A
330
1D
100
AcDbEntity
  8
0
100
AcDbLine
 10
157.16
 20
200.0
 30
0.0
 11
161.0
 21
200.0
 31
0.0
  0
LINE
  5
83B
330
1D
100
AcDbEntity
  8
0
100
AcDbLine
 10
159.016
 20
200.0
 30
0.0
 11
161.56
 21
200.0
 31
0.0
  0
LINE
  5
83C
330
1D
100
AcDbEntity
  8
0
100
AcDbLine
 10
161.56
 20
200.0
 30
0.0
 11
163.48
 21
200.0
 31
0.0
  0
LINE
  5
83D
330
1D
100
AcDbEntity
  8
0
100
AcDbLine
 10
160.008
 20
200.0
 30
0.0
 11
162.976
 21
200.0
 31
0.0
  0
LINE
  5
83E
330
1D
100
AcDbEntity
  8
0
100
AcDbLine
 10
161.0
 20
200.0
 30
0.0
 11
164.392
 21
200.0
 31
0.0
  0
LINE
  5
83F
330
1D
100
AcDbEntity
  8
0
100
AcDbLine
 10
157.16
 20
212.0
 30
0.0
 11
161.0
 21
212.0
 31
0.0
  0
LINE
  5
840
330
1D
100
AcDbEntity
  8
0
100
AcDbLine
 10
161.0
 20
212.0
 30
0.0
 11
164.392
 21
212.0
 31
0.0
  0
LINE
  5
841
330
1D
100
AcDbEntity
  8
0
100
AcDbLine
 10
156.164
 20
212.0
 30
0.0
 11
160.764
 21
212.0
 31
0.0
  0
LINE
  5
842
330
1D
100
AcDbEntity
  8
0
100
AcDbLine
 10
158.564
 20
238.0
 30
0.0
 11
163.364
 21
238.0
 31
0.0
  0
LINE
  5
844
330
1D
100
AcDbEntity
  8
0
100
AcDbLine
 10
160.764
 20
212.0
 30
0.0
 11
164.264
 21
212.0
 31
0.0
  0
LINE
  5
845
330
1D
100
AcDbEntity
  8
0
100
AcDbLine
 10
155.836
 20
70.0
 30
0.0
 11
177.865894739518
 21
70.0
 31
0.0
  0
LINE
  5
846
330
1D
100
AcDbEntity
  8
0
100
AcDbLine
 10
155.88
 20
69.6154
 30
0.0
 11
158.52
 21
69.6154
 31
0.0
  0
LINE
  5
847
330
1D
100
AcDbEntity
  8
0
100
AcDbLine
 10
162.348
 20
0.0
 30
0.0
 11
163.404
 21
0.0
 31
0.0
  0
LINE
  5
848
330
1D
100
AcDbEntity
  8
0
100
AcDbLine
 10
163.404
 20
0.0
 30
0.0
 11
163.8
 21
0.0
 31
0.0
  0
LINE
  5
849
330
1D
100
AcDbEntity
  8
0
100
AcDbLine
 10
163.8
 20
0.0
 30
0.0
 11
164.064
 21
0.384615
 31
0.0
  0
LINE
  5
84A
330
1D
100
AcDbEntity
  8
0
100
AcDbLine
 10
163.8
 20
0.0
 30
0.0
 11
164.064
 21
0.384615
 31
0.0
  0
LINE
  5
84B
330
1D
100
AcDbEntity
  8
0
100
AcDbLine
 10
163.668
 20
0.384615
 30
0.0
 11
164.064
 21
0.384615
 31
0.0
  0
LINE
  5
84C
330
1D
100
AcDbEntity
  8
0
100
AcDbLine
 10
164.064
 20
25.0
 30
0.0
 11
164.064
 21
0.384615
 31
0.0
  0
LINE
  5
84D
330
1D
100
AcDbEntity
  8
0
100
AcDbLine
 10
164.064
 20
0.384615
 30
0.0
 11
164.064
 21
25.0
 31
0.0
  0
LINE
  5
84E
330
1D
100
AcDbEntity
  8
0
100
AcDbLine
 10
162.612
 20
0.384615
 30
0.0
 11
163.668
 21
0.384615
 31
0.0
  0
LINE
  5
84F
330
1D
100
AcDbEntity
  8
0
100
AcDbLine
 10
163.48
 20
200.0
 30
0.0
 11
164.632
 21
200.0
 31
0.0
  0
LINE
  5
850
330
1D
100
AcDbEntity
  8
0
100
AcDbLine
 10
162.976
 20
200.0
 30
0.0
 11
165.216
 21
200.0
 31
0.0
  0
LINE
  5
851
330
1D
100
AcDbEntity
  8
0
100
AcDbLine
 10
163.364
 20
238.0
 30
0.0
 11
166.964
 21
238.0
 31
0.0
  0
LINE
  5
853
330
1D
100
AcDbEntity
  8
0
100
AcDbLine
 10
164.064
 20
200.0
 30
0.0
 11
164.392
 21
200.0
 31
0.0
  0
LINE
  5
854
330
1D
100
AcDbEntity
  8
0
100
AcDbLine
 10
164.064
 20
200.0
 30
0.0
 11
165.216
 21
200.0
 31
0.0
  0
LINE
  5
855
330
1D
100
AcDbEntity
  8
0
100
AcDbLine
 10
164.064
 20
200.0
 30
0.0
 11
164.632
 21
200.0
 31
0.0
  0
LINE
  5
856
330
1D
100
AcDbEntity
  8
0
100
AcDbLine
 10
164.064
 20
70.6
 30
0.0
 11
164.064
 21
200.0
 31
0.0
  0
LINE
  5
857
330
1D
100
AcDbEntity
  8
0
100
AcDbLine
 10
163.8
 20
70.0
 30
0.0
 11
164.064
 21
70.6
 31
0.0
  0
LINE
  5
858
330
1D
100
AcDbEntity
  8
0
100
AcDbLine
 10
165.064
 20
200.0
 30
0.0
 11
167.064
 21
200.0
 31
0.0
  0
LINE
  5
859
330
1D
100
AcDbEntity
  8
0
100
AcDbLine
 10
164.632
 20
200.0
 30
0.0
 11
165.064
 21
200.0
 31
0.0
  0
LINE
  5
85A
330
1D
100
AcDbEntity
  8
0
100
AcDbLine
 10
165.216
 20
200.0
 30
0.0
 11
166.56
 21
200.0
 31
0.0
  0
LINE
  5
85B
330
1D
100
AcDbEntity
  8
0
100
AcDbLine
 10
166.56
 20
200.0
 30
0.0
 11
167.064
 21
200.0
 31
0.0
  0
LINE
  5
85C
330
1D
100
AcDbEntity
  8
0
100
AcDbLine
 10
164.392
 20
200.0
 30
0.0
 11
166.952
 21
200.0
 31
0.0
  0
LINE
  5
85D
330
1D
100
AcDbEntity
  8
0
100
AcDbLine
 10
166.952
 20
200.0
 30
0.0
 11
168.488
 21
200.0
 31
0.0
  0
LINE
  5
85E
330
1D
100
AcDbEntity
  8
0
100
AcDbLine
 10
164.392
 20
212.0
 30
0.0
 11
166.952
 21
212.0
 31
0.0
  0
LINE
  5
85F
330
1D
100
AcDbEntity
  8
0
100
AcDbLine
 10
166.952
 20
212.0
 30
0.0
 11
168.488
 21
212.0
 31
0.0
  0
LINE
  5
860
330
1D
100
AcDbEntity
  8
0
100
AcDbLine
 10
164.264
 20
212.0
 30
0.0
 11
166.864
 21
212.0
 31
0.0
  0
LINE
  5
861
330
1D
100
AcDbEntity
  8
0
100
AcDbLine
 10
166.864
 20
212.0
 30
0.0
 11
168.464
 21
212.0
 31
0.0
  0
LINE
  5
862
330
1D
100
AcDbEntity
  8
0
100
AcDbLine
 10
168.488
 20
212.0
 30
0.0
 11
169.064
 21
212.0
 31
0.0
  0
LINE
  5
863
330
1D
100
AcDbEntity
  8
0
100
AcDbLine
 10
168.464
 20
212.0
 30
0.0
 11
169.064
 21
212.0
 31
0.0
  0
LINE
  5
864
330
1D
100
AcDbEntity
  8
0
100
AcDbLine
 10
168.488
 20
200.0
 30
0.0
 11
169.064
 21
200.0
 31
0.0
  0
LINE
  5
865
330
1D
100
AcDbEntity
  8
0
100
AcDbLine
 10
169.064
 20
200.0
 30
0.0
 11
169.064
 21
212.142857142857
 31
0.0
  0
LINE
  5
867
330
1D
100
AcDbEntity
  8
0
100
AcDbLine
 10
169.064
 20
212.142857142857
 30
0.0
 11
169.064
 21
212.0
 31
0.0
  0
LINE
  5
868
330
1D
100
AcDbEntity
  8
0
100
AcDbLine
 10
169.064
 20
212.142857142857
 30
0.0
 11
169.064
 21
200.0
 31
0.0
  0
LINE
  5
86A
330
1D
100
AcDbEntity
  8
0
100
AcDbLine
 10
166.964
 20
238.0
 30
0.0
 11
169.764
 21
238.0
 31
0.0
  0
LINE
  5
86B
330
1D
100
AcDbEntity
  8
0
100
AcDbLine
 10
169.764
 20
238.0
 30
0.0
 11
171.364
 21
238.0
 31
0.0
  0
LINE
  5
86D
330
1D
100
AcDbEntity
  8
0
100
AcDbLine
 10
171.364
 20
238.0
 30
0.0
 11
172.064
 21
238.0
 31
0.0
  0
LINE
  5
86E
330
1D
100
AcDbEntity
  8
0
100
AcDbLine
 10
172.064
 20
215.0
 30
0.0
 11
172.064
 21
238.0
 31
0.0
  0
LINE
  5
86F
330
1D
100
AcDbEntity
  8
0
100
AcDbLine
 10
172.064
 20
238.0
 30
0.0
 11
172.064
 21
215.0
 31
0.0
  0
LINE
  5
870
330
1D
100
AcDbEntity
  8
0
100
AcDbLine
 10
171.564
 20
213.5
 30
0.0
 11
172.064
 21
215.0
 31
0.0
  0
LINE
  5
871
330
1D
100
AcDbEntity
  8
0
100
AcDbLine
 10
170.564
 20
212.5
 30
0.0
 11
171.564
 21
213.5
 31
0.0
  0
LINE
  5
872
330
1D
100
AcDbEntity
  8
0
100
AcDbLine
 10
169.064
 20
212.0
 30
0.0
 11
170.564
 21
212.5
 31
0.0
  0
LINE
  5
873
330
1D
100
AcDbEntity
  8
0
100
AcDbLine
 10
169.064
 20
212.0
 30
0.0
 11
169.064
 21
212.142857142857
 31
0.0
  0
LINE
  5
874
330
1D
100
AcDbEntity
  8
0
100
AcDbLine
 10
164.064
 20
200.0
 30
0.0
 11
164.064
 21
70.6
 31
0.0
  0
LINE
  5
875
330
1D
100
AcDbEntity
  8
0
100
AcDbLine
 10
164.064
 20
504.0
 30
0.0
 11
164.064
 21
619.39912
 31
0.0
  0
LINE
  5
876
330
1D
100
AcDbEntity
  8
0
100
AcDbLine
 10
164.064
 20
504.0
 30
0.0
 11
164.064
 21
619.39912
 31
0.0
  0
LINE
  5
877
330
1D
100
AcDbEntity
  8
0
100
AcDbLine
 10
164.064
 20
238.0
 30
0.0
 11
164.064
 21
504.0
 31
0.0
  0
LINE
  5
878
330
1D
100
AcDbEntity
  8
0
100
AcDbLine
 10
177.515
 20
525.556
 30
0.0
 11
177.917
 21
3.65159
 31
0.0
  0
LINE
  5
879
330
1D
100
AcDbEntity
  8
0
100
AcDbLine
 10
177.515
 20
525.556
 30
0.0
 11
177.917
 21
3.65159
 31
0.0
  0
LINE
  5
87A
330
1D
100
AcDbEntity
  8
0
100
AcDbLine
 10
186.833
 20
0.214086
 30
0.0
 11
189.739
 21
0.722386
 31
0.0
  0
LINE
  5
87B
330
1D
100
AcDbEntity
  8
0
100
AcDbLine
 10
192.131
 20
1.67339
 30
0.0
 11
193.56
 21
3.04719
 31
0.0
  0
LINE
  5
87C
330
1D
100
AcDbEntity
  8
0
100
AcDbLine
 10
189.739
 20
0.722386
 30
0.0
 11
192.131
 21
1.67339
 31
0.0
  0
LINE
  5
87D
330
1D
100
AcDbEntity
  8
0
100
AcDbLine
 10
183.69
 20
0.342986
 30
0.0
 11
186.833
 21
0.214086
 31
0.0
  0
LINE
  5
87E
330
1D
100
AcDbEntity
  8
0
100
AcDbLine
 10
180.891
 20
1.04569
 30
0.0
 11
183.69
 21
0.342986
 31
0.0
  0
LINE
  5
87F
330
1D
100
AcDbEntity
  8
0
100
AcDbLine
 10
192.793
 20
6.01659
 30
0.0
 11
193.823
 21
4.58899
 31
0.0
  0
LINE
  5
880
330
1D
100
AcDbEntity
  8
0
100
AcDbLine
 10
190.857
 20
7.19269
 30
0.0
 11
192.793
 21
6.01659
 31
0.0
  0
LINE
  5
881
330
1D
100
AcDbEntity
  8
0
100
AcDbLine
 10
188.063
 20
7.89649
 30
0.0
 11
190.857
 21
7.19269
 31
0.0
  0
LINE
  5
882
330
1D
100
AcDbEntity
  8
0
100
AcDbLine
 10
184.92
 20
8.02759
 30
0.0
 11
188.063
 21
7.89649
 31
0.0
  0
LINE
  5
883
330
1D
100
AcDbEntity
  8
0
100
AcDbLine
 10
182.01
 20
7.52239
 30
0.0
 11
184.92
 21
8.02759
 31
0.0
  0
LINE
  5
884
330
1D
100
AcDbEntity
  8
0
100
AcDbLine
 10
179.615
 20
6.57029
 30
0.0
 11
182.01
 21
7.52239
 31
0.0
  0
LINE
  5
885
330
1D
100
AcDbEntity
  8
0
100
AcDbLine
 10
178.182
 20
5.19659
 30
0.0
 11
179.615
 21
6.57029
 31
0.0
  0
LINE
  5
886
330
1D
100
AcDbEntity
  8
0
100
AcDbLine
 10
193.515
 20
525.56
 30
0.0
 11
193.823
 21
4.58899
 31
0.0
  0
LINE
  5
887
330
1D
100
AcDbEntity
  8
0
100
AcDbLine
 10
193.515
 20
525.56
 30
0.0
 11
193.823
 21
4.58899
 31
0.0
  0
LINE
  5
888
330
1D
100
AcDbEntity
  8
0
100
AcDbLine
 10
193.56
 20
3.04719
 30
0.0
 11
193.823
 21
4.58899
 31
0.0
  0
LINE
  5
889
330
1D
100
AcDbEntity
  8
0
100
AcDbLine
 10
178.951
 20
2.22189
 30
0.0
 11
180.891
 21
1.04569
 31
0.0
  0
LINE
  5
88A
330
1D
100
AcDbEntity
  8
0
100
AcDbLine
 10
177.917
 20
3.65159
 30
0.0
 11
178.951
 21
2.22189
 31
0.0
  0
LINE
  5
88B
330
1D
100
AcDbEntity
  8
0
100
AcDbLine
 10
177.917
 20
3.65159
 30
0.0
 11
178.182
 21
5.19659
 31
0.0
  0
LINE
  5
88C
330
1D
100
AcDbEntity
  8
0
100
AcDbLine
 10
191.515
 20
559.961
 30
0.0
 11
193.515
 21
525.56
 31
0.0
  0
LINE
  5
88D
330
1D
100
AcDbEntity
  8
0
100
AcDbLine
 10
175.714
 20
557.157
 30
0.0
 11
177.515
 21
525.556
 31
0.0
  0
LINE
  5
88E
330
1D
100
AcDbEntity
  8
0
100
AcDbLine
 10
187.815
 20
584.359
 30
0.0
 11
191.515
 21
559.961
 31
0.0
  0
LINE
  5
88F
330
1D
100
AcDbEntity
  8
0
100
AcDbLine
 10
172.815
 20
578.854
 30
0.0
 11
175.714
 21
557.157
 31
0.0
  0
LINE
  5
890
330
1D
100
AcDbEntity
  8
0
100
AcDbLine
 10
182.715
 20
609.756
 30
0.0
 11
187.815
 21
584.359
 31
0.0
  0
LINE
  5
891
330
1D
100
AcDbEntity
  8
0
100
AcDbLine
 10
168.216
 20
603.061
 30
0.0
 11
172.815
 21
578.854
 31
0.0
  0
LINE
  5
892
330
1D
100
AcDbEntity
  8
0
100
AcDbLine
 10
162.016
 20
627.458
 30
0.0
 11
168.216
 21
603.061
 31
0.0
  0
LINE
  5
893
330
1D
100
AcDbEntity
  8
0
100
AcDbLine
 10
175.915
 20
635.464
 30
0.0
 11
182.715
 21
609.756
 31
0.0
  0
LINE
  5
894
330
1D
100
AcDbEntity
  8
0
100
AcDbLine
 10
154.115
 20
650.254
 30
0.0
 11
162.016
 21
627.458
 31
0.0
  0
LINE
  5
895
330
1D
100
AcDbEntity
  8
0
100
AcDbLine
 10
144.096809364981
 20
672.131755333603
 30
0.0
 11
146.569712050104
 21
667.848546574245
 31
0.0
  0
LINE
  5
896
330
1D
100
AcDbEntity
  8
0
100
AcDbLine
 10
146.569712050104
 20
667.848546574245
 30
0.0
 11
154.115
 21
650.254
 31
0.0
  0
LINE
  5
897
330
1D
100
AcDbEntity
  8
0
100
AcDbLine
 10
146.637
 20
667.732
 30
0.0
 11
148.975
 21
669.082
 31
0.0
  0
LINE
  5
899
330
1D
100
AcDbEntity
  8
0
100
AcDbLine
 10
148.975
 20
669.082
 30
0.0
 11
151.66
 21
670.632
 31
0.0
  0
LINE
  5
89A
330
1D
100
AcDbEntity
  8
0
100
AcDbLine
 10
157.549
 20
674.032
 30
0.0
 11
160.233
 21
675.582
 31
0.0
  0
LINE
  5
89B
330
1D
100
AcDbEntity
  8
0
100
AcDbLine
 10
154.604
 20
672.332
 30
0.0
 11
157.549
 21
674.032
 31
0.0
  0
LINE
  5
89C
330
1D
100
AcDbEntity
  8
0
100
AcDbLine
 10
151.66
 20
670.632
 30
0.0
 11
154.604
 21
672.332
 31
0.0
  0
LINE
  5
89D
330
1D
100
AcDbEntity
  8
0
100
AcDbLine
 10
159.92882169029
 20
675.406338159445
 30
0.0
 11
167.516
 21
658.951
 31
0.0
  0
LINE
  5
8A0
330
1D
100
AcDbEntity
  8
0
100
AcDbLine
 10
168.138575364609
 20
657.210027552261
 30
0.0
 11
168.68
 21
661.0
 31
0.0
  0
LINE
  5
8A4
330
1D
100
AcDbEntity
  8
0
100
AcDbLine
 10
159.946166695237
 20
675.368719704977
 30
0.0
 11
161.08
 21
674.916
 31
0.0
  0
LINE
  5
8A5
330
1D
100
AcDbEntity
  8
0
100
AcDbLine
 10
159.96460000004
 20
675.427000000023
 30
0.0
 11
160.59284615362
 21
675.789692307562
 31
0.0
  0
LINE
  5
8A6
330
1D
100
AcDbEntity
  8
0
100
AcDbLine
 10
164.064
 20
666.437818551991
 30
0.0
 11
164.064
 21
677.793242440901
 31
0.0
  0
LINE
  5
8A7
330
1D
100
AcDbEntity
  8
0
100
AcDbLine
 10
164.072
 20
672.008
 30
0.0
 11
166.568
 21
668.744
 31
0.0
  0
LINE
  5
8AC
330
1D
100
AcDbEntity
  8
0
100
AcDbLine
 10
159.964600000041
 20
675.427000000024
 30
0.0
 11
160.592846153619
 21
675.789692307561
 31
0.0
  0
LINE
  5
8AD
330
1D
100
AcDbEntity
  8
0
100
AcDbLine
 10
162.279625000644
 20
676.763250000371
 30
0.0
 11
162.832
 21
677.082
 31
0.0
  0
LINE
  5
8AE
330
1D
100
AcDbEntity
  8
0
100
AcDbLine
 10
162.279625000642
 20
676.763250000371
 30
0.0
 11
162.832
 21
677.082
 31
0.0
  0
LINE
  5
8AF
330
1D
100
AcDbEntity
  8
0
100
AcDbLine
 10
164.064
 20
681.9479708
 30
0.0
 11
164.064
 21
937.4
 31
0.0
  0
LINE
  5
8B0
330
1D
100
AcDbEntity
  8
0
100
AcDbLine
 10
164.064
 20
677.793242440901
 30
0.0
 11
164.064
 21
666.437818551991
 31
0.0
  0
LINE
  5
8B1
330
1D
100
AcDbEntity
  8
0
100
AcDbLine
 10
164.064
 20
681.9479708
 30
0.0
 11
164.064
 21
937.4
 31
0.0
  0
LINE
  5
8B2
330
1D
100
AcDbEntity
  8
0
100
AcDbLine
 10
162.832
 20
677.082
 30
0.0
 11
163.481499999951
 21
677.456999999972
 31
0.0
  0
LINE
  5
8B3
330
1D
100
AcDbEntity
  8
0
100
AcDbLine
 10
162.572
 20
676.932
 30
0.0
 11
164.391
 21
677.982
 31
0.0
  0
LINE
  5
8B4
330
1D
100
AcDbEntity
  8
0
100
AcDbLine
 10
160.233
 20
675.582
 30
0.0
 11
162.572
 21
676.932
 31
0.0
  0
LINE
  5
8B5
330
1D
100
AcDbEntity
  8
0
100
AcDbLine
 10
166.568
 20
668.744
 30
0.0
 11
168.104
 21
665.032
 31
0.0
  0
LINE
  5
8B7
330
1D
100
AcDbEntity
  8
0
100
AcDbLine
 10
168.104
 20
665.032
 30
0.0
 11
168.68
 21
661.0
 31
0.0
  0
LINE
  5
8BC
330
1D
100
AcDbEntity
  8
0
100
AcDbLine
 10
165.43
 20
678.582
 30
0.0
 11
165.863
 21
678.832
 31
0.0
  0
LINE
  5
8BD
330
1D
100
AcDbEntity
  8
0
100
AcDbLine
 10
164.391
 20
677.982
 30
0.0
 11
165.43
 21
678.582
 31
0.0
  0
LINE
  5
8BE
330
1D
100
AcDbEntity
  8
0
100
AcDbLine
 10
167.516
 20
658.951
 30
0.0
 11
175.915
 21
635.464
 31
0.0
  0
LINE
  5
8BF
330
1D
100
AcDbEntity
  8
0
100
AcDbLine
 10
159.92882169029
 20
675.406338159445
 30
0.0
 11
167.516
 21
658.951
 31
0.0
  0
LINE
  5
8C0
330
1D
100
AcDbEntity
  8
0
100
AcDbLine
 10
146.569712050104
 20
667.848546574245
 30
0.0
 11
154.115
 21
650.254
 31
0.0
  0
LINE
  5
8C1
330
1D
100
AcDbEntity
  8
0
100
AcDbLine
 10
143.778
 20
671.948
 30
0.0
 11
144.096809364981
 21
672.131755333603
 31
0.0
  0
LINE
  5
8C6
330
1D
100
AcDbEntity
  8
0
100
AcDbLine
 10
128.431
 20
697.729
 30
0.0
 11
130.077
 21
698.678
 31
0.0
  0
LINE
  5
8CA
330
1D
100
AcDbEntity
  8
0
100
AcDbLine
 10
130.077
 20
698.678
 30
0.0
 11
132.155
 21
699.878
 31
0.0
  0
LINE
  5
8CB
330
1D
100
AcDbEntity
  8
0
100
AcDbLine
 10
152.631
 20
701.81
 30
0.0
 11
152.636273357033
 21
701.74144635857
 31
0.0
  0
LINE
  5
8D0
330
1D
100
AcDbEntity
  8
0
100
AcDbLine
 10
145.072
 20
707.243
 30
0.0
 11
146.891
 21
708.293
 31
0.0
  0
LINE
  5
8D1
330
1D
100
AcDbEntity
  8
0
100
AcDbLine
 10
146.891
 20
708.293
 30
0.0
 11
147.93
 21
708.893
 31
0.0
  0
LINE
  5
8D2
330
1D
100
AcDbEntity
  8
0
100
AcDbLine
 10
142.733
 20
705.893
 30
0.0
 11
145.072
 21
707.243
 31
0.0
  0
LINE
  5
8D3
330
1D
100
AcDbEntity
  8
0
100
AcDbLine
 10
140.049
 20
704.343
 30
0.0
 11
142.733
 21
705.893
 31
0.0
  0
LINE
  5
8D4
330
1D
100
AcDbEntity
  8
0
100
AcDbLine
 10
137.104
 20
702.643
 30
0.0
 11
140.049
 21
704.343
 31
0.0
  0
LINE
  5
8D5
330
1D
100
AcDbEntity
  8
0
100
AcDbLine
 10
134.16
 20
700.943
 30
0.0
 11
137.104
 21
702.643
 31
0.0
  0
LINE
  5
8D6
330
1D
100
AcDbEntity
  8
0
100
AcDbLine
 10
147.93
 20
708.893
 30
0.0
 11
148.363
 21
709.143
 31
0.0
  0
LINE
  5
8D7
330
1D
100
AcDbEntity
  8
0
100
AcDbLine
 10
142.328
 20
938.0
 30
0.0
 11
142.724
 21
938.0
 31
0.0
  0
LINE
  5
8D8
330
1D
100
AcDbEntity
  8
0
100
AcDbLine
 10
142.064
 20
937.4
 30
0.0
 11
142.328
 21
938.0
 31
0.0
  0
LINE
  5
8D9
330
1D
100
AcDbEntity
  8
0
100
AcDbLine
 10
142.724
 20
938.0
 30
0.0
 11
143.78
 21
938.0
 31
0.0
  0
LINE
  5
8DA
330
1D
100
AcDbEntity
  8
0
100
AcDbLine
 10
143.78
 20
938.0
 30
0.0
 11
145.496
 21
938.0
 31
0.0
  0
LINE
  5
8DE
330
1D
100
AcDbEntity
  8
0
100
AcDbLine
 10
145.496
 20
938.0
 30
0.0
 11
147.74
 21
938.0
 31
0.0
  0
LINE
  5
8DF
330
1D
100
AcDbEntity
  8
0
100
AcDbLine
 10
142.064
 20
938.385
 30
0.0
 11
142.46
 21
938.385
 31
0.0
  0
LINE
  5
8E0
330
1D
100
AcDbEntity
  8
0
100
AcDbLine
 10
142.064
 20
938.385
 30
0.0
 11
142.328
 21
938.0
 31
0.0
  0
LINE
  5
8E1
330
1D
100
AcDbEntity
  8
0
100
AcDbLine
 10
142.064
 20
938.385
 30
0.0
 11
142.064
 21
1007.62
 31
0.0
  0
LINE
  5
8E2
330
1D
100
AcDbEntity
  8
0
100
AcDbLine
 10
142.46
 20
938.385
 30
0.0
 11
143.516
 21
938.385
 31
0.0
  0
LINE
  5
8E3
330
1D
100
AcDbEntity
  8
0
100
AcDbLine
 10
143.516
 20
938.385
 30
0.0
 11
145.276
 21
938.385
 31
0.0
  0
LINE
  5
8E4
330
1D
100
AcDbEntity
  8
0
100
AcDbLine
 10
142.064
 20
1007.62
 30
0.0
 11
142.064
 21
938.385
 31
0.0
  0
LINE
  5
8E5
330
1D
100
AcDbEntity
  8
0
100
AcDbLine
 10
142.064
 20
1007.62
 30
0.0
 11
142.46
 21
1007.62
 31
0.0
  0
LINE
  5
8E6
330
1D
100
AcDbEntity
  8
0
100
AcDbLine
 10
142.064
 20
1007.62
 30
0.0
 11
142.328
 21
1008.0
 31
0.0
  0
LINE
  5
8E7
330
1D
100
AcDbEntity
  8
0
100
AcDbLine
 10
142.46
 20
1007.62
 30
0.0
 11
143.516
 21
1007.62
 31
0.0
  0
LINE
  5
8E8
330
1D
100
AcDbEntity
  8
0
100
AcDbLine
 10
143.516
 20
1007.62
 30
0.0
 11
145.276
 21
1007.62
 31
0.0
  0
LINE
  5
8E9
330
1D
100
AcDbEntity
  8
0
100
AcDbLine
 10
142.328
 20
1008.0
 30
0.0
 11
142.724
 21
1008.0
 31
0.0
  0
LINE
  5
8EA
330
1D
100
AcDbEntity
  8
0
100
AcDbLine
 10
142.724
 20
1008.0
 30
0.0
 11
143.78
 21
1008.0
 31
0.0
  0
LINE
  5
8EB
330
1D
100
AcDbEntity
  8
0
100
AcDbLine
 10
143.78
 20
1008.0
 30
0.0
 11
145.496
 21
1008.0
 31
0.0
  0
LINE
  5
8EC
330
1D
100
AcDbEntity
  8
0
100
AcDbLine
 10
145.496
 20
1008.0
 30
0.0
 11
147.74
 21
1008.0
 31
0.0
  0
LINE
  5
8ED
330
1D
100
AcDbEntity
  8
0
100
AcDbLine
 10
145.276
 20
1007.62
 30
0.0
 11
147.608
 21
1007.62
 31
0.0
  0
LINE
  5
8EE
330
1D
100
AcDbEntity
  8
0
100
AcDbLine
 10
147.608
 20
1007.62
 30
0.0
 11
150.248
 21
1007.62
 31
0.0
  0
LINE
  5
8EF
330
1D
100
AcDbEntity
  8
0
100
AcDbLine
 10
145.276
 20
938.385
 30
0.0
 11
147.608
 21
938.385
 31
0.0
  0
LINE
  5
8F0
330
1D
100
AcDbEntity
  8
0
100
AcDbLine
 10
147.74
 20
1008.0
 30
0.0
 11
150.292
 21
1008.0
 31
0.0
  0
LINE
  5
8F1
330
1D
100
AcDbEntity
  8
0
100
AcDbLine
 10
147.608
 20
938.385
 30
0.0
 11
150.248
 21
938.385
 31
0.0
  0
LINE
  5
8F2
330
1D
100
AcDbEntity
  8
0
100
AcDbLine
 10
147.74
 20
938.0
 30
0.0
 11
150.292
 21
938.0
 31
0.0
  0
LINE
  5
8F3
330
1D
100
AcDbEntity
  8
0
100
AcDbLine
 10
142.064
 20
723.730219042499
 30
0.0
 11
142.064
 21
937.4
 31
0.0
  0
LINE
  5
8F7
330
1D
100
AcDbEntity
  8
0
100
AcDbLine
 10
163.404
 20
938.0
 30
0.0
 11
163.8
 21
938.0
 31
0.0
  0
LINE
  5
8F8
330
1D
100
AcDbEntity
  8
0
100
AcDbLine
 10
162.348
 20
938.0
 30
0.0
 11
163.404
 21
938.0
 31
0.0
  0
LINE
  5
8F9
330
1D
100
AcDbEntity
  8
0
100
AcDbLine
 10
160.632
 20
938.0
 30
0.0
 11
162.348
 21
938.0
 31
0.0
  0
LINE
  5
8FA
330
1D
100
AcDbEntity
  8
0
100
AcDbLine
 10
158.388
 20
938.0
 30
0.0
 11
160.632
 21
938.0
 31
0.0
  0
LINE
  5
8FB
330
1D
100
AcDbEntity
  8
0
100
AcDbLine
 10
155.836
 20
938.0
 30
0.0
 11
158.388
 21
938.0
 31
0.0
  0
LINE
  5
8FC
330
1D
100
AcDbEntity
  8
0
100
AcDbLine
 10
155.836
 20
938.0
 30
0.0
 11
188.064
 21
938.0
 31
0.0
  0
LINE
  5
8FD
330
1D
100
AcDbEntity
  8
0
100
AcDbLine
 10
153.064
 20
938.0
 30
0.0
 11
155.836
 21
938.0
 31
0.0
  0
LINE
  5
8FE
330
1D
100
AcDbEntity
  8
0
100
AcDbLine
 10
188.064
 20
938.0
 30
0.0
 11
188.064
 21
983.0
 31
0.0
  0
LINE
  5
8FF
330
1D
100
AcDbEntity
  8
0
100
AcDbLine
 10
163.8
 20
938.0
 30
0.0
 11
164.064
 21
937.4
 31
0.0
  0
LINE
  5
900
330
1D
100
AcDbEntity
  8
0
100
AcDbLine
 10
163.8
 20
938.0
 30
0.0
 11
188.064
 21
938.0
 31
0.0
  0
LINE
  5
901
330
1D
100
AcDbEntity
  8
0
100
AcDbLine
 10
150.248
 20
1007.62
 30
0.0
 11
153.064
 21
1007.62
 31
0.0
  0
LINE
  5
902
330
1D
100
AcDbEntity
  8
0
100
AcDbLine
 10
155.88
 20
938.385
 30
0.0
 11
158.52
 21
938.385
 31
0.0
  0
LINE
  5
903
330
1D
100
AcDbEntity
  8
0
100
AcDbLine
 10
156.818785296454
 20
983.0
 30
0.0
 11
188.064
 21
983.0
 31
0.0
  0
LINE
  5
904
330
1D
100
AcDbEntity
  8
0
100
AcDbLine
 10
164.064
 20
1007.62
 30
0.0
 11
164.064
 21
983.0
 31
0.0
  0
LINE
  5
905
330
1D
100
AcDbEntity
  8
0
100
AcDbLine
 10
163.668
 20
1007.62
 30
0.0
 11
164.064
 21
1007.62
 31
0.0
  0
LINE
  5
906
330
1D
100
AcDbEntity
  8
0
100
AcDbLine
 10
188.064
 20
983.0
 30
0.0
 11
188.064
 21
938.0
 31
0.0
  0
LINE
  5
907
330
1D
100
AcDbEntity
  8
0
100
AcDbLine
 10
164.064
 20
983.0
 30
0.0
 11
164.064
 21
1007.62
 31
0.0
  0
LINE
  5
908
330
1D
100
AcDbEntity
  8
0
100
AcDbLine
 10
162.612
 20
1007.62
 30
0.0
 11
163.668
 21
1007.62
 31
0.0
  0
LINE
  5
909
330
1D
100
AcDbEntity
  8
0
100
AcDbLine
 10
160.852
 20
1007.62
 30
0.0
 11
162.612
 21
1007.62
 31
0.0
  0
LINE
  5
90A
330
1D
100
AcDbEntity
  8
0
100
AcDbLine
 10
158.52
 20
1007.62
 30
0.0
 11
160.852
 21
1007.62
 31
0.0
  0
LINE
  5
90B
330
1D
100
AcDbEntity
  8
0
100
AcDbLine
 10
155.88
 20
1007.62
 30
0.0
 11
158.52
 21
1007.62
 31
0.0
  0
LINE
  5
90C
330
1D
100
AcDbEntity
  8
0
100
AcDbLine
 10
163.8
 20
1008.0
 30
0.0
 11
164.064
 21
1007.62
 31
0.0
  0
LINE
  5
90D
330
1D
100
AcDbEntity
  8
0
100
AcDbLine
 10
163.404
 20
1008.0
 30
0.0
 11
163.8
 21
1008.0
 31
0.0
  0
LINE
  5
90E
330
1D
100
AcDbEntity
  8
0
100
AcDbLine
 10
162.348
 20
1008.0
 30
0.0
 11
163.404
 21
1008.0
 31
0.0
  0
LINE
  5
90F
330
1D
100
AcDbEntity
  8
0
100
AcDbLine
 10
160.632
 20
1008.0
 30
0.0
 11
162.348
 21
1008.0
 31
0.0
  0
LINE
  5
910
330
1D
100
AcDbEntity
  8
0
100
AcDbLine
 10
158.388
 20
1008.0
 30
0.0
 11
160.632
 21
1008.0
 31
0.0
  0
LINE
  5
911
330
1D
100
AcDbEntity
  8
0
100
AcDbLine
 10
155.836
 20
1008.0
 30
0.0
 11
158.388
 21
1008.0
 31
0.0
  0
LINE
  5
912
330
1D
100
AcDbEntity
  8
0
100
AcDbLine
 10
153.064
 20
1008.0
 30
0.0
 11
155.836
 21
1008.0
 31
0.0
  0
LINE
  5
913
330
1D
100
AcDbEntity
  8
0
100
AcDbLine
 10
153.064
 20
1007.62
 30
0.0
 11
155.88
 21
1007.62
 31
0.0
  0
LINE
  5
914
330
1D
100
AcDbEntity
  8
0
100
AcDbLine
 10
150.292
 20
1008.0
 30
0.0
 11
153.064
 21
1008.0
 31
0.0
  0
LINE
  5
915
330
1D
100
AcDbEntity
  8
0
100
AcDbLine
 10
153.064
 20
938.385
 30
0.0
 11
155.88
 21
938.385
 31
0.0
  0
LINE
  5
916
330
1D
100
AcDbEntity
  8
0
100
AcDbLine
 10
150.248
 20
938.385
 30
0.0
 11
153.064
 21
938.385
 31
0.0
  0
LINE
  5
917
330
1D
100
AcDbEntity
  8
0
100
AcDbLine
 10
150.292
 20
938.0
 30
0.0
 11
153.064
 21
938.0
 31
0.0
  0
LINE
  5
918
330
1D
100
AcDbEntity
  8
0
100
AcDbLine
 10
148.363
 20
709.143
 30
0.0
 11
165.863
 21
678.832
 31
0.0
  0
LINE
  5
919
330
1D
100
AcDbEntity
  8
0
100
AcDbLine
 10
132.155
 20
699.878
 30
0.0
 11
132.801681870614
 21
700.251521679008
 31
0.0
  0
LINE
  5
91A
330
1D
100
AcDbEntity
  8
0
100
AcDbLine
 10
127.479
 20
697.178
 30
0.0
 11
127.564651837556
 21
697.227573700098
 31
0.0
  0
LINE
  5
91B
330
1D
100
AcDbEntity
  8
0
100
AcDbLine
 10
127.479
 20
697.178
 30
0.0
 11
128.431
 21
697.729
 31
0.0
  0
LINE
  5
91C
330
1D
100
AcDbEntity
  8
0
100
AcDbLine
 10
127.132
 20
696.979
 30
0.0
 11
143.431
 21
671.747
 31
0.0
  0
LINE
  5
91D
330
1D
100
AcDbEntity
  8
0
100
AcDbLine
 10
127.132
 20
696.979
 30
0.0
 11
127.479
 21
697.178
 31
0.0
  0
LINE
  5
D0E
330
1D
100
AcDbEntity
  8
0
100
AcDbLine
 10
13.663437917134
 20
848.084224628963
 30
0.0
 11
14.73431553778
 21
849.232670218025
 31
0.0
  0
LINE
  5
D0F
330
1D
100
AcDbEntity
  8
0
100
AcDbLine
 10
14.029637917134
 20
845.418224628963
 30
0.0
 11
15.382429712826
 21
846.869004569387
 31
0.0
  0
LINE
  5
D10
330
1D
100
AcDbEntity
  8
0
100
AcDbLine
 10
13.81993213662
 20
848.252054353497
 30
0.0
 11
13.92679153352
 21
848.167292591637
 31
0.0
  0
LINE
  5
D11
330
1D
100
AcDbEntity
  8
0
100
AcDbLine
 10
10.954137917134
 20
850.610224628963
 30
0.0
 11
11.939746002681
 21
851.66722426792
 31
0.0
  0
LINE
  5
D12
330
1D
100
AcDbEntity
  8
0
100
AcDbLine
 10
10.625037917134
 20
850.917224628963
 30
0.0
 11
10.954137917134
 21
850.610224628963
 31
0.0
  0
LINE
  5
D13
330
1D
100
AcDbEntity
  8
0
100
AcDbLine
 10
11.469437917134
 20
850.130224628963
 30
0.0
 11
11.798537917134
 21
849.823224628963
 31
0.0
  0
LINE
  5
D14
330
1D
100
AcDbEntity
  8
0
100
AcDbLine
 10
11.469437917134
 20
850.130224628963
 30
0.0
 11
12.905215292052
 21
851.670046283579
 31
0.0
  0
LINE
  5
D15
330
1D
100
AcDbEntity
  8
0
100
AcDbLine
 10
11.469437917134
 20
850.130224628963
 30
0.0
 11
12.15794778609
 21
850.86862768793
 31
0.0
  0
LINE
  5
D16
330
1D
100
AcDbEntity
  8
0
100
AcDbLine
 10
11.469437917134
 20
850.130224628963
 30
0.0
 11
12.15794778609
 21
850.86862768793
 31
0.0
  0
LINE
  5
D17
330
1D
100
AcDbEntity
  8
0
100
AcDbLine
 10
11.798537917134
 20
849.823224628963
 30
0.0
 11
12.566437917134
 21
849.107224628963
 31
0.0
  0
LINE
  5
D18
330
1D
100
AcDbEntity
  8
0
100
AcDbLine
 10
10.05114022161
 20
851.452334343763
 30
0.0
 11
10.625037917134
 21
850.917224628963
 31
0.0
  0
LINE
  5
D19
330
1D
100
AcDbEntity
  8
0
100
AcDbLine
 10
11.733430133481
 20
851.445964111421
 30
0.0
 11
12.15794778609
 21
850.86862768793
 31
0.0
  0
LINE
  5
D1A
330
1D
100
AcDbEntity
  8
0
100
AcDbLine
 10
11.733430133481
 20
851.445964111421
 30
0.0
 11
12.15794778609
 21
850.86862768793
 31
0.0
  0
LINE
  5
D1B
330
1D
100
AcDbEntity
  8
0
100
AcDbLine
 10
9.857137917134
 20
851.633224628963
 30
0.0
 11
10.625037917134
 21
850.917224628963
 31
0.0
  0
LINE
  5
D1C
330
1D
100
AcDbEntity
  8
0
100
AcDbLine
 10
11.862032530794
 20
851.583881697043
 30
0.0
 11
12.088837917134
 21
851.335224628963
 31
0.0
  0
LINE
  5
D1D
330
1D
100
AcDbEntity
  8
0
100
AcDbLine
 10
13.334337917134
 20
848.391224628963
 30
0.0
 11
13.663437917134
 21
848.084224628963
 31
0.0
  0
LINE
  5
D1E
330
1D
100
AcDbEntity
  8
0
100
AcDbLine
 10
12.566437917134
 20
849.107224628963
 30
0.0
 11
13.334337917134
 21
848.391224628963
 31
0.0
  0
LINE
  5
D1F
330
1D
100
AcDbEntity
  8
0
100
AcDbLine
 10
14.243896597108
 20
848.706728263175
 30
0.0
 11
14.785637917134
 21
848.271224628963
 31
0.0
  0
LINE
  5
D20
330
1D
100
AcDbEntity
  8
0
100
AcDbLine
 10
12.659601434352
 20
851.406633902686
 30
0.0
 11
12.905215292052
 21
851.670046283579
 31
0.0
  0
LINE
  5
D21
330
1D
100
AcDbEntity
  8
0
100
AcDbLine
 10
13.547937917134
 20
850.894224628963
 30
0.0
 11
14.384137917134
 21
849.754224628963
 31
0.0
  0
LINE
  5
D22
330
1D
100
AcDbEntity
  8
0
100
AcDbLine
 10
12.088837917134
 20
851.335224628963
 30
0.0
 11
12.144837917134
 21
851.331224628963
 31
0.0
  0
LINE
  5
D23
330
1D
100
AcDbEntity
  8
0
100
AcDbLine
 10
13.839939880022
 20
848.273511338136
 30
0.0
 11
14.259637917134
 21
847.760224628963
 31
0.0
  0
LINE
  5
D24
330
1D
100
AcDbEntity
  8
0
100
AcDbLine
 10
14.376237917134
 20
850.838224628963
 30
0.0
 11
14.705337917134
 21
850.531224628963
 31
0.0
  0
LINE
  5
D25
330
1D
100
AcDbEntity
  8
0
100
AcDbLine
 10
14.376237917134
 20
850.838224628963
 30
0.0
 11
15.702663260015
 21
852.26033930743
 31
0.0
  0
LINE
  5
D26
330
1D
100
AcDbEntity
  8
0
100
AcDbLine
 10
14.473963102124
 20
848.953459409465
 30
0.0
 11
14.754137917134
 21
848.345224628963
 31
0.0
  0
LINE
  5
D27
330
1D
100
AcDbEntity
  8
0
100
AcDbLine
 10
14.705337917134
 20
850.531224628963
 30
0.0
 11
15.473237917134
 21
849.815224628963
 31
0.0
  0
LINE
  5
D28
330
1D
100
AcDbEntity
  8
0
100
AcDbLine
 10
14.541764474562
 20
849.026171907706
 30
0.0
 11
14.804237917134
 21
848.734224628963
 31
0.0
  0
LINE
  5
D29
330
1D
100
AcDbEntity
  8
0
100
AcDbLine
 10
14.384137917134
 20
849.754224628963
 30
0.0
 11
14.945437917134
 21
848.918224628963
 31
0.0
  0
LINE
  5
D2A
330
1D
100
AcDbEntity
  8
0
100
AcDbLine
 10
14.259637917134
 20
847.760224628963
 30
0.0
 11
15.108137917134
 21
846.724224628963
 31
0.0
  0
LINE
  5
D2B
330
1D
100
AcDbEntity
  8
0
100
AcDbLine
 10
8.851869930484
 20
852.570627296465
 30
0.0
 11
8.954047917134
 21
852.475224628963
 31
0.0
  0
LINE
  5
D2C
330
1D
100
AcDbEntity
  8
0
100
AcDbLine
 10
8.851869930484
 20
852.570627296465
 30
0.0
 11
8.954047917134
 21
852.475224628963
 31
0.0
  0
LINE
  5
D2D
330
1D
100
AcDbEntity
  8
0
100
AcDbLine
 10
8.954047917134
 20
852.475224628963
 30
0.0
 11
9.721937917134
 21
851.759224628963
 31
0.0
  0
LINE
  5
D2E
330
1D
100
AcDbEntity
  8
0
100
AcDbLine
 10
7.857017917134
 20
853.498224628963
 30
0.0
 11
8.186127917134
 21
853.192224628963
 31
0.0
  0
LINE
  5
D2F
330
1D
100
AcDbEntity
  8
0
100
AcDbLine
 10
7.857017917134
 20
853.498224628963
 30
0.0
 11
9.181313985942
 21
854.918436452832
 31
0.0
  0
LINE
  5
D30
330
1D
100
AcDbEntity
  8
0
100
AcDbLine
 10
7.857017917134
 20
853.498224628963
 30
0.0
 11
9.181313985942
 21
854.918436452832
 31
0.0
  0
LINE
  5
D31
330
1D
100
AcDbEntity
  8
0
100
AcDbLine
 10
8.186127917134
 20
853.192224628963
 30
0.0
 11
8.760147812332
 21
852.656267413554
 31
0.0
  0
LINE
  5
D32
330
1D
100
AcDbEntity
  8
0
100
AcDbLine
 10
8.760107917134
 20
852.656224628963
 30
0.0
 11
9.089217917134
 21
852.349224628963
 31
0.0
  0
LINE
  5
D33
330
1D
100
AcDbEntity
  8
0
100
AcDbLine
 10
8.760107917134
 20
852.656224628963
 30
0.0
 11
10.137114605621
 21
854.132960452342
 31
0.0
  0
LINE
  5
D34
330
1D
100
AcDbEntity
  8
0
100
AcDbLine
 10
8.760107917134
 20
852.656224628963
 30
0.0
 11
8.851869930484
 21
852.570627296465
 31
0.0
  0
LINE
  5
D35
330
1D
100
AcDbEntity
  8
0
100
AcDbLine
 10
8.760107917134
 20
852.656224628963
 30
0.0
 11
8.851869930484
 21
852.570627296465
 31
0.0
  0
LINE
  5
D36
330
1D
100
AcDbEntity
  8
0
100
AcDbLine
 10
9.721937917134
 20
851.759224628963
 30
0.0
 11
10.051037917134
 21
851.452224628963
 31
0.0
  0
LINE
  5
D37
330
1D
100
AcDbEntity
  8
0
100
AcDbLine
 10
11.361737917134
 20
853.649224628963
 30
0.0
 11
11.690837917134
 21
853.342224628963
 31
0.0
  0
LINE
  5
D38
330
1D
100
AcDbEntity
  8
0
100
AcDbLine
 10
11.690837917134
 20
853.342224628963
 30
0.0
 11
12.564204462907
 21
854.278596503258
 31
0.0
  0
LINE
  5
D39
330
1D
100
AcDbEntity
  8
0
100
AcDbLine
 10
11.690837917134
 20
853.342224628963
 30
0.0
 11
12.564204462907
 21
854.278596503258
 31
0.0
  0
LINE
  5
D3A
330
1D
100
AcDbEntity
  8
0
100
AcDbLine
 10
12.139437917134
 20
852.480224628963
 30
0.0
 11
12.639137917134
 21
851.991224628963
 31
0.0
  0
LINE
  5
D3B
330
1D
100
AcDbEntity
  8
0
100
AcDbLine
 10
12.017237917134
 20
852.467224628963
 30
0.0
 11
12.326037917134
 21
851.894224628963
 31
0.0
  0
LINE
  5
D3C
330
1D
100
AcDbEntity
  8
0
100
AcDbLine
 10
12.017237917134
 20
852.467224628963
 30
0.0
 11
12.139437917134
 21
852.480224628963
 31
0.0
  0
LINE
  5
D3D
330
1D
100
AcDbEntity
  8
0
100
AcDbLine
 10
11.927537917134
 20
851.687224628963
 30
0.0
 11
12.144837917134
 21
851.331224628963
 31
0.0
  0
LINE
  5
D3E
330
1D
100
AcDbEntity
  8
0
100
AcDbLine
 10
11.420537917134
 20
852.425224628963
 30
0.0
 11
11.927537917134
 21
851.687224628963
 31
0.0
  0
LINE
  5
D3F
330
1D
100
AcDbEntity
  8
0
100
AcDbLine
 10
10.793837917134
 20
853.277224628963
 30
0.0
 11
11.420537917134
 21
852.425224628963
 31
0.0
  0
LINE
  5
D40
330
1D
100
AcDbEntity
  8
0
100
AcDbLine
 10
9.544737917134
 20
854.741224628963
 30
0.0
 11
10.029144952496
 21
854.017171142137
 31
0.0
  0
LINE
  5
D41
330
1D
100
AcDbEntity
  8
0
100
AcDbLine
 10
9.544737917134
 20
854.741224628963
 30
0.0
 11
9.551437917134
 21
854.832224628963
 31
0.0
  0
LINE
  5
D42
330
1D
100
AcDbEntity
  8
0
100
AcDbLine
 10
9.496837917134
 20
855.388224628963
 30
0.0
 11
9.825937917134
 21
855.081224628963
 31
0.0
  0
LINE
  5
D43
330
1D
100
AcDbEntity
  8
0
100
AcDbLine
 10
9.496837917134
 20
855.388224628963
 30
0.0
 11
10.839980377425
 21
856.828262410437
 31
0.0
  0
LINE
  5
D44
330
1D
100
AcDbEntity
  8
0
100
AcDbLine
 10
9.147863113297
 20
854.963824168426
 30
0.0
 11
9.181240076674
 21
854.918357190485
 31
0.0
  0
LINE
  5
D45
330
1D
100
AcDbEntity
  8
0
100
AcDbLine
 10
10.593837917134
 20
854.365224628963
 30
0.0
 11
11.361737917134
 21
853.649224628963
 31
0.0
  0
LINE
  5
D46
330
1D
100
AcDbEntity
  8
0
100
AcDbLine
 10
9.825937917134
 20
855.081224628963
 30
0.0
 11
10.593837917134
 21
854.365224628963
 31
0.0
  0
LINE
  5
D47
330
1D
100
AcDbEntity
  8
0
100
AcDbLine
 10
9.551437917134
 20
854.832224628963
 30
0.0
 11
10.063237917134
 21
854.229224628963
 31
0.0
  0
LINE
  5
D48
330
1D
100
AcDbEntity
  8
0
100
AcDbLine
 10
10.063237917134
 20
854.229224628963
 30
0.0
 11
10.793837917134
 21
853.277224628963
 31
0.0
  0
LINE
  5
D49
330
1D
100
AcDbEntity
  8
0
100
AcDbLine
 10
9.132827917134
 20
854.984224628963
 30
0.0
 11
9.926599160112
 21
853.907198513525
 31
0.0
  0
LINE
  5
D4A
330
1D
100
AcDbEntity
  8
0
100
AcDbLine
 10
5.847657917134
 20
858.791224628963
 30
0.0
 11
6.616080259279
 21
859.615086376798
 31
0.0
  0
LINE
  5
D4B
330
1D
100
AcDbEntity
  8
0
100
AcDbLine
 10
3.847037917134
 20
860.656224628963
 30
0.0
 11
5.847657917134
 21
858.791224628963
 31
0.0
  0
LINE
  5
D4C
330
1D
100
AcDbEntity
  8
0
100
AcDbLine
 10
5.942687917134
 20
858.702224628963
 30
0.0
 11
6.271797917134
 21
858.395224628963
 31
0.0
  0
LINE
  5
D4D
330
1D
100
AcDbEntity
  8
0
100
AcDbLine
 10
5.942687917134
 20
858.702224628963
 30
0.0
 11
7.213227750012
 21
860.064814745778
 31
0.0
  0
LINE
  5
D4E
330
1D
100
AcDbEntity
  8
0
100
AcDbLine
 10
6.271797917134
 20
858.395224628963
 30
0.0
 11
7.039717917134
 21
857.679224628963
 31
0.0
  0
LINE
  5
D4F
330
1D
100
AcDbEntity
  8
0
100
AcDbLine
 10
7.039717917134
 20
857.679224628963
 30
0.0
 11
7.807637917134
 21
856.963224628963
 31
0.0
  0
LINE
  5
D50
330
1D
100
AcDbEntity
  8
0
100
AcDbLine
 10
7.039717917134
 20
857.679224628963
 30
0.0
 11
7.493416463108
 21
857.256201190431
 31
0.0
  0
LINE
  5
D51
330
1D
100
AcDbEntity
  8
0
100
AcDbLine
 10
7.493416463108
 20
857.256201190431
 30
0.0
 11
8.317397917134
 21
855.928224628963
 31
0.0
  0
LINE
  5
D52
330
1D
100
AcDbEntity
  8
0
100
AcDbLine
 10
8.136747917134
 20
856.656224628963
 30
0.0
 11
8.89656829662
 21
857.471084240804
 31
0.0
  0
LINE
  5
D53
330
1D
100
AcDbEntity
  8
0
100
AcDbLine
 10
7.807637917134
 20
856.963224628963
 30
0.0
 11
8.136747917134
 21
856.656224628963
 31
0.0
  0
LINE
  5
D54
330
1D
100
AcDbEntity
  8
0
100
AcDbLine
 10
8.317397917134
 20
855.928224628963
 30
0.0
 11
8.598387917134
 21
855.710224628963
 31
0.0
  0
LINE
  5
D55
330
1D
100
AcDbEntity
  8
0
100
AcDbLine
 10
8.539337917134
 20
858.118224628963
 30
0.0
 11
9.021797917134
 21
857.244224628963
 31
0.0
  0
LINE
  5
D56
330
1D
100
AcDbEntity
  8
0
100
AcDbLine
 10
7.702037917134
 20
859.405224628963
 30
0.0
 11
8.539337917134
 21
858.118224628963
 31
0.0
  0
LINE
  5
D57
330
1D
100
AcDbEntity
  8
0
100
AcDbLine
 10
8.938357917134
 20
857.035224628963
 30
0.0
 11
9.094347917134
 21
856.953224628963
 31
0.0
  0
LINE
  5
D58
330
1D
100
AcDbEntity
  8
0
100
AcDbLine
 10
8.717709975122
 20
857.279269929994
 30
0.0
 11
8.938357917134
 21
857.035224628963
 31
0.0
  0
LINE
  5
D59
330
1D
100
AcDbEntity
  8
0
100
AcDbLine
 10
9.021797917134
 20
857.244224628963
 30
0.0
 11
9.094347917134
 21
856.953224628963
 31
0.0
  0
LINE
  5
D5A
330
1D
100
AcDbEntity
  8
0
100
AcDbLine
 10
2.750007917134
 20
861.679224628963
 30
0.0
 11
3.079107917134
 21
861.372224628963
 31
0.0
  0
LINE
  5
D5B
330
1D
100
AcDbEntity
  8
0
100
AcDbLine
 10
2.750007917134
 20
861.679224628963
 30
0.0
 11
3.975913353723
 21
862.99393117696
 31
0.0
  0
LINE
  5
D5C
330
1D
100
AcDbEntity
  8
0
100
AcDbLine
 10
3.079107917134
 20
861.372224628963
 30
0.0
 11
3.847037917134
 21
860.656224628963
 31
0.0
  0
LINE
  5
D5D
330
1D
100
AcDbEntity
  8
0
100
AcDbLine
 10
4.241687917134
 20
862.580224628963
 30
0.0
 11
4.664756432181
 21
861.921332069458
 31
0.0
  0
LINE
  5
D5E
330
1D
100
AcDbEntity
  8
0
100
AcDbLine
 10
3.804197917134
 20
863.261224628963
 30
0.0
 11
4.241687917134
 21
862.580224628963
 31
0.0
  0
LINE
  5
D5F
330
1D
100
AcDbEntity
  8
0
100
AcDbLine
 10
6.572557917134
 20
859.704224628963
 30
0.0
 11
6.692507555309
 21
859.506368506969
 31
0.0
  0
LINE
  5
D60
330
1D
100
AcDbEntity
  8
0
100
AcDbLine
 10
6.572557917134
 20
859.704224628963
 30
0.0
 11
6.691846686416
 21
859.505659758294
 31
0.0
  0
LINE
  5
D61
330
1D
100
AcDbEntity
  8
0
100
AcDbLine
 10
5.963327917134
 20
860.586224628963
 30
0.0
 11
6.572557917134
 21
859.704224628963
 31
0.0
  0
LINE
  5
D62
330
1D
100
AcDbEntity
  8
0
100
AcDbLine
 10
4.830807917134
 20
862.296224628963
 30
0.0
 11
5.339157917134
 21
861.546224628963
 31
0.0
  0
LINE
  5
D63
330
1D
100
AcDbEntity
  8
0
100
AcDbLine
 10
4.543597917134
 20
862.695224628963
 30
0.0
 11
4.577217917134
 21
862.648224628963
 31
0.0
  0
LINE
  5
D64
330
1D
100
AcDbEntity
  8
0
100
AcDbLine
 10
5.339157917134
 20
861.546224628963
 30
0.0
 11
5.963327917134
 21
860.586224628963
 31
0.0
  0
LINE
  5
D65
330
1D
100
AcDbEntity
  8
0
100
AcDbLine
 10
6.609547917134
 20
860.756224628963
 30
0.0
 11
6.636717917134
 21
860.446224628963
 31
0.0
  0
LINE
  5
D66
330
1D
100
AcDbEntity
  8
0
100
AcDbLine
 10
6.609547917134
 20
860.756224628963
 30
0.0
 11
7.058037917134
 21
860.274224628963
 31
0.0
  0
LINE
  5
D67
330
1D
100
AcDbEntity
  8
0
100
AcDbLine
 10
6.636717917134
 20
860.446224628963
 30
0.0
 11
6.847227917134
 21
860.036224628963
 31
0.0
  0
LINE
  5
D68
330
1D
100
AcDbEntity
  8
0
100
AcDbLine
 10
6.847227917134
 20
860.036224628963
 30
0.0
 11
6.978561973939
 21
859.813147494617
 31
0.0
  0
LINE
  5
D69
330
1D
100
AcDbEntity
  8
0
100
AcDbLine
 10
2.833377917134
 20
866.740224628963
 30
0.0
 11
4.319117917134
 21
865.355224628963
 31
0.0
  0
LINE
  5
D6A
330
1D
100
AcDbEntity
  8
0
100
AcDbLine
 10
0.963357917134
 20
868.485224628963
 30
0.0
 11
1.673227917134
 21
867.822224628963
 31
0.0
  0
LINE
  5
D6B
330
1D
100
AcDbEntity
  8
0
100
AcDbLine
 10
1.673227917134
 20
867.822224628963
 30
0.0
 11
2.833377917134
 21
866.740224628963
 31
0.0
  0
LINE
  5
D6C
330
1D
100
AcDbEntity
  8
0
100
AcDbLine
 10
0.828742993041
 20
868.610880836615
 30
0.0
 11
3.623247917134
 21
863.544224628963
 31
0.0
  0
LINE
  5
D6D
330
1D
100
AcDbEntity
  8
0
100
AcDbLine
 10
0.282117917134
 20
869.109224628963
 30
0.0
 11
0.517437917134
 21
868.901224628963
 31
0.0
  0
LINE
  5
D6E
330
1D
100
AcDbEntity
  8
0
100
AcDbLine
 10
0.162507917134
 20
869.236224628963
 30
0.0
 11
0.282117917134
 21
869.109224628963
 31
0.0
  0
LINE
  5
D6F
330
1D
100
AcDbEntity
  8
0
100
AcDbLine
 10
0.240467917134
 20
869.160224628963
 30
0.0
 11
0.491987917134
 21
868.925224628963
 31
0.0
  0
LINE
  5
D70
330
1D
100
AcDbEntity
  8
0
100
AcDbLine
 10
-0.579338082866
 20
870.585224628963
 30
0.0
 11
-0.450907082866
 21
871.501224628963
 31
0.0
  0
LINE
  5
D71
330
1D
100
AcDbEntity
  8
0
100
AcDbLine
 10
-0.579338082866
 20
870.585224628963
 30
0.0
 11
0.162507917134
 21
869.236224628963
 31
0.0
  0
LINE
  5
D72
330
1D
100
AcDbEntity
  8
0
100
AcDbLine
 10
-0.450907082866
 20
871.501224628963
 30
0.0
 11
9.792237917134
 21
882.117224628963
 31
0.0
  0
LINE
  5
D73
330
1D
100
AcDbEntity
  8
0
100
AcDbLine
 10
0.517437917134
 20
868.901224628963
 30
0.0
 11
0.776794632918
 21
868.65937199739
 31
0.0
  0
LINE
  5
D74
330
1D
100
AcDbEntity
  8
0
100
AcDbLine
 10
0.517437917134
 20
868.901224628963
 30
0.0
 11
0.776794632918
 21
868.65937199739
 31
0.0
  0
LINE
  5
D75
330
1D
100
AcDbEntity
  8
0
100
AcDbLine
 10
0.491987917134
 20
868.925224628963
 30
0.0
 11
0.963357917134
 21
868.485224628963
 31
0.0
  0
LINE
  5
D76
330
1D
100
AcDbEntity
  8
0
100
AcDbLine
 10
0.828742993041
 20
868.610880836615
 30
0.0
 11
3.623247917134
 21
863.544224628963
 31
0.0
  0
LINE
  5
D77
330
1D
100
AcDbEntity
  8
0
100
AcDbLine
 10
6.119477917134
 20
863.677224628963
 30
0.0
 11
8.218357917134
 21
861.720224628963
 31
0.0
  0
LINE
  5
D78
330
1D
100
AcDbEntity
  8
0
100
AcDbLine
 10
4.319117917134
 20
865.355224628963
 30
0.0
 11
6.119477917134
 21
863.677224628963
 31
0.0
  0
LINE
  5
D79
330
1D
100
AcDbEntity
  8
0
100
AcDbLine
 10
3.623247917134
 20
863.544224628963
 30
0.0
 11
3.703177917134
 21
863.419224628963
 31
0.0
  0
LINE
  5
D7A
330
1D
100
AcDbEntity
  8
0
100
AcDbLine
 10
3.623247917134
 20
863.544224628963
 30
0.0
 11
3.804197917134
 21
863.261224628963
 31
0.0
  0
LINE
  5
D7B
330
1D
100
AcDbEntity
  8
0
100
AcDbLine
 10
8.218357917134
 20
861.720224628963
 30
0.0
 11
10.601437917134
 21
859.499224628963
 31
0.0
  0
LINE
  5
D7C
330
1D
100
AcDbEntity
  8
0
100
AcDbLine
 10
9.792237917134
 20
882.117224628963
 30
0.0
 11
10.392037917134
 21
882.317224628963
 31
0.0
  0
LINE
  5
D7D
330
1D
100
AcDbEntity
  8
0
100
AcDbLine
 10
7.058037917134
 20
860.274224628963
 30
0.0
 11
7.702037917134
 21
859.405224628963
 31
0.0
  0
LINE
  5
D7E
330
1D
100
AcDbEntity
  8
0
100
AcDbLine
 10
10.800537917134
 20
856.876224628963
 30
0.0
 11
10.863037917134
 21
856.802224628963
 31
0.0
  0
LINE
  5
D7F
330
1D
100
AcDbEntity
  8
0
100
AcDbLine
 10
10.738737917134
 20
856.948224628963
 30
0.0
 11
10.800537917134
 21
856.876224628963
 31
0.0
  0
LINE
  5
D80
330
1D
100
AcDbEntity
  8
0
100
AcDbLine
 10
10.863037917134
 20
856.802224628963
 30
0.0
 11
10.915037917134
 21
856.738224628963
 31
0.0
  0
LINE
  5
D81
330
1D
100
AcDbEntity
  8
0
100
AcDbLine
 10
10.985737917134
 20
856.652224628963
 30
0.0
 11
11.574637917134
 21
855.886224628963
 31
0.0
  0
LINE
  5
D82
330
1D
100
AcDbEntity
  8
0
100
AcDbLine
 10
10.925837917134
 20
856.726224628963
 30
0.0
 11
10.985737917134
 21
856.652224628963
 31
0.0
  0
LINE
  5
D83
330
1D
100
AcDbEntity
  8
0
100
AcDbLine
 10
11.574637917134
 20
855.886224628963
 30
0.0
 11
12.397937917134
 21
854.593224628963
 31
0.0
  0
LINE
  5
D84
330
1D
100
AcDbEntity
  8
0
100
AcDbLine
 10
10.131737917134
 20
856.972224628963
 30
0.0
 11
10.436852505069
 21
856.396052585998
 31
0.0
  0
LINE
  5
D85
330
1D
100
AcDbEntity
  8
0
100
AcDbLine
 10
10.028837917134
 20
857.582224628963
 30
0.0
 11
10.169937917134
 21
857.510224628963
 31
0.0
  0
LINE
  5
D86
330
1D
100
AcDbEntity
  8
0
100
AcDbLine
 10
10.677837917134
 20
857.018224628963
 30
0.0
 11
10.738737917134
 21
856.948224628963
 31
0.0
  0
LINE
  5
D87
330
1D
100
AcDbEntity
  8
0
100
AcDbLine
 10
10.617937917134
 20
857.085224628963
 30
0.0
 11
10.677837917134
 21
857.018224628963
 31
0.0
  0
LINE
  5
D88
330
1D
100
AcDbEntity
  8
0
100
AcDbLine
 10
10.559237917134
 20
857.148224628963
 30
0.0
 11
10.617937917134
 21
857.085224628963
 31
0.0
  0
LINE
  5
D89
330
1D
100
AcDbEntity
  8
0
100
AcDbLine
 10
10.502537917134
 20
857.208224628963
 30
0.0
 11
10.559237917134
 21
857.148224628963
 31
0.0
  0
LINE
  5
D8A
330
1D
100
AcDbEntity
  8
0
100
AcDbLine
 10
10.447637917134
 20
857.265224628963
 30
0.0
 11
10.502537917134
 21
857.208224628963
 31
0.0
  0
LINE
  5
D8B
330
1D
100
AcDbEntity
  8
0
100
AcDbLine
 10
10.394837917134
 20
857.317224628963
 30
0.0
 11
10.447637917134
 21
857.265224628963
 31
0.0
  0
LINE
  5
D8C
330
1D
100
AcDbEntity
  8
0
100
AcDbLine
 10
10.344237917134
 20
857.365224628963
 30
0.0
 11
10.394837917134
 21
857.317224628963
 31
0.0
  0
LINE
  5
D8D
330
1D
100
AcDbEntity
  8
0
100
AcDbLine
 10
10.296437917134
 20
857.408224628963
 30
0.0
 11
10.344237917134
 21
857.365224628963
 31
0.0
  0
LINE
  5
D8E
330
1D
100
AcDbEntity
  8
0
100
AcDbLine
 10
10.251237917134
 20
857.447224628963
 30
0.0
 11
10.296437917134
 21
857.408224628963
 31
0.0
  0
LINE
  5
D8F
330
1D
100
AcDbEntity
  8
0
100
AcDbLine
 10
10.392037917134
 20
882.317224628963
 30
0.0
 11
10.875837917134
 21
882.140224628963
 31
0.0
  0
LINE
  5
D90
330
1D
100
AcDbEntity
  8
0
100
AcDbLine
 10
10.601437917134
 20
859.499224628963
 30
0.0
 11
13.447137917134
 21
856.846224628963
 31
0.0
  0
LINE
  5
D91
330
1D
100
AcDbEntity
  8
0
100
AcDbLine
 10
10.169937917134
 20
857.510224628963
 30
0.0
 11
10.210237917134
 21
857.478224628963
 31
0.0
  0
LINE
  5
D92
330
1D
100
AcDbEntity
  8
0
100
AcDbLine
 10
10.210237917134
 20
857.478224628963
 30
0.0
 11
10.251237917134
 21
857.447224628963
 31
0.0
  0
LINE
  5
D93
330
1D
100
AcDbEntity
  8
0
100
AcDbLine
 10
9.947637917134
 20
857.464224628963
 30
0.0
 11
10.028837917134
 21
857.582224628963
 31
0.0
  0
LINE
  5
D94
330
1D
100
AcDbEntity
  8
0
100
AcDbLine
 10
9.947637917134
 20
857.464224628963
 30
0.0
 11
10.131737917134
 21
856.972224628963
 31
0.0
  0
LINE
  5
D95
330
1D
100
AcDbEntity
  8
0
100
AcDbLine
 10
8.598387917134
 20
855.710224628963
 30
0.0
 11
9.132827917134
 21
854.984224628963
 31
0.0
  0
LINE
  5
D96
330
1D
100
AcDbEntity
  8
0
100
AcDbLine
 10
12.799137917134
 20
853.405224628963
 30
0.0
 11
12.887437917134
 21
853.527224628963
 31
0.0
  0
LINE
  5
D97
330
1D
100
AcDbEntity
  8
0
100
AcDbLine
 10
12.639137917134
 20
851.991224628963
 30
0.0
 11
13.547937917134
 21
850.894224628963
 31
0.0
  0
LINE
  5
D98
330
1D
100
AcDbEntity
  8
0
100
AcDbLine
 10
12.326037917134
 20
851.894224628963
 30
0.0
 11
12.658699833387
 21
851.405666966785
 31
0.0
  0
LINE
  5
D99
330
1D
100
AcDbEntity
  8
0
100
AcDbLine
 10
12.397937917134
 20
854.593224628963
 30
0.0
 11
12.784237917134
 21
853.862224628963
 31
0.0
  0
LINE
  5
D9A
330
1D
100
AcDbEntity
  8
0
100
AcDbLine
 10
13.447137917134
 20
856.846224628963
 30
0.0
 11
16.305237917134
 21
854.182224628963
 31
0.0
  0
LINE
  5
D9B
330
1D
100
AcDbEntity
  8
0
100
AcDbLine
 10
12.784237917134
 20
853.862224628963
 30
0.0
 11
12.887437917134
 21
853.527224628963
 31
0.0
  0
LINE
  5
D9C
330
1D
100
AcDbEntity
  8
0
100
AcDbLine
 10
12.490237917134
 20
853.638224628963
 30
0.0
 11
12.799137917134
 21
853.405224628963
 31
0.0
  0
LINE
  5
D9D
330
1D
100
AcDbEntity
  8
0
100
AcDbLine
 10
12.228956285866
 20
853.919163267111
 30
0.0
 11
12.490237917134
 21
853.638224628963
 31
0.0
  0
LINE
  5
D9E
330
1D
100
AcDbEntity
  8
0
100
AcDbLine
 10
31.851837917134
 20
825.891224628963
 30
0.0
 11
32.362227809728
 21
826.293298562227
 31
0.0
  0
LINE
  5
D9F
330
1D
100
AcDbEntity
  8
0
100
AcDbLine
 10
30.160637917134
 20
826.996224628963
 30
0.0
 11
30.964137917134
 21
826.393224628963
 31
0.0
  0
LINE
  5
DA0
330
1D
100
AcDbEntity
  8
0
100
AcDbLine
 10
30.964137917134
 20
826.393224628963
 30
0.0
 11
31.702137917134
 21
825.898224628963
 31
0.0
  0
LINE
  5
DA1
330
1D
100
AcDbEntity
  8
0
100
AcDbLine
 10
31.702137917134
 20
825.898224628963
 30
0.0
 11
31.851837917134
 21
825.891224628963
 31
0.0
  0
LINE
  5
DA2
330
1D
100
AcDbEntity
  8
0
100
AcDbLine
 10
32.681537917134
 20
828.025224628963
 30
0.0
 11
33.010637917134
 21
827.718224628963
 31
0.0
  0
LINE
  5
DA3
330
1D
100
AcDbEntity
  8
0
100
AcDbLine
 10
28.972537917134
 20
827.965224628963
 30
0.0
 11
30.160637917134
 21
826.996224628963
 31
0.0
  0
LINE
  5
DA4
330
1D
100
AcDbEntity
  8
0
100
AcDbLine
 10
30.765537917134
 20
827.928224628963
 30
0.0
 11
34.035237917134
 21
824.580224628963
 31
0.0
  0
LINE
  5
DA5
330
1D
100
AcDbEntity
  8
0
100
AcDbLine
 10
34.035237917134
 20
824.580224628963
 30
0.0
 11
38.737037917134
 21
820.021224628963
 31
0.0
  0
LINE
  5
DA6
330
1D
100
AcDbEntity
  8
0
100
AcDbLine
 10
33.010637917134
 20
827.718224628963
 30
0.0
 11
34.261515133008
 21
829.059707907101
 31
0.0
  0
LINE
  5
DA7
330
1D
100
AcDbEntity
  8
0
100
AcDbLine
 10
34.206437917134
 20
825.919224628963
 30
0.0
 11
34.535537917134
 21
825.612224628963
 31
0.0
  0
LINE
  5
DA8
330
1D
100
AcDbEntity
  8
0
100
AcDbLine
 10
34.206437917134
 20
825.919224628963
 30
0.0
 11
34.85031073495
 21
826.609735741794
 31
0.0
  0
LINE
  5
DA9
330
1D
100
AcDbEntity
  8
0
100
AcDbLine
 10
34.142837917134
 20
827.033224628963
 30
0.0
 11
34.278537917134
 21
827.024224628963
 31
0.0
  0
LINE
  5
DAA
330
1D
100
AcDbEntity
  8
0
100
AcDbLine
 10
34.142837917134
 20
827.033224628963
 30
0.0
 11
34.297837917134
 21
826.746224628963
 31
0.0
  0
LINE
  5
DAB
330
1D
100
AcDbEntity
  8
0
100
AcDbLine
 10
30.816537917134
 20
829.764224628963
 30
0.0
 11
31.145637917134
 21
829.457224628963
 31
0.0
  0
LINE
  5
DAC
330
1D
100
AcDbEntity
  8
0
100
AcDbLine
 10
30.816537917134
 20
829.764224628963
 30
0.0
 11
32.158247034089
 21
831.203119127704
 31
0.0
  0
LINE
  5
DAD
330
1D
100
AcDbEntity
  8
0
100
AcDbLine
 10
31.145637917134
 20
829.457224628963
 30
0.0
 11
31.913537917134
 21
828.741224628963
 31
0.0
  0
LINE
  5
DAE
330
1D
100
AcDbEntity
  8
0
100
AcDbLine
 10
31.913537917134
 20
828.741224628963
 30
0.0
 11
32.681537917134
 21
828.025224628963
 31
0.0
  0
LINE
  5
DAF
330
1D
100
AcDbEntity
  8
0
100
AcDbLine
 10
28.157237917134
 20
828.735224628963
 30
0.0
 11
28.972537917134
 21
827.965224628963
 31
0.0
  0
LINE
  5
DB0
330
1D
100
AcDbEntity
  8
0
100
AcDbLine
 10
28.157237917134
 20
828.735224628963
 30
0.0
 11
28.770433889182
 21
830.064519013263
 31
0.0
  0
LINE
  5
DB1
330
1D
100
AcDbEntity
  8
0
100
AcDbLine
 10
33.978164605427
 20
828.755833162419
 30
0.0
 11
34.141237917134
 21
828.612224628963
 31
0.0
  0
LINE
  5
DB2
330
1D
100
AcDbEntity
  8
0
100
AcDbLine
 10
34.141237917134
 20
828.612224628963
 30
0.0
 11
34.558137917134
 21
828.412224628963
 31
0.0
  0
LINE
  5
DB3
330
1D
100
AcDbEntity
  8
0
100
AcDbLine
 10
34.535537917134
 20
825.612224628963
 30
0.0
 11
35.303437917134
 21
824.896224628963
 31
0.0
  0
LINE
  5
DB4
330
1D
100
AcDbEntity
  8
0
100
AcDbLine
 10
35.303437917134
 20
824.896224628963
 30
0.0
 11
36.071337917134
 21
824.180224628963
 31
0.0
  0
LINE
  5
DB5
330
1D
100
AcDbEntity
  8
0
100
AcDbLine
 10
36.071337917134
 20
824.180224628963
 30
0.0
 11
36.400437917134
 21
823.873224628963
 31
0.0
  0
LINE
  5
DB6
330
1D
100
AcDbEntity
  8
0
100
AcDbLine
 10
34.615438459277
 20
826.357850723573
 30
0.0
 11
34.724510279346
 21
826.474823053775
 31
0.0
  0
LINE
  5
DB7
330
1D
100
AcDbEntity
  8
0
100
AcDbLine
 10
34.297837917134
 20
826.746224628963
 30
0.0
 11
34.615438459277
 21
826.357850723573
 31
0.0
  0
LINE
  5
DB8
330
1D
100
AcDbEntity
  8
0
100
AcDbLine
 10
35.906037917134
 20
827.342224628963
 30
0.0
 11
36.235137917134
 21
827.035224628963
 31
0.0
  0
LINE
  5
DB9
330
1D
100
AcDbEntity
  8
0
100
AcDbLine
 10
35.906037917134
 20
827.342224628963
 30
0.0
 11
37.339182500538
 21
828.879177632338
 31
0.0
  0
LINE
  5
DBA
330
1D
100
AcDbEntity
  8
0
100
AcDbLine
 10
34.737137917134
 20
826.710224628963
 30
0.0
 11
35.750737917134
 21
825.810224628963
 31
0.0
  0
LINE
  5
DBB
330
1D
100
AcDbEntity
  8
0
100
AcDbLine
 10
35.750737917134
 20
825.810224628963
 30
0.0
 11
36.320337917134
 21
825.232224628963
 31
0.0
  0
LINE
  5
DBC
330
1D
100
AcDbEntity
  8
0
100
AcDbLine
 10
34.278537917134
 20
827.024224628963
 30
0.0
 11
34.737137917134
 21
826.710224628963
 31
0.0
  0
LINE
  5
DBD
330
1D
100
AcDbEntity
  8
0
100
AcDbLine
 10
34.551337917134
 20
828.584224628963
 30
0.0
 11
34.558137917134
 21
828.412224628963
 31
0.0
  0
LINE
  5
DBE
330
1D
100
AcDbEntity
  8
0
100
AcDbLine
 10
34.238037917134
 20
829.098224628963
 30
0.0
 11
34.551337917134
 21
828.584224628963
 31
0.0
  0
LINE
  5
DBF
330
1D
100
AcDbEntity
  8
0
100
AcDbLine
 10
28.248937917134
 20
830.512224628963
 30
0.0
 11
28.743096234545
 21
830.005256081924
 31
0.0
  0
LINE
  5
DC0
330
1D
100
AcDbEntity
  8
0
100
AcDbLine
 10
28.297937917134
 20
831.429224628963
 30
0.0
 11
28.858316297246
 21
832.03019346652
 31
0.0
  0
LINE
  5
DC1
330
1D
100
AcDbEntity
  8
0
100
AcDbLine
 10
28.297937917134
 20
831.429224628963
 30
0.0
 11
28.858316297246
 21
832.03019346652
 31
0.0
  0
LINE
  5
DC2
330
1D
100
AcDbEntity
  8
0
100
AcDbLine
 10
29.550937917134
 20
831.017224628963
 30
0.0
 11
29.558337917134
 21
831.134224628963
 31
0.0
  0
LINE
  5
DC3
330
1D
100
AcDbEntity
  8
0
100
AcDbLine
 10
31.569737917134
 20
831.285224628963
 30
0.0
 11
31.874309577867
 21
830.898614940781
 31
0.0
  0
LINE
  5
DC4
330
1D
100
AcDbEntity
  8
0
100
AcDbLine
 10
27.968837917134
 20
831.736224628963
 30
0.0
 11
28.297937917134
 21
831.429224628963
 31
0.0
  0
LINE
  5
DC5
330
1D
100
AcDbEntity
  8
0
100
AcDbLine
 10
26.103937917134
 20
833.475224628963
 30
0.0
 11
26.433037917134
 21
833.168224628963
 31
0.0
  0
LINE
  5
DC6
330
1D
100
AcDbEntity
  8
0
100
AcDbLine
 10
26.103937917134
 20
833.475224628963
 30
0.0
 11
26.790804932057
 21
834.21186578371
 31
0.0
  0
LINE
  5
DC7
330
1D
100
AcDbEntity
  8
0
100
AcDbLine
 10
27.200937917134
 20
832.452224628963
 30
0.0
 11
27.968837917134
 21
831.736224628963
 31
0.0
  0
LINE
  5
DC8
330
1D
100
AcDbEntity
  8
0
100
AcDbLine
 10
26.433037917134
 20
833.168224628963
 30
0.0
 11
27.200937917134
 21
832.452224628963
 31
0.0
  0
LINE
  5
DC9
330
1D
100
AcDbEntity
  8
0
100
AcDbLine
 10
26.702037917134
 20
832.095224628963
 30
0.0
 11
28.248937917134
 21
830.512224628963
 31
0.0
  0
LINE
  5
DCA
330
1D
100
AcDbEntity
  8
0
100
AcDbLine
 10
28.889037917134
 20
831.524224628963
 30
0.0
 11
29.550937917134
 21
831.017224628963
 31
0.0
  0
LINE
  5
DCB
330
1D
100
AcDbEntity
  8
0
100
AcDbLine
 10
30.556637917134
 20
832.331224628963
 30
0.0
 11
31.815101942512
 21
833.680844259698
 31
0.0
  0
LINE
  5
DCC
330
1D
100
AcDbEntity
  8
0
100
AcDbLine
 10
30.227537917134
 20
832.638224628963
 30
0.0
 11
30.556637917134
 21
832.331224628963
 31
0.0
  0
LINE
  5
DCD
330
1D
100
AcDbEntity
  8
0
100
AcDbLine
 10
29.459537917134
 20
833.354224628963
 30
0.0
 11
30.227537917134
 21
832.638224628963
 31
0.0
  0
LINE
  5
DCE
330
1D
100
AcDbEntity
  8
0
100
AcDbLine
 10
31.477187291893
 20
833.31845309333
 30
0.0
 11
31.848837917134
 21
833.110224628963
 31
0.0
  0
LINE
  5
DCF
330
1D
100
AcDbEntity
  8
0
100
AcDbLine
 10
28.625449806366
 20
831.780459520142
 30
0.0
 11
28.889037917134
 21
831.524224628963
 31
0.0
  0
LINE
  5
DD0
330
1D
100
AcDbEntity
  8
0
100
AcDbLine
 10
29.158037917134
 20
831.682224628963
 30
0.0
 11
29.558337917134
 21
831.134224628963
 31
0.0
  0
LINE
  5
DD1
330
1D
100
AcDbEntity
  8
0
100
AcDbLine
 10
28.262237917134
 20
832.722224628963
 30
0.0
 11
29.158037917134
 21
831.682224628963
 31
0.0
  0
LINE
  5
DD2
330
1D
100
AcDbEntity
  8
0
100
AcDbLine
 10
27.459337917134
 20
833.557224628963
 30
0.0
 11
28.262237917134
 21
832.722224628963
 31
0.0
  0
LINE
  5
DD3
330
1D
100
AcDbEntity
  8
0
100
AcDbLine
 10
31.848837917134
 20
833.110224628963
 30
0.0
 11
32.013937917134
 21
833.119224628963
 31
0.0
  0
LINE
  5
DD4
330
1D
100
AcDbEntity
  8
0
100
AcDbLine
 10
31.499237917134
 20
831.579224628963
 30
0.0
 11
31.776137917134
 21
831.517224628963
 31
0.0
  0
LINE
  5
DD5
330
1D
100
AcDbEntity
  8
0
100
AcDbLine
 10
31.499237917134
 20
831.579224628963
 30
0.0
 11
31.569737917134
 21
831.285224628963
 31
0.0
  0
LINE
  5
DD6
330
1D
100
AcDbEntity
  8
0
100
AcDbLine
 10
31.776137917134
 20
831.517224628963
 30
0.0
 11
32.624037917134
 21
830.820224628963
 31
0.0
  0
LINE
  5
DD7
330
1D
100
AcDbEntity
  8
0
100
AcDbLine
 10
34.255137917134
 20
832.300224628963
 30
0.0
 11
34.584337917134
 21
831.993224628963
 31
0.0
  0
LINE
  5
DD8
330
1D
100
AcDbEntity
  8
0
100
AcDbLine
 10
34.255137917134
 20
832.300224628963
 30
0.0
 11
35.581833911762
 21
833.72301854461
 31
0.0
  0
LINE
  5
DD9
330
1D
100
AcDbEntity
  8
0
100
AcDbLine
 10
34.584337917134
 20
831.993224628963
 30
0.0
 11
35.352237917134
 21
831.277224628963
 31
0.0
  0
LINE
  5
DDA
330
1D
100
AcDbEntity
  8
0
100
AcDbLine
 10
35.352237917134
 20
831.277224628963
 30
0.0
 11
36.120137917134
 21
830.561224628963
 31
0.0
  0
LINE
  5
DDB
330
1D
100
AcDbEntity
  8
0
100
AcDbLine
 10
34.625337917134
 20
833.384224628963
 30
0.0
 11
34.897201413913
 21
832.988795364365
 31
0.0
  0
LINE
  5
DDC
330
1D
100
AcDbEntity
  8
0
100
AcDbLine
 10
32.624037917134
 20
830.820224628963
 30
0.0
 11
33.492437917134
 21
829.962224628963
 31
0.0
  0
LINE
  5
DDD
330
1D
100
AcDbEntity
  8
0
100
AcDbLine
 10
33.492437917134
 20
829.962224628963
 30
0.0
 11
34.238037917134
 21
829.098224628963
 31
0.0
  0
LINE
  5
DDE
330
1D
100
AcDbEntity
  8
0
100
AcDbLine
 10
36.235137917134
 20
827.035224628963
 30
0.0
 11
37.003037917134
 21
826.319224628963
 31
0.0
  0
LINE
  5
DDF
330
1D
100
AcDbEntity
  8
0
100
AcDbLine
 10
36.120137917134
 20
830.561224628963
 30
0.0
 11
36.449237917134
 21
830.254224628963
 31
0.0
  0
LINE
  5
DE0
330
1D
100
AcDbEntity
  8
0
100
AcDbLine
 10
36.170737917134
 20
829.330224628963
 30
0.0
 11
36.587937917134
 21
829.425224628963
 31
0.0
  0
LINE
  5
DE1
330
1D
100
AcDbEntity
  8
0
100
AcDbLine
 10
36.170737917134
 20
829.330224628963
 30
0.0
 11
36.501937917134
 21
828.799224628963
 31
0.0
  0
LINE
  5
DE2
330
1D
100
AcDbEntity
  8
0
100
AcDbLine
 10
36.400437917134
 20
823.873224628963
 30
0.0
 11
36.976767807643
 21
824.491300408902
 31
0.0
  0
LINE
  5
DE3
330
1D
100
AcDbEntity
  8
0
100
AcDbLine
 10
36.400437917134
 20
823.873224628963
 30
0.0
 11
36.976767807643
 21
824.491300408902
 31
0.0
  0
LINE
  5
DE4
330
1D
100
AcDbEntity
  8
0
100
AcDbLine
 10
36.976516420625
 20
824.491030812913
 30
0.0
 11
37.133007993542
 21
824.294917908239
 31
0.0
  0
LINE
  5
DE5
330
1D
100
AcDbEntity
  8
0
100
AcDbLine
 10
36.774640477739
 20
824.274532184427
 30
0.0
 11
37.057337917134
 21
824.069224628963
 31
0.0
  0
LINE
  5
DE6
330
1D
100
AcDbEntity
  8
0
100
AcDbLine
 10
36.449237917134
 20
830.254224628963
 30
0.0
 11
37.655461554976
 21
831.547819891012
 31
0.0
  0
LINE
  5
DE7
330
1D
100
AcDbEntity
  8
0
100
AcDbLine
 10
36.501937917134
 20
828.799224628963
 30
0.0
 11
36.888623984823
 21
828.395983353168
 31
0.0
  0
LINE
  5
DE8
330
1D
100
AcDbEntity
  8
0
100
AcDbLine
 10
37.003037917134
 20
826.319224628963
 30
0.0
 11
37.771037917134
 21
825.603224628963
 31
0.0
  0
LINE
  5
DE9
330
1D
100
AcDbEntity
  8
0
100
AcDbLine
 10
36.587937917134
 20
829.425224628963
 30
0.0
 11
37.155437917134
 21
829.069224628963
 31
0.0
  0
LINE
  5
DEA
330
1D
100
AcDbEntity
  8
0
100
AcDbLine
 10
37.046787448991
 20
830.895057074124
 30
0.0
 11
37.361937917134
 21
830.704224628963
 31
0.0
  0
LINE
  5
DEB
330
1D
100
AcDbEntity
  8
0
100
AcDbLine
 10
36.848737917134
 20
824.652224628963
 30
0.0
 11
37.245737917134
 21
824.153224628963
 31
0.0
  0
LINE
  5
DEC
330
1D
100
AcDbEntity
  8
0
100
AcDbLine
 10
36.320337917134
 20
825.232224628963
 30
0.0
 11
36.848737917134
 21
824.652224628963
 31
0.0
  0
LINE
  5
DED
330
1D
100
AcDbEntity
  8
0
100
AcDbLine
 10
25.06374960785
 20
834.025755128362
 30
0.0
 11
26.702037917134
 21
832.095224628963
 31
0.0
  0
LINE
  5
DEE
330
1D
100
AcDbEntity
  8
0
100
AcDbLine
 10
26.107537917134
 20
834.155224628963
 30
0.0
 11
27.252727999376
 21
835.383365429773
 31
0.0
  0
LINE
  5
DEF
330
1D
100
AcDbEntity
  8
0
100
AcDbLine
 10
26.107537917134
 20
834.155224628963
 30
0.0
 11
27.252727999376
 21
835.383365429773
 31
0.0
  0
LINE
  5
DF0
330
1D
100
AcDbEntity
  8
0
100
AcDbLine
 10
25.778437917134
 20
834.462224628963
 30
0.0
 11
26.107537917134
 21
834.155224628963
 31
0.0
  0
LINE
  5
DF1
330
1D
100
AcDbEntity
  8
0
100
AcDbLine
 10
26.607933521928
 20
834.015742511227
 30
0.0
 11
26.790804932057
 21
834.21186578371
 31
0.0
  0
LINE
  5
DF2
330
1D
100
AcDbEntity
  8
0
100
AcDbLine
 10
28.691637917134
 20
834.070224628963
 30
0.0
 11
29.459537917134
 21
833.354224628963
 31
0.0
  0
LINE
  5
DF3
330
1D
100
AcDbEntity
  8
0
100
AcDbLine
 10
26.607933521928
 20
834.015742511227
 30
0.0
 11
26.790804932057
 21
834.21186578371
 31
0.0
  0
LINE
  5
DF4
330
1D
100
AcDbEntity
  8
0
100
AcDbLine
 10
34.390037917134
 20
833.974224628963
 30
0.0
 11
34.491137917134
 21
834.247224628963
 31
0.0
  0
LINE
  5
DF5
330
1D
100
AcDbEntity
  8
0
100
AcDbLine
 10
34.390037917134
 20
833.974224628963
 30
0.0
 11
34.625337917134
 21
833.384224628963
 31
0.0
  0
LINE
  5
DF6
330
1D
100
AcDbEntity
  8
0
100
AcDbLine
 10
34.880437917134
 20
834.205224628963
 30
0.0
 11
36.077537917134
 21
833.382224628963
 31
0.0
  0
LINE
  5
DF7
330
1D
100
AcDbEntity
  8
0
100
AcDbLine
 10
34.491137917134
 20
834.247224628963
 30
0.0
 11
34.880437917134
 21
834.205224628963
 31
0.0
  0
LINE
  5
DF8
330
1D
100
AcDbEntity
  8
0
100
AcDbLine
 10
28.362537917134
 20
834.377224628963
 30
0.0
 11
28.691637917134
 21
834.070224628963
 31
0.0
  0
LINE
  5
DF9
330
1D
100
AcDbEntity
  8
0
100
AcDbLine
 10
28.362537917134
 20
834.377224628963
 30
0.0
 11
29.784448790193
 21
835.90213021922
 31
0.0
  0
LINE
  5
DFA
330
1D
100
AcDbEntity
  8
0
100
AcDbLine
 10
31.249237917134
 20
834.468224628963
 30
0.0
 11
31.842137917134
 21
833.643224628963
 31
0.0
  0
LINE
  5
DFB
330
1D
100
AcDbEntity
  8
0
100
AcDbLine
 10
26.425646907421
 20
834.49637553145
 30
0.0
 11
26.723037917134
 21
834.278224628963
 31
0.0
  0
LINE
  5
DFC
330
1D
100
AcDbEntity
  8
0
100
AcDbLine
 10
26.723037917134
 20
834.278224628963
 30
0.0
 11
27.459337917134
 21
833.557224628963
 31
0.0
  0
LINE
  5
DFD
330
1D
100
AcDbEntity
  8
0
100
AcDbLine
 10
26.306499681225
 20
834.368597992975
 30
0.0
 11
26.583147922747
 21
833.989160811996
 31
0.0
  0
LINE
  5
DFE
330
1D
100
AcDbEntity
  8
0
100
AcDbLine
 10
31.842137917134
 20
833.643224628963
 30
0.0
 11
32.013937917134
 21
833.119224628963
 31
0.0
  0
LINE
  5
DFF
330
1D
100
AcDbEntity
  8
0
100
AcDbLine
 10
58.324937917134
 20
803.428224628963
 30
0.0
 11
58.969856229394
 21
804.119856965601
 31
0.0
  0
LINE
  5
E00
330
1D
100
AcDbEntity
  8
0
100
AcDbLine
 10
57.803737917134
 20
803.231224628963
 30
0.0
 11
58.132837917134
 21
802.924224628963
 31
0.0
  0
LINE
  5
E01
330
1D
100
AcDbEntity
  8
0
100
AcDbLine
 10
57.803737917134
 20
803.231224628963
 30
0.0
 11
58.144488069263
 21
803.596556756876
 31
0.0
  0
LINE
  5
E02
330
1D
100
AcDbEntity
  8
0
100
AcDbLine
 10
58.132837917134
 20
802.924224628963
 30
0.0
 11
58.900837917134
 21
802.208224628963
 31
0.0
  0
LINE
  5
E03
330
1D
100
AcDbEntity
  8
0
100
AcDbLine
 10
58.900837917134
 20
802.208224628963
 30
0.0
 11
59.668737917134
 21
801.491224628963
 31
0.0
  0
LINE
  5
E04
330
1D
100
AcDbEntity
  8
0
100
AcDbLine
 10
58.798337917134
 20
803.454224628963
 30
0.0
 11
59.771037917134
 21
802.592224628963
 31
0.0
  0
LINE
  5
E05
330
1D
100
AcDbEntity
  8
0
100
AcDbLine
 10
58.550283695338
 20
803.66989310723
 30
0.0
 11
58.798337917134
 21
803.454224628963
 31
0.0
  0
LINE
  5
E06
330
1D
100
AcDbEntity
  8
0
100
AcDbLine
 10
59.997837917134
 20
801.185224628963
 30
0.0
 11
60.603397787467
 21
801.834470050059
 31
0.0
  0
LINE
  5
E07
330
1D
100
AcDbEntity
  8
0
100
AcDbLine
 10
59.668737917134
 20
801.491224628963
 30
0.0
 11
59.997837917134
 21
801.185224628963
 31
0.0
  0
LINE
  5
E08
330
1D
100
AcDbEntity
  8
0
100
AcDbLine
 10
60.248237917134
 20
802.318224628963
 30
0.0
 11
61.016137917134
 21
801.602224628963
 31
0.0
  0
LINE
  5
E09
330
1D
100
AcDbEntity
  8
0
100
AcDbLine
 10
60.494837917134
 20
801.935224628963
 30
0.0
 11
60.920437917134
 21
801.540224628963
 31
0.0
  0
LINE
  5
E0A
330
1D
100
AcDbEntity
  8
0
100
AcDbLine
 10
62.113137917134
 20
800.579224628963
 30
0.0
 11
63.272664318699
 21
801.822740186301
 31
0.0
  0
LINE
  5
E0B
330
1D
100
AcDbEntity
  8
0
100
AcDbLine
 10
61.784037917134
 20
800.886224628963
 30
0.0
 11
62.113137917134
 21
800.579224628963
 31
0.0
  0
LINE
  5
E0C
330
1D
100
AcDbEntity
  8
0
100
AcDbLine
 10
61.016137917134
 20
801.602224628963
 30
0.0
 11
61.784037917134
 21
800.886224628963
 31
0.0
  0
LINE
  5
E0D
330
1D
100
AcDbEntity
  8
0
100
AcDbLine
 10
60.925260202169
 20
801.537372313144
 30
0.0
 11
61.030137917134
 21
801.440224628963
 31
0.0
  0
LINE
  5
E0E
330
1D
100
AcDbEntity
  8
0
100
AcDbLine
 10
61.030137917134
 20
801.440224628963
 30
0.0
 11
61.714034885557
 21
800.951496370868
 31
0.0
  0
LINE
  5
E0F
330
1D
100
AcDbEntity
  8
0
100
AcDbLine
 10
62.892637917134
 20
802.177224628963
 30
0.0
 11
63.221737917134
 21
801.870224628963
 31
0.0
  0
LINE
  5
E10
330
1D
100
AcDbEntity
  8
0
100
AcDbLine
 10
62.892637917134
 20
802.177224628963
 30
0.0
 11
64.086464402836
 21
803.457524763336
 31
0.0
  0
LINE
  5
E11
330
1D
100
AcDbEntity
  8
0
100
AcDbLine
 10
63.221737917134
 20
801.870224628963
 30
0.0
 11
63.989637917134
 21
801.154224628963
 31
0.0
  0
LINE
  5
E12
330
1D
100
AcDbEntity
  8
0
100
AcDbLine
 10
62.161856953994
 20
800.631472581396
 30
0.0
 11
62.726137917134
 21
800.228224628963
 31
0.0
  0
LINE
  5
E13
330
1D
100
AcDbEntity
  8
0
100
AcDbLine
 10
62.726137917134
 20
800.228224628963
 30
0.0
 11
63.819969940699
 21
799.259573781508
 31
0.0
  0
LINE
  5
E14
330
1D
100
AcDbEntity
  8
0
100
AcDbLine
 10
62.726137917134
 20
800.228224628963
 30
0.0
 11
63.819969940699
 21
799.259573781508
 31
0.0
  0
LINE
  5
E15
330
1D
100
AcDbEntity
  8
0
100
AcDbLine
 10
60.920437917134
 20
801.540224628963
 30
0.0
 11
61.030137917134
 21
801.440224628963
 31
0.0
  0
LINE
  5
E16
330
1D
100
AcDbEntity
  8
0
100
AcDbLine
 10
59.919137917134
 20
802.625224628963
 30
0.0
 11
60.248237917134
 21
802.318224628963
 31
0.0
  0
LINE
  5
E17
330
1D
100
AcDbEntity
  8
0
100
AcDbLine
 10
59.919137917134
 20
802.625224628963
 30
0.0
 11
61.0630724795
 21
803.852018967547
 31
0.0
  0
LINE
  5
E18
330
1D
100
AcDbEntity
  8
0
100
AcDbLine
 10
59.771037917134
 20
802.592224628963
 30
0.0
 11
60.494837917134
 21
801.935224628963
 31
0.0
  0
LINE
  5
E19
330
1D
100
AcDbEntity
  8
0
100
AcDbLine
 10
61.651637917134
 20
803.453224628963
 30
0.0
 11
62.407137917134
 21
802.901224628963
 31
0.0
  0
LINE
  5
E1A
330
1D
100
AcDbEntity
  8
0
100
AcDbLine
 10
62.407137917134
 20
802.901224628963
 30
0.0
 11
63.052837917134
 21
802.396224628963
 31
0.0
  0
LINE
  5
E1B
330
1D
100
AcDbEntity
  8
0
100
AcDbLine
 10
59.572937917134
 20
803.449224628963
 30
0.0
 11
59.743437917134
 21
803.420224628963
 31
0.0
  0
LINE
  5
E1C
330
1D
100
AcDbEntity
  8
0
100
AcDbLine
 10
57.995837917134
 20
803.735224628963
 30
0.0
 11
58.324937917134
 21
803.428224628963
 31
0.0
  0
LINE
  5
E1D
330
1D
100
AcDbEntity
  8
0
100
AcDbLine
 10
57.995837917134
 20
803.735224628963
 30
0.0
 11
58.144488069263
 21
803.596556756876
 31
0.0
  0
LINE
  5
E1E
330
1D
100
AcDbEntity
  8
0
100
AcDbLine
 10
59.186937917134
 20
803.681224628963
 30
0.0
 11
59.572937917134
 21
803.449224628963
 31
0.0
  0
LINE
  5
E1F
330
1D
100
AcDbEntity
  8
0
100
AcDbLine
 10
66.320437917134
 20
795.289224628963
 30
0.0
 11
66.896446893746
 21
795.906787332334
 31
0.0
  0
LINE
  5
E20
330
1D
100
AcDbEntity
  8
0
100
AcDbLine
 10
65.991337917134
 20
795.596224628963
 30
0.0
 11
66.320437917134
 21
795.289224628963
 31
0.0
  0
LINE
  5
E21
330
1D
100
AcDbEntity
  8
0
100
AcDbLine
 10
67.090337917134
 20
795.657224628963
 30
0.0
 11
67.226137917134
 21
795.446224628963
 31
0.0
  0
LINE
  5
E22
330
1D
100
AcDbEntity
  8
0
100
AcDbLine
 10
67.090337917134
 20
795.657224628963
 30
0.0
 11
70.835337917134
 21
790.134224628963
 31
0.0
  0
LINE
  5
E23
330
1D
100
AcDbEntity
  8
0
100
AcDbLine
 10
66.892832639838
 20
795.902912343393
 30
0.0
 11
67.226137917134
 21
795.446224628963
 31
0.0
  0
LINE
  5
E24
330
1D
100
AcDbEntity
  8
0
100
AcDbLine
 10
70.835337917134
 20
790.134224628963
 30
0.0
 11
73.990137917134
 21
785.413424628963
 31
0.0
  0
LINE
  5
E25
330
1D
100
AcDbEntity
  8
0
100
AcDbLine
 10
69.761537917134
 20
795.772224628963
 30
0.0
 11
71.207745945875
 21
797.322763207578
 31
0.0
  0
LINE
  5
E26
330
1D
100
AcDbEntity
  8
0
100
AcDbLine
 10
65.878437917134
 20
797.068224628963
 30
0.0
 11
66.812287066086
 21
798.069716223602
 31
0.0
  0
LINE
  5
E27
330
1D
100
AcDbEntity
  8
0
100
AcDbLine
 10
64.455537917134
 20
797.028224628963
 30
0.0
 11
65.223437917134
 21
796.312224628963
 31
0.0
  0
LINE
  5
E28
330
1D
100
AcDbEntity
  8
0
100
AcDbLine
 10
65.223437917134
 20
796.312224628963
 30
0.0
 11
65.991337917134
 21
795.596224628963
 31
0.0
  0
LINE
  5
E29
330
1D
100
AcDbEntity
  8
0
100
AcDbLine
 10
68.664437917134
 20
796.795224628963
 30
0.0
 11
69.432437917134
 21
796.079224628963
 31
0.0
  0
LINE
  5
E2A
330
1D
100
AcDbEntity
  8
0
100
AcDbLine
 10
69.432437917134
 20
796.079224628963
 30
0.0
 11
69.761537917134
 21
795.772224628963
 31
0.0
  0
LINE
  5
E2B
330
1D
100
AcDbEntity
  8
0
100
AcDbLine
 10
66.223437917134
 20
796.773224628963
 30
0.0
 11
66.787337917134
 21
796.047224628963
 31
0.0
  0
LINE
  5
E2C
330
1D
100
AcDbEntity
  8
0
100
AcDbLine
 10
66.787337917134
 20
796.047224628963
 30
0.0
 11
67.090337917134
 21
795.657224628963
 31
0.0
  0
LINE
  5
E2D
330
1D
100
AcDbEntity
  8
0
100
AcDbLine
 10
87.016137917134
 20
762.921924628963
 30
0.0
 11
87.069337917134
 21
762.826424628963
 31
0.0
  0
LINE
  5
E2E
330
1D
100
AcDbEntity
  8
0
100
AcDbLine
 10
87.016137917134
 20
762.921924628963
 30
0.0
 11
87.156837917134
 21
763.303224628963
 31
0.0
  0
LINE
  5
E2F
330
1D
100
AcDbEntity
  8
0
100
AcDbLine
 10
87.069337917134
 20
762.826424628963
 30
0.0
 11
125.237037917134
 21
697.041454628963
 31
0.0
  0
LINE
  5
E30
330
1D
100
AcDbEntity
  8
0
100
AcDbLine
 10
87.069337917134
 20
762.826424628963
 30
0.0
 11
125.237037917134
 21
697.041454628963
 31
0.0
  0
LINE
  5
E31
330
1D
100
AcDbEntity
  8
0
100
AcDbLine
 10
87.156837917134
 20
763.303224628963
 30
0.0
 11
87.417337917134
 21
764.174224628963
 31
0.0
  0
LINE
  5
E32
330
1D
100
AcDbEntity
  8
0
100
AcDbLine
 10
87.417337917134
 20
764.174224628963
 30
0.0
 11
87.765737917134
 21
765.855024628963
 31
0.0
  0
LINE
  5
E33
330
1D
100
AcDbEntity
  8
0
100
AcDbLine
 10
87.765737917134
 20
765.855024628963
 30
0.0
 11
88.067237917134
 21
767.560124628963
 31
0.0
  0
LINE
  5
E34
330
1D
100
AcDbEntity
  8
0
100
AcDbLine
 10
83.791737917134
 20
767.944924628963
 30
0.0
 11
83.930237917134
 21
767.861524628963
 31
0.0
  0
LINE
  5
E35
330
1D
100
AcDbEntity
  8
0
100
AcDbLine
 10
83.930237917134
 20
767.861524628963
 30
0.0
 11
84.310137917134
 21
767.865124628963
 31
0.0
  0
LINE
  5
E36
330
1D
100
AcDbEntity
  8
0
100
AcDbLine
 10
83.686037917134
 20
768.071424628963
 30
0.0
 11
83.791737917134
 21
767.944924628963
 31
0.0
  0
LINE
  5
E37
330
1D
100
AcDbEntity
  8
0
100
AcDbLine
 10
84.438037917134
 20
769.421024628963
 30
0.0
 11
84.535937917134
 21
770.686324628963
 31
0.0
  0
LINE
  5
E38
330
1D
100
AcDbEntity
  8
0
100
AcDbLine
 10
83.990498380591
 20
775.544098913015
 30
0.0
 11
84.563737917134
 21
771.787124628963
 31
0.0
  0
LINE
  5
E39
330
1D
100
AcDbEntity
  8
0
100
AcDbLine
 10
83.489037917134
 20
777.013724628963
 30
0.0
 11
83.988037917134
 21
775.560224628963
 31
0.0
  0
LINE
  5
E3A
330
1D
100
AcDbEntity
  8
0
100
AcDbLine
 10
88.067237917134
 20
767.560124628963
 30
0.0
 11
88.392137917134
 21
769.455924628963
 31
0.0
  0
LINE
  5
E3B
330
1D
100
AcDbEntity
  8
0
100
AcDbLine
 10
84.535937917134
 20
770.686324628963
 30
0.0
 11
84.563737917134
 21
771.787124628963
 31
0.0
  0
LINE
  5
E3C
330
1D
100
AcDbEntity
  8
0
100
AcDbLine
 10
84.330737917134
 20
767.458524628963
 30
0.0
 11
87.103537917134
 21
763.506924628963
 31
0.0
  0
LINE
  5
E3D
330
1D
100
AcDbEntity
  8
0
100
AcDbLine
 10
84.330737917134
 20
767.458524628963
 30
0.0
 11
84.438037917134
 21
769.421024628963
 31
0.0
  0
LINE
  5
E3E
330
1D
100
AcDbEntity
  8
0
100
AcDbLine
 10
74.083337917134
 20
784.622024628963
 30
0.0
 11
74.101337917134
 21
784.818824628963
 31
0.0
  0
LINE
  5
E3F
330
1D
100
AcDbEntity
  8
0
100
AcDbLine
 10
74.101337917134
 20
784.818824628963
 30
0.0
 11
74.135537917134
 21
784.893424628963
 31
0.0
  0
LINE
  5
E40
330
1D
100
AcDbEntity
  8
0
100
AcDbLine
 10
76.049737917134
 20
784.193224628963
 30
0.0
 11
76.767537917134
 21
783.777424628963
 31
0.0
  0
LINE
  5
E41
330
1D
100
AcDbEntity
  8
0
100
AcDbLine
 10
75.349637917134
 20
784.572524628963
 30
0.0
 11
76.049737917134
 21
784.193224628963
 31
0.0
  0
LINE
  5
E42
330
1D
100
AcDbEntity
  8
0
100
AcDbLine
 10
74.850137917134
 20
784.832324628963
 30
0.0
 11
75.349637917134
 21
784.572524628963
 31
0.0
  0
LINE
  5
E43
330
1D
100
AcDbEntity
  8
0
100
AcDbLine
 10
76.767537917134
 20
783.777424628963
 30
0.0
 11
77.257989190046
 21
783.479536021204
 31
0.0
  0
LINE
  5
E44
330
1D
100
AcDbEntity
  8
0
100
AcDbLine
 10
81.735237917134
 20
779.899524628963
 30
0.0
 11
82.077537917134
 21
779.495124628963
 31
0.0
  0
LINE
  5
E45
330
1D
100
AcDbEntity
  8
0
100
AcDbLine
 10
81.360237917134
 20
780.303524628963
 30
0.0
 11
81.735237917134
 21
779.899524628963
 31
0.0
  0
LINE
  5
E46
330
1D
100
AcDbEntity
  8
0
100
AcDbLine
 10
74.135537917134
 20
784.893424628963
 30
0.0
 11
74.357437917134
 21
785.080124628963
 31
0.0
  0
LINE
  5
E47
330
1D
100
AcDbEntity
  8
0
100
AcDbLine
 10
74.357437917134
 20
785.080124628963
 30
0.0
 11
74.504237917134
 21
785.012224628963
 31
0.0
  0
LINE
  5
E48
330
1D
100
AcDbEntity
  8
0
100
AcDbLine
 10
74.504237917134
 20
785.012224628963
 30
0.0
 11
74.850137917134
 21
784.832324628963
 31
0.0
  0
LINE
  5
E49
330
1D
100
AcDbEntity
  8
0
100
AcDbLine
 10
82.060337917134
 20
792.881224628963
 30
0.0
 11
83.974237917134
 21
791.097224628963
 31
0.0
  0
LINE
  5
E4A
330
1D
100
AcDbEntity
  8
0
100
AcDbLine
 10
73.990137917134
 20
785.413424628963
 30
0.0
 11
74.357437917134
 21
785.080124628963
 31
0.0
  0
LINE
  5
E4B
330
1D
100
AcDbEntity
  8
0
100
AcDbLine
 10
86.170737917134
 20
789.031224628963
 30
0.0
 11
86.480337917134
 21
788.740224628963
 31
0.0
  0
LINE
  5
E4C
330
1D
100
AcDbEntity
  8
0
100
AcDbLine
 10
85.657337917134
 20
789.527224628963
 30
0.0
 11
86.170737917134
 21
789.031224628963
 31
0.0
  0
LINE
  5
E4D
330
1D
100
AcDbEntity
  8
0
100
AcDbLine
 10
83.974237917134
 20
791.097224628963
 30
0.0
 11
85.657337917134
 21
789.527224628963
 31
0.0
  0
LINE
  5
E50
330
1D
100
AcDbEntity
  8
0
100
AcDbLine
 10
125.237037917134
 20
697.041454628963
 30
0.0
 11
125.550037917134
 21
696.741764628963
 31
0.0
  0
LINE
  5
E51
330
1D
100
AcDbEntity
  8
0
100
AcDbLine
 10
125.550037917134
 20
696.741764628963
 30
0.0
 11
125.832037917134
 21
696.634104628963
 31
0.0
  0
LINE
  5
E52
330
1D
100
AcDbEntity
  8
0
100
AcDbLine
 10
125.832037917134
 20
696.634104628963
 30
0.0
 11
126.433798252471
 21
696.939721544653
 31
0.0
  0
LINE
  5
E5F
330
1D
100
AcDbEntity
  8
0
100
AcDbLine
 10
89.164937917134
 20
775.169024628963
 30
0.0
 11
89.411337917134
 21
778.920724628963
 31
0.0
  0
LINE
  5
E63
330
1D
100
AcDbEntity
  8
0
100
AcDbLine
 10
147.432406361899
 20
708.568046054857
 30
0.0
 11
147.808037917134
 21
708.800124628963
 31
0.0
  0
LINE
  5
E64
330
1D
100
AcDbEntity
  8
0
100
AcDbLine
 10
148.259037917134
 20
709.806624628963
 30
0.0
 11
148.343037917134
 21
709.270424628963
 31
0.0
  0
LINE
  5
E65
330
1D
100
AcDbEntity
  8
0
100
AcDbLine
 10
147.808037917134
 20
708.800124628963
 30
0.0
 11
148.343037917134
 21
709.270424628963
 31
0.0
  0
LINE
  5
E66
330
1D
100
AcDbEntity
  8
0
100
AcDbLine
 10
147.432406361899
 20
708.568046054857
 30
0.0
 11
147.808037917134
 21
708.800124628963
 31
0.0
  0
LINE
  5
E67
330
1D
100
AcDbEntity
  8
0
100
AcDbLine
 10
104.601037917134
 20
791.450224628963
 30
0.0
 11
107.340037917134
 21
786.253624628963
 31
0.0
  0
LINE
  5
E68
330
1D
100
AcDbEntity
  8
0
100
AcDbLine
 10
107.340037917134
 20
786.253624628963
 30
0.0
 11
148.259037917134
 21
709.806624628963
 31
0.0
  0
LINE
  5
E69
330
1D
100
AcDbEntity
  8
0
100
AcDbLine
 10
72.984737917134
 20
796.184224628963
 30
0.0
 11
73.313937917134
 21
795.877224628963
 31
0.0
  0
LINE
  5
E6A
330
1D
100
AcDbEntity
  8
0
100
AcDbLine
 10
72.984737917134
 20
796.184224628963
 30
0.0
 11
74.033152021844
 21
797.308579579381
 31
0.0
  0
LINE
  5
E6B
330
1D
100
AcDbEntity
  8
0
100
AcDbLine
 10
73.313937917134
 20
795.877224628963
 30
0.0
 11
74.081837917134
 21
795.161224628963
 31
0.0
  0
LINE
  5
E6C
330
1D
100
AcDbEntity
  8
0
100
AcDbLine
 10
74.081837917134
 20
795.161224628963
 30
0.0
 11
74.849737917134
 21
794.445224628963
 31
0.0
  0
LINE
  5
E6D
330
1D
100
AcDbEntity
  8
0
100
AcDbLine
 10
74.849737917134
 20
794.445224628963
 30
0.0
 11
75.178837917134
 21
794.138224628963
 31
0.0
  0
LINE
  5
E6E
330
1D
100
AcDbEntity
  8
0
100
AcDbLine
 10
75.178837917134
 20
794.138224628963
 30
0.0
 11
76.552177763464
 21
795.611040997886
 31
0.0
  0
LINE
  5
E6F
330
1D
100
AcDbEntity
  8
0
100
AcDbLine
 10
76.227037917134
 20
795.912224628963
 30
0.0
 11
76.696637917134
 21
795.477224628963
 31
0.0
  0
LINE
  5
E70
330
1D
100
AcDbEntity
  8
0
100
AcDbLine
 10
73.561639877041
 20
796.802913915585
 30
0.0
 11
74.033152021844
 21
797.308579579381
 31
0.0
  0
LINE
  5
E71
330
1D
100
AcDbEntity
  8
0
100
AcDbLine
 10
75.163537917134
 20
796.648224628963
 30
0.0
 11
76.227037917134
 21
795.912224628963
 31
0.0
  0
LINE
  5
E72
330
1D
100
AcDbEntity
  8
0
100
AcDbLine
 10
102.924037917134
 20
795.115224628963
 30
0.0
 11
104.601037917134
 21
791.450224628963
 31
0.0
  0
LINE
  5
E73
330
1D
100
AcDbEntity
  8
0
100
AcDbLine
 10
76.734437917134
 20
795.433224628963
 30
0.0
 11
76.766937917134
 21
795.393224628963
 31
0.0
  0
LINE
  5
E74
330
1D
100
AcDbEntity
  8
0
100
AcDbLine
 10
76.734437917134
 20
795.433224628963
 30
0.0
 11
76.766837917134
 21
795.393224628963
 31
0.0
  0
LINE
  5
E75
330
1D
100
AcDbEntity
  8
0
100
AcDbLine
 10
76.696637917134
 20
795.477224628963
 30
0.0
 11
76.734437917134
 21
795.433224628963
 31
0.0
  0
LINE
  5
E76
330
1D
100
AcDbEntity
  8
0
100
AcDbLine
 10
102.809037917134
 20
795.842224628963
 30
0.0
 11
102.924037917134
 21
795.115224628963
 31
0.0
  0
LINE
  5
E77
330
1D
100
AcDbEntity
  8
0
100
AcDbLine
 10
102.593037917134
 20
796.738224628963
 30
0.0
 11
102.809037917134
 21
795.842224628963
 31
0.0
  0
LINE
  5
E78
330
1D
100
AcDbEntity
  8
0
100
AcDbLine
 10
79.170137917134
 20
795.575224628963
 30
0.0
 11
82.060337917134
 21
792.881224628963
 31
0.0
  0
LINE
  5
E79
330
1D
100
AcDbEntity
  8
0
100
AcDbLine
 10
76.317258229636
 20
795.270001191463
 30
0.0
 11
76.653937917134
 21
795.166224628963
 31
0.0
  0
LINE
  5
E7A
330
1D
100
AcDbEntity
  8
0
100
AcDbLine
 10
71.241937917134
 20
796.956224628963
 30
0.0
 11
71.591837917134
 21
796.912224628963
 31
0.0
  0
LINE
  5
E7B
330
1D
100
AcDbEntity
  8
0
100
AcDbLine
 10
65.549337917134
 20
797.375224628963
 30
0.0
 11
65.878437917134
 21
797.068224628963
 31
0.0
  0
LINE
  5
E7C
330
1D
100
AcDbEntity
  8
0
100
AcDbLine
 10
64.126437917134
 20
797.335224628963
 30
0.0
 11
64.455537917134
 21
797.028224628963
 31
0.0
  0
LINE
  5
E7D
330
1D
100
AcDbEntity
  8
0
100
AcDbLine
 10
64.126437917134
 20
797.335224628963
 30
0.0
 11
64.808250766753
 21
798.066223977411
 31
0.0
  0
LINE
  5
E7E
330
1D
100
AcDbEntity
  8
0
100
AcDbLine
 10
65.925139969307
 20
797.118309498404
 30
0.0
 11
66.223437917134
 21
796.773224628963
 31
0.0
  0
LINE
  5
E7F
330
1D
100
AcDbEntity
  8
0
100
AcDbLine
 10
63.684437917134
 20
799.114224628963
 30
0.0
 11
64.013537917134
 21
798.807224628963
 31
0.0
  0
LINE
  5
E80
330
1D
100
AcDbEntity
  8
0
100
AcDbLine
 10
63.684437917134
 20
799.114224628963
 30
0.0
 11
64.582889308413
 21
800.077754464127
 31
0.0
  0
LINE
  5
E81
330
1D
100
AcDbEntity
  8
0
100
AcDbLine
 10
63.684437917134
 20
799.114224628963
 30
0.0
 11
63.819969940699
 21
799.259573781508
 31
0.0
  0
LINE
  5
E82
330
1D
100
AcDbEntity
  8
0
100
AcDbLine
 10
64.013537917134
 20
798.807224628963
 30
0.0
 11
64.781437917134
 21
798.091224628963
 31
0.0
  0
LINE
  5
E83
330
1D
100
AcDbEntity
  8
0
100
AcDbLine
 10
64.781437917134
 20
798.091224628963
 30
0.0
 11
65.549337917134
 21
797.375224628963
 31
0.0
  0
LINE
  5
E84
330
1D
100
AcDbEntity
  8
0
100
AcDbLine
 10
66.465713187509
 20
797.698038606605
 30
0.0
 11
66.903037917134
 21
797.404224628963
 31
0.0
  0
LINE
  5
E85
330
1D
100
AcDbEntity
  8
0
100
AcDbLine
 10
65.934037917134
 20
798.971224628963
 30
0.0
 11
66.968637917134
 21
797.909224628963
 31
0.0
  0
LINE
  5
E86
330
1D
100
AcDbEntity
  8
0
100
AcDbLine
 10
66.903037917134
 20
797.404224628963
 30
0.0
 11
67.163037917134
 21
797.348224628963
 31
0.0
  0
LINE
  5
E87
330
1D
100
AcDbEntity
  8
0
100
AcDbLine
 10
67.163037917134
 20
797.348224628963
 30
0.0
 11
67.181237917134
 21
797.497224628963
 31
0.0
  0
LINE
  5
E88
330
1D
100
AcDbEntity
  8
0
100
AcDbLine
 10
67.567437917134
 20
797.818224628963
 30
0.0
 11
67.896537917134
 21
797.511224628963
 31
0.0
  0
LINE
  5
E89
330
1D
100
AcDbEntity
  8
0
100
AcDbLine
 10
67.567437917134
 20
797.818224628963
 30
0.0
 11
68.696455760352
 21
799.028690680226
 31
0.0
  0
LINE
  5
E8A
330
1D
100
AcDbEntity
  8
0
100
AcDbLine
 10
67.896537917134
 20
797.511224628963
 30
0.0
 11
68.664437917134
 21
796.795224628963
 31
0.0
  0
LINE
  5
E8B
330
1D
100
AcDbEntity
  8
0
100
AcDbLine
 10
66.968637917134
 20
797.909224628963
 30
0.0
 11
67.181237917134
 21
797.497224628963
 31
0.0
  0
LINE
  5
E8C
330
1D
100
AcDbEntity
  8
0
100
AcDbLine
 10
63.557837917134
 20
800.486224628963
 30
0.0
 11
63.951725909906
 21
800.037996075148
 31
0.0
  0
LINE
  5
E8D
330
1D
100
AcDbEntity
  8
0
100
AcDbLine
 10
64.252416637001
 20
799.723344329419
 30
0.0
 11
64.582889308413
 21
800.077754464127
 31
0.0
  0
LINE
  5
E8E
330
1D
100
AcDbEntity
  8
0
100
AcDbLine
 10
65.086637917134
 20
800.131224628963
 30
0.0
 11
66.563976175353
 21
801.715572432573
 31
0.0
  0
LINE
  5
E8F
330
1D
100
AcDbEntity
  8
0
100
AcDbLine
 10
64.757537917134
 20
800.438224628963
 30
0.0
 11
65.086637917134
 21
800.131224628963
 31
0.0
  0
LINE
  5
E90
330
1D
100
AcDbEntity
  8
0
100
AcDbLine
 10
64.643637917134
 20
800.037224628963
 30
0.0
 11
65.934037917134
 21
798.971224628963
 31
0.0
  0
LINE
  5
E91
330
1D
100
AcDbEntity
  8
0
100
AcDbLine
 10
63.914237917134
 20
800.077224628963
 30
0.0
 11
64.252416637001
 21
799.723344329419
 31
0.0
  0
LINE
  5
E92
330
1D
100
AcDbEntity
  8
0
100
AcDbLine
 10
63.853737917134
 20
800.564224628963
 30
0.0
 11
64.643637917134
 21
800.037224628963
 31
0.0
  0
LINE
  5
E93
330
1D
100
AcDbEntity
  8
0
100
AcDbLine
 10
68.965737917134
 20
799.932224628963
 30
0.0
 11
69.733737917134
 21
799.216224628963
 31
0.0
  0
LINE
  5
E94
330
1D
100
AcDbEntity
  8
0
100
AcDbLine
 10
67.954237917134
 20
799.238224628963
 30
0.0
 11
68.470167949109
 21
798.786078293743
 31
0.0
  0
LINE
  5
E95
330
1D
100
AcDbEntity
  8
0
100
AcDbLine
 10
67.951637917134
 20
799.373224628963
 30
0.0
 11
68.361037917134
 21
799.226224628963
 31
0.0
  0
LINE
  5
E96
330
1D
100
AcDbEntity
  8
0
100
AcDbLine
 10
67.951637917134
 20
799.373224628963
 30
0.0
 11
67.954237917134
 21
799.238224628963
 31
0.0
  0
LINE
  5
E97
330
1D
100
AcDbEntity
  8
0
100
AcDbLine
 10
68.361037917134
 20
799.226224628963
 30
0.0
 11
69.393437917134
 21
798.618224628963
 31
0.0
  0
LINE
  5
E98
330
1D
100
AcDbEntity
  8
0
100
AcDbLine
 10
70.062837917134
 20
798.909224628963
 30
0.0
 11
71.39322032404
 21
800.335971978539
 31
0.0
  0
LINE
  5
E99
330
1D
100
AcDbEntity
  8
0
100
AcDbLine
 10
69.733737917134
 20
799.216224628963
 30
0.0
 11
70.062837917134
 21
798.909224628963
 31
0.0
  0
LINE
  5
E9A
330
1D
100
AcDbEntity
  8
0
100
AcDbLine
 10
70.497937917134
 20
797.875224628963
 30
0.0
 11
71.309937917134
 21
797.243224628963
 31
0.0
  0
LINE
  5
E9B
330
1D
100
AcDbEntity
  8
0
100
AcDbLine
 10
69.393437917134
 20
798.618224628963
 30
0.0
 11
70.497937917134
 21
797.875224628963
 31
0.0
  0
LINE
  5
E9C
330
1D
100
AcDbEntity
  8
0
100
AcDbLine
 10
63.505437917134
 20
800.738224628963
 30
0.0
 11
63.557837917134
 21
800.486224628963
 31
0.0
  0
LINE
  5
E9D
330
1D
100
AcDbEntity
  8
0
100
AcDbLine
 10
63.505437917134
 20
800.738224628963
 30
0.0
 11
63.853737917134
 21
800.564224628963
 31
0.0
  0
LINE
  5
E9E
330
1D
100
AcDbEntity
  8
0
100
AcDbLine
 10
67.868737917134
 20
800.955224628963
 30
0.0
 11
68.197837917134
 21
800.648224628963
 31
0.0
  0
LINE
  5
E9F
330
1D
100
AcDbEntity
  8
0
100
AcDbLine
 10
67.868737917134
 20
800.955224628963
 30
0.0
 11
68.847299595223
 21
802.00466746086
 31
0.0
  0
LINE
  5
EA0
330
1D
100
AcDbEntity
  8
0
100
AcDbLine
 10
68.197837917134
 20
800.648224628963
 30
0.0
 11
68.965737917134
 21
799.932224628963
 31
0.0
  0
LINE
  5
EA1
330
1D
100
AcDbEntity
  8
0
100
AcDbLine
 10
70.781337917134
 20
800.854224628963
 30
0.0
 11
71.352637917134
 21
800.380224628963
 31
0.0
  0
LINE
  5
EA2
330
1D
100
AcDbEntity
  8
0
100
AcDbLine
 10
63.989637917134
 20
801.154224628963
 30
0.0
 11
64.757537917134
 21
800.438224628963
 31
0.0
  0
LINE
  5
EA3
330
1D
100
AcDbEntity
  8
0
100
AcDbLine
 10
66.893837917134
 20
800.984224628963
 30
0.0
 11
67.243937917134
 21
800.930224628963
 31
0.0
  0
LINE
  5
EA4
330
1D
100
AcDbEntity
  8
0
100
AcDbLine
 10
71.01215337572
 20
799.927302820179
 30
0.0
 11
71.708437917134
 21
799.693224628963
 31
0.0
  0
LINE
  5
EA5
330
1D
100
AcDbEntity
  8
0
100
AcDbLine
 10
66.333037917134
 20
801.918224628963
 30
0.0
 11
66.929037917134
 21
801.395224628963
 31
0.0
  0
LINE
  5
EA6
330
1D
100
AcDbEntity
  8
0
100
AcDbLine
 10
65.483837917134
 20
802.569224628963
 30
0.0
 11
66.333037917134
 21
801.918224628963
 31
0.0
  0
LINE
  5
EA7
330
1D
100
AcDbEntity
  8
0
100
AcDbLine
 10
67.990537917134
 20
802.251224628963
 30
0.0
 11
68.041037917134
 21
801.984224628963
 31
0.0
  0
LINE
  5
EA8
330
1D
100
AcDbEntity
  8
0
100
AcDbLine
 10
67.990537917134
 20
802.251224628963
 30
0.0
 11
68.611337917134
 21
802.120224628963
 31
0.0
  0
LINE
  5
EA9
330
1D
100
AcDbEntity
  8
0
100
AcDbLine
 10
66.929037917134
 20
801.395224628963
 30
0.0
 11
67.243937917134
 21
800.930224628963
 31
0.0
  0
LINE
  5
EAA
330
1D
100
AcDbEntity
  8
0
100
AcDbLine
 10
64.243037917134
 20
803.383224628963
 30
0.0
 11
65.483837917134
 21
802.569224628963
 31
0.0
  0
LINE
  5
EAB
330
1D
100
AcDbEntity
  8
0
100
AcDbLine
 10
68.041037917134
 20
801.984224628963
 30
0.0
 11
68.401037917134
 21
801.586224628963
 31
0.0
  0
LINE
  5
EAC
330
1D
100
AcDbEntity
  8
0
100
AcDbLine
 10
69.701737917134
 20
801.586224628963
 30
0.0
 11
70.781337917134
 21
800.854224628963
 31
0.0
  0
LINE
  5
EAD
330
1D
100
AcDbEntity
  8
0
100
AcDbLine
 10
68.611337917134
 20
802.120224628963
 30
0.0
 11
69.701737917134
 21
801.586224628963
 31
0.0
  0
LINE
  5
EAE
330
1D
100
AcDbEntity
  8
0
100
AcDbLine
 10
66.226491000163
 20
801.353641850264
 30
0.0
 11
66.893837917134
 21
800.984224628963
 31
0.0
  0
LINE
  5
EAF
330
1D
100
AcDbEntity
  8
0
100
AcDbLine
 10
77.105401983006
 20
797.500334418366
 30
0.0
 11
77.200937917134
 21
797.398224628963
 31
0.0
  0
LINE
  5
EB0
330
1D
100
AcDbEntity
  8
0
100
AcDbLine
 10
72.891037917134
 20
797.309224628963
 30
0.0
 11
73.561639877041
 21
796.802913915585
 31
0.0
  0
LINE
  5
EB1
330
1D
100
AcDbEntity
  8
0
100
AcDbLine
 10
71.352637917134
 20
800.380224628963
 30
0.0
 11
71.739637917134
 21
799.958224628963
 31
0.0
  0
LINE
  5
EB2
330
1D
100
AcDbEntity
  8
0
100
AcDbLine
 10
102.006037917134
 20
797.569224628963
 30
0.0
 11
102.536037917134
 21
796.846224628963
 31
0.0
  0
LINE
  5
EB3
330
1D
100
AcDbEntity
  8
0
100
AcDbLine
 10
102.006037917134
 20
797.569224628963
 30
0.0
 11
102.593037917134
 21
796.738224628963
 31
0.0
  0
LINE
  5
EB4
330
1D
100
AcDbEntity
  8
0
100
AcDbLine
 10
72.359737917134
 20
801.924224628963
 30
0.0
 11
75.925737917134
 21
798.600224628963
 31
0.0
  0
LINE
  5
EB5
330
1D
100
AcDbEntity
  8
0
100
AcDbLine
 10
75.925737917134
 20
798.600224628963
 30
0.0
 11
79.170137917134
 21
795.575224628963
 31
0.0
  0
LINE
  5
EB6
330
1D
100
AcDbEntity
  8
0
100
AcDbLine
 10
72.737637917134
 20
797.844224628963
 30
0.0
 11
73.696537917134
 21
797.505224628963
 31
0.0
  0
LINE
  5
EB7
330
1D
100
AcDbEntity
  8
0
100
AcDbLine
 10
72.489537917134
 20
797.775224628963
 30
0.0
 11
72.891037917134
 21
797.309224628963
 31
0.0
  0
LINE
  5
EB8
330
1D
100
AcDbEntity
  8
0
100
AcDbLine
 10
72.489537917134
 20
797.775224628963
 30
0.0
 11
72.737637917134
 21
797.844224628963
 31
0.0
  0
LINE
  5
EB9
330
1D
100
AcDbEntity
  8
0
100
AcDbLine
 10
71.708437917134
 20
799.693224628963
 30
0.0
 11
71.739637917134
 21
799.958224628963
 31
0.0
  0
LINE
  5
EBA
330
1D
100
AcDbEntity
  8
0
100
AcDbLine
 10
73.696537917134
 20
797.505224628963
 30
0.0
 11
75.163537917134
 21
796.648224628963
 31
0.0
  0
LINE
  5
EBB
330
1D
100
AcDbEntity
  8
0
100
AcDbLine
 10
71.309937917134
 20
797.243224628963
 30
0.0
 11
71.591837917134
 21
796.912224628963
 31
0.0
  0
LINE
  5
EBC
330
1D
100
AcDbEntity
  8
0
100
AcDbLine
 10
70.992460494124
 20
797.09194689919
 30
0.0
 11
71.241937917134
 21
796.956224628963
 31
0.0
  0
LINE
  5
EBD
330
1D
100
AcDbEntity
  8
0
100
AcDbLine
 10
63.234037917134
 20
803.637224628963
 30
0.0
 11
63.752660126457
 21
803.099541702128
 31
0.0
  0
LINE
  5
EBE
330
1D
100
AcDbEntity
  8
0
100
AcDbLine
 10
63.234037917134
 20
803.637224628963
 30
0.0
 11
63.349537917134
 21
803.807224628963
 31
0.0
  0
LINE
  5
EBF
330
1D
100
AcDbEntity
  8
0
100
AcDbLine
 10
49.169937917134
 20
812.649224628963
 30
0.0
 11
50.50159109328
 21
814.077334794701
 31
0.0
  0
LINE
  5
EC0
330
1D
100
AcDbEntity
  8
0
100
AcDbLine
 10
48.840837917134
 20
812.956224628963
 30
0.0
 11
49.169937917134
 21
812.649224628963
 31
0.0
  0
LINE
  5
EC1
330
1D
100
AcDbEntity
  8
0
100
AcDbLine
 10
50.570437917134
 20
811.414224628963
 30
0.0
 11
50.925037917134
 21
811.025224628963
 31
0.0
  0
LINE
  5
EC2
330
1D
100
AcDbEntity
  8
0
100
AcDbLine
 10
50.570437917134
 20
811.414224628963
 30
0.0
 11
50.638137917134
 21
811.467224628963
 31
0.0
  0
LINE
  5
EC3
330
1D
100
AcDbEntity
  8
0
100
AcDbLine
 10
50.828537917134
 20
810.419224628963
 30
0.0
 11
51.157637917134
 21
810.112224628963
 31
0.0
  0
LINE
  5
EC4
330
1D
100
AcDbEntity
  8
0
100
AcDbLine
 10
50.828537917134
 20
810.419224628963
 30
0.0
 11
51.368626752997
 21
810.998434269065
 31
0.0
  0
LINE
  5
EC5
330
1D
100
AcDbEntity
  8
0
100
AcDbLine
 10
51.175215743503
 20
810.791013723107
 30
0.0
 11
51.368626752997
 21
810.998434269065
 31
0.0
  0
LINE
  5
EC6
330
1D
100
AcDbEntity
  8
0
100
AcDbLine
 10
51.157637917134
 20
810.112224628963
 30
0.0
 11
51.925537917134
 21
809.396224628963
 31
0.0
  0
LINE
  5
EC7
330
1D
100
AcDbEntity
  8
0
100
AcDbLine
 10
50.925037917134
 20
811.025224628963
 30
0.0
 11
51.175215743503
 21
810.791013723107
 31
0.0
  0
LINE
  5
EC8
330
1D
100
AcDbEntity
  8
0
100
AcDbLine
 10
51.925537917134
 20
809.396224628963
 30
0.0
 11
52.693437917134
 21
808.680224628963
 31
0.0
  0
LINE
  5
EC9
330
1D
100
AcDbEntity
  8
0
100
AcDbLine
 10
51.203537917134
 20
811.121224628963
 30
0.0
 11
52.116437917134
 21
810.442224628963
 31
0.0
  0
LINE
  5
ECA
330
1D
100
AcDbEntity
  8
0
100
AcDbLine
 10
50.638137917134
 20
811.467224628963
 30
0.0
 11
51.203537917134
 21
811.121224628963
 31
0.0
  0
LINE
  5
ECB
330
1D
100
AcDbEntity
  8
0
100
AcDbLine
 10
51.877537917134
 20
812.449224628963
 30
0.0
 11
52.645437917134
 21
811.733224628963
 31
0.0
  0
LINE
  5
ECC
330
1D
100
AcDbEntity
  8
0
100
AcDbLine
 10
50.780537917134
 20
813.472224628963
 30
0.0
 11
51.109637917134
 21
813.165224628963
 31
0.0
  0
LINE
  5
ECD
330
1D
100
AcDbEntity
  8
0
100
AcDbLine
 10
50.780537917134
 20
813.472224628963
 30
0.0
 11
52.14862001309
 21
814.939001210434
 31
0.0
  0
LINE
  5
ECE
330
1D
100
AcDbEntity
  8
0
100
AcDbLine
 10
51.109637917134
 20
813.165224628963
 30
0.0
 11
51.877537917134
 21
812.449224628963
 31
0.0
  0
LINE
  5
ECF
330
1D
100
AcDbEntity
  8
0
100
AcDbLine
 10
48.072937917134
 20
813.672224628963
 30
0.0
 11
48.840837917134
 21
812.956224628963
 31
0.0
  0
LINE
  5
ED0
330
1D
100
AcDbEntity
  8
0
100
AcDbLine
 10
44.310137917134
 20
814.235224628963
 30
0.0
 11
44.525437917134
 21
814.107224628963
 31
0.0
  0
LINE
  5
ED1
330
1D
100
AcDbEntity
  8
0
100
AcDbLine
 10
44.525437917134
 20
814.107224628963
 30
0.0
 11
45.269331539028
 21
814.746559504796
 31
0.0
  0
LINE
  5
ED2
330
1D
100
AcDbEntity
  8
0
100
AcDbLine
 10
44.286837917134
 20
814.356224628963
 30
0.0
 11
44.525437917134
 21
814.107224628963
 31
0.0
  0
LINE
  5
ED3
330
1D
100
AcDbEntity
  8
0
100
AcDbLine
 10
46.213637917134
 20
813.881224628963
 30
0.0
 11
47.410337917134
 21
812.625224628963
 31
0.0
  0
LINE
  5
ED4
330
1D
100
AcDbEntity
  8
0
100
AcDbLine
 10
47.305037917134
 20
814.388224628963
 30
0.0
 11
48.072937917134
 21
813.672224628963
 31
0.0
  0
LINE
  5
ED5
330
1D
100
AcDbEntity
  8
0
100
AcDbLine
 10
47.169037917134
 20
813.980224628963
 30
0.0
 11
50.986358849299
 21
810.588477165305
 31
0.0
  0
LINE
  5
ED6
330
1D
100
AcDbEntity
  8
0
100
AcDbLine
 10
50.25596334249
 20
813.813915239089
 30
0.0
 11
50.496437917134
 21
813.660224628963
 31
0.0
  0
LINE
  5
ED7
330
1D
100
AcDbEntity
  8
0
100
AcDbLine
 10
44.970303821324
 20
814.489561940707
 30
0.0
 11
47.410337917134
 21
812.625224628963
 31
0.0
  0
LINE
  5
ED8
330
1D
100
AcDbEntity
  8
0
100
AcDbLine
 10
50.163037917134
 20
814.452224628963
 30
0.0
 11
50.603737917134
 21
813.964224628963
 31
0.0
  0
LINE
  5
ED9
330
1D
100
AcDbEntity
  8
0
100
AcDbLine
 10
51.648400232179
 20
814.402695193129
 30
0.0
 11
52.14862001309
 21
814.939001210434
 31
0.0
  0
LINE
  5
EDA
330
1D
100
AcDbEntity
  8
0
100
AcDbLine
 10
50.603737917134
 20
813.964224628963
 30
0.0
 11
50.843537917134
 21
813.607224628963
 31
0.0
  0
LINE
  5
EDB
330
1D
100
AcDbEntity
  8
0
100
AcDbLine
 10
50.496437917134
 20
813.660224628963
 30
0.0
 11
50.843537917134
 21
813.607224628963
 31
0.0
  0
LINE
  5
EDC
330
1D
100
AcDbEntity
  8
0
100
AcDbLine
 10
43.285137917134
 20
814.971224628963
 30
0.0
 11
43.580837917134
 21
814.750224628963
 31
0.0
  0
LINE
  5
EDD
330
1D
100
AcDbEntity
  8
0
100
AcDbLine
 10
43.580837917134
 20
814.750224628963
 30
0.0
 11
44.310137917134
 21
814.235224628963
 31
0.0
  0
LINE
  5
EDE
330
1D
100
AcDbEntity
  8
0
100
AcDbLine
 10
46.975937917134
 20
814.695224628963
 30
0.0
 11
47.305037917134
 21
814.388224628963
 31
0.0
  0
LINE
  5
EDF
330
1D
100
AcDbEntity
  8
0
100
AcDbLine
 10
46.975937917134
 20
814.695224628963
 30
0.0
 11
48.239651281362
 21
816.050473829251
 31
0.0
  0
LINE
  5
EE0
330
1D
100
AcDbEntity
  8
0
100
AcDbLine
 10
43.007537917134
 20
815.177224628963
 30
0.0
 11
43.285137917134
 21
814.971224628963
 31
0.0
  0
LINE
  5
EE1
330
1D
100
AcDbEntity
  8
0
100
AcDbLine
 10
43.387237917134
 20
815.078224628963
 30
0.0
 11
44.286837917134
 21
814.356224628963
 31
0.0
  0
LINE
  5
EE2
330
1D
100
AcDbEntity
  8
0
100
AcDbLine
 10
49.538537917134
 20
815.036224628963
 30
0.0
 11
50.163037917134
 21
814.452224628963
 31
0.0
  0
LINE
  5
EE3
330
1D
100
AcDbEntity
  8
0
100
AcDbLine
 10
51.210637917134
 20
814.889224628963
 30
0.0
 11
51.642099797273
 21
814.395940240044
 31
0.0
  0
LINE
  5
EE4
330
1D
100
AcDbEntity
  8
0
100
AcDbLine
 10
50.978137917134
 20
815.302224628963
 30
0.0
 11
51.068537917134
 21
815.447224628963
 31
0.0
  0
LINE
  5
EE5
330
1D
100
AcDbEntity
  8
0
100
AcDbLine
 10
50.978137917134
 20
815.302224628963
 30
0.0
 11
51.210637917134
 21
814.889224628963
 31
0.0
  0
LINE
  5
EE6
330
1D
100
AcDbEntity
  8
0
100
AcDbLine
 10
56.130937917134
 20
805.474224628963
 30
0.0
 11
56.460037917134
 21
805.167224628963
 31
0.0
  0
LINE
  5
EE7
330
1D
100
AcDbEntity
  8
0
100
AcDbLine
 10
56.130937917134
 20
805.474224628963
 30
0.0
 11
56.599626566439
 21
805.976877020678
 31
0.0
  0
LINE
  5
EE8
330
1D
100
AcDbEntity
  8
0
100
AcDbLine
 10
56.130937917134
 20
805.474224628963
 30
0.0
 11
56.290267990806
 21
805.645100631022
 31
0.0
  0
LINE
  5
EE9
330
1D
100
AcDbEntity
  8
0
100
AcDbLine
 10
56.465237917134
 20
805.846224628963
 30
0.0
 11
57.624599050636
 21
807.089562947208
 31
0.0
  0
LINE
  5
EEA
330
1D
100
AcDbEntity
  8
0
100
AcDbLine
 10
56.472229293327
 20
805.840247844522
 30
0.0
 11
56.599626566439
 21
805.976877020678
 31
0.0
  0
LINE
  5
EEB
330
1D
100
AcDbEntity
  8
0
100
AcDbLine
 10
56.460037917134
 20
805.167224628963
 30
0.0
 11
57.227937917134
 21
804.451224628963
 31
0.0
  0
LINE
  5
EEC
330
1D
100
AcDbEntity
  8
0
100
AcDbLine
 10
57.227937917134
 20
804.451224628963
 30
0.0
 11
57.995837917134
 21
803.735224628963
 31
0.0
  0
LINE
  5
EED
330
1D
100
AcDbEntity
  8
0
100
AcDbLine
 10
56.592116470794
 20
805.982293506012
 30
0.0
 11
57.320137917134
 21
805.457224628963
 31
0.0
  0
LINE
  5
EEE
330
1D
100
AcDbEntity
  8
0
100
AcDbLine
 10
57.320137917134
 20
805.457224628963
 30
0.0
 11
58.617837917134
 21
804.438224628963
 31
0.0
  0
LINE
  5
EEF
330
1D
100
AcDbEntity
  8
0
100
AcDbLine
 10
58.617837917134
 20
804.438224628963
 30
0.0
 11
59.743437917134
 21
803.420224628963
 31
0.0
  0
LINE
  5
EF0
330
1D
100
AcDbEntity
  8
0
100
AcDbLine
 10
59.126537917134
 20
805.689224628963
 30
0.0
 11
59.455637917134
 21
805.382224628963
 31
0.0
  0
LINE
  5
EF1
330
1D
100
AcDbEntity
  8
0
100
AcDbLine
 10
58.817825536254
 20
803.956814078558
 30
0.0
 11
59.186937917134
 21
803.681224628963
 31
0.0
  0
LINE
  5
EF2
330
1D
100
AcDbEntity
  8
0
100
AcDbLine
 10
58.358637917134
 20
806.405224628963
 30
0.0
 11
59.126537917134
 21
805.689224628963
 31
0.0
  0
LINE
  5
EF3
330
1D
100
AcDbEntity
  8
0
100
AcDbLine
 10
56.136137917134
 20
806.153224628963
 30
0.0
 11
56.465237917134
 21
805.846224628963
 31
0.0
  0
LINE
  5
EF4
330
1D
100
AcDbEntity
  8
0
100
AcDbLine
 10
56.088537917134
 20
805.822224628963
 30
0.0
 11
56.290267990806
 21
805.645100631022
 31
0.0
  0
LINE
  5
EF5
330
1D
100
AcDbEntity
  8
0
100
AcDbLine
 10
53.022537917134
 20
808.373224628963
 30
0.0
 11
53.683673743223
 21
809.082249179112
 31
0.0
  0
LINE
  5
EF6
330
1D
100
AcDbEntity
  8
0
100
AcDbLine
 10
52.693437917134
 20
808.680224628963
 30
0.0
 11
53.022537917134
 21
808.373224628963
 31
0.0
  0
LINE
  5
EF7
330
1D
100
AcDbEntity
  8
0
100
AcDbLine
 10
52.974637917134
 20
811.426224628963
 30
0.0
 11
54.363221919937
 21
812.915025800331
 31
0.0
  0
LINE
  5
EF8
330
1D
100
AcDbEntity
  8
0
100
AcDbLine
 10
52.645437917134
 20
811.733224628963
 30
0.0
 11
52.974637917134
 21
811.426224628963
 31
0.0
  0
LINE
  5
EF9
330
1D
100
AcDbEntity
  8
0
100
AcDbLine
 10
52.116437917134
 20
810.442224628963
 30
0.0
 11
53.046937917134
 21
809.666224628963
 31
0.0
  0
LINE
  5
EFA
330
1D
100
AcDbEntity
  8
0
100
AcDbLine
 10
53.046937917134
 20
809.666224628963
 30
0.0
 11
53.769837917134
 21
809.003224628963
 31
0.0
  0
LINE
  5
EFB
330
1D
100
AcDbEntity
  8
0
100
AcDbLine
 10
53.220313100074
 20
808.585325462984
 30
0.0
 11
55.238737917134
 21
806.712224628963
 31
0.0
  0
LINE
  5
EFC
330
1D
100
AcDbEntity
  8
0
100
AcDbLine
 10
52.823637917134
 20
814.463224628963
 30
0.0
 11
53.393137917134
 21
814.002224628963
 31
0.0
  0
LINE
  5
EFD
330
1D
100
AcDbEntity
  8
0
100
AcDbLine
 10
53.753137917134
 20
808.758224628963
 30
0.0
 11
54.019337917134
 21
808.673224628963
 31
0.0
  0
LINE
  5
EFE
330
1D
100
AcDbEntity
  8
0
100
AcDbLine
 10
53.530174260856
 20
808.917631112538
 30
0.0
 11
53.753137917134
 21
808.758224628963
 31
0.0
  0
LINE
  5
EFF
330
1D
100
AcDbEntity
  8
0
100
AcDbLine
 10
53.530174260856
 20
808.917631112538
 30
0.0
 11
53.683673743223
 21
809.082249179112
 31
0.0
  0
LINE
  5
F00
330
1D
100
AcDbEntity
  8
0
100
AcDbLine
 10
53.769837917134
 20
809.003224628963
 30
0.0
 11
54.019337917134
 21
808.673224628963
 31
0.0
  0
LINE
  5
F01
330
1D
100
AcDbEntity
  8
0
100
AcDbLine
 10
53.393137917134
 20
814.002224628963
 30
0.0
 11
54.431637917134
 21
812.825224628963
 31
0.0
  0
LINE
  5
F02
330
1D
100
AcDbEntity
  8
0
100
AcDbLine
 10
55.368237917134
 20
806.869224628963
 30
0.0
 11
56.136137917134
 21
806.153224628963
 31
0.0
  0
LINE
  5
F03
330
1D
100
AcDbEntity
  8
0
100
AcDbLine
 10
55.238737917134
 20
806.712224628963
 30
0.0
 11
56.088537917134
 21
805.822224628963
 31
0.0
  0
LINE
  5
F04
330
1D
100
AcDbEntity
  8
0
100
AcDbLine
 10
54.271137917134
 20
807.892224628963
 30
0.0
 11
54.600237917134
 21
807.585224628963
 31
0.0
  0
LINE
  5
F05
330
1D
100
AcDbEntity
  8
0
100
AcDbLine
 10
54.271137917134
 20
807.892224628963
 30
0.0
 11
55.519147261106
 21
809.230632303715
 31
0.0
  0
LINE
  5
F06
330
1D
100
AcDbEntity
  8
0
100
AcDbLine
 10
54.600237917134
 20
807.585224628963
 30
0.0
 11
55.368237917134
 21
806.869224628963
 31
0.0
  0
LINE
  5
F07
330
1D
100
AcDbEntity
  8
0
100
AcDbLine
 10
55.206268320952
 20
808.895090284905
 30
0.0
 11
55.519147261106
 21
809.230632303715
 31
0.0
  0
LINE
  5
F08
330
1D
100
AcDbEntity
  8
0
100
AcDbLine
 10
57.261537917134
 20
807.428224628963
 30
0.0
 11
57.590637917134
 21
807.121224628963
 31
0.0
  0
LINE
  5
F09
330
1D
100
AcDbEntity
  8
0
100
AcDbLine
 10
57.261537917134
 20
807.428224628963
 30
0.0
 11
58.500329485267
 21
808.756746847339
 31
0.0
  0
LINE
  5
F0A
330
1D
100
AcDbEntity
  8
0
100
AcDbLine
 10
57.590637917134
 20
807.121224628963
 30
0.0
 11
58.358637917134
 21
806.405224628963
 31
0.0
  0
LINE
  5
F0B
330
1D
100
AcDbEntity
  8
0
100
AcDbLine
 10
57.687337917134
 20
808.051224628963
 30
0.0
 11
57.775318954754
 21
807.979220891302
 31
0.0
  0
LINE
  5
F0C
330
1D
100
AcDbEntity
  8
0
100
AcDbLine
 10
56.034837917134
 20
808.862224628963
 30
0.0
 11
56.840737917134
 21
808.230224628963
 31
0.0
  0
LINE
  5
F0D
330
1D
100
AcDbEntity
  8
0
100
AcDbLine
 10
56.840737917134
 20
808.230224628963
 30
0.0
 11
57.489041884957
 21
807.672207623194
 31
0.0
  0
LINE
  5
F0E
330
1D
100
AcDbEntity
  8
0
100
AcDbLine
 10
55.390937917134
 20
809.322224628963
 30
0.0
 11
56.034837917134
 21
808.862224628963
 31
0.0
  0
LINE
  5
F0F
330
1D
100
AcDbEntity
  8
0
100
AcDbLine
 10
57.784137917134
 20
809.037224628963
 30
0.0
 11
58.358137917134
 21
808.846224628963
 31
0.0
  0
LINE
  5
F10
330
1D
100
AcDbEntity
  8
0
100
AcDbLine
 10
54.359237917134
 20
809.874224628963
 30
0.0
 11
54.517237917134
 21
809.559224628963
 31
0.0
  0
LINE
  5
F11
330
1D
100
AcDbEntity
  8
0
100
AcDbLine
 10
54.359237917134
 20
809.874224628963
 30
0.0
 11
54.860637917134
 21
809.650224628963
 31
0.0
  0
LINE
  5
F12
330
1D
100
AcDbEntity
  8
0
100
AcDbLine
 10
56.384337917134
 20
809.479224628963
 30
0.0
 11
57.687337917134
 21
808.051224628963
 31
0.0
  0
LINE
  5
F13
330
1D
100
AcDbEntity
  8
0
100
AcDbLine
 10
56.384337917134
 20
809.479224628963
 30
0.0
 11
56.436737917134
 21
809.475224628963
 31
0.0
  0
LINE
  5
F14
330
1D
100
AcDbEntity
  8
0
100
AcDbLine
 10
56.094037917134
 20
811.935224628963
 30
0.0
 11
56.861937917134
 21
811.219224628963
 31
0.0
  0
LINE
  5
F15
330
1D
100
AcDbEntity
  8
0
100
AcDbLine
 10
56.861937917134
 20
811.219224628963
 30
0.0
 11
57.629937917134
 21
810.503224628963
 31
0.0
  0
LINE
  5
F16
330
1D
100
AcDbEntity
  8
0
100
AcDbLine
 10
57.629937917134
 20
810.503224628963
 30
0.0
 11
57.959037917134
 21
810.196224628963
 31
0.0
  0
LINE
  5
F17
330
1D
100
AcDbEntity
  8
0
100
AcDbLine
 10
54.860637917134
 20
809.650224628963
 30
0.0
 11
55.390937917134
 21
809.322224628963
 31
0.0
  0
LINE
  5
F18
330
1D
100
AcDbEntity
  8
0
100
AcDbLine
 10
54.517237917134
 20
809.559224628963
 30
0.0
 11
55.197781581116
 21
808.885988816406
 31
0.0
  0
LINE
  5
F19
330
1D
100
AcDbEntity
  8
0
100
AcDbLine
 10
55.764937917134
 20
812.242224628963
 30
0.0
 11
56.094037917134
 21
811.935224628963
 31
0.0
  0
LINE
  5
F1A
330
1D
100
AcDbEntity
  8
0
100
AcDbLine
 10
55.764937917134
 20
812.242224628963
 30
0.0
 11
56.888619070453
 21
813.447298522713
 31
0.0
  0
LINE
  5
F1B
330
1D
100
AcDbEntity
  8
0
100
AcDbLine
 10
56.352362508405
 20
812.872198743414
 30
0.0
 11
56.888619070453
 21
813.447298522713
 31
0.0
  0
LINE
  5
F1C
330
1D
100
AcDbEntity
  8
0
100
AcDbLine
 10
56.249737917134
 20
812.980224628963
 30
0.0
 11
56.352362508405
 21
812.872198743414
 31
0.0
  0
LINE
  5
F1D
330
1D
100
AcDbEntity
  8
0
100
AcDbLine
 10
55.915537917134
 20
813.540224628963
 30
0.0
 11
56.366737917134
 21
813.704224628963
 31
0.0
  0
LINE
  5
F1E
330
1D
100
AcDbEntity
  8
0
100
AcDbLine
 10
55.915537917134
 20
813.540224628963
 30
0.0
 11
56.249737917134
 21
812.980224628963
 31
0.0
  0
LINE
  5
F1F
330
1D
100
AcDbEntity
  8
0
100
AcDbLine
 10
56.366737917134
 20
813.704224628963
 30
0.0
 11
57.309237917134
 21
813.240224628963
 31
0.0
  0
LINE
  5
F20
330
1D
100
AcDbEntity
  8
0
100
AcDbLine
 10
57.309237917134
 20
813.240224628963
 30
0.0
 11
58.061437917134
 21
812.715224628963
 31
0.0
  0
LINE
  5
F21
330
1D
100
AcDbEntity
  8
0
100
AcDbLine
 10
54.431637917134
 20
812.825224628963
 30
0.0
 11
54.815037917134
 21
812.456224628963
 31
0.0
  0
LINE
  5
F22
330
1D
100
AcDbEntity
  8
0
100
AcDbLine
 10
54.797437917134
 20
812.196224628963
 30
0.0
 11
54.815037917134
 21
812.456224628963
 31
0.0
  0
LINE
  5
F23
330
1D
100
AcDbEntity
  8
0
100
AcDbLine
 10
54.018446612842
 20
812.545367299278
 30
0.0
 11
54.797437917134
 21
812.196224628963
 31
0.0
  0
LINE
  5
F24
330
1D
100
AcDbEntity
  8
0
100
AcDbLine
 10
56.436737917134
 20
809.475224628963
 30
0.0
 11
57.784137917134
 21
809.037224628963
 31
0.0
  0
LINE
  5
F25
330
1D
100
AcDbEntity
  8
0
100
AcDbLine
 10
57.959037917134
 20
810.196224628963
 30
0.0
 11
59.261419735895
 21
811.5929431953
 31
0.0
  0
LINE
  5
F26
330
1D
100
AcDbEntity
  8
0
100
AcDbLine
 10
59.186637917134
 20
810.893224628963
 30
0.0
 11
59.574437917134
 21
811.010224628963
 31
0.0
  0
LINE
  5
F27
330
1D
100
AcDbEntity
  8
0
100
AcDbLine
 10
58.773319225874
 20
811.069487604348
 30
0.0
 11
59.186637917134
 21
810.893224628963
 31
0.0
  0
LINE
  5
F28
330
1D
100
AcDbEntity
  8
0
100
AcDbLine
 10
58.061437917134
 20
812.715224628963
 30
0.0
 11
58.714637917134
 21
812.165224628963
 31
0.0
  0
LINE
  5
F29
330
1D
100
AcDbEntity
  8
0
100
AcDbLine
 10
58.714637917134
 20
812.165224628963
 30
0.0
 11
59.276437917134
 21
811.577224628963
 31
0.0
  0
LINE
  5
F2A
330
1D
100
AcDbEntity
  8
0
100
AcDbLine
 10
59.276437917134
 20
811.577224628963
 30
0.0
 11
59.574437917134
 21
811.010224628963
 31
0.0
  0
LINE
  5
F2B
330
1D
100
AcDbEntity
  8
0
100
AcDbLine
 10
58.358137917134
 20
808.846224628963
 30
0.0
 11
59.395837917134
 21
808.193224628963
 31
0.0
  0
LINE
  5
F2C
330
1D
100
AcDbEntity
  8
0
100
AcDbLine
 10
51.969537917134
 20
815.065224628963
 30
0.0
 11
52.823637917134
 21
814.463224628963
 31
0.0
  0
LINE
  5
F2D
330
1D
100
AcDbEntity
  8
0
100
AcDbLine
 10
38.737037917134
 20
820.021224628963
 30
0.0
 11
41.13678976345
 21
817.858753359422
 31
0.0
  0
LINE
  5
F2E
330
1D
100
AcDbEntity
  8
0
100
AcDbLine
 10
39.104637917134
 20
819.886224628963
 30
0.0
 11
40.815237917134
 21
818.645224628963
 31
0.0
  0
LINE
  5
F2F
330
1D
100
AcDbEntity
  8
0
100
AcDbLine
 10
39.104637917134
 20
819.886224628963
 30
0.0
 11
40.364737917134
 21
819.421224628963
 31
0.0
  0
LINE
  5
F30
330
1D
100
AcDbEntity
  8
0
100
AcDbLine
 10
40.071737917134
 20
821.133224628963
 30
0.0
 11
40.839637917134
 21
820.417224628963
 31
0.0
  0
LINE
  5
F31
330
1D
100
AcDbEntity
  8
0
100
AcDbLine
 10
40.708337917134
 20
817.022224628963
 30
0.0
 11
41.029337917134
 21
816.832224628963
 31
0.0
  0
LINE
  5
F32
330
1D
100
AcDbEntity
  8
0
100
AcDbLine
 10
40.708337917134
 20
817.022224628963
 30
0.0
 11
41.407953440609
 21
818.388185566451
 31
0.0
  0
LINE
  5
F33
330
1D
100
AcDbEntity
  8
0
100
AcDbLine
 10
40.708337917134
 20
817.022224628963
 30
0.0
 11
41.051537917134
 21
816.696224628963
 31
0.0
  0
LINE
  5
F34
330
1D
100
AcDbEntity
  8
0
100
AcDbLine
 10
41.051537917134
 20
816.696224628963
 30
0.0
 11
41.728437917134
 21
816.156224628963
 31
0.0
  0
LINE
  5
F35
330
1D
100
AcDbEntity
  8
0
100
AcDbLine
 10
41.029337917134
 20
816.832224628963
 30
0.0
 11
42.197137917134
 21
815.994224628963
 31
0.0
  0
LINE
  5
F36
330
1D
100
AcDbEntity
  8
0
100
AcDbLine
 10
41.974437917134
 20
815.967224628963
 30
0.0
 11
42.546537917134
 21
815.523224628963
 31
0.0
  0
LINE
  5
F37
330
1D
100
AcDbEntity
  8
0
100
AcDbLine
 10
41.728437917134
 20
816.156224628963
 30
0.0
 11
41.974437917134
 21
815.967224628963
 31
0.0
  0
LINE
  5
F38
330
1D
100
AcDbEntity
  8
0
100
AcDbLine
 10
41.168737917134
 20
820.110224628963
 30
0.0
 11
42.474265671403
 21
821.510317003556
 31
0.0
  0
LINE
  5
F39
330
1D
100
AcDbEntity
  8
0
100
AcDbLine
 10
40.839637917134
 20
820.417224628963
 30
0.0
 11
41.168737917134
 21
820.110224628963
 31
0.0
  0
LINE
  5
F3A
330
1D
100
AcDbEntity
  8
0
100
AcDbLine
 10
40.815237917134
 20
818.645224628963
 30
0.0
 11
41.290974910415
 21
818.159791402216
 31
0.0
  0
LINE
  5
F3B
330
1D
100
AcDbEntity
  8
0
100
AcDbLine
 10
40.364737917134
 20
819.421224628963
 30
0.0
 11
42.804537917134
 21
817.005224628963
 31
0.0
  0
LINE
  5
F3C
330
1D
100
AcDbEntity
  8
0
100
AcDbLine
 10
38.974637917134
 20
822.156224628963
 30
0.0
 11
39.303837917134
 21
821.849224628963
 31
0.0
  0
LINE
  5
F3D
330
1D
100
AcDbEntity
  8
0
100
AcDbLine
 10
38.974637917134
 20
822.156224628963
 30
0.0
 11
40.327219689991
 21
823.606779333754
 31
0.0
  0
LINE
  5
F3E
330
1D
100
AcDbEntity
  8
0
100
AcDbLine
 10
37.245737917134
 20
824.153224628963
 30
0.0
 11
37.263537917134
 21
823.991224628963
 31
0.0
  0
LINE
  5
F3F
330
1D
100
AcDbEntity
  8
0
100
AcDbLine
 10
38.100137917134
 20
825.296224628963
 30
0.0
 11
39.46854319016
 21
826.763748993613
 31
0.0
  0
LINE
  5
F40
330
1D
100
AcDbEntity
  8
0
100
AcDbLine
 10
37.771037917134
 20
825.603224628963
 30
0.0
 11
38.100137917134
 21
825.296224628963
 31
0.0
  0
LINE
  5
F41
330
1D
100
AcDbEntity
  8
0
100
AcDbLine
 10
39.303837917134
 20
821.849224628963
 30
0.0
 11
40.071737917134
 21
821.133224628963
 31
0.0
  0
LINE
  5
F42
330
1D
100
AcDbEntity
  8
0
100
AcDbLine
 10
39.424437917134
 20
824.204224628963
 30
0.0
 11
39.812837917134
 21
823.990224628963
 31
0.0
  0
LINE
  5
F43
330
1D
100
AcDbEntity
  8
0
100
AcDbLine
 10
39.223237917134
 20
824.138224628963
 30
0.0
 11
39.424437917134
 21
824.204224628963
 31
0.0
  0
LINE
  5
F44
330
1D
100
AcDbEntity
  8
0
100
AcDbLine
 10
39.223237917134
 20
824.138224628963
 30
0.0
 11
39.645137917134
 21
823.501224628963
 31
0.0
  0
LINE
  5
F45
330
1D
100
AcDbEntity
  8
0
100
AcDbLine
 10
37.155437917134
 20
829.069224628963
 30
0.0
 11
37.721037917134
 21
828.484224628963
 31
0.0
  0
LINE
  5
F46
330
1D
100
AcDbEntity
  8
0
100
AcDbLine
 10
37.721037917134
 20
828.484224628963
 30
0.0
 11
38.762637917134
 21
827.631224628963
 31
0.0
  0
LINE
  5
F47
330
1D
100
AcDbEntity
  8
0
100
AcDbLine
 10
37.677837917134
 20
831.517224628963
 30
0.0
 11
37.797837917134
 21
830.600224628963
 31
0.0
  0
LINE
  5
F48
330
1D
100
AcDbEntity
  8
0
100
AcDbLine
 10
37.361937917134
 20
830.704224628963
 30
0.0
 11
37.797837917134
 21
830.600224628963
 31
0.0
  0
LINE
  5
F49
330
1D
100
AcDbEntity
  8
0
100
AcDbLine
 10
37.401937917134
 20
834.514224628963
 30
0.0
 11
41.353537917134
 21
830.831224628963
 31
0.0
  0
LINE
  5
F4A
330
1D
100
AcDbEntity
  8
0
100
AcDbLine
 10
37.098537917134
 20
832.301224628963
 30
0.0
 11
37.169537917134
 21
832.212224628963
 31
0.0
  0
LINE
  5
F4B
330
1D
100
AcDbEntity
  8
0
100
AcDbLine
 10
37.169537917134
 20
832.212224628963
 30
0.0
 11
37.677837917134
 21
831.517224628963
 31
0.0
  0
LINE
  5
F4C
330
1D
100
AcDbEntity
  8
0
100
AcDbLine
 10
39.026334296321
 20
826.289509132976
 30
0.0
 11
39.406037917134
 21
826.046224628963
 31
0.0
  0
LINE
  5
F4D
330
1D
100
AcDbEntity
  8
0
100
AcDbLine
 10
38.762637917134
 20
827.631224628963
 30
0.0
 11
39.435937917134
 21
826.815224628963
 31
0.0
  0
LINE
  5
F4E
330
1D
100
AcDbEntity
  8
0
100
AcDbLine
 10
39.406037917134
 20
826.046224628963
 30
0.0
 11
39.844937917134
 21
825.922224628963
 31
0.0
  0
LINE
  5
F4F
330
1D
100
AcDbEntity
  8
0
100
AcDbLine
 10
39.435937917134
 20
826.815224628963
 30
0.0
 11
39.705137917134
 21
826.390224628963
 31
0.0
  0
LINE
  5
F50
330
1D
100
AcDbEntity
  8
0
100
AcDbLine
 10
39.93773475448
 20
823.189082439571
 30
0.0
 11
40.327219689991
 21
823.606779333754
 31
0.0
  0
LINE
  5
F51
330
1D
100
AcDbEntity
  8
0
100
AcDbLine
 10
39.645137917134
 20
823.501224628963
 30
0.0
 11
39.93773475448
 21
823.189082439571
 31
0.0
  0
LINE
  5
F52
330
1D
100
AcDbEntity
  8
0
100
AcDbLine
 10
41.922237917134
 20
822.169224628963
 30
0.0
 11
42.817837917134
 21
821.100224628963
 31
0.0
  0
LINE
  5
F53
330
1D
100
AcDbEntity
  8
0
100
AcDbLine
 10
41.209837917134
 20
822.859224628963
 30
0.0
 11
41.922237917134
 21
822.169224628963
 31
0.0
  0
LINE
  5
F54
330
1D
100
AcDbEntity
  8
0
100
AcDbLine
 10
40.450037917134
 20
823.515224628963
 30
0.0
 11
41.209837917134
 21
822.859224628963
 31
0.0
  0
LINE
  5
F55
330
1D
100
AcDbEntity
  8
0
100
AcDbLine
 10
41.664637917134
 20
825.391224628963
 30
0.0
 11
41.993737917134
 21
825.084224628963
 31
0.0
  0
LINE
  5
F56
330
1D
100
AcDbEntity
  8
0
100
AcDbLine
 10
41.664637917134
 20
825.391224628963
 30
0.0
 11
42.865376855162
 21
826.6785857895
 31
0.0
  0
LINE
  5
F57
330
1D
100
AcDbEntity
  8
0
100
AcDbLine
 10
41.993737917134
 20
825.084224628963
 30
0.0
 11
42.761637917134
 21
824.368224628963
 31
0.0
  0
LINE
  5
F58
330
1D
100
AcDbEntity
  8
0
100
AcDbLine
 10
41.353537917134
 20
830.831224628963
 30
0.0
 11
45.346437917134
 21
827.108224628963
 31
0.0
  0
LINE
  5
F59
330
1D
100
AcDbEntity
  8
0
100
AcDbLine
 10
39.705137917134
 20
826.390224628963
 30
0.0
 11
39.844937917134
 21
825.922224628963
 31
0.0
  0
LINE
  5
F5A
330
1D
100
AcDbEntity
  8
0
100
AcDbLine
 10
39.812837917134
 20
823.990224628963
 30
0.0
 11
40.450037917134
 21
823.515224628963
 31
0.0
  0
LINE
  5
F5B
330
1D
100
AcDbEntity
  8
0
100
AcDbLine
 10
42.546537917134
 20
815.523224628963
 30
0.0
 11
43.007537917134
 21
815.177224628963
 31
0.0
  0
LINE
  5
F5C
330
1D
100
AcDbEntity
  8
0
100
AcDbLine
 10
45.098737917134
 20
815.762224628963
 30
0.0
 11
45.762557897607
 21
816.474127757582
 31
0.0
  0
LINE
  5
F5D
330
1D
100
AcDbEntity
  8
0
100
AcDbLine
 10
42.197137917134
 20
815.994224628963
 30
0.0
 11
43.387237917134
 21
815.078224628963
 31
0.0
  0
LINE
  5
F5E
330
1D
100
AcDbEntity
  8
0
100
AcDbLine
 10
44.769637917134
 20
816.069224628963
 30
0.0
 11
45.098737917134
 21
815.762224628963
 31
0.0
  0
LINE
  5
F5F
330
1D
100
AcDbEntity
  8
0
100
AcDbLine
 10
45.4948781403
 20
816.187058880024
 30
0.0
 11
45.578437917134
 21
816.120224628963
 31
0.0
  0
LINE
  5
F60
330
1D
100
AcDbEntity
  8
0
100
AcDbLine
 10
45.578437917134
 20
816.120224628963
 30
0.0
 11
46.173437917134
 21
815.762224628963
 31
0.0
  0
LINE
  5
F61
330
1D
100
AcDbEntity
  8
0
100
AcDbLine
 10
46.218137917134
 20
815.743224628963
 30
0.0
 11
46.238337917134
 21
815.925224628963
 31
0.0
  0
LINE
  5
F62
330
1D
100
AcDbEntity
  8
0
100
AcDbLine
 10
47.782637917134
 20
815.885224628963
 30
0.0
 11
47.940485599299
 21
815.729638374909
 31
0.0
  0
LINE
  5
F63
330
1D
100
AcDbEntity
  8
0
100
AcDbLine
 10
48.681837917134
 20
815.753224628963
 30
0.0
 11
49.538537917134
 21
815.036224628963
 31
0.0
  0
LINE
  5
F64
330
1D
100
AcDbEntity
  8
0
100
AcDbLine
 10
46.162437917134
 20
815.772224628963
 30
0.0
 11
46.218137917134
 21
815.743224628963
 31
0.0
  0
LINE
  5
F65
330
1D
100
AcDbEntity
  8
0
100
AcDbLine
 10
44.001737917134
 20
816.785224628963
 30
0.0
 11
44.769637917134
 21
816.069224628963
 31
0.0
  0
LINE
  5
F66
330
1D
100
AcDbEntity
  8
0
100
AcDbLine
 10
45.742537917134
 20
816.497224628963
 30
0.0
 11
46.238337917134
 21
815.925224628963
 31
0.0
  0
LINE
  5
F67
330
1D
100
AcDbEntity
  8
0
100
AcDbLine
 10
51.220837917134
 20
816.479224628963
 30
0.0
 11
52.502919210318
 21
817.854172221096
 31
0.0
  0
LINE
  5
F68
330
1D
100
AcDbEntity
  8
0
100
AcDbLine
 10
50.891637917134
 20
816.786224628963
 30
0.0
 11
51.220837917134
 21
816.479224628963
 31
0.0
  0
LINE
  5
F69
330
1D
100
AcDbEntity
  8
0
100
AcDbLine
 10
47.710437917134
 20
816.406224628963
 30
0.0
 11
48.681837917134
 21
815.753224628963
 31
0.0
  0
LINE
  5
F6A
330
1D
100
AcDbEntity
  8
0
100
AcDbLine
 10
42.447637917134
 20
819.151224628963
 30
0.0
 11
42.980637917134
 21
818.871224628963
 31
0.0
  0
LINE
  5
F6B
330
1D
100
AcDbEntity
  8
0
100
AcDbLine
 10
42.447637917134
 20
819.151224628963
 30
0.0
 11
42.846637917134
 21
818.596224628963
 31
0.0
  0
LINE
  5
F6C
330
1D
100
AcDbEntity
  8
0
100
AcDbLine
 10
42.904737917134
 20
817.808224628963
 30
0.0
 11
43.233837917134
 21
817.501224628963
 31
0.0
  0
LINE
  5
F6D
330
1D
100
AcDbEntity
  8
0
100
AcDbLine
 10
42.904737917134
 20
817.808224628963
 30
0.0
 11
43.52813617755
 21
818.476778129943
 31
0.0
  0
LINE
  5
F6E
330
1D
100
AcDbEntity
  8
0
100
AcDbLine
 10
43.233837917134
 20
817.501224628963
 30
0.0
 11
44.001737917134
 21
816.785224628963
 31
0.0
  0
LINE
  5
F6F
330
1D
100
AcDbEntity
  8
0
100
AcDbLine
 10
42.846637917134
 20
818.596224628963
 30
0.0
 11
43.243710364845
 21
818.171750212916
 31
0.0
  0
LINE
  5
F70
330
1D
100
AcDbEntity
  8
0
100
AcDbLine
 10
43.715137917134
 20
820.060224628963
 30
0.0
 11
44.044237917134
 21
819.753224628963
 31
0.0
  0
LINE
  5
F71
330
1D
100
AcDbEntity
  8
0
100
AcDbLine
 10
43.715137917134
 20
820.060224628963
 30
0.0
 11
45.093728817384
 21
821.538672406738
 31
0.0
  0
LINE
  5
F72
330
1D
100
AcDbEntity
  8
0
100
AcDbLine
 10
44.044237917134
 20
819.753224628963
 30
0.0
 11
44.812137917134
 21
819.037224628963
 31
0.0
  0
LINE
  5
F73
330
1D
100
AcDbEntity
  8
0
100
AcDbLine
 10
42.980637917134
 20
818.871224628963
 30
0.0
 11
43.652437917134
 21
818.387224628963
 31
0.0
  0
LINE
  5
F74
330
1D
100
AcDbEntity
  8
0
100
AcDbLine
 10
43.652437917134
 20
818.387224628963
 30
0.0
 11
45.015737917134
 21
817.213224628963
 31
0.0
  0
LINE
  5
F75
330
1D
100
AcDbEntity
  8
0
100
AcDbLine
 10
43.858637917134
 20
823.345224628963
 30
0.0
 11
45.099150575531
 21
824.675228816383
 31
0.0
  0
LINE
  5
F76
330
1D
100
AcDbEntity
  8
0
100
AcDbLine
 10
42.332424212256
 20
826.107185536578
 30
0.0
 11
42.865376855162
 21
826.6785857895
 31
0.0
  0
LINE
  5
F77
330
1D
100
AcDbEntity
  8
0
100
AcDbLine
 10
42.761637917134
 20
824.368224628963
 30
0.0
 11
43.529537917134
 21
823.652224628963
 31
0.0
  0
LINE
  5
F78
330
1D
100
AcDbEntity
  8
0
100
AcDbLine
 10
43.529537917134
 20
823.652224628963
 30
0.0
 11
43.858637917134
 21
823.345224628963
 31
0.0
  0
LINE
  5
F79
330
1D
100
AcDbEntity
  8
0
100
AcDbLine
 10
42.817837917134
 20
821.100224628963
 30
0.0
 11
42.858437917134
 21
820.768224628963
 31
0.0
  0
LINE
  5
F7A
330
1D
100
AcDbEntity
  8
0
100
AcDbLine
 10
42.175137917134
 20
826.312224628963
 30
0.0
 11
42.329198647977
 21
826.103727277632
 31
0.0
  0
LINE
  5
F7B
330
1D
100
AcDbEntity
  8
0
100
AcDbLine
 10
42.175137917134
 20
826.312224628963
 30
0.0
 11
42.241237917134
 21
826.952224628963
 31
0.0
  0
LINE
  5
F7C
330
1D
100
AcDbEntity
  8
0
100
AcDbLine
 10
43.219737917134
 20
826.523224628963
 30
0.0
 11
44.291437917134
 21
825.619224628963
 31
0.0
  0
LINE
  5
F7D
330
1D
100
AcDbEntity
  8
0
100
AcDbLine
 10
42.241237917134
 20
826.952224628963
 30
0.0
 11
43.219737917134
 21
826.523224628963
 31
0.0
  0
LINE
  5
F7E
330
1D
100
AcDbEntity
  8
0
100
AcDbLine
 10
42.234931719302
 20
826.891166132551
 30
0.0
 11
42.351532766764
 21
826.903868481297
 31
0.0
  0
LINE
  5
F7F
330
1D
100
AcDbEntity
  8
0
100
AcDbLine
 10
42.180937917134
 20
826.317224628963
 30
0.0
 11
42.332424212256
 21
826.107185536578
 31
0.0
  0
LINE
  5
F80
330
1D
100
AcDbEntity
  8
0
100
AcDbLine
 10
44.520424389464
 20
824.054752881995
 30
0.0
 11
44.765337917134
 21
823.893224628963
 31
0.0
  0
LINE
  5
F81
330
1D
100
AcDbEntity
  8
0
100
AcDbLine
 10
44.249437917134
 20
822.000224628963
 30
0.0
 11
44.731637917134
 21
821.779224628963
 31
0.0
  0
LINE
  5
F82
330
1D
100
AcDbEntity
  8
0
100
AcDbLine
 10
45.909237917134
 20
818.014224628963
 30
0.0
 11
47.229430687599
 21
819.430044265793
 31
0.0
  0
LINE
  5
F83
330
1D
100
AcDbEntity
  8
0
100
AcDbLine
 10
44.812137917134
 20
819.037224628963
 30
0.0
 11
45.580137917134
 21
818.321224628963
 31
0.0
  0
LINE
  5
F84
330
1D
100
AcDbEntity
  8
0
100
AcDbLine
 10
45.580137917134
 20
818.321224628963
 30
0.0
 11
45.909237917134
 21
818.014224628963
 31
0.0
  0
LINE
  5
F85
330
1D
100
AcDbEntity
  8
0
100
AcDbLine
 10
45.015737917134
 20
817.213224628963
 30
0.0
 11
45.742537917134
 21
816.497224628963
 31
0.0
  0
LINE
  5
F86
330
1D
100
AcDbEntity
  8
0
100
AcDbLine
 10
45.276537917134
 20
821.417224628963
 30
0.0
 11
45.951037917134
 21
820.877224628963
 31
0.0
  0
LINE
  5
F87
330
1D
100
AcDbEntity
  8
0
100
AcDbLine
 10
45.951037917134
 20
820.877224628963
 30
0.0
 11
46.562637917134
 21
820.293224628963
 31
0.0
  0
LINE
  5
F88
330
1D
100
AcDbEntity
  8
0
100
AcDbLine
 10
49.026737917134
 20
818.525224628963
 30
0.0
 11
49.355837917134
 21
818.219224628963
 31
0.0
  0
LINE
  5
F89
330
1D
100
AcDbEntity
  8
0
100
AcDbLine
 10
49.026737917134
 20
818.525224628963
 30
0.0
 11
50.305247994761
 21
819.896342328049
 31
0.0
  0
LINE
  5
F8A
330
1D
100
AcDbEntity
  8
0
100
AcDbLine
 10
49.355837917134
 20
818.219224628963
 30
0.0
 11
50.123737917134
 21
817.502224628963
 31
0.0
  0
LINE
  5
F8B
330
1D
100
AcDbEntity
  8
0
100
AcDbLine
 10
50.123737917134
 20
817.502224628963
 30
0.0
 11
50.891637917134
 21
816.786224628963
 31
0.0
  0
LINE
  5
F8C
330
1D
100
AcDbEntity
  8
0
100
AcDbLine
 10
49.276737917134
 20
819.423224628963
 30
0.0
 11
49.574912364857
 21
819.113105554278
 31
0.0
  0
LINE
  5
F8D
330
1D
100
AcDbEntity
  8
0
100
AcDbLine
 10
46.994737917134
 20
819.110224628963
 30
0.0
 11
47.430637917134
 21
819.058224628963
 31
0.0
  0
LINE
  5
F8E
330
1D
100
AcDbEntity
  8
0
100
AcDbLine
 10
48.908137917134
 20
820.065224628963
 30
0.0
 11
49.276737917134
 21
819.423224628963
 31
0.0
  0
LINE
  5
F8F
330
1D
100
AcDbEntity
  8
0
100
AcDbLine
 10
48.908137917134
 20
820.065224628963
 30
0.0
 11
48.916637917134
 21
820.395224628963
 31
0.0
  0
LINE
  5
F90
330
1D
100
AcDbEntity
  8
0
100
AcDbLine
 10
49.374337917134
 20
820.378224628963
 30
0.0
 11
50.028337917134
 21
820.087224628963
 31
0.0
  0
LINE
  5
F91
330
1D
100
AcDbEntity
  8
0
100
AcDbLine
 10
48.916637917134
 20
820.395224628963
 30
0.0
 11
49.374337917134
 21
820.378224628963
 31
0.0
  0
LINE
  5
F92
330
1D
100
AcDbEntity
  8
0
100
AcDbLine
 10
47.061037917134
 20
819.741224628963
 30
0.0
 11
47.430637917134
 21
819.058224628963
 31
0.0
  0
LINE
  5
F93
330
1D
100
AcDbEntity
  8
0
100
AcDbLine
 10
46.562637917134
 20
820.293224628963
 30
0.0
 11
47.061037917134
 21
819.741224628963
 31
0.0
  0
LINE
  5
F94
330
1D
100
AcDbEntity
  8
0
100
AcDbLine
 10
49.863137917134
 20
822.897224628963
 30
0.0
 11
53.333637917134
 21
819.662224628963
 31
0.0
  0
LINE
  5
F95
330
1D
100
AcDbEntity
  8
0
100
AcDbLine
 10
45.097637917134
 20
824.678224628963
 30
0.0
 11
45.364237917134
 21
824.150224628963
 31
0.0
  0
LINE
  5
F96
330
1D
100
AcDbEntity
  8
0
100
AcDbLine
 10
45.315137917134
 20
823.800224628963
 30
0.0
 11
45.364237917134
 21
824.150224628963
 31
0.0
  0
LINE
  5
F97
330
1D
100
AcDbEntity
  8
0
100
AcDbLine
 10
44.765337917134
 20
823.893224628963
 30
0.0
 11
45.315137917134
 21
823.800224628963
 31
0.0
  0
LINE
  5
F98
330
1D
100
AcDbEntity
  8
0
100
AcDbLine
 10
44.731637917134
 20
821.779224628963
 30
0.0
 11
45.276537917134
 21
821.417224628963
 31
0.0
  0
LINE
  5
F99
330
1D
100
AcDbEntity
  8
0
100
AcDbLine
 10
44.538837917134
 20
821.160224628963
 30
0.0
 11
44.637932704174
 21
821.049861149844
 31
0.0
  0
LINE
  5
F9A
330
1D
100
AcDbEntity
  8
0
100
AcDbLine
 10
45.346437917134
 20
827.108224628963
 30
0.0
 11
49.863137917134
 21
822.897224628963
 31
0.0
  0
LINE
  5
F9B
330
1D
100
AcDbEntity
  8
0
100
AcDbLine
 10
44.291437917134
 20
825.619224628963
 30
0.0
 11
45.097637917134
 21
824.678224628963
 31
0.0
  0
LINE
  5
F9C
330
1D
100
AcDbEntity
  8
0
100
AcDbLine
 10
44.138837917134
 20
821.728224628963
 30
0.0
 11
44.538837917134
 21
821.160224628963
 31
0.0
  0
LINE
  5
F9D
330
1D
100
AcDbEntity
  8
0
100
AcDbLine
 10
44.138837917134
 20
821.728224628963
 30
0.0
 11
44.249437917134
 21
822.000224628963
 31
0.0
  0
LINE
  5
F9E
330
1D
100
AcDbEntity
  8
0
100
AcDbLine
 10
42.804537917134
 20
817.005224628963
 30
0.0
 11
46.213637917134
 21
813.881224628963
 31
0.0
  0
LINE
  5
F9F
330
1D
100
AcDbEntity
  8
0
100
AcDbLine
 10
52.223637917134
 20
817.144224628963
 30
0.0
 11
52.706137917134
 21
817.210224628963
 31
0.0
  0
LINE
  5
FA0
330
1D
100
AcDbEntity
  8
0
100
AcDbLine
 10
56.751037917134
 20
816.476224628963
 30
0.0
 11
60.094537917134
 21
813.359224628963
 31
0.0
  0
LINE
  5
FA1
330
1D
100
AcDbEntity
  8
0
100
AcDbLine
 10
52.682037917134
 20
817.588224628963
 30
0.0
 11
52.706137917134
 21
817.210224628963
 31
0.0
  0
LINE
  5
FA2
330
1D
100
AcDbEntity
  8
0
100
AcDbLine
 10
52.354037917134
 20
818.075224628963
 30
0.0
 11
52.682037917134
 21
817.588224628963
 31
0.0
  0
LINE
  5
FA3
330
1D
100
AcDbEntity
  8
0
100
AcDbLine
 10
52.972313612215
 20
819.999030312989
 30
0.0
 11
53.069037917134
 21
819.896224628963
 31
0.0
  0
LINE
  5
FA4
330
1D
100
AcDbEntity
  8
0
100
AcDbLine
 10
53.333637917134
 20
819.662224628963
 30
0.0
 11
56.751037917134
 21
816.476224628963
 31
0.0
  0
LINE
  5
FA5
330
1D
100
AcDbEntity
  8
0
100
AcDbLine
 10
53.069037917134
 20
819.896224628963
 30
0.0
 11
53.210410797817
 21
819.777089844635
 31
0.0
  0
LINE
  5
FA6
330
1D
100
AcDbEntity
  8
0
100
AcDbLine
 10
53.069037917134
 20
819.896224628963
 30
0.0
 11
53.210410797817
 21
819.777089844635
 31
0.0
  0
LINE
  5
FA7
330
1D
100
AcDbEntity
  8
0
100
AcDbLine
 10
51.963661985421
 20
817.275854428883
 30
0.0
 11
52.223637917134
 21
817.144224628963
 31
0.0
  0
LINE
  5
FA8
330
1D
100
AcDbEntity
  8
0
100
AcDbLine
 10
47.403837917134
 20
816.386224628963
 30
0.0
 11
47.710437917134
 21
816.406224628963
 31
0.0
  0
LINE
  5
FA9
330
1D
100
AcDbEntity
  8
0
100
AcDbLine
 10
47.403837917134
 20
816.386224628963
 30
0.0
 11
47.782637917134
 21
815.885224628963
 31
0.0
  0
LINE
  5
FAA
330
1D
100
AcDbEntity
  8
0
100
AcDbLine
 10
42.158337917134
 20
821.160224628963
 30
0.0
 11
42.858437917134
 21
820.768224628963
 31
0.0
  0
LINE
  5
FAB
330
1D
100
AcDbEntity
  8
0
100
AcDbLine
 10
51.068537917134
 20
815.447224628963
 30
0.0
 11
51.969537917134
 21
815.065224628963
 31
0.0
  0
LINE
  5
FAC
330
1D
100
AcDbEntity
  8
0
100
AcDbLine
 10
60.452537917134
 20
804.025224628963
 30
0.0
 11
60.881546603255
 21
803.657344442789
 31
0.0
  0
LINE
  5
FAD
330
1D
100
AcDbEntity
  8
0
100
AcDbLine
 10
60.464837917134
 20
804.212224628963
 30
0.0
 11
60.924037917134
 21
803.946224628963
 31
0.0
  0
LINE
  5
FAE
330
1D
100
AcDbEntity
  8
0
100
AcDbLine
 10
59.455637917134
 20
805.382224628963
 30
0.0
 11
60.895277108735
 21
806.9261426711
 31
0.0
  0
LINE
  5
FAF
330
1D
100
AcDbEntity
  8
0
100
AcDbLine
 10
60.287537917134
 20
804.262224628963
 30
0.0
 11
60.452537917134
 21
804.025224628963
 31
0.0
  0
LINE
  5
FB0
330
1D
100
AcDbEntity
  8
0
100
AcDbLine
 10
60.287537917134
 20
804.262224628963
 30
0.0
 11
60.464837917134
 21
804.212224628963
 31
0.0
  0
LINE
  5
FB1
330
1D
100
AcDbEntity
  8
0
100
AcDbLine
 10
63.225837917134
 20
805.285224628963
 30
0.0
 11
63.993737917134
 21
804.568224628963
 31
0.0
  0
LINE
  5
FB2
330
1D
100
AcDbEntity
  8
0
100
AcDbLine
 10
62.128837917134
 20
806.308224628963
 30
0.0
 11
62.457937917134
 21
806.001224628963
 31
0.0
  0
LINE
  5
FB3
330
1D
100
AcDbEntity
  8
0
100
AcDbLine
 10
62.128837917134
 20
806.308224628963
 30
0.0
 11
63.24033227538
 21
807.499937985293
 31
0.0
  0
LINE
  5
FB4
330
1D
100
AcDbEntity
  8
0
100
AcDbLine
 10
62.457937917134
 20
806.001224628963
 30
0.0
 11
63.225837917134
 21
805.285224628963
 31
0.0
  0
LINE
  5
FB5
330
1D
100
AcDbEntity
  8
0
100
AcDbLine
 10
60.924037917134
 20
803.946224628963
 30
0.0
 11
61.651637917134
 21
803.453224628963
 31
0.0
  0
LINE
  5
FB6
330
1D
100
AcDbEntity
  8
0
100
AcDbLine
 10
60.922137917134
 20
806.399224628963
 30
0.0
 11
61.288837917134
 21
806.362224628963
 31
0.0
  0
LINE
  5
FB7
330
1D
100
AcDbEntity
  8
0
100
AcDbLine
 10
60.576530783111
 20
806.584308268517
 30
0.0
 11
60.922137917134
 21
806.399224628963
 31
0.0
  0
LINE
  5
FB8
330
1D
100
AcDbEntity
  8
0
100
AcDbLine
 10
62.152637917134
 20
807.417224628963
 30
0.0
 11
62.659163705062
 21
806.87682519809
 31
0.0
  0
LINE
  5
FB9
330
1D
100
AcDbEntity
  8
0
100
AcDbLine
 10
60.946437917134
 20
806.878224628963
 30
0.0
 11
61.288837917134
 21
806.362224628963
 31
0.0
  0
LINE
  5
FBA
330
1D
100
AcDbEntity
  8
0
100
AcDbLine
 10
64.322837917134
 20
804.262224628963
 30
0.0
 11
65.697452839741
 21
805.73600532018
 31
0.0
  0
LINE
  5
FBB
330
1D
100
AcDbEntity
  8
0
100
AcDbLine
 10
63.993737917134
 20
804.568224628963
 30
0.0
 11
64.322837917134
 21
804.262224628963
 31
0.0
  0
LINE
  5
FBC
330
1D
100
AcDbEntity
  8
0
100
AcDbLine
 10
65.002137917134
 20
806.364224628963
 30
0.0
 11
65.580237917134
 21
805.852224628963
 31
0.0
  0
LINE
  5
FBD
330
1D
100
AcDbEntity
  8
0
100
AcDbLine
 10
65.002137917134
 20
806.364224628963
 30
0.0
 11
65.564437917134
 21
805.870224628963
 31
0.0
  0
LINE
  5
FBE
330
1D
100
AcDbEntity
  8
0
100
AcDbLine
 10
65.877137917134
 20
805.544224628963
 30
0.0
 11
65.926737917134
 21
805.485224628963
 31
0.0
  0
LINE
  5
FBF
330
1D
100
AcDbEntity
  8
0
100
AcDbLine
 10
65.847337917134
 20
805.575224628963
 30
0.0
 11
65.903037917134
 21
805.511224628963
 31
0.0
  0
LINE
  5
FC0
330
1D
100
AcDbEntity
  8
0
100
AcDbLine
 10
65.847237917134
 20
805.575224628963
 30
0.0
 11
65.903037917134
 21
805.511224628963
 31
0.0
  0
LINE
  5
FC1
330
1D
100
AcDbEntity
  8
0
100
AcDbLine
 10
65.822837917134
 20
805.605224628963
 30
0.0
 11
65.877137917134
 21
805.544224628963
 31
0.0
  0
LINE
  5
FC2
330
1D
100
AcDbEntity
  8
0
100
AcDbLine
 10
65.786937917134
 20
805.642224628963
 30
0.0
 11
65.822837917134
 21
805.605224628963
 31
0.0
  0
LINE
  5
FC3
330
1D
100
AcDbEntity
  8
0
100
AcDbLine
 10
65.786937917134
 20
805.642224628963
 30
0.0
 11
65.847337917134
 21
805.575224628963
 31
0.0
  0
LINE
  5
FC4
330
1D
100
AcDbEntity
  8
0
100
AcDbLine
 10
65.786937917134
 20
805.642224628963
 30
0.0
 11
65.847237917134
 21
805.575224628963
 31
0.0
  0
LINE
  5
FC5
330
1D
100
AcDbEntity
  8
0
100
AcDbLine
 10
65.721737917134
 20
805.711224628963
 30
0.0
 11
65.764237917134
 21
805.669224628963
 31
0.0
  0
LINE
  5
FC6
330
1D
100
AcDbEntity
  8
0
100
AcDbLine
 10
65.721737917134
 20
805.711224628963
 30
0.0
 11
65.786937917134
 21
805.642224628963
 31
0.0
  0
LINE
  5
FC7
330
1D
100
AcDbEntity
  8
0
100
AcDbLine
 10
65.721637917134
 20
805.711224628963
 30
0.0
 11
65.786937917134
 21
805.642224628963
 31
0.0
  0
LINE
  5
FC8
330
1D
100
AcDbEntity
  8
0
100
AcDbLine
 10
65.701737917134
 20
805.734224628963
 30
0.0
 11
65.764237917134
 21
805.669224628963
 31
0.0
  0
LINE
  5
FC9
330
1D
100
AcDbEntity
  8
0
100
AcDbLine
 10
65.653137917134
 20
805.781224628963
 30
0.0
 11
65.701737917134
 21
805.734224628963
 31
0.0
  0
LINE
  5
FCA
330
1D
100
AcDbEntity
  8
0
100
AcDbLine
 10
65.653137917134
 20
805.781224628963
 30
0.0
 11
65.721737917134
 21
805.711224628963
 31
0.0
  0
LINE
  5
FCB
330
1D
100
AcDbEntity
  8
0
100
AcDbLine
 10
65.580237917134
 20
805.852224628963
 30
0.0
 11
65.653137917134
 21
805.781224628963
 31
0.0
  0
LINE
  5
FCC
330
1D
100
AcDbEntity
  8
0
100
AcDbLine
 10
65.635037917134
 20
805.802224628963
 30
0.0
 11
65.701737917134
 21
805.734224628963
 31
0.0
  0
LINE
  5
FCD
330
1D
100
AcDbEntity
  8
0
100
AcDbLine
 10
65.564437917134
 20
805.870224628963
 30
0.0
 11
65.635037917134
 21
805.802224628963
 31
0.0
  0
LINE
  5
FCE
330
1D
100
AcDbEntity
  8
0
100
AcDbLine
 10
65.140596960695
 20
805.138977433438
 30
0.0
 11
65.889637917134
 21
804.866224628963
 31
0.0
  0
LINE
  5
FCF
330
1D
100
AcDbEntity
  8
0
100
AcDbLine
 10
66.104353943903
 20
804.961640115735
 30
0.0
 11
66.202137765629
 21
805.066506812525
 31
0.0
  0
LINE
  5
FD0
330
1D
100
AcDbEntity
  8
0
100
AcDbLine
 10
69.071137917134
 20
804.990224628963
 30
0.0
 11
72.359737917134
 21
801.924224628963
 31
0.0
  0
LINE
  5
FD1
330
1D
100
AcDbEntity
  8
0
100
AcDbLine
 10
65.926737917134
 20
805.485224628963
 30
0.0
 11
66.233937917134
 21
805.019224628963
 31
0.0
  0
LINE
  5
FD2
330
1D
100
AcDbEntity
  8
0
100
AcDbLine
 10
65.903037917134
 20
805.511224628963
 30
0.0
 11
65.943850244596
 21
805.449448523839
 31
0.0
  0
LINE
  5
FD3
330
1D
100
AcDbEntity
  8
0
100
AcDbLine
 10
65.889637917134
 20
804.866224628963
 30
0.0
 11
66.233937917134
 21
805.019224628963
 31
0.0
  0
LINE
  5
FD4
330
1D
100
AcDbEntity
  8
0
100
AcDbLine
 10
63.938837917134
 20
807.115224628963
 30
0.0
 11
65.002137917134
 21
806.364224628963
 31
0.0
  0
LINE
  5
FD5
330
1D
100
AcDbEntity
  8
0
100
AcDbLine
 10
60.094537917134
 20
813.359224628963
 30
0.0
 11
63.192237917134
 21
810.471224628963
 31
0.0
  0
LINE
  5
FD6
330
1D
100
AcDbEntity
  8
0
100
AcDbLine
 10
62.455137917134
 20
807.825224628963
 30
0.0
 11
63.103637917134
 21
807.575224628963
 31
0.0
  0
LINE
  5
FD7
330
1D
100
AcDbEntity
  8
0
100
AcDbLine
 10
62.074737917134
 20
807.787224628963
 30
0.0
 11
62.152637917134
 21
807.417224628963
 31
0.0
  0
LINE
  5
FD8
330
1D
100
AcDbEntity
  8
0
100
AcDbLine
 10
62.074737917134
 20
807.787224628963
 30
0.0
 11
62.455137917134
 21
807.825224628963
 31
0.0
  0
LINE
  5
FD9
330
1D
100
AcDbEntity
  8
0
100
AcDbLine
 10
62.074737917134
 20
807.787224628963
 30
0.0
 11
62.455425196159
 21
807.825113881459
 31
0.0
  0
LINE
  5
FDA
330
1D
100
AcDbEntity
  8
0
100
AcDbLine
 10
63.103637917134
 20
807.575224628963
 30
0.0
 11
63.938837917134
 21
807.115224628963
 31
0.0
  0
LINE
  5
FDB
330
1D
100
AcDbEntity
  8
0
100
AcDbLine
 10
63.192237917134
 20
810.471224628963
 30
0.0
 11
66.189237917134
 21
807.677224628963
 31
0.0
  0
LINE
  5
FDC
330
1D
100
AcDbEntity
  8
0
100
AcDbLine
 10
80.960837917134
 20
820.692224628963
 30
0.0
 11
91.422037917134
 21
809.480224628963
 31
0.0
  0
LINE
  5
FDD
330
1D
100
AcDbEntity
  8
0
100
AcDbLine
 10
91.422037917134
 20
809.480224628963
 30
0.0
 11
102.006037917134
 21
797.569224628963
 31
0.0
  0
LINE
  5
FDE
330
1D
100
AcDbEntity
  8
0
100
AcDbLine
 10
70.536137917134
 20
831.206224628963
 30
0.0
 11
80.960837917134
 21
820.692224628963
 31
0.0
  0
LINE
  5
FDF
330
1D
100
AcDbEntity
  8
0
100
AcDbLine
 10
66.189237917134
 20
807.677224628963
 30
0.0
 11
69.071137917134
 21
804.990224628963
 31
0.0
  0
LINE
  5
FE0
330
1D
100
AcDbEntity
  8
0
100
AcDbLine
 10
60.345337917134
 20
807.441224628963
 30
0.0
 11
60.946437917134
 21
806.878224628963
 31
0.0
  0
LINE
  5
FE1
330
1D
100
AcDbEntity
  8
0
100
AcDbLine
 10
59.395837917134
 20
808.193224628963
 30
0.0
 11
60.345337917134
 21
807.441224628963
 31
0.0
  0
LINE
  5
FE2
330
1D
100
AcDbEntity
  8
0
100
AcDbLine
 10
63.349537917134
 20
803.807224628963
 30
0.0
 11
64.243037917134
 21
803.383224628963
 31
0.0
  0
LINE
  5
FE3
330
1D
100
AcDbEntity
  8
0
100
AcDbLine
 10
37.057337917134
 20
824.069224628963
 30
0.0
 11
37.263537917134
 21
823.991224628963
 31
0.0
  0
LINE
  5
FE4
330
1D
100
AcDbEntity
  8
0
100
AcDbLine
 10
19.988937917134
 20
839.861224628963
 30
0.0
 11
21.116882053476
 21
841.070870290723
 31
0.0
  0
LINE
  5
FE5
330
1D
100
AcDbEntity
  8
0
100
AcDbLine
 10
19.283737917134
 20
839.835224628963
 30
0.0
 11
20.051637917134
 21
839.119224628963
 31
0.0
  0
LINE
  5
FE6
330
1D
100
AcDbEntity
  8
0
100
AcDbLine
 10
20.051637917134
 20
839.119224628963
 30
0.0
 11
20.819537917134
 21
838.403224628963
 31
0.0
  0
LINE
  5
FE7
330
1D
100
AcDbEntity
  8
0
100
AcDbLine
 10
18.124037917134
 20
841.600224628963
 30
0.0
 11
18.891937917134
 21
840.884224628963
 31
0.0
  0
LINE
  5
FE8
330
1D
100
AcDbEntity
  8
0
100
AcDbLine
 10
18.891937917134
 20
840.884224628963
 30
0.0
 11
19.659837917134
 21
840.168224628963
 31
0.0
  0
LINE
  5
FE9
330
1D
100
AcDbEntity
  8
0
100
AcDbLine
 10
18.891937917134
 20
840.884224628963
 30
0.0
 11
19.29563035524
 21
840.507816521548
 31
0.0
  0
LINE
  5
FEA
330
1D
100
AcDbEntity
  8
0
100
AcDbLine
 10
19.659837917134
 20
840.168224628963
 30
0.0
 11
19.988937917134
 21
839.861224628963
 31
0.0
  0
LINE
  5
FEB
330
1D
100
AcDbEntity
  8
0
100
AcDbLine
 10
18.954637917134
 20
840.142224628963
 30
0.0
 11
19.283737917134
 21
839.835224628963
 31
0.0
  0
LINE
  5
FEC
330
1D
100
AcDbEntity
  8
0
100
AcDbLine
 10
18.954637917134
 20
840.142224628963
 30
0.0
 11
19.29563035524
 21
840.507816521548
 31
0.0
  0
LINE
  5
FED
330
1D
100
AcDbEntity
  8
0
100
AcDbLine
 10
20.18559932996
 20
840.072131018026
 30
0.0
 11
20.481537917134
 21
839.732224628963
 31
0.0
  0
LINE
  5
FEE
330
1D
100
AcDbEntity
  8
0
100
AcDbLine
 10
20.819537917134
 20
838.403224628963
 30
0.0
 11
21.148637917134
 21
838.096224628963
 31
0.0
  0
LINE
  5
FEF
330
1D
100
AcDbEntity
  8
0
100
AcDbLine
 10
20.945237917134
 20
839.588224628963
 30
0.0
 11
21.128337917134
 21
839.441224628963
 31
0.0
  0
LINE
  5
FF0
330
1D
100
AcDbEntity
  8
0
100
AcDbLine
 10
20.945237917134
 20
839.588224628963
 30
0.0
 11
21.212637917134
 21
839.188224628963
 31
0.0
  0
LINE
  5
FF1
330
1D
100
AcDbEntity
  8
0
100
AcDbLine
 10
20.481537917134
 20
839.732224628963
 30
0.0
 11
21.194237917134
 21
838.911224628963
 31
0.0
  0
LINE
  5
FF2
330
1D
100
AcDbEntity
  8
0
100
AcDbLine
 10
17.794937917134
 20
841.907224628963
 30
0.0
 11
18.124037917134
 21
841.600224628963
 31
0.0
  0
LINE
  5
FF3
330
1D
100
AcDbEntity
  8
0
100
AcDbLine
 10
17.794937917134
 20
841.907224628963
 30
0.0
 11
19.155626383669
 21
843.366473227825
 31
0.0
  0
LINE
  5
FF4
330
1D
100
AcDbEntity
  8
0
100
AcDbLine
 10
17.794937917134
 20
841.907224628963
 30
0.0
 11
18.212332625334
 21
842.354852912801
 31
0.0
  0
LINE
  5
FF5
330
1D
100
AcDbEntity
  8
0
100
AcDbLine
 10
18.057937917134
 20
842.919224628963
 30
0.0
 11
18.381329494366
 21
842.536090904018
 31
0.0
  0
LINE
  5
FF6
330
1D
100
AcDbEntity
  8
0
100
AcDbLine
 10
18.057937917134
 20
842.919224628963
 30
0.0
 11
18.381151162551
 21
842.535899654914
 31
0.0
  0
LINE
  5
FF7
330
1D
100
AcDbEntity
  8
0
100
AcDbLine
 10
17.803937917134
 20
842.835224628963
 30
0.0
 11
18.212332625334
 21
842.354852912801
 31
0.0
  0
LINE
  5
FF8
330
1D
100
AcDbEntity
  8
0
100
AcDbLine
 10
17.803937917134
 20
842.835224628963
 30
0.0
 11
18.057937917134
 21
842.919224628963
 31
0.0
  0
LINE
  5
FF9
330
1D
100
AcDbEntity
  8
0
100
AcDbLine
 10
19.851737917134
 20
842.620224628963
 30
0.0
 11
20.661537917134
 21
841.663224628963
 31
0.0
  0
LINE
  5
FFA
330
1D
100
AcDbEntity
  8
0
100
AcDbLine
 10
20.661537917134
 20
841.663224628963
 30
0.0
 11
21.265737917134
 21
840.877224628963
 31
0.0
  0
LINE
  5
FFB
330
1D
100
AcDbEntity
  8
0
100
AcDbLine
 10
21.099437917134
 20
838.142224628963
 30
0.0
 11
21.428537917134
 21
837.835224628963
 31
0.0
  0
LINE
  5
FFC
330
1D
100
AcDbEntity
  8
0
100
AcDbLine
 10
21.099437917134
 20
838.142224628963
 30
0.0
 11
21.733391138479
 21
838.821931651819
 31
0.0
  0
LINE
  5
FFD
330
1D
100
AcDbEntity
  8
0
100
AcDbLine
 10
21.128337917134
 20
839.441224628963
 30
0.0
 11
21.598837917134
 21
838.969224628963
 31
0.0
  0
LINE
  5
FFE
330
1D
100
AcDbEntity
  8
0
100
AcDbLine
 10
21.428537917134
 20
837.835224628963
 30
0.0
 11
22.196437917134
 21
837.119224628963
 31
0.0
  0
LINE
  5
FFF
330
1D
100
AcDbEntity
  8
0
100
AcDbLine
 10
22.196437917134
 20
837.119224628963
 30
0.0
 11
22.964337917134
 21
836.403224628963
 31
0.0
  0
LINE
  5
1000
330
1D
100
AcDbEntity
  8
0
100
AcDbLine
 10
21.785637917134
 20
840.510224628963
 30
0.0
 11
22.553537917134
 21
839.794224628963
 31
0.0
  0
LINE
  5
1001
330
1D
100
AcDbEntity
  8
0
100
AcDbLine
 10
21.212637917134
 20
839.188224628963
 30
0.0
 11
21.618617364794
 21
838.698874401873
 31
0.0
  0
LINE
  5
1002
330
1D
100
AcDbEntity
  8
0
100
AcDbLine
 10
21.598837917134
 20
838.969224628963
 30
0.0
 11
22.403637917134
 21
838.088224628963
 31
0.0
  0
LINE
  5
1003
330
1D
100
AcDbEntity
  8
0
100
AcDbLine
 10
21.194237917134
 20
838.911224628963
 30
0.0
 11
21.470647719102
 21
838.540225460658
 31
0.0
  0
LINE
  5
1004
330
1D
100
AcDbEntity
  8
0
100
AcDbLine
 10
21.456537917134
 20
840.817224628963
 30
0.0
 11
21.785637917134
 21
840.510224628963
 31
0.0
  0
LINE
  5
1005
330
1D
100
AcDbEntity
  8
0
100
AcDbLine
 10
21.456537917134
 20
840.817224628963
 30
0.0
 11
22.914812320659
 21
842.380700059839
 31
0.0
  0
LINE
  5
1006
330
1D
100
AcDbEntity
  8
0
100
AcDbLine
 10
22.215637917134
 20
842.456224628963
 30
0.0
 11
22.531895253441
 21
841.970159063432
 31
0.0
  0
LINE
  5
1007
330
1D
100
AcDbEntity
  8
0
100
AcDbLine
 10
21.265737917134
 20
840.877224628963
 30
0.0
 11
21.545037917134
 21
840.407224628963
 31
0.0
  0
LINE
  5
1008
330
1D
100
AcDbEntity
  8
0
100
AcDbLine
 10
21.247337917134
 20
840.588224628963
 30
0.0
 11
21.545037917134
 21
840.407224628963
 31
0.0
  0
LINE
  5
1009
330
1D
100
AcDbEntity
  8
0
100
AcDbLine
 10
20.946941879211
 20
840.888620666886
 30
0.0
 11
21.247337917134
 21
840.588224628963
 31
0.0
  0
LINE
  5
100A
330
1D
100
AcDbEntity
  8
0
100
AcDbLine
 10
16.223737917134
 20
843.372224628963
 30
0.0
 11
17.313696922267
 21
844.541168023716
 31
0.0
  0
LINE
  5
100B
330
1D
100
AcDbEntity
  8
0
100
AcDbLine
 10
16.223737917134
 20
843.372224628963
 30
0.0
 11
17.033499575616
 21
844.240666045153
 31
0.0
  0
LINE
  5
100C
330
1D
100
AcDbEntity
  8
0
100
AcDbLine
 10
15.894537917134
 20
843.679224628963
 30
0.0
 11
16.223737917134
 21
843.372224628963
 31
0.0
  0
LINE
  5
100D
330
1D
100
AcDbEntity
  8
0
100
AcDbLine
 10
18.566637917134
 20
843.771224628963
 30
0.0
 11
18.611337917134
 21
843.840224628963
 31
0.0
  0
LINE
  5
100E
330
1D
100
AcDbEntity
  8
0
100
AcDbLine
 10
18.566637917134
 20
843.771224628963
 30
0.0
 11
18.888337917134
 21
843.292224628963
 31
0.0
  0
LINE
  5
100F
330
1D
100
AcDbEntity
  8
0
100
AcDbLine
 10
17.906037917134
 20
843.775224628963
 30
0.0
 11
17.953037917134
 21
843.616224628963
 31
0.0
  0
LINE
  5
1010
330
1D
100
AcDbEntity
  8
0
100
AcDbLine
 10
18.979509193486
 20
843.177599161989
 30
0.0
 11
19.155626383669
 21
843.366473227825
 31
0.0
  0
LINE
  5
1011
330
1D
100
AcDbEntity
  8
0
100
AcDbLine
 10
18.888337917134
 20
843.292224628963
 30
0.0
 11
18.977958357913
 21
843.175935993165
 31
0.0
  0
LINE
  5
1012
330
1D
100
AcDbEntity
  8
0
100
AcDbLine
 10
18.800137917134
 20
843.703224628963
 30
0.0
 11
19.132537917134
 21
843.391224628963
 31
0.0
  0
LINE
  5
1013
330
1D
100
AcDbEntity
  8
0
100
AcDbLine
 10
22.204837917134
 20
843.537224628963
 30
0.0
 11
22.533937917134
 21
843.230224628963
 31
0.0
  0
LINE
  5
1014
330
1D
100
AcDbEntity
  8
0
100
AcDbLine
 10
19.132537917134
 20
843.391224628963
 30
0.0
 11
19.851737917134
 21
842.620224628963
 31
0.0
  0
LINE
  5
1015
330
1D
100
AcDbEntity
  8
0
100
AcDbLine
 10
22.012337917134
 20
842.992224628963
 30
0.0
 11
22.303237917134
 21
842.919224628963
 31
0.0
  0
LINE
  5
1016
330
1D
100
AcDbEntity
  8
0
100
AcDbLine
 10
22.012337917134
 20
842.992224628963
 30
0.0
 11
22.215637917134
 21
842.456224628963
 31
0.0
  0
LINE
  5
1017
330
1D
100
AcDbEntity
  8
0
100
AcDbLine
 10
22.964337917134
 20
836.403224628963
 30
0.0
 11
23.293437917134
 21
836.096224628963
 31
0.0
  0
LINE
  5
1018
330
1D
100
AcDbEntity
  8
0
100
AcDbLine
 10
22.533937917134
 20
843.230224628963
 30
0.0
 11
23.545909944451
 21
844.315497855913
 31
0.0
  0
LINE
  5
1019
330
1D
100
AcDbEntity
  8
0
100
AcDbLine
 10
22.553537917134
 20
839.794224628963
 30
0.0
 11
23.321537917134
 21
839.078224628963
 31
0.0
  0
LINE
  5
101A
330
1D
100
AcDbEntity
  8
0
100
AcDbLine
 10
22.724737917134
 20
842.609224628963
 30
0.0
 11
23.301137917134
 21
841.916224628963
 31
0.0
  0
LINE
  5
101B
330
1D
100
AcDbEntity
  8
0
100
AcDbLine
 10
22.403637917134
 20
838.088224628963
 30
0.0
 11
23.373737917134
 21
836.970224628963
 31
0.0
  0
LINE
  5
101C
330
1D
100
AcDbEntity
  8
0
100
AcDbLine
 10
22.303237917134
 20
842.919224628963
 30
0.0
 11
22.724737917134
 21
842.609224628963
 31
0.0
  0
LINE
  5
101D
330
1D
100
AcDbEntity
  8
0
100
AcDbLine
 10
14.029637917134
 20
845.418224628963
 30
0.0
 11
15.126637917134
 21
844.395224628963
 31
0.0
  0
LINE
  5
101E
330
1D
100
AcDbEntity
  8
0
100
AcDbLine
 10
15.666137917134
 20
846.216224628963
 30
0.0
 11
15.995237917134
 21
845.909224628963
 31
0.0
  0
LINE
  5
101F
330
1D
100
AcDbEntity
  8
0
100
AcDbLine
 10
15.666137917134
 20
846.216224628963
 30
0.0
 11
17.113451796986
 21
847.768373267854
 31
0.0
  0
LINE
  5
1020
330
1D
100
AcDbEntity
  8
0
100
AcDbLine
 10
15.995237917134
 20
845.909224628963
 30
0.0
 11
16.763137917134
 21
845.193224628963
 31
0.0
  0
LINE
  5
1021
330
1D
100
AcDbEntity
  8
0
100
AcDbLine
 10
15.126637917134
 20
844.395224628963
 30
0.0
 11
15.894537917134
 21
843.679224628963
 31
0.0
  0
LINE
  5
1022
330
1D
100
AcDbEntity
  8
0
100
AcDbLine
 10
14.754137917134
 20
848.345224628963
 30
0.0
 11
14.785637917134
 21
848.271224628963
 31
0.0
  0
LINE
  5
1023
330
1D
100
AcDbEntity
  8
0
100
AcDbLine
 10
14.945437917134
 20
848.918224628963
 30
0.0
 11
15.079937917134
 21
848.531224628963
 31
0.0
  0
LINE
  5
1024
330
1D
100
AcDbEntity
  8
0
100
AcDbLine
 10
14.804237917134
 20
848.734224628963
 30
0.0
 11
15.079937917134
 21
848.531224628963
 31
0.0
  0
LINE
  5
1025
330
1D
100
AcDbEntity
  8
0
100
AcDbLine
 10
14.797637917134
 20
847.485224628963
 30
0.0
 11
15.042837917134
 21
847.242224628963
 31
0.0
  0
LINE
  5
1026
330
1D
100
AcDbEntity
  8
0
100
AcDbLine
 10
16.241137917134
 20
849.098224628963
 30
0.0
 11
16.570237917134
 21
848.792224628963
 31
0.0
  0
LINE
  5
1027
330
1D
100
AcDbEntity
  8
0
100
AcDbLine
 10
15.042837917134
 20
847.242224628963
 30
0.0
 11
15.379637917134
 21
846.872224628963
 31
0.0
  0
LINE
  5
1028
330
1D
100
AcDbEntity
  8
0
100
AcDbLine
 10
15.379637917134
 20
846.872224628963
 30
0.0
 11
15.812397935472
 21
846.373078848043
 31
0.0
  0
LINE
  5
1029
330
1D
100
AcDbEntity
  8
0
100
AcDbLine
 10
14.961037917134
 20
847.166224628963
 30
0.0
 11
15.274885248738
 21
846.753670227695
 31
0.0
  0
LINE
  5
102A
330
1D
100
AcDbEntity
  8
0
100
AcDbLine
 10
15.108137917134
 20
846.724224628963
 30
0.0
 11
15.171371471408
 21
846.642658531596
 31
0.0
  0
LINE
  5
102B
330
1D
100
AcDbEntity
  8
0
100
AcDbLine
 10
17.033499575616
 20
844.240666045153
 30
0.0
 11
18.057937917134
 21
842.919224628963
 31
0.0
  0
LINE
  5
102C
330
1D
100
AcDbEntity
  8
0
100
AcDbLine
 10
17.531037917134
 20
844.477224628963
 30
0.0
 11
17.860137917134
 21
844.170224628963
 31
0.0
  0
LINE
  5
102D
330
1D
100
AcDbEntity
  8
0
100
AcDbLine
 10
17.203829205288
 20
844.423338691188
 30
0.0
 11
17.571737917134
 21
844.003224628963
 31
0.0
  0
LINE
  5
102E
330
1D
100
AcDbEntity
  8
0
100
AcDbLine
 10
17.203829205288
 20
844.423338691188
 30
0.0
 11
17.313696922267
 21
844.541168023716
 31
0.0
  0
LINE
  5
102F
330
1D
100
AcDbEntity
  8
0
100
AcDbLine
 10
17.860137917134
 20
844.170224628963
 30
0.0
 11
19.011401242739
 21
845.404878582552
 31
0.0
  0
LINE
  5
1030
330
1D
100
AcDbEntity
  8
0
100
AcDbLine
 10
17.571737917134
 20
844.003224628963
 30
0.0
 11
17.953037917134
 21
843.616224628963
 31
0.0
  0
LINE
  5
1031
330
1D
100
AcDbEntity
  8
0
100
AcDbLine
 10
17.215437917134
 20
844.668224628963
 30
0.0
 11
17.906037917134
 21
843.775224628963
 31
0.0
  0
LINE
  5
1032
330
1D
100
AcDbEntity
  8
0
100
AcDbLine
 10
16.763137917134
 20
845.193224628963
 30
0.0
 11
17.531037917134
 21
844.477224628963
 31
0.0
  0
LINE
  5
1033
330
1D
100
AcDbEntity
  8
0
100
AcDbLine
 10
16.713337917134
 20
847.687224628963
 30
0.0
 11
16.850142948994
 21
847.485991902134
 31
0.0
  0
LINE
  5
1034
330
1D
100
AcDbEntity
  8
0
100
AcDbLine
 10
16.867286499788
 20
845.096115128793
 30
0.0
 11
17.215437917134
 21
844.668224628963
 31
0.0
  0
LINE
  5
1035
330
1D
100
AcDbEntity
  8
0
100
AcDbLine
 10
17.848837917134
 20
846.966224628963
 30
0.0
 11
19.011401242739
 21
845.404878582552
 31
0.0
  0
LINE
  5
1036
330
1D
100
AcDbEntity
  8
0
100
AcDbLine
 10
19.225437917134
 20
844.734224628963
 30
0.0
 11
19.290992373188
 21
844.809035323493
 31
0.0
  0
LINE
  5
1037
330
1D
100
AcDbEntity
  8
0
100
AcDbLine
 10
18.756952415664
 20
845.131999004659
 30
0.0
 11
18.877837917134
 21
845.005224628963
 31
0.0
  0
LINE
  5
1038
330
1D
100
AcDbEntity
  8
0
100
AcDbLine
 10
18.877837917134
 20
845.005224628963
 30
0.0
 11
19.225437917134
 21
844.734224628963
 31
0.0
  0
LINE
  5
1039
330
1D
100
AcDbEntity
  8
0
100
AcDbLine
 10
19.002559946844
 20
845.395396876074
 30
0.0
 11
19.315237917134
 21
844.867224628963
 31
0.0
  0
LINE
  5
103A
330
1D
100
AcDbEntity
  8
0
100
AcDbLine
 10
20.339937917134
 20
845.276224628963
 30
0.0
 11
20.669037917134
 21
844.969224628963
 31
0.0
  0
LINE
  5
103B
330
1D
100
AcDbEntity
  8
0
100
AcDbLine
 10
20.339937917134
 20
845.276224628963
 30
0.0
 11
21.716931976168
 21
846.753003207187
 31
0.0
  0
LINE
  5
103C
330
1D
100
AcDbEntity
  8
0
100
AcDbLine
 10
20.669037917134
 20
844.969224628963
 30
0.0
 11
21.436937917134
 21
844.253224628963
 31
0.0
  0
LINE
  5
103D
330
1D
100
AcDbEntity
  8
0
100
AcDbLine
 10
20.697637917134
 20
846.771224628963
 30
0.0
 11
21.095079989112
 21
846.086088424741
 31
0.0
  0
LINE
  5
103E
330
1D
100
AcDbEntity
  8
0
100
AcDbLine
 10
20.541137917134
 20
847.265224628963
 30
0.0
 11
20.697637917134
 21
846.771224628963
 31
0.0
  0
LINE
  5
103F
330
1D
100
AcDbEntity
  8
0
100
AcDbLine
 10
20.541137917134
 20
847.265224628963
 30
0.0
 11
20.646437917134
 21
847.487224628963
 31
0.0
  0
LINE
  5
1040
330
1D
100
AcDbEntity
  8
0
100
AcDbLine
 10
19.290992373188
 20
844.809035323493
 30
0.0
 11
19.315237917134
 21
844.867224628963
 31
0.0
  0
LINE
  5
1041
330
1D
100
AcDbEntity
  8
0
100
AcDbLine
 10
18.611337917134
 20
843.840224628963
 30
0.0
 11
18.800137917134
 21
843.703224628963
 31
0.0
  0
LINE
  5
1042
330
1D
100
AcDbEntity
  8
0
100
AcDbLine
 10
21.095079989112
 20
846.086088424741
 30
0.0
 11
21.716931976168
 21
846.753003207187
 31
0.0
  0
LINE
  5
1043
330
1D
100
AcDbEntity
  8
0
100
AcDbLine
 10
21.436937917134
 20
844.253224628963
 30
0.0
 11
22.204837917134
 21
843.537224628963
 31
0.0
  0
LINE
  5
1044
330
1D
100
AcDbEntity
  8
0
100
AcDbLine
 10
22.318837917134
 20
846.102224628963
 30
0.0
 11
22.391137917134
 21
846.016224628963
 31
0.0
  0
LINE
  5
1045
330
1D
100
AcDbEntity
  8
0
100
AcDbLine
 10
23.033937917134
 20
845.167224628963
 30
0.0
 11
23.690337917134
 21
844.075224628963
 31
0.0
  0
LINE
  5
1046
330
1D
100
AcDbEntity
  8
0
100
AcDbLine
 10
22.899037917134
 20
845.361224628963
 30
0.0
 11
23.033937917134
 21
845.167224628963
 31
0.0
  0
LINE
  5
1047
330
1D
100
AcDbEntity
  8
0
100
AcDbLine
 10
22.833137917134
 20
845.451224628963
 30
0.0
 11
22.899037917134
 21
845.361224628963
 31
0.0
  0
LINE
  5
1048
330
1D
100
AcDbEntity
  8
0
100
AcDbLine
 10
22.764737917134
 20
845.543224628963
 30
0.0
 11
22.833137917134
 21
845.451224628963
 31
0.0
  0
LINE
  5
1049
330
1D
100
AcDbEntity
  8
0
100
AcDbLine
 10
22.690637917134
 20
845.641224628963
 30
0.0
 11
22.764737917134
 21
845.543224628963
 31
0.0
  0
LINE
  5
104A
330
1D
100
AcDbEntity
  8
0
100
AcDbLine
 10
22.622837917134
 20
845.728224628963
 30
0.0
 11
22.690637917134
 21
845.641224628963
 31
0.0
  0
LINE
  5
104B
330
1D
100
AcDbEntity
  8
0
100
AcDbLine
 10
22.546337917134
 20
845.825224628963
 30
0.0
 11
22.616637917134
 21
845.737224628963
 31
0.0
  0
LINE
  5
104C
330
1D
100
AcDbEntity
  8
0
100
AcDbLine
 10
22.462137917134
 20
845.930224628963
 30
0.0
 11
22.546337917134
 21
845.825224628963
 31
0.0
  0
LINE
  5
104D
330
1D
100
AcDbEntity
  8
0
100
AcDbLine
 10
22.391137917134
 20
846.016224628963
 30
0.0
 11
22.462137917134
 21
845.930224628963
 31
0.0
  0
LINE
  5
104E
330
1D
100
AcDbEntity
  8
0
100
AcDbLine
 10
22.170537917134
 20
846.274224628963
 30
0.0
 11
22.245237917134
 21
846.188224628963
 31
0.0
  0
LINE
  5
104F
330
1D
100
AcDbEntity
  8
0
100
AcDbLine
 10
22.139437917134
 20
846.307224628963
 30
0.0
 11
22.223237917134
 21
846.212224628963
 31
0.0
  0
LINE
  5
1050
330
1D
100
AcDbEntity
  8
0
100
AcDbLine
 10
22.095037917134
 20
846.359224628963
 30
0.0
 11
22.139437917134
 21
846.307224628963
 31
0.0
  0
LINE
  5
1051
330
1D
100
AcDbEntity
  8
0
100
AcDbLine
 10
22.095037917134
 20
846.359224628963
 30
0.0
 11
22.170537917134
 21
846.274224628963
 31
0.0
  0
LINE
  5
1052
330
1D
100
AcDbEntity
  8
0
100
AcDbLine
 10
22.057937917134
 20
846.397224628963
 30
0.0
 11
22.095037917134
 21
846.359224628963
 31
0.0
  0
LINE
  5
1053
330
1D
100
AcDbEntity
  8
0
100
AcDbLine
 10
22.057937917134
 20
846.397224628963
 30
0.0
 11
22.139437917134
 21
846.307224628963
 31
0.0
  0
LINE
  5
1054
330
1D
100
AcDbEntity
  8
0
100
AcDbLine
 10
22.018737917134
 20
846.442224628963
 30
0.0
 11
22.095037917134
 21
846.359224628963
 31
0.0
  0
LINE
  5
1055
330
1D
100
AcDbEntity
  8
0
100
AcDbLine
 10
21.976437917134
 20
846.486224628963
 30
0.0
 11
22.018737917134
 21
846.442224628963
 31
0.0
  0
LINE
  5
1056
330
1D
100
AcDbEntity
  8
0
100
AcDbLine
 10
21.976437917134
 20
846.486224628963
 30
0.0
 11
22.057937917134
 21
846.397224628963
 31
0.0
  0
LINE
  5
1057
330
1D
100
AcDbEntity
  8
0
100
AcDbLine
 10
21.941837917134
 20
846.525224628963
 30
0.0
 11
21.976437917134
 21
846.486224628963
 31
0.0
  0
LINE
  5
1058
330
1D
100
AcDbEntity
  8
0
100
AcDbLine
 10
21.941837917134
 20
846.525224628963
 30
0.0
 11
22.018737917134
 21
846.442224628963
 31
0.0
  0
LINE
  5
1059
330
1D
100
AcDbEntity
  8
0
100
AcDbLine
 10
21.894437917134
 20
846.573224628963
 30
0.0
 11
21.941837917134
 21
846.525224628963
 31
0.0
  0
LINE
  5
105A
330
1D
100
AcDbEntity
  8
0
100
AcDbLine
 10
21.894437917134
 20
846.573224628963
 30
0.0
 11
21.976437917134
 21
846.486224628963
 31
0.0
  0
LINE
  5
105B
330
1D
100
AcDbEntity
  8
0
100
AcDbLine
 10
21.864637917134
 20
846.606224628963
 30
0.0
 11
21.941837917134
 21
846.525224628963
 31
0.0
  0
LINE
  5
105C
330
1D
100
AcDbEntity
  8
0
100
AcDbLine
 10
21.812037917134
 20
846.657224628963
 30
0.0
 11
21.864637917134
 21
846.606224628963
 31
0.0
  0
LINE
  5
105D
330
1D
100
AcDbEntity
  8
0
100
AcDbLine
 10
21.812037917134
 20
846.657224628963
 30
0.0
 11
21.894437917134
 21
846.573224628963
 31
0.0
  0
LINE
  5
105E
330
1D
100
AcDbEntity
  8
0
100
AcDbLine
 10
21.731937917134
 20
846.738224628963
 30
0.0
 11
21.812037917134
 21
846.657224628963
 31
0.0
  0
LINE
  5
105F
330
1D
100
AcDbEntity
  8
0
100
AcDbLine
 10
21.788037917134
 20
846.684224628963
 30
0.0
 11
21.864637917134
 21
846.606224628963
 31
0.0
  0
LINE
  5
1060
330
1D
100
AcDbEntity
  8
0
100
AcDbLine
 10
21.711937917134
 20
846.761224628963
 30
0.0
 11
21.788037917134
 21
846.684224628963
 31
0.0
  0
LINE
  5
1061
330
1D
100
AcDbEntity
  8
0
100
AcDbLine
 10
21.636337917134
 20
846.834224628963
 30
0.0
 11
21.711937917134
 21
846.761224628963
 31
0.0
  0
LINE
  5
1062
330
1D
100
AcDbEntity
  8
0
100
AcDbLine
 10
21.561737917134
 20
846.904224628963
 30
0.0
 11
21.636337917134
 21
846.834224628963
 31
0.0
  0
LINE
  5
1063
330
1D
100
AcDbEntity
  8
0
100
AcDbLine
 10
21.488637917134
 20
846.971224628963
 30
0.0
 11
21.561737917134
 21
846.904224628963
 31
0.0
  0
LINE
  5
1064
330
1D
100
AcDbEntity
  8
0
100
AcDbLine
 10
21.422737917134
 20
847.027224628963
 30
0.0
 11
21.488637917134
 21
846.971224628963
 31
0.0
  0
LINE
  5
1065
330
1D
100
AcDbEntity
  8
0
100
AcDbLine
 10
22.245237917134
 20
846.188224628963
 30
0.0
 11
22.306037917134
 21
846.116224628963
 31
0.0
  0
LINE
  5
1066
330
1D
100
AcDbEntity
  8
0
100
AcDbLine
 10
22.223237917134
 20
846.212224628963
 30
0.0
 11
22.306037917134
 21
846.116224628963
 31
0.0
  0
LINE
  5
1067
330
1D
100
AcDbEntity
  8
0
100
AcDbLine
 10
21.349937917134
 20
847.090224628963
 30
0.0
 11
21.422737917134
 21
847.027224628963
 31
0.0
  0
LINE
  5
1068
330
1D
100
AcDbEntity
  8
0
100
AcDbLine
 10
21.279637917134
 20
847.148224628963
 30
0.0
 11
21.349937917134
 21
847.090224628963
 31
0.0
  0
LINE
  5
1069
330
1D
100
AcDbEntity
  8
0
100
AcDbLine
 10
21.001737917134
 20
847.351224628963
 30
0.0
 11
21.279637917134
 21
847.148224628963
 31
0.0
  0
LINE
  5
106A
330
1D
100
AcDbEntity
  8
0
100
AcDbLine
 10
20.646437917134
 20
847.487224628963
 30
0.0
 11
21.001737917134
 21
847.351224628963
 31
0.0
  0
LINE
  5
106B
330
1D
100
AcDbEntity
  8
0
100
AcDbLine
 10
16.570237917134
 20
848.792224628963
 30
0.0
 11
17.470674091525
 21
849.757618955524
 31
0.0
  0
LINE
  5
106C
330
1D
100
AcDbEntity
  8
0
100
AcDbLine
 10
22.647237917134
 20
848.269224628963
 30
0.0
 11
26.087137917134
 21
845.063224628963
 31
0.0
  0
LINE
  5
106D
330
1D
100
AcDbEntity
  8
0
100
AcDbLine
 10
16.731537917134
 20
848.099224628963
 30
0.0
 11
17.184037917134
 21
847.707224628963
 31
0.0
  0
LINE
  5
106E
330
1D
100
AcDbEntity
  8
0
100
AcDbLine
 10
17.184037917134
 20
847.707224628963
 30
0.0
 11
17.848837917134
 21
846.966224628963
 31
0.0
  0
LINE
  5
106F
330
1D
100
AcDbEntity
  8
0
100
AcDbLine
 10
16.498837917134
 20
848.186224628963
 30
0.0
 11
16.731537917134
 21
848.099224628963
 31
0.0
  0
LINE
  5
1070
330
1D
100
AcDbEntity
  8
0
100
AcDbLine
 10
16.498837917134
 20
848.186224628963
 30
0.0
 11
16.713337917134
 21
847.687224628963
 31
0.0
  0
LINE
  5
1071
330
1D
100
AcDbEntity
  8
0
100
AcDbLine
 10
23.071618414764
 20
843.806851485219
 30
0.0
 11
23.246337917134
 21
843.661224628963
 31
0.0
  0
LINE
  5
1072
330
1D
100
AcDbEntity
  8
0
100
AcDbLine
 10
23.293437917134
 20
836.096224628963
 30
0.0
 11
23.698268515854
 21
836.530260015743
 31
0.0
  0
LINE
  5
1073
330
1D
100
AcDbEntity
  8
0
100
AcDbLine
 10
23.293437917134
 20
836.096224628963
 30
0.0
 11
23.698268515854
 21
836.530260015743
 31
0.0
  0
LINE
  5
1074
330
1D
100
AcDbEntity
  8
0
100
AcDbLine
 10
23.373737917134
 20
836.970224628963
 30
0.0
 11
23.928856568748
 21
836.217652872058
 31
0.0
  0
LINE
  5
1075
330
1D
100
AcDbEntity
  8
0
100
AcDbLine
 10
23.913537917134
 20
836.201224628963
 30
0.0
 11
24.242637917134
 21
835.894224628963
 31
0.0
  0
LINE
  5
1076
330
1D
100
AcDbEntity
  8
0
100
AcDbLine
 10
23.913537917134
 20
836.201224628963
 30
0.0
 11
25.29542180234
 21
837.683203915825
 31
0.0
  0
LINE
  5
1077
330
1D
100
AcDbEntity
  8
0
100
AcDbLine
 10
23.703537917134
 20
835.543224628963
 30
0.0
 11
25.06374960785
 21
834.025755128362
 31
0.0
  0
LINE
  5
1078
330
1D
100
AcDbEntity
  8
0
100
AcDbLine
 10
23.287182019003
 20
836.102060425761
 30
0.0
 11
23.703537917134
 21
835.543224628963
 31
0.0
  0
LINE
  5
1079
330
1D
100
AcDbEntity
  8
0
100
AcDbLine
 10
23.321537917134
 20
839.078224628963
 30
0.0
 11
23.650637917134
 21
838.771224628963
 31
0.0
  0
LINE
  5
107A
330
1D
100
AcDbEntity
  8
0
100
AcDbLine
 10
23.301137917134
 20
841.916224628963
 30
0.0
 11
23.821337917134
 21
841.508224628963
 31
0.0
  0
LINE
  5
107B
330
1D
100
AcDbEntity
  8
0
100
AcDbLine
 10
23.246337917134
 20
843.661224628963
 30
0.0
 11
23.682237917134
 21
843.520224628963
 31
0.0
  0
LINE
  5
107C
330
1D
100
AcDbEntity
  8
0
100
AcDbLine
 10
23.650637917134
 20
838.771224628963
 30
0.0
 11
24.894408733091
 21
840.104722019913
 31
0.0
  0
LINE
  5
107D
330
1D
100
AcDbEntity
  8
0
100
AcDbLine
 10
23.821337917134
 20
841.508224628963
 30
0.0
 11
24.568137917134
 21
840.610224628963
 31
0.0
  0
LINE
  5
107E
330
1D
100
AcDbEntity
  8
0
100
AcDbLine
 10
23.682237917134
 20
843.520224628963
 30
0.0
 11
23.690337917134
 21
844.075224628963
 31
0.0
  0
LINE
  5
107F
330
1D
100
AcDbEntity
  8
0
100
AcDbLine
 10
24.122537917134
 20
838.621224628963
 30
0.0
 11
24.369237917134
 21
838.510224628963
 31
0.0
  0
LINE
  5
1080
330
1D
100
AcDbEntity
  8
0
100
AcDbLine
 10
24.122537917134
 20
838.621224628963
 30
0.0
 11
24.136237917134
 21
838.468224628963
 31
0.0
  0
LINE
  5
1081
330
1D
100
AcDbEntity
  8
0
100
AcDbLine
 10
15.473237917134
 20
849.815224628963
 30
0.0
 11
16.241137917134
 21
849.098224628963
 31
0.0
  0
LINE
  5
1082
330
1D
100
AcDbEntity
  8
0
100
AcDbLine
 10
16.447737917134
 20
851.390224628963
 30
0.0
 11
17.041437917134
 21
850.531224628963
 31
0.0
  0
LINE
  5
1083
330
1D
100
AcDbEntity
  8
0
100
AcDbLine
 10
17.041437917134
 20
850.531224628963
 30
0.0
 11
17.455237917134
 21
849.804224628963
 31
0.0
  0
LINE
  5
1084
330
1D
100
AcDbEntity
  8
0
100
AcDbLine
 10
15.105037917134
 20
852.773224628963
 30
0.0
 11
15.611137917134
 21
852.367224628963
 31
0.0
  0
LINE
  5
1085
330
1D
100
AcDbEntity
  8
0
100
AcDbLine
 10
15.611137917134
 20
852.367224628963
 30
0.0
 11
16.447737917134
 21
851.390224628963
 31
0.0
  0
LINE
  5
1086
330
1D
100
AcDbEntity
  8
0
100
AcDbLine
 10
14.944137917134
 20
852.389224628963
 30
0.0
 11
15.287593480094
 21
851.81532607711
 31
0.0
  0
LINE
  5
1087
330
1D
100
AcDbEntity
  8
0
100
AcDbLine
 10
17.142858868502
 20
849.406154892365
 30
0.0
 11
17.405137917134
 21
849.203224628963
 31
0.0
  0
LINE
  5
1088
330
1D
100
AcDbEntity
  8
0
100
AcDbLine
 10
16.305237917134
 20
854.182224628963
 30
0.0
 11
19.378937917134
 21
851.316224628963
 31
0.0
  0
LINE
  5
1089
330
1D
100
AcDbEntity
  8
0
100
AcDbLine
 10
14.872937917134
 20
852.799224628963
 30
0.0
 11
14.944137917134
 21
852.389224628963
 31
0.0
  0
LINE
  5
108A
330
1D
100
AcDbEntity
  8
0
100
AcDbLine
 10
14.872937917134
 20
852.799224628963
 30
0.0
 11
15.105037917134
 21
852.773224628963
 31
0.0
  0
LINE
  5
108B
330
1D
100
AcDbEntity
  8
0
100
AcDbLine
 10
19.378937917134
 20
851.316224628963
 30
0.0
 11
22.647237917134
 21
848.269224628963
 31
0.0
  0
LINE
  5
108C
330
1D
100
AcDbEntity
  8
0
100
AcDbLine
 10
17.455237917134
 20
849.804224628963
 30
0.0
 11
17.652637917134
 21
849.208224628963
 31
0.0
  0
LINE
  5
108D
330
1D
100
AcDbEntity
  8
0
100
AcDbLine
 10
17.405137917134
 20
849.203224628963
 30
0.0
 11
17.652637917134
 21
849.208224628963
 31
0.0
  0
LINE
  5
108E
330
1D
100
AcDbEntity
  8
0
100
AcDbLine
 10
24.242637917134
 20
835.894224628963
 30
0.0
 11
25.010537917134
 21
835.178224628963
 31
0.0
  0
LINE
  5
108F
330
1D
100
AcDbEntity
  8
0
100
AcDbLine
 10
24.961454000468
 20
837.325045484316
 30
0.0
 11
25.29542180234
 21
837.683203915825
 31
0.0
  0
LINE
  5
1090
330
1D
100
AcDbEntity
  8
0
100
AcDbLine
 10
25.010537917134
 20
835.178224628963
 30
0.0
 11
25.778437917134
 21
834.462224628963
 31
0.0
  0
LINE
  5
1091
330
1D
100
AcDbEntity
  8
0
100
AcDbLine
 10
24.342137917134
 20
838.110224628963
 30
0.0
 11
24.953529976818
 21
837.316547491797
 31
0.0
  0
LINE
  5
1092
330
1D
100
AcDbEntity
  8
0
100
AcDbLine
 10
24.824537917134
 20
838.135224628963
 30
0.0
 11
25.366237917134
 21
837.615224628963
 31
0.0
  0
LINE
  5
1093
330
1D
100
AcDbEntity
  8
0
100
AcDbLine
 10
29.312637917134
 20
835.720224628963
 30
0.0
 11
29.430374886115
 21
835.522409319744
 31
0.0
  0
LINE
  5
1094
330
1D
100
AcDbEntity
  8
0
100
AcDbLine
 10
29.312637917134
 20
835.720224628963
 30
0.0
 11
29.434051851818
 21
835.526352622846
 31
0.0
  0
LINE
  5
1095
330
1D
100
AcDbEntity
  8
0
100
AcDbLine
 10
29.006737917134
 20
836.269224628963
 30
0.0
 11
29.268737917134
 21
836.324224628963
 31
0.0
  0
LINE
  5
1096
330
1D
100
AcDbEntity
  8
0
100
AcDbLine
 10
29.006737917134
 20
836.269224628963
 30
0.0
 11
29.312637917134
 21
835.720224628963
 31
0.0
  0
LINE
  5
1097
330
1D
100
AcDbEntity
  8
0
100
AcDbLine
 10
29.160237917134
 20
837.051224628963
 30
0.0
 11
30.20418299036
 21
838.170786837991
 31
0.0
  0
LINE
  5
1098
330
1D
100
AcDbEntity
  8
0
100
AcDbLine
 10
29.268737917134
 20
836.324224628963
 30
0.0
 11
30.306037917134
 21
835.475224628963
 31
0.0
  0
LINE
  5
1099
330
1D
100
AcDbEntity
  8
0
100
AcDbLine
 10
30.306037917134
 20
835.475224628963
 30
0.0
 11
31.249237917134
 21
834.468224628963
 31
0.0
  0
LINE
  5
109A
330
1D
100
AcDbEntity
  8
0
100
AcDbLine
 10
27.052539084823
 20
835.16867602786
 30
0.0
 11
27.444937917134
 21
834.885224628963
 31
0.0
  0
LINE
  5
109B
330
1D
100
AcDbEntity
  8
0
100
AcDbLine
 10
26.608537917134
 20
836.257224628963
 30
0.0
 11
27.439337917134
 21
835.130224628963
 31
0.0
  0
LINE
  5
109C
330
1D
100
AcDbEntity
  8
0
100
AcDbLine
 10
28.831137917134
 20
837.358224628963
 30
0.0
 11
29.160237917134
 21
837.051224628963
 31
0.0
  0
LINE
  5
109D
330
1D
100
AcDbEntity
  8
0
100
AcDbLine
 10
28.063237917134
 20
838.074224628963
 30
0.0
 11
28.831137917134
 21
837.358224628963
 31
0.0
  0
LINE
  5
109E
330
1D
100
AcDbEntity
  8
0
100
AcDbLine
 10
29.775258198919
 20
837.710793300661
 30
0.0
 11
30.108237917134
 21
837.534224628963
 31
0.0
  0
LINE
  5
109F
330
1D
100
AcDbEntity
  8
0
100
AcDbLine
 10
33.521437917134
 20
838.132224628963
 30
0.0
 11
37.401937917134
 21
834.514224628963
 31
0.0
  0
LINE
  5
10A0
330
1D
100
AcDbEntity
  8
0
100
AcDbLine
 10
30.329937917134
 20
837.543224628963
 30
0.0
 11
30.347637917134
 21
837.802224628963
 31
0.0
  0
LINE
  5
10A1
330
1D
100
AcDbEntity
  8
0
100
AcDbLine
 10
30.108237917134
 20
837.534224628963
 30
0.0
 11
30.329937917134
 21
837.543224628963
 31
0.0
  0
LINE
  5
10A2
330
1D
100
AcDbEntity
  8
0
100
AcDbLine
 10
25.874237917134
 20
837.085224628963
 30
0.0
 11
26.608537917134
 21
836.257224628963
 31
0.0
  0
LINE
  5
10A3
330
1D
100
AcDbEntity
  8
0
100
AcDbLine
 10
25.366237917134
 20
837.615224628963
 30
0.0
 11
25.874237917134
 21
837.085224628963
 31
0.0
  0
LINE
  5
10A4
330
1D
100
AcDbEntity
  8
0
100
AcDbLine
 10
26.966237917134
 20
839.097224628963
 30
0.0
 11
27.295337917134
 21
838.790224628963
 31
0.0
  0
LINE
  5
10A5
330
1D
100
AcDbEntity
  8
0
100
AcDbLine
 10
26.966237917134
 20
839.097224628963
 30
0.0
 11
28.282077451046
 21
840.508375706827
 31
0.0
  0
LINE
  5
10A6
330
1D
100
AcDbEntity
  8
0
100
AcDbLine
 10
27.295337917134
 20
838.790224628963
 30
0.0
 11
28.063237917134
 21
838.074224628963
 31
0.0
  0
LINE
  5
10A7
330
1D
100
AcDbEntity
  8
0
100
AcDbLine
 10
25.296837917134
 20
839.481224628963
 30
0.0
 11
25.305337917134
 21
839.195224628963
 31
0.0
  0
LINE
  5
10A8
330
1D
100
AcDbEntity
  8
0
100
AcDbLine
 10
24.963637917134
 20
839.310224628963
 30
0.0
 11
25.305337917134
 21
839.195224628963
 31
0.0
  0
LINE
  5
10A9
330
1D
100
AcDbEntity
  8
0
100
AcDbLine
 10
24.511692817044
 20
839.694396685875
 30
0.0
 11
24.963637917134
 21
839.310224628963
 31
0.0
  0
LINE
  5
10AA
330
1D
100
AcDbEntity
  8
0
100
AcDbLine
 10
24.568137917134
 20
840.610224628963
 30
0.0
 11
25.296837917134
 21
839.481224628963
 31
0.0
  0
LINE
  5
10AB
330
1D
100
AcDbEntity
  8
0
100
AcDbLine
 10
27.323537917134
 20
840.818224628963
 30
0.0
 11
27.629637917134
 21
840.024224628963
 31
0.0
  0
LINE
  5
10AC
330
1D
100
AcDbEntity
  8
0
100
AcDbLine
 10
27.323537917134
 20
840.818224628963
 30
0.0
 11
27.573537917134
 21
840.956224628963
 31
0.0
  0
LINE
  5
10AD
330
1D
100
AcDbEntity
  8
0
100
AcDbLine
 10
27.719635410193
 20
839.90519372929
 30
0.0
 11
28.282077451046
 21
840.508375706827
 31
0.0
  0
LINE
  5
10AE
330
1D
100
AcDbEntity
  8
0
100
AcDbLine
 10
28.618337917134
 20
840.230224628963
 30
0.0
 11
29.259937917134
 21
839.571224628963
 31
0.0
  0
LINE
  5
10AF
330
1D
100
AcDbEntity
  8
0
100
AcDbLine
 10
27.629637917134
 20
840.024224628963
 30
0.0
 11
27.712058521587
 21
839.897068016202
 31
0.0
  0
LINE
  5
10B0
330
1D
100
AcDbEntity
  8
0
100
AcDbLine
 10
29.259937917134
 20
839.571224628963
 30
0.0
 11
30.080237917134
 21
838.489224628963
 31
0.0
  0
LINE
  5
10B1
330
1D
100
AcDbEntity
  8
0
100
AcDbLine
 10
30.080237917134
 20
838.489224628963
 30
0.0
 11
30.347637917134
 21
837.802224628963
 31
0.0
  0
LINE
  5
10B2
330
1D
100
AcDbEntity
  8
0
100
AcDbLine
 10
28.062237917134
 20
840.690224628963
 30
0.0
 11
28.618337917134
 21
840.230224628963
 31
0.0
  0
LINE
  5
10B3
330
1D
100
AcDbEntity
  8
0
100
AcDbLine
 10
10.875837917134
 20
882.140224628963
 30
0.0
 11
36.320837917134
 21
862.277224628963
 31
0.0
  0
LINE
  5
10B4
330
1D
100
AcDbEntity
  8
0
100
AcDbLine
 10
59.249237917134
 20
842.017224628963
 30
0.0
 11
70.536137917134
 21
831.206224628963
 31
0.0
  0
LINE
  5
10B5
330
1D
100
AcDbEntity
  8
0
100
AcDbLine
 10
29.740837917134
 20
841.656224628963
 30
0.0
 11
33.521437917134
 21
838.132224628963
 31
0.0
  0
LINE
  5
10B6
330
1D
100
AcDbEntity
  8
0
100
AcDbLine
 10
36.320837917134
 20
862.277224628963
 30
0.0
 11
49.301137917134
 21
851.075224628963
 31
0.0
  0
LINE
  5
10B7
330
1D
100
AcDbEntity
  8
0
100
AcDbLine
 10
49.301137917134
 20
851.075224628963
 30
0.0
 11
59.249237917134
 21
842.017224628963
 31
0.0
  0
LINE
  5
10B8
330
1D
100
AcDbEntity
  8
0
100
AcDbLine
 10
26.087137917134
 20
845.063224628963
 30
0.0
 11
29.740837917134
 21
841.656224628963
 31
0.0
  0
LINE
  5
10B9
330
1D
100
AcDbEntity
  8
0
100
AcDbLine
 10
26.176063185614
 20
844.980303647571
 30
0.0
 11
26.225037917134
 21
844.921224628963
 31
0.0
  0
LINE
  5
10BA
330
1D
100
AcDbEntity
  8
0
100
AcDbLine
 10
27.573537917134
 20
840.956224628963
 30
0.0
 11
28.062237917134
 21
840.690224628963
 31
0.0
  0
LINE
  5
10BB
330
1D
100
AcDbEntity
  8
0
100
AcDbLine
 10
24.369237917134
 20
838.510224628963
 30
0.0
 11
24.824537917134
 21
838.135224628963
 31
0.0
  0
LINE
  5
10BC
330
1D
100
AcDbEntity
  8
0
100
AcDbLine
 10
24.136237917134
 20
838.468224628963
 30
0.0
 11
24.342137917134
 21
838.110224628963
 31
0.0
  0
LINE
  5
10BD
330
1D
100
AcDbEntity
  8
0
100
AcDbLine
 10
27.439337917134
 20
835.130224628963
 30
0.0
 11
27.444937917134
 21
834.885224628963
 31
0.0
  0
LINE
  5
10BE
330
1D
100
AcDbEntity
  8
0
100
AcDbLine
 10
14.748737917134
 20
847.483224628963
 30
0.0
 11
14.961037917134
 21
847.166224628963
 31
0.0
  0
LINE
  5
10BF
330
1D
100
AcDbEntity
  8
0
100
AcDbLine
 10
126.433798252471
 20
696.939721544653
 30
0.0
 11
147.432406361899
 21
708.568046054857
 31
0.0
  0
LINE
  5
10C0
330
1D
100
AcDbEntity
  8
0
100
AcDbLine
 10
88.392137917134
 20
769.455924628963
 30
0.0
 11
89.164937917134
 21
775.169024628963
 31
0.0
  0
LINE
  5
10C1
330
1D
100
AcDbEntity
  8
0
100
AcDbLine
 10
89.411337917134
 20
778.920724628963
 30
0.0
 11
89.263362851545
 21
781.095196692051
 31
0.0
  0
LINE
  5
10C2
330
1D
100
AcDbEntity
  8
0
100
AcDbLine
 10
89.263362851545
 20
781.095196692051
 30
0.0
 11
88.955125831855
 21
782.673370232865
 31
0.0
  0
LINE
  5
10C3
330
1D
100
AcDbEntity
  8
0
100
AcDbLine
 10
88.955125831855
 20
782.673370232865
 30
0.0
 11
88.30738646812
 21
785.327392758287
 31
0.0
  0
LINE
  5
10C4
330
1D
100
AcDbEntity
  8
0
100
AcDbLine
 10
88.30738646812
 20
785.327392758287
 30
0.0
 11
87.298697464552
 21
787.482319265909
 31
0.0
  0
LINE
  5
10C5
330
1D
100
AcDbEntity
  8
0
100
AcDbLine
 10
87.298697464552
 20
787.482319265909
 30
0.0
 11
86.480337917134
 21
788.740224628963
 31
0.0
  0
LINE
  5
10C6
330
1D
100
AcDbEntity
  8
0
100
AcDbLine
 10
83.489037917134
 20
777.013724628963
 30
0.0
 11
82.920426192079
 21
778.146625284282
 31
0.0
  0
LINE
  5
10C7
330
1D
100
AcDbEntity
  8
0
100
AcDbLine
 10
82.920426192079
 20
778.146625284282
 30
0.0
 11
82.077537917134
 21
779.495124628963
 31
0.0
  0
LINE
  5
10C8
330
1D
100
AcDbEntity
  8
0
100
AcDbLine
 10
81.360237917134
 20
780.303524628963
 30
0.0
 11
80.641437917134
 21
781.001324628963
 31
0.0
  0
LINE
  5
10C9
330
1D
100
AcDbEntity
  8
0
100
AcDbLine
 10
80.641437917134
 20
781.001324628963
 30
0.0
 11
79.382217296264
 21
781.997483164835
 31
0.0
  0
LINE
  5
10CA
330
1D
100
AcDbEntity
  8
0
100
AcDbLine
 10
79.382217296264
 20
781.997483164835
 30
0.0
 11
78.116994820866
 21
782.929146987629
 31
0.0
  0
LINE
  5
10CB
330
1D
100
AcDbEntity
  8
0
100
AcDbLine
 10
78.116994820866
 20
782.929146987629
 30
0.0
 11
77.257989190046
 21
783.479536021204
 31
0.0
  0
LINE
  5
10CC
330
1D
100
AcDbEntity
  8
0
100
AcDbLine
 10
74.083337917134
 20
784.622024628963
 30
0.0
 11
83.686037917134
 21
768.071424628963
 31
0.0
  0
LINE
  5
10CD
330
1D
100
AcDbEntity
  8
0
100
AcDbLine
 10
76.653937917134
 20
795.166224628963
 30
0.0
 11
76.736256683626
 21
795.198020830954
 31
0.0
  0
LINE
  5
10CE
330
1D
100
AcDbEntity
  8
0
100
AcDbLine
 10
76.736256683626
 20
795.198020830954
 30
0.0
 11
76.781980781066
 21
795.289469025834
 31
0.0
  0
LINE
  5
10CF
330
1D
100
AcDbEntity
  8
0
100
AcDbLine
 10
76.781980781066
 20
795.289469025834
 30
0.0
 11
76.766837917134
 21
795.393224628963
 31
0.0
  0
LINE
  5
10D0
330
1D
100
AcDbEntity
  8
0
100
AcDbLine
 10
50.028337917134
 20
820.087224628963
 30
0.0
 11
50.305247994761
 21
819.896342328049
 31
0.0
  0
LINE
  5
10D1
330
1D
100
AcDbEntity
  8
0
100
AcDbLine
 10
50.305247994761
 20
819.896342328049
 30
0.0
 11
51.532250518312
 21
818.921660454172
 31
0.0
  0
LINE
  5
10D2
330
1D
100
AcDbEntity
  8
0
100
AcDbLine
 10
51.532250518312
 20
818.921660454172
 30
0.0
 11
52.354037917134
 21
818.075224628963
 31
0.0
  0
LINE
  5
10D3
330
1D
100
AcDbEntity
  8
0
100
AcDbLine
 10
36.077537917134
 20
833.382224628963
 30
0.0
 11
37.098537917134
 21
832.301224628963
 31
0.0
  0
ENDSEC
  0
SECTION
  2
OBJECTS
  0
DICTIONARY
  5
C
330
0
100
AcDbDictionary
281
     1
  3
ACAD_GROUP
350
D
  3
ACAD_LAYOUT
350
1A
  3
ACAD_MLEADERSTYLE
350
10D6
  3
ACAD_MLINESTYLE
350
17
  3
ACAD_PLOTSETTINGS
350
19
  3
ACAD_PLOTSTYLENAME
350
E
  3
ACAD_SCALELIST
350
923
  3
AcDbVariableDictionary
350
10D4
  3
DWGPROPS
350
10DA
  0
DICTIONARY
  5
D
102
{ACAD_REACTORS
330
C
102
}
330
C
100
AcDbDictionary
281
     1
  0
DICTIONARY
  5
1A
102
{ACAD_REACTORS
330
C
102
}
330
C
100
AcDbDictionary
281
     1
  3
Layout1
350
1C
  3
Model
350
1E
  0
DICTIONARY
  5
10D6
102
{ACAD_REACTORS
330
C
102
}
330
C
100
AcDbDictionary
281
     1
  0
DICTIONARY
  5
17
102
{ACAD_REACTORS
330
C
102
}
330
C
100
AcDbDictionary
281
     1
  3
Standard
350
18
  0
DICTIONARY
  5
19
102
{ACAD_REACTORS
330
C
102
}
330
C
100
AcDbDictionary
281
     1
  0
ACDBDICTIONARYWDFLT
  5
E
102
{ACAD_REACTORS
330
C
102
}
330
C
100
AcDbDictionary
281
     1
  3
Normal
350
F
100
AcDbDictionaryWithDefault
340
F
  0
DICTIONARY
  5
923
102
{ACAD_REACTORS
330
C
102
}
330
C
100
AcDbDictionary
281
     1
  3
A0
350
924
  3
A1
350
925
  3
A2
350
926
  3
A3
350
927
  3
A4
350
928
  3
A5
350
929
  3
A6
350
92A
  3
A7
350
92B
  3
A8
350
92C
  3
A9
350
92D
  3
B0
350
92E
  3
B1
350
92F
  3
B2
350
930
  3
B3
350
931
  3
B4
350
932
  3
B5
350
933
  3
B6
350
934
  3
B7
350
935
  3
B8
350
936
  3
B9
350
937
  3
C0
350
938
  3
C1
350
939
  3
C2
350
93A
  3
C3
350
93B
  3
C4
350
93C
  3
C5
350
93D
  3
C6
350
93E
  3
C7
350
93F
  3
C8
350
940
  3
C9
350
941
  3
D0
350
942
  3
D1
350
943
  3
D2
350
944
  0
DICTIONARY
  5
10D4
102
{ACAD_REACTORS
330
C
102
}
330
C
100
AcDbDictionary
281
     1
  3
CANNOSCALE
350
10D7
  0
XRECORD
  5
10DA
102
{ACAD_REACTORS
330
C
102
}
330
C
100
AcDbXrecord
280
     1
  1
DWGPROPS COOKIE
  2

  3

  4

  6

  7

  8
MARTIN
  9

300
=
301
=
302
=
303
=
304
=
305
=
306
=
307
=
308
=
309
=
 40
0.0
 41
2456466.545605822
 42
2456466.547402338
  1

 90
        0
  0
LAYOUT
  5
1C
102
{ACAD_REACTORS
330
1A
102
}
330
1A
100
AcDbPlotSettings
  1

  2
none_device
  4

  6

 40
0.0
 41
0.0
 42
0.0
 43
0.0
 44
0.0
 45
0.0
 46
0.0
 47
0.0
 48
0.0
 49
0.0
140
0.0
141
0.0
142
1.0
143
1.0
 70
   688
 72
     0
 73
     0
 74
     5
  7

 75
    16
147
1.0
148
0.0
149
0.0
100
AcDbLayout
  1
Layout1
 70
     1
 71
     1
 10
0.0
 20
0.0
 11
12.0
 21
9.0
 12
0.0
 22
0.0
 32
0.0
 14
1.000000000000E+20
 24
1.000000000000E+20
 34
1.000000000000E+20
 15
-1.000000000000E+20
 25
-1.000000000000E+20
 35
-1.000000000000E+20
146
0.0
 13
0.0
 23
0.0
 33
0.0
 16
1.0
 26
0.0
 36
0.0
 17
0.0
 27
1.0
 37
0.0
 76
     0
330
1B
  0
LAYOUT
  5
1E
102
{ACAD_REACTORS
330
1A
102
}
330
1A
100
AcDbPlotSettings
  1

  2
none_device
  4

  6

 40
0.0
 41
0.0
 42
0.0
 43
0.0
 44
0.0
 45
0.0
 46
0.0
 47
0.0
 48
0.0
 49
0.0
140
0.0
141
0.0
142
1.0
143
1.0
 70
  1712
 72
     0
 73
     0
 74
     0
  7

 75
     0
147
1.0
148
0.0
149
0.0
100
AcDbLayout
  1
Model
 70
     1
 71
     0
 10
0.0
 20
0.0
 11
12.0
 21
9.0
 12
0.0
 22
0.0
 32
0.0
 14
-0.579338082866
 24
0.0
 34
0.0
 15
193.823
 25
1008.0
 35
0.0
146
0.0
 13
0.0
 23
0.0
 33
0.0
 16
1.0
 26
0.0
 36
0.0
 17
0.0
 27
1.0
 37
0.0
 76
     0
330
1D
331
91E
  0
MLINESTYLE
  5
18
102
{ACAD_REACTORS
330
17
102
}
330
17
100
AcDbMlineStyle
  2
Standard
 70
     0
  3

 62
   256
 51
90.0
 52
90.0
 71
     2
 49
0.5
 62
   256
  6
BYLAYER
 49
-0.5
 62
   256
  6
BYLAYER
  0
ACDBPLACEHOLDER
  5
F
102
{ACAD_REACTORS
330
E
102
}
330
E
  0
SCALE
  5
924
102
{ACAD_REACTORS
330
923
102
}
330
923
100
AcDbScale
 70
     0
300
1:1
140
1.0
141
1.0
290
     1
  0
SCALE
  5
925
102
{ACAD_REACTORS
330
923
102
}
330
923
100
AcDbScale
 70
     0
300
1:2
140
1.0
141
2.0
290
     0
  0
SCALE
  5
926
102
{ACAD_REACTORS
330
923
102
}
330
923
100
AcDbScale
 70
     0
300
1:4
140
1.0
141
4.0
290
     0
  0
SCALE
  5
927
102
{ACAD_REACTORS
330
923
102
}
330
923
100
AcDbScale
 70
     0
300
1:5
140
1.0
141
5.0
290
     0
  0
SCALE
  5
928
102
{ACAD_REACTORS
330
923
102
}
330
923
100
AcDbScale
 70
     0
300
1:8
140
1.0
141
8.0
290
     0
  0
SCALE
  5
929
102
{ACAD_REACTORS
330
923
102
}
330
923
100
AcDbScale
 70
     0
300
1:10
140
1.0
141
10.0
290
     0
  0
SCALE
  5
92A
102
{ACAD_REACTORS
330
923
102
}
330
923
100
AcDbScale
 70
     0
300
1:16
140
1.0
141
16.0
290
     0
  0
SCALE
  5
92B
102
{ACAD_REACTORS
330
923
102
}
330
923
100
AcDbScale
 70
     0
300
1:20
140
1.0
141
20.0
290
     0
  0
SCALE
  5
92C
102
{ACAD_REACTORS
330
923
102
}
330
923
100
AcDbScale
 70
     0
300
1:30
140
1.0
141
30.0
290
     0
  0
SCALE
  5
92D
102
{ACAD_REACTORS
330
923
102
}
330
923
100
AcDbScale
 70
     0
300
1:40
140
1.0
141
40.0
290
     0
  0
SCALE
  5
92E
102
{ACAD_REACTORS
330
923
102
}
330
923
100
AcDbScale
 70
     0
300
1:50
140
1.0
141
50.0
290
     0
  0
SCALE
  5
92F
102
{ACAD_REACTORS
330
923
102
}
330
923
100
AcDbScale
 70
     0
300
1:100
140
1.0
141
100.0
290
     0
  0
SCALE
  5
930
102
{ACAD_REACTORS
330
923
102
}
330
923
100
AcDbScale
 70
     0
300
2:1
140
2.0
141
1.0
290
     0
  0
SCALE
  5
931
102
{ACAD_REACTORS
330
923
102
}
330
923
100
AcDbScale
 70
     0
300
4:1
140
4.0
141
1.0
290
     0
  0
SCALE
  5
932
102
{ACAD_REACTORS
330
923
102
}
330
923
100
AcDbScale
 70
     0
300
8:1
140
8.0
141
1.0
290
     0
  0
SCALE
  5
933
102
{ACAD_REACTORS
330
923
102
}
330
923
100
AcDbScale
 70
     0
300
10:1
140
10.0
141
1.0
290
     0
  0
SCALE
  5
934
102
{ACAD_REACTORS
330
923
102
}
330
923
100
AcDbScale
 70
     0
300
100:1
140
100.0
141
1.0
290
     0
  0
SCALE
  5
935
102
{ACAD_REACTORS
330
923
102
}
330
923
100
AcDbScale
 70
     0
300
1/128" = 1'-0"
140
0.0078125
141
12.0
290
     0
  0
SCALE
  5
936
102
{ACAD_REACTORS
330
923
102
}
330
923
100
AcDbScale
 70
     0
300
1/64" = 1'-0"
140
0.015625
141
12.0
290
     0
  0
SCALE
  5
937
102
{ACAD_REACTORS
330
923
102
}
330
923
100
AcDbScale
 70
     0
300
1/32" = 1'-0"
140
0.03125
141
12.0
290
     0
  0
SCALE
  5
938
102
{ACAD_REACTORS
330
923
102
}
330
923
100
AcDbScale
 70
     0
300
1/16" = 1'-0"
140
0.0625
141
12.0
290
     0
  0
SCALE
  5
939
102
{ACAD_REACTORS
330
923
102
}
330
923
100
AcDbScale
 70
     0
300
3/32" = 1'-0"
140
0.09375
141
12.0
290
     0
  0
SCALE
  5
93A
102
{ACAD_REACTORS
330
923
102
}
330
923
100
AcDbScale
 70
     0
300
1/8" = 1'-0"
140
0.125
141
12.0
290
     0
  0
SCALE
  5
93B
102
{ACAD_REACTORS
330
923
102
}
330
923
100
AcDbScale
 70
     0
300
3/16" = 1'-0"
140
0.1875
141
12.0
290
     0
  0
SCALE
  5
93C
102
{ACAD_REACTORS
330
923
102
}
330
923
100
AcDbScale
 70
     0
300
1/4" = 1'-0"
140
0.25
141
12.0
290
     0
  0
SCALE
  5
93D
102
{ACAD_REACTORS
330
923
102
}
330
923
100
AcDbScale
 70
     0
300
3/8" = 1'-0"
140
0.375
141
12.0
290
     0
  0
SCALE
  5
93E
102
{ACAD_REACTORS
330
923
102
}
330
923
100
AcDbScale
 70
     0
300
1/2" = 1'-0"
140
0.5
141
12.0
290
     0
  0
SCALE
  5
93F
102
{ACAD_REACTORS
330
923
102
}
330
923
100
AcDbScale
 70
     0
300
3/4" = 1'-0"
140
0.75
141
12.0
290
     0
  0
SCALE
  5
940
102
{ACAD_REACTORS
330
923
102
}
330
923
100
AcDbScale
 70
     0
300
1" = 1'-0"
140
1.0
141
12.0
290
     0
  0
SCALE
  5
941
102
{ACAD_REACTORS
330
923
102
}
330
923
100
AcDbScale
 70
     0
300
1-1/2" = 1'-0"
140
1.5
141
12.0
290
     0
  0
SCALE
  5
942
102
{ACAD_REACTORS
330
923
102
}
330
923
100
AcDbScale
 70
     0
300
3" = 1'-0"
140
3.0
141
12.0
290
     0
  0
SCALE
  5
943
102
{ACAD_REACTORS
330
923
102
}
330
923
100
AcDbScale
 70
     0
300
6" = 1'-0"
140
6.0
141
12.0
290
     0
  0
SCALE
  5
944
102
{ACAD_REACTORS
330
923
102
}
330
923
100
AcDbScale
 70
     0
300
1'-0" = 1'-0"
140
12.0
141
12.0
290
     0
  0
DICTIONARYVAR
  5
10D7
102
{ACAD_REACTORS
330
10D4
102
}
330
10D4
100
DictionaryVariables
280
     0
  1
1:1
  0
ENDSEC
  0
SECTION
  2
THUMBNAILIMAGE
 90
    16364
310
28000000B40000005500000001000800000000000000000000000000000000000000000000000000FFFFFF000000FF0000FFFF0000FF0000FFFF0000FF000000FF00FF000000000080808000C0C0C0000000FF007F7FFF000000A5005252A50000007F003F3F7F0000004C0026264C000000260013132600003FFF007F9FFF
310
000029A5005267A500001F7F003F4F7F0000134C00262F4C000009260013172600007FFF007FBFFF000052A500527CA500003F7F003F5F7F0000264C0026394C0000132600131C260000BFFF007FDFFF00007CA5005291A500005F7F003F6F7F0000394C0026424C00001C26001321260000FFFF007FFFFF0000A5A50052A5
310
A500007F7F003F7F7F00004C4C00264C4C00002626001326260000FFBF007FFFDF0000A57C0052A59100007F5F003F7F6F00004C3900264C420000261C001326210000FF7F007FFFBF0000A5520052A57C00007F3F003F7F5F00004C2600264C39000026130013261C0000FF3F007FFF9F0000A5290052A56700007F1F003F
310
7F4F00004C1300264C2F00002609001326170000FF00007FFF7F0000A5000052A55200007F00003F7F3F00004C0000264C260000260000132613003FFF00009FFF7F0029A5000067A552001F7F00004F7F3F00134C00002F4C260009260000172613007FFF0000BFFF7F0052A500007CA552003F7F00005F7F3F00264C0000
310
394C2600132600001C261300BFFF0000DFFF7F007CA5000091A552005F7F00006F7F3F00394C0000424C26001C26000021261300FFFF0000FFFF7F00A5A50000A5A552007F7F00007F7F3F004C4C00004C4C26002626000026261300FFBF0000FFDF7F00A57C0000A59152007F5F00007F6F3F004C3900004C422600261C00
310
0026211300FF7F0000FFBF7F00A5520000A57C52007F3F00007F5F3F004C2600004C39260026130000261C1300FF3F0000FF9F7F00A5290000A56752007F1F00007F4F3F004C1300004C2F26002609000026171300FF000000FF7F7F00A5000000A55252007F0000007F3F3F004C0000004C2626002600000026131300FF00
310
3F00FF7F9F00A5002900A55267007F001F007F3F4F004C0013004C262F002600090026131700FF007F00FF7FBF00A5005200A5527C007F003F007F3F5F004C0026004C2639002600130026131C00FF00BF00FF7FDF00A5007C00A55291007F005F007F3F6F004C0039004C26420026001C0026132100FF00FF00FF7FFF00A5
310
00A500A552A5007F007F007F3F7F004C004C004C264C002600260026132600BF00FF00DF7FFF007C00A5009152A5005F007F006F3F7F0039004C0042264C001C002600211326007F00FF00BF7FFF005200A5007C52A5003F007F005F3F7F0026004C0039264C00130026001C1326003F00FF009F7FFF002900A5006752A500
310
1F007F004F3F7F0013004C002F264C000900260017132600000000002D2D2D005B5B5B0089898900B7B7B700B3B3B30000000000000000000000000000000000000000000000000000000000000000000000000000000000000000000000000000000000000000000000000000000000000000000000000000000000000000
310
00000000000000000000000000000007070707070000000000000000000000000000000000000000000000000000000000000000000000000000000000000000000000000000000000000000000000000000000000000000000000000000000000000000000000000000000000000000000000000000000000000000000000
310
00000000000000000000000000000000000000000000000000000000000000000000000000000000000000000000000000000000000000000000000000000000000000000700070707000000000000000000000000000000000000000000000000000000000000000000000000000000000000000000000000000000000000
310
00000000000000000000000000000000000000000000000000000000000000000000000000000000000000000000000000000000000000000000000000000000000000000000000000000000000000000000000000000000000000000000000000000000000000000000000000000000000000000000000000070707070700
310
00000000000000000000000000000000000000000000000000000000000000000000000000000000000000000000000000000000000000000000000000000000000000000000000000000000000000000000000000000000000000000000000000000000000000000000000000000000000000000000000000000000000000
310
00000000000000000000000000000000000000000000000000000000000000000000000000000000000000000000000700000707000000000000000000000000000000000000000000000000000000000000000000000000000000000000000000000000000000000000000000000000000000000000000000000000000000
310
00000000000000000000000000000000000000000000000000000000000000000000000000000000000000000000000000000000000000000000000000000000000000000000000000000000000000000000000000000000000000000000000000000000070000070700000000000000000000000000000000000000000000
310
00000000000000000000000000000000000000000000000000000000000000000000000000000000000000000000000000000000000000000000000000000000000000000000000000000000000000000000000000000000000000000000000000000000000000000000000000000000000000000000000000000000000000
310
00000000000000000000000000000000000000000000000000000700000707000000000000000000000000000000000000000000000000000000000000000000000000000000000000000000000000000000000000000000000000000000000000000000000000000000000000000000000000000000000000000000000000
310
00000000000000000000000000000000000000000000000000000000000000000000000000000000000000000000000000000000000000000000000000000000000000000000000000000000000000070707070700000000000000000000000000000000000000000000000000000000000000000000000000000000000000
310
00000000000000000000000000000000000000000000000000000000000000000000000000000000000000000000000000000000000000000000000000000000000000000000000000000000000000000000000000000000000000000000000000000000000000000000000000000000000000000000000000000000000000
310
00000000000700070707000000000000000000000000000000000000000000000000000000000000000000000000000000000000000000000000000000000000000000000000000000000000000000000000000000000000000000000000000000000000000000000000000000000000000000000000000000000000000000
310
00000000000000000000000000000000000000000000000000000000000000000000000000000000000000000000000000000000000000000000070007070700000000000000000000000000000000000000000000000000000000000000000000000000000000000000000000000000000000000000000000000000000000
310
00000000000000000000000000000000000000000000000000000000000000000000000000000000000000000000000000000000000000000000000000000000000000000000000000000000000000000000000000000000000000000000000000000000000000000000000000000007000707070000000000000000000000
310
00000000000000000000000000000000000000000000000000000000000000000000000000000000000000000000000000000000000000000000000000000000000000000000000000000000000000000000000000000000000000000000000000000000000000000000000000000000000000000000000000000000000000
310
00000000000000000000000000000000000000000000000000000000000000000000000000070007070700000000000000000000000000000000000000000000000000000000000000000000000000000000000000000000000000000000000000000000000000000000000000000000000000000000000000000000000000
310
00000000000000000000000000000000000000000000000000000000000000000000000000000000000000000000000000000000000000000000000000000000000000000000000000000000000000000000000000000000000007000707070000000000000000000000000000000000000000000000000000000000000000
310
00000000000000000000000000000000000000000000000000000000000000000000000000000000000000000000000000000000000000000000000000000000000000000000000000000000000000000000000000000000000000000000000000000000000000000000000000000000000000000000000000000000000000
310
00000000000000000000000000000000070007070700000000000000000000000000000000000000000000000000000000000000000000000000000000000000000000000000000000000000000000000000000000000000000000000000000000000000000000000000000000000000000000000000000000000000000000
310
00000000000000000000000000000000000000000000000000000000000000000000000000000000000000000000000000000000000000000000000000000000000000000007000707070000000000000000000000000000000000000000000000000000000000000000000000000000000000000000000000000000000000
310
00000000000000000000000000000000000000000000000000000000000000000000000000000000000000000000000000000000000000000000000000000000000000000000000000000000000000000000000000000000000000000000000000000000000000000000000000000000000000000000000000000700070707
310
00000000000000000000000000000000000000000000000000000000000000000000000000000000000000000000000000000000000000000000000000000000000000000000000000000000000000000000000000000000000000000000000000000000000000000000000000000000000000000000000000000000000000
310
00000000000000000000000000000000000000000000000000000000000000000000000000000000000000000000000007000707070000000000000000000000000000000000000000000000000000000000000000000000000000000000000000000000000000000000000000000000000000000000000000000000000000
310
00000000000000000000000000000000000000000000000000000000000000000000000000000000000000000000000000000000000000000000000000000000000000000000000000000000000000000000000000000000000000000000000000000000070707070707000000000000000000000000000000000000000000
310
00000000000000000000000000000000000000000000000000000000000000000000000000000000000000000000000000000000000000000000000000000000000000000000000000000000000000000000000000000000000000000000000000000000000000000000000000000000000000000000000000000000000000
310
00000000000000000000000000000000000000070707070707070707070707070000000000000000000000000000000000000000000000000000000000000000000000000000000000000000000000000000000000000000000000000000000000000000000000000000000000000000000000000000000000000000000000
310
00000000000000000000000000000000000000000000000000000000000000000000000000000000000000000000000000000000000000000000000000000000000000000000000700000000000000000000070707000000000000000000000000000000000000000000000000000000000000000000000000000000000000
310
00000000000000000000000000000000000000000000000000000000000000000000000000000000000000000000000000000000000000000000000000000000000000000000000000000000000000000000000000000000000000000000000000000000000000000000000000000000000000000000000000000000070000
310
00000000000000000707070000000000000000000000000000000000000000000000000000000000000000000000000000000000000000000000000000000000000000000000000000000000000000000000000000000000000000000000000000000000000000000000000000000000000000000000000000000000000000
310
00000000000000000000000000000000000000000000000000000000000000000000000000000000000000000000000000000707070707070707070707070707000000000000000000000000000000000000000000000000000000000000000000000000000000000000000000000000000000000000000000000000000000
310
00000000000000000000000000000000000000000000000000000000000000000000000000000000000000000000000000000000000000000000000000000000000000000000000000000000000000000000000000000000000000000000000000000000000000000000000000000000070007070700000000000000000000
310
00000000000000000000000000000000000000000000000000000000000000000000000000000000000000000000000000000000000000000000000000000000000000000000000000000000000000000000000000000000000000000000000000000000000000000000000000000000000000000000000000000000000000
310
00000000000000000000000000000000000000000000000000000000000000000000000000000700070707000000000000000000000000000000000000000000000000000000000000000000000000000000000000000000000000000000000000000000000000000000000000000000000000000000000000000000000000
310
00000000000000000000000000000000000000000000000000000000000000000000000000000000000000000000000000000000000000000000000000000000000000000000000000000000000000000000000000000000000000070007070700000000000000000000000000000000000000000000000000000000000000
310
00000000000000000000000000000000000000000000000000000000000000000000000000000000000000000000000000000000000000000000000000000000000000000000000000000000000000000000000000000000000000000000000000000000000000000000000000000000000000000000000000000000000000
310
00000000000000000000000000000000000700070707000000000000000000000000000000000000000000000000000000000000000000000000000000000000000000000000000000000000000000000000000000000000000000000000000000000000000000000000000000000000000000000000000000000000000000
310
00000000000000000000000000000000000000000000000000000000000000000000000000000000000000000000000000000000000000000000000000000000000000000000070007070700000000000000000000000000000000000000000000000000000000000000000000000000000000000000000000000000000000
310
00000000000000000000000000000000000000000000000000000000000000000000000000000000000000000000000000000000000000000000000000000000000000000000000000000000000000000000000000000000000000000000000000000000000000000000000000000000000000000000000000000007000707
310
07000000000000000000000000000000000000000000000000000000000000000000000000000000000000000000000000000000000000000000000000000000000000000000000000000000000000000000000000000000000000000000000000000000000000000000000000000000000000000000000000000000000000
310
00000000000000000000000000000000000000000000000000000000000000000000000000000000000000000000000000070007070700000000000000000000000000000000000000000000000000000000000000000000000000000000000000000000000000000000000000000000000000000000000000000000000000
310
00000000000000000000000000000000000000000000000000000000000000000000000000000000000000000000000000000000000000000000000000000000000000000000000000000000000000000000000000000000000000000000000000000000000007000707070000000000000000000000000000000000000000
310
00000000000000000000000000000000000000000000000000000000000000000000000000000000000000000000000000000000000000000000000000000000000000000000000000000000000000000000000000000000000000000000000000000000000000000000000000000000000000000000000000000000000000
310
00000000000000000000000000000000000000000000000000000000070007070700000000000000000000000000000000000000000000000000000000000000000000000000000000000000000000000000000000000000000000000000000000000000000000000000000000000000000000000000000000000000000000
310
00000000000000000000000000000000000000000000000000000000000000000000000000000000000000000000000000000000000000000000000000000000000000000000000000000000000000000007000707070000000000000000000000000000000000000000000000000000000000000000000000000000000000
310
00000000000000000000000000000000000000000000000000000000000000000000000000000000000000000000000000000000000000000000000000000000000000000000000000000000000000000000000000000000000000000000000000000000000000000000000000000000000000000000000000000000000000
310
00000000000000070007070700000000000000000000000000000000000000000000000000000000000000000000000000000000000000000000000000000000000000000000000000000000000000000000000000000000000000000000000000000000000000000000000000000000000000000000000000000000000000
310
00000000000000000000000000000000000000000000000000000000000000000000000000000000000000000000000000000000000000000000000007000707070000000000000000000000000000000000000000000000000000000000000000000000000000000000000000000000000000000000000000000000000000
310
00000000000000000000000000000000000000000000000000000000000000000000000000000000000000000000000000000000000000000000000000000000000000000000000000000000000000000000000000000000000000000000000000000000000000000000000000000000000700070707000000000000000000
310
00000000000000000000000000000000000000000000000000000000000000000000000000000000000000000000000000000000000000000000000000000000000000000000000000000000000000000000000000000000000000000000000000000000000000000000000000000000000000000000000000000000000000
310
00000000000000000000000000000000000000000000000000000000000000000000000000000007000707070000000000000000000000000000000000000000000000000000000000000000000000000000000000000000000000000000000000000000000000000000000000000000000000000000000000000000000000
310
00000000000000000000000000000000000000000000000000000000000000000000000000000000000000000000000000000000000000000000000000000000000000000000000000000000000000000000000000000000000000000700070707000000000000000000000000000000000000000000000000000000000000
310
00000000000000000000000000000000000000000000000000000000000000000000000000000000000000000000000000000000000000000000000000000000000000000000000000000000000000000000000000000000000000000000000000000000000000000000000000000000000000000000000000000000000000
310
00000000000000000000000000000000000007000707070000000000000000000000000000000000000000000000000000000000000000000000000000000000000000000000000000000000000000000000000000000000000000000000000000000000000000000000000000000000000000000000000000000000000000
310
00000000000000000000000000000000000000000000000000000000000000000000000000000000000000000000000000000000000000000000000000000000000000000000000700070707000000000000000000000000000000000000000000000000000000000000000000000000000000000000000000000000000000
310
00000000000000000000000000000000000000000000000000000000000000000000000000000000000000000000000000000000000000000000000000000000000000000000000000000000000000000000000000000000000000000000000000000000000000000000000000000000000000000000000000000000070007
310
07070000000000000000000000000000000000000000000000000000000000000000000000000000000000000000000000000000000000000000000000000000000000000000000000000000000000000000000000000000000000000000000000000000000000000000000000000000000000000000000000000000000000
310
00000000000000000000000000000000000000000000000000000000000000000000000000000000000000000000000000000700070707000000000000000000000000000000000000000000000000000000000000000000000000000000000000000000000000000000000000000000000000000000000000000000000000
310
00000000000000000000000000000000000000000000000000000000000000000000000000000000000000000000000000000000000000000000000000000000000000000000000000000000000000000000000000000000000000000000000000000000000000070007070700000000000000000000000000000000000000
310
00000000000000000000000000000000000000000000000000000000000000000000000000000000000000000000000000000000000000000000000000000000000000000000000000000000000000000000000000000000000000000000000000000000000000000000000000000000000000000000000000000000000000
310
00000000000000000000000000000000000000000000000000000000000700070707000000000000000000000000000000000000000000000000000000000000000000000000000000000000000000000000000000000000000000000000000000000000000000000000000000000000000000000000000000000000000000
310
00000000000000000000000000000000000000000000000000000000000000000000000000000000000000000000000000000000000000000000000000000000000000000000000000000000000000000000070007070700000000000000000000000000000000000000000000000000000000000000000000000000000000
310
00000000000000000000000000000000000000000000000000000000000000000000000000000000000000000000000000000000000000000000000000000000000000000000000000000000000000000000000000000000000000000000000000000000000000000000000000000000000000000000000000000000000000
310
00000000000000000700070707000000000000000000000000000000000000000000000000000000000000000000000000000000000000000000000000000000000000000000000000000000000000000000000000000000000000000000000000000000000000000000000000000000000000000000000000000000000000
310
00000000000000000000000000000000000000000000000000000000000000000000000000000000000000000000000000000000000000000000000000070007070700000000000000000000000000000000000000000000000000000000000000000000000000000000000000000000000000000000000000000000000000
310
00000000000000000000000000000000000000000000000000000000000000000000000000000000000000000000000000000000000000000000000000000000000000000000000000000000000000000000000000000000000000000000000000000000000000000000000000000000000007000707070000000000000000
310
00000000000000000000000000000000000000000000000000000000000000000000000000000000000000000000000000000000000000000000000000000000000000000000000000000000000000000000000000000000000000000000000000000000000000000000000000000000000000000000000000000000000000
310
00000000000000000000000000000000000000000000000000000000000000000000000000000000070007070700000000000000000000000000000000000000000000000000000000000000000000000000000000000000000000000000000000000000000000000000000000000000000000000000000000000000000000
310
00000000000000000000000000000000000000000000000000000000000000000000000000000000000000000000000000000000000000000000000000000000000000000000000000000000000000000000000000000000000000000007000700070000000000000000000000000000000000000000000000000000000000
310
00000000000000000000000000000000000000000000000000000000000000000000000000000000000000000000000000000000000000000000000000000000000000000000000000000000000000000000000000000000000000000000000000000000000000000000000000000000000000000000000000000000000000
310
00000000000000000000000000000000000000070007000700000000000000000000000000000000000000000000000000000000000000000000000000000000000000000000000000000000000000000000000000000000000000000000000000000000000000000000000000000000000000000000000000000000000000
310
00000000000000000000000000000000000000000000000000000000000000000000000000000000000000000000000000000000000000000000000000000000000000000000000007000707000000000000000000000000000000000000000000000000000000000000000000000000000000000000000000000000000000
310
00000000000000000000000000000000000000000000000000000000000000000000000000000000000000000000000000000000000000000000000000000000000000000000000000000000000000000000000000000000000000000000000000000000000000000000000000000000000000000000000000000000000700
310
07070000000000000000000000000000000000000000000000000000000000000000000000000000000000000000000000000000000000000000000000000000000000000000000000000000000000000000000000000000000000000000000000000000000000000000000000000000000000000000000000000000000000
310
00000000000000000000000000000000000000000000000000000000000000000000000000000000000000000000000000000007070007000000000000000000000000000000000000000000000000000000000000000000000000000000000000000000000000000000000000000000000000000000000000000000000000
310
00000000000000000000000000000000000000000000000000000000000000000000000000000000000000000000000000000000000000000000000000000000000000000000000000000000000000000000000000000000000000000000000000000000000000000707000700000000000000000000000000000000000000
310
00000000000000000000000000000000000000000000000000000000000000000000000000000000000000000000000000000000000000000000000000000000000000000000000000000000000000000000000000000000000000000000000000000000000000000000000000000000000000000000000000000000000000
310
00000000000000000000000000000000000000000000000000000000000007070700000000000000000000000000000000000000000000000000000000000000000000000000000000000000000000000000000000000000000000000000000000000000000000000000000000000000000000000000000000000000000000
310
00000000000000000000000000000000000000000000000000000000000000000000000000000000000000000000000000000000000000000000000000000000000000000000000000000000000000000000070707070000000000000000000000000000000000000000000000000000000000000000000000000000000000
310
00000000000000000000000000000000000000000000000000000000000000000000000000000000000000000000000000000000000000000000000000000000000000000000000000000000000000000000000000000000000000000000000000000000000000000000000000000000000000000000000000000000000000
310
00000000000000000707070700000000000000000000000000000000000000000000000000000000000000000000000000000000000000000000000000000000000000000000000000000000000000000000000000000000000000000000000000000000000000000000000000000000000000000000000000000000000000
310
00000000000000000000000000000000000000000000000000000000000000000000000000000000000000000000000000000000000000000000000000070007070000000000000000000000000000000000000000000000000000000000000000000000000000000000000000000000000000000000000000000000000000
310
00000000000000000000000000000000000000000000000000000000000000000000000000000000000000000000000000000000000000000000000000000000000000000000000000000000000000000000000000000000000000000000000000000000000000000000000000000000000707000707000000000000000000
310
00000000000000000000000000000000000000000000000000000000000000000000000000000000000000000000000000000000000000000000000000000000000000000000000000000000000000000000000000000000000000000000000000000000000000000000000000000000000000000000000000000000000000
310
00000000000000000000000000000000000000000000000000000000000000000000000000000700070707070000000000000000000000000000000000000000000000000000000000000000000000000000000000000000000000000000000000000000000000000000000000000000000000000000000000000000000000
310
00000000000000000000000000000000000000000000000000000000000000000000000000000000000000000000000000000000000000000000000000000000000000000000000000000000000000000000000000000000000000070000070007000000000000000000000000000000000000000000000000000000000000
310
00000000000000000000000000000000000000000000000000000000000000000000000000000000000000000000000000000000000000000000000000000000000000000000000000000000000000000000000000000000000000000000000000000000000000000000000000000000000000000000000000000000000000
310
00000000000000000000000000000000070000070700070000000000000000000000000000000000000000000000000000000000000000000000000000000000000000000000000000000000000000000000000000000000000000000000000000000000000000000000000000000000000000000000000000000000000000
310
00000000000000000000000000000000000000000000000000000000000000000000000000000000000000000000000000000000000000000000000000000000000000000007000007070007000000000000000000000000000000000000000000000000000000000000000000000000000000000000000000000000000000
310
00000000000000000000000000000000000000000000000000000000000000000000000000000000000000000000000000000000000000000000000000000000000000000000000000000000000000000000000000000000000000000000000000000000000000000000000000000000000000000000000000070000070007
310
00070000000000000000000000000000000000000000000000000000000000000000000000000000000000000000000000000000000000000000000000000000000000000000000000000000000000000000000000000000000000000000000000000000000000000000000000000000000000000000000000000000000000
310
00000000000000000000000000000000000000000000000000000000000000000000000000000000000000000000000700000700070007000000000000000000000000000000000000000000000000000000000000000000000000000000000000000000000000000000000000000000000000000000000000000000000000
310
00000000000000000000000000000000000000000000000000000000000000000000000000000000000000000000000000000000000000000000000000000000000000000000000000000000000000000000000000000000000000000000000000000007070007000007000700000000000000000000000000000000000000
310
00000000000000000000000000000000000000000000000000000000000000000000000000000000000000000000000000000000000000000000000000000000000000000000000000000000000000000000000000000000000000000000000000000000000000000000000000000000000000000000000000000000000000
310
00000000000000000000000000000000000000000000000000070700070000070007000000000000000000000000000000000000000000000000000000000000000000000000000000000000000000000000000000000000000000000000000000000000000000000000000000000000000000000000000000000000000000
310
00000000000000000000000000000000000000000000000000000000000000000000000000000000000000000000000000000000000000000000000000000000000000000000000000000000000707070707000007000700000000000000000000000000000000000000000000000000000000000000000000000000000000
310
00000000000000000000000000000000000000000000000000000000000000000000000000000000000000000000000000000000000000000000000000000000000000000000000000000000000000000000000000000000000000000000000000000000000000000000000000000000000000000000000000000000000000
310
00070707000007000000070007000000000000000000000000000000000000000000000000000000000000000000000000000000000000000000000000000000000000000000000000000000000000000000000000000000000000000000000000000000000000000000000000000000000000000000000000000000000000
310
00000000000000000000000000000000000000000000000000000000000000000000000000000000000000000000000000000000000707070000070000000007000700000000000000000000000000000000000000000000000000000000000000000000000000000000000000000000000000000000000000000000000000
310
00000000000000000000000000000000000000000000000000000000000000000000000000000000000000000000000000000000000000000000000000000000000000000000000000000000000000000000000000000000000000000000000000000000000000000007070700070700000000000700070000000000000000
310
00000000000000000000000000000000000000000000000000000000000000000000000000000000000000000000000000000000000000000000000000000000000000000000000000000000000000000000000000000000000000000000000000000000000000000000000000000000000000000000000000000000000000
310
00000000000000000000000000000000000000000000000000000000000000070700070000000000000007000700000000000000000000000000000000000000000000000000000000000000000000000000000000000000000000000000000000000000000000000000000000000000000000000000000000000000000000
310
00000000000000000000000000000000000000000000000000000000000000000000000000000000000000000000000000000000000000000000000000000000000000000000000000000000000000000000000707000700000000000000000700070000000000000000000000000000000000000000000000000000000000
310
00000000000000000000000000000000000000000000000000000000000000000000000000000000000000000000000000000000000000000000000000000000000000000000000000000000000000000000000000000000000000000000000000000000000000000000000000000000000000000000000000000000000000
310
00000000000000000007000700000000000000000007000700000000000000000000000000000000000000000000000000000000000000000000000000000000000000000000000000000000000000000000000000000000000000000000000000000000000000000000000000000000000000000000000000000000000000
310
00000000000000000000000000000000000000000000000000000000000000000000000000000000000000000000000000000000000000000000000000000007000000000000000000000700070000000000000000000000000000000000000000000000000000000000000000000000000000000000000000000000000000
310
00000000000000000000000000000000000000000000000000000000000000000000000000000000000000000000000000000000000000000000000000000000000000000000000000000000000000000000000000000000000000000000000000000000000000000000000000000000000000000000000000000000000000
310
07000700000000000000000000000000000000000000000000000000000000000000000000000000000000000000000000000000000000000000000000000000000000000000000000000000000000000000000000000000000000000000000000000000000000000000000000000000000000000000000000000000000000
310
00000000000000000000000000000000000000000000000000000000000000000000000000000000000000000000000000000000000700070000000000000000000000000000000000000000000000000000000000000000000000000000000000000000000000000000000000000000000000000000000000000000000000
310
00000000000000000000000000000000000000000000000000000000000000000000000000000000000000000000000000000000000000000000000000000000000000000000000000000000000000000000000000000000000000000000000000000000000000000000070007000000000000000000000000000000000000
310
00000000000000000000000000000000000000000000000000000000000000000000000000000000000000000000000000000000000000000000000000000000000000000000000000000000000000000000000000000000000000000000000000000000000000000000000000000000000000000000000000000000000000
310
00000000000000000000000000000000000000000000000000000000000000000707070707000000000000000000000000000000000000000000000000000000000000000000000000000000000000000000000000000000000000000000000000000000000000000000000000000000000000000000000000000000000000
310
00000000000000000000000000000000000000000000000000000000000000000000000000000000000000000000000000000000000000000000000000000000000000000000000000000000000000000000000000070000000700000000000000000000000000000000000000000000000000000000000000000000000000
310
00000000000000000000000000000000000000000000000000000000000000000000000000000000000000000000000000000000000000000000000000000000000000000000000000000000000000000000000000000000000000000000000000000000000000000000000000000000000000000000000000000000000000
310
00000000000000000000000700000007000000000000000000000000000000000000000000000000000000000000000000000000000000000000000000000000000000000000000000000000000000000000000000000000000000000000000000000000000000000000000000000000000000000000000000000000000000
310
00000000000000000000000000000000000000000000000000000000000000000000000000000000000000000000000000000000000000000000000000000000070000000700000000000000000000000000000000000000000000000000000000000000000000000000000000000000000000000000000000000000000000
310
00000000000000000000000000000000000000000000000000000000000000000000000000000000000000000000000000000000000000000000000000000000000000000000000000000000000000000000000000000000000000000000000000000000000000000000000000000000000000000007070707070000000000
310
00000000000000000000000000000000000000000000000000000000000000000000000000000000000000000000000000000000000000000000000000000000000000000000000000000000000000000000000000000000000000000000000000000000000000000000000000000000000000000000000000000000000000
310
00000000000000000000000000000000000000000000000000000000000000000000000000000000000000070007000000000000000000000000000000000000000000000000000000000000000000000000000000000000000000000000000000000000000000000000000000000000000000000000000000000000000000
310
00000000000000000000000000000000000000000000000000000000000000000000000000000000000000000000000000000000000000000000000000000000000000000000000000000000000000000000000000000000000000000000000007070700000000000000000000000000000000000000000000000000000000
310
00000000000000000000000000000000000000000000000000000000000000000000000000000000000000000000000000000000000000000000000000000000000000000000000000000000000000000000000000000000000000000000000000000000000000000000000000000000000000000000000000000000000000
310
000000000000000000000000000000000000000000000000000000000000000000000000000000000000000000000000000000000000000000000000000000000000000000000000000000000000000000000000000000000000000000000000000000000000000000000000
  0
ENDSEC
  0
EOF
