  0
SECTION
  2
HEADER
  9
$ACADVER
  1
AC1015
  9
$ACADMAINTVER
 70
     6
  9
$DWGCODEPAGE
  3
ANSI_1252
  9
$INSBASE
 10
0.0
 20
0.0
 30
0.0
  9
$EXTMIN
 10
0.082648702272
 20
-49.892914
 30
0.0
  9
$EXTMAX
 10
205.9498
 20
957.893
 30
0.0
  9
$LIMMIN
 10
0.0
 20
0.0
  9
$LIMMAX
 10
12.0
 20
9.0
  9
$ORTHOMODE
 70
     0
  9
$REGENMODE
 70
     1
  9
$FILLMODE
 70
     1
  9
$QTEXTMODE
 70
     0
  9
$MIRRTEXT
 70
     1
  9
$LTSCALE
 40
1.0
  9
$ATTMODE
 70
     1
  9
$TEXTSIZE
 40
0.2
  9
$TRACEWID
 40
0.05
  9
$TEXTSTYLE
  7
Standard
  9
$CLAYER
  8
0
  9
$CELTYPE
  6
ByBlock
  9
$CECOLOR
 62
   256
  9
$CELTSCALE
 40
1.0
  9
$DISPSILH
 70
     0
  9
$DIMSCALE
 40
1.0
  9
$DIMASZ
 40
0.18
  9
$DIMEXO
 40
0.0625
  9
$DIMDLI
 40
0.38
  9
$DIMRND
 40
0.0
  9
$DIMDLE
 40
0.0
  9
$DIMEXE
 40
0.18
  9
$DIMTP
 40
0.0
  9
$DIMTM
 40
0.0
  9
$DIMTXT
 40
0.18
  9
$DIMCEN
 40
0.09
  9
$DIMTSZ
 40
0.0
  9
$DIMTOL
 70
     0
  9
$DIMLIM
 70
     0
  9
$DIMTIH
 70
     1
  9
$DIMTOH
 70
     1
  9
$DIMSE1
 70
     0
  9
$DIMSE2
 70
     0
  9
$DIMTAD
 70
     0
  9
$DIMZIN
 70
     0
  9
$DIMBLK
  1

  9
$DIMASO
 70
     1
  9
$DIMSHO
 70
     1
  9
$DIMPOST
  1

  9
$DIMAPOST
  1

  9
$DIMALT
 70
     0
  9
$DIMALTD
 70
     2
  9
$DIMALTF
 40
25.4
  9
$DIMLFAC
 40
1.0
  9
$DIMTOFL
 70
     0
  9
$DIMTVP
 40
0.0
  9
$DIMTIX
 70
     0
  9
$DIMSOXD
 70
     0
  9
$DIMSAH
 70
     0
  9
$DIMBLK1
  1

  9
$DIMBLK2
  1

  9
$DIMSTYLE
  2
Standard
  9
$DIMCLRD
 70
     0
  9
$DIMCLRE
 70
     0
  9
$DIMCLRT
 70
     0
  9
$DIMTFAC
 40
1.0
  9
$DIMGAP
 40
0.09
  9
$DIMJUST
 70
     0
  9
$DIMSD1
 70
     0
  9
$DIMSD2
 70
     0
  9
$DIMTOLJ
 70
     1
  9
$DIMTZIN
 70
     0
  9
$DIMALTZ
 70
     0
  9
$DIMALTTZ
 70
     0
  9
$DIMUPT
 70
     0
  9
$DIMDEC
 70
     4
  9
$DIMTDEC
 70
     4
  9
$DIMALTU
 70
     2
  9
$DIMALTTD
 70
     2
  9
$DIMTXSTY
  7
Standard
  9
$DIMAUNIT
 70
     0
  9
$DIMADEC
 70
     0
  9
$DIMALTRND
 40
0.0
  9
$DIMAZIN
 70
     0
  9
$DIMDSEP
 70
    46
  9
$DIMATFIT
 70
     3
  9
$DIMFRAC
 70
     0
  9
$DIMLDRBLK
  1

  9
$DIMLUNIT
 70
     2
  9
$DIMLWD
 70
    -2
  9
$DIMLWE
 70
    -2
  9
$DIMTMOVE
 70
     2
  9
$LUNITS
 70
     2
  9
$LUPREC
 70
     4
  9
$SKETCHINC
 40
0.1
  9
$FILLETRAD
 40
0.5
  9
$AUNITS
 70
     0
  9
$AUPREC
 70
     0
  9
$MENU
  1
.
  9
$ELEVATION
 40
0.0
  9
$PELEVATION
 40
0.0
  9
$THICKNESS
 40
0.0
  9
$LIMCHECK
 70
     0
  9
$CHAMFERA
 40
0.5
  9
$CHAMFERB
 40
0.5
  9
$CHAMFERC
 40
1.0
  9
$CHAMFERD
 40
0.0
  9
$SKPOLY
 70
     0
  9
$TDCREATE
 40
2456466.626713681
  9
$TDUCREATE
 40
2456466.543380347
  9
$TDUPDATE
 40
2456466.627693495
  9
$TDUUPDATE
 40
2456466.544360162
  9
$TDINDWG
 40
0.0009794676
  9
$TDUSRTIMER
 40
0.0009794676
  9
$USRTIMER
 70
     1
  9
$ANGBASE
 50
0.0
  9
$ANGDIR
 70
     0
  9
$PDMODE
 70
     0
  9
$PDSIZE
 40
0.0
  9
$PLINEWID
 40
0.0
  9
$SPLFRAME
 70
     0
  9
$SPLINETYPE
 70
     6
  9
$SPLINESEGS
 70
     8
  9
$HANDSEED
  5
15B6
  9
$SURFTAB1
 70
     6
  9
$SURFTAB2
 70
     6
  9
$SURFTYPE
 70
     6
  9
$SURFU
 70
     6
  9
$SURFV
 70
     6
  9
$UCSBASE
  2

  9
$UCSNAME
  2

  9
$UCSORG
 10
0.0
 20
0.0
 30
0.0
  9
$UCSXDIR
 10
1.0
 20
0.0
 30
0.0
  9
$UCSYDIR
 10
0.0
 20
1.0
 30
0.0
  9
$UCSORTHOREF
  2

  9
$UCSORTHOVIEW
 70
     0
  9
$UCSORGTOP
 10
0.0
 20
0.0
 30
0.0
  9
$UCSORGBOTTOM
 10
0.0
 20
0.0
 30
0.0
  9
$UCSORGLEFT
 10
0.0
 20
0.0
 30
0.0
  9
$UCSORGRIGHT
 10
0.0
 20
0.0
 30
0.0
  9
$UCSORGFRONT
 10
0.0
 20
0.0
 30
0.0
  9
$UCSORGBACK
 10
0.0
 20
0.0
 30
0.0
  9
$PUCSBASE
  2

  9
$PUCSNAME
  2

  9
$PUCSORG
 10
0.0
 20
0.0
 30
0.0
  9
$PUCSXDIR
 10
1.0
 20
0.0
 30
0.0
  9
$PUCSYDIR
 10
0.0
 20
1.0
 30
0.0
  9
$PUCSORTHOREF
  2

  9
$PUCSORTHOVIEW
 70
     0
  9
$PUCSORGTOP
 10
0.0
 20
0.0
 30
0.0
  9
$PUCSORGBOTTOM
 10
0.0
 20
0.0
 30
0.0
  9
$PUCSORGLEFT
 10
0.0
 20
0.0
 30
0.0
  9
$PUCSORGRIGHT
 10
0.0
 20
0.0
 30
0.0
  9
$PUCSORGFRONT
 10
0.0
 20
0.0
 30
0.0
  9
$PUCSORGBACK
 10
0.0
 20
0.0
 30
0.0
  9
$USERI1
 70
     0
  9
$USERI2
 70
     0
  9
$USERI3
 70
     0
  9
$USERI4
 70
     0
  9
$USERI5
 70
     0
  9
$USERR1
 40
0.0
  9
$USERR2
 40
0.0
  9
$USERR3
 40
0.0
  9
$USERR4
 40
0.0
  9
$USERR5
 40
0.0
  9
$WORLDVIEW
 70
     1
  9
$SHADEDGE
 70
     3
  9
$SHADEDIF
 70
    70
  9
$TILEMODE
 70
     1
  9
$MAXACTVP
 70
    64
  9
$PINSBASE
 10
0.0
 20
0.0
 30
0.0
  9
$PLIMCHECK
 70
     0
  9
$PEXTMIN
 10
1.000000000000E+20
 20
1.000000000000E+20
 30
1.000000000000E+20
  9
$PEXTMAX
 10
-1.000000000000E+20
 20
-1.000000000000E+20
 30
-1.000000000000E+20
  9
$PLIMMIN
 10
0.0
 20
0.0
  9
$PLIMMAX
 10
12.0
 20
9.0
  9
$UNITMODE
 70
     0
  9
$VISRETAIN
 70
     1
  9
$PLINEGEN
 70
     0
  9
$PSLTSCALE
 70
     1
  9
$TREEDEPTH
 70
  3020
  9
$CMLSTYLE
  2
Standard
  9
$CMLJUST
 70
     0
  9
$CMLSCALE
 40
1.0
  9
$PROXYGRAPHICS
 70
     1
  9
$MEASUREMENT
 70
     0
  9
$CELWEIGHT
370
    -1
  9
$ENDCAPS
280
     0
  9
$JOINSTYLE
280
     0
  9
$LWDISPLAY
290
     0
  9
$INSUNITS
 70
     0
  9
$HYPERLINKBASE
  1

  9
$STYLESHEET
  1

  9
$XEDIT
290
     1
  9
$CEPSNTYPE
380
     0
  9
$PSTYLEMODE
290
     1
  9
$FINGERPRINTGUID
  2
{A7555FBB-9500-4DFC-9856-952CB6CA9156}
  9
$VERSIONGUID
  2
{FAEB1C32-E019-11D5-929B-00C0DF256EC4}
  9
$EXTNAMES
290
     1
  9
$PSVPSCALE
 40
0.0
  9
$OLESTARTUP
290
     0
  0
ENDSEC
  0
SECTION
  2
CLASSES
  0
CLASS
  1
ACDBDICTIONARYWDFLT
  2
AcDbDictionaryWithDefault
  3
ObjectDBX Classes
 90
        0
280
     0
281
     0
  0
CLASS
  1
SCALE
  2
AcDbScale
  3
ObjectDBX Classes
 90
     1153
280
     0
281
     0
  0
CLASS
  1
DICTIONARYVAR
  2
AcDbDictionaryVar
  3
ObjectDBX Classes
 90
        0
280
     0
281
     0
  0
CLASS
  1
ACDBPLACEHOLDER
  2
AcDbPlaceHolder
  3
ObjectDBX Classes
 90
        0
280
     0
281
     0
  0
CLASS
  1
LAYOUT
  2
AcDbLayout
  3
ObjectDBX Classes
 90
        0
280
     0
281
     0
  0
ENDSEC
  0
SECTION
  2
TABLES
  0
TABLE
  2
VPORT
  5
8
330
0
100
AcDbSymbolTable
 70
     1
  0
VPORT
  5
7C4
330
8
100
AcDbSymbolTableRecord
100
AcDbViewportTableRecord
  2
*Active
 70
     0
 10
0.0
 20
0.0
 11
1.0
 21
1.0
 12
102.9749
 22
454.000043
 13
0.0
 23
0.0
 14
0.5
 24
0.5
 15
0.5
 25
0.5
 16
0.0
 26
0.0
 36
1.0
 17
0.0
 27
0.0
 37
0.0
 40
1027.94163228
 41
1.863448275862
 42
50.0
 43
0.0
 44
0.0
 50
0.0
 51
0.0
 71
    16
 72
   100
 73
     1
 74
     3
 75
     0
 76
     0
 77
     0
 78
     0
281
     0
 65
     1
110
0.0
120
0.0
130
0.0
111
1.0
121
0.0
131
0.0
112
0.0
122
1.0
132
0.0
 79
     0
146
0.0
  0
ENDTAB
  0
TABLE
  2
LTYPE
  5
5
330
0
100
AcDbSymbolTable
 70
     1
  0
LTYPE
  5
14
330
5
100
AcDbSymbolTableRecord
100
AcDbLinetypeTableRecord
  2
ByBlock
 70
     0
  3

 72
    65
 73
     0
 40
0.0
  0
LTYPE
  5
15
330
5
100
AcDbSymbolTableRecord
100
AcDbLinetypeTableRecord
  2
ByLayer
 70
     0
  3

 72
    65
 73
     0
 40
0.0
  0
LTYPE
  5
16
330
5
100
AcDbSymbolTableRecord
100
AcDbLinetypeTableRecord
  2
Continuous
 70
     0
  3
Solid line
 72
    65
 73
     0
 40
0.0
  0
ENDTAB
  0
TABLE
  2
LAYER
  5
2
330
0
100
AcDbSymbolTable
 70
     1
  0
LAYER
  5
10
330
2
100
AcDbSymbolTableRecord
100
AcDbLayerTableRecord
  2
0
 70
     0
 62
     7
  6
Continuous
370
    -3
390
F
  0
ENDTAB
  0
TABLE
  2
STYLE
  5
3
330
0
100
AcDbSymbolTable
 70
     1
  0
STYLE
  5
11
330
3
100
AcDbSymbolTableRecord
100
AcDbTextStyleTableRecord
  2
Standard
 70
     0
 40
0.0
 41
1.0
 50
0.0
 71
     0
 42
0.2
  3
txt
  4

  0
ENDTAB
  0
TABLE
  2
VIEW
  5
6
330
0
100
AcDbSymbolTable
 70
     0
  0
ENDTAB
  0
TABLE
  2
UCS
  5
7
330
0
100
AcDbSymbolTable
 70
     0
  0
ENDTAB
  0
TABLE
  2
APPID
  5
9
330
0
100
AcDbSymbolTable
 70
     1
  0
APPID
  5
12
330
9
100
AcDbSymbolTableRecord
100
AcDbRegAppTableRecord
  2
ACAD
 70
     0
  0
ENDTAB
  0
TABLE
  2
DIMSTYLE
  5
A
330
0
100
AcDbSymbolTable
 70
     1
100
AcDbDimStyleTable
  0
DIMSTYLE
105
20
330
A
100
AcDbSymbolTableRecord
100
AcDbDimStyleTableRecord
  2
Standard
 70
     0
340
11
  0
ENDTAB
  0
TABLE
  2
BLOCK_RECORD
  5
1
330
0
100
AcDbSymbolTable
 70
     1
  0
BLOCK_RECORD
  5
1D
330
1
100
AcDbSymbolTableRecord
100
AcDbBlockTableRecord
  2
*Model_Space
340
1E
  0
BLOCK_RECORD
  5
1B
330
1
100
AcDbSymbolTableRecord
100
AcDbBlockTableRecord
  2
*Paper_Space
340
1C
  0
ENDTAB
  0
ENDSEC
  0
SECTION
  2
BLOCKS
  0
BLOCK
  5
7C7
330
1D
100
AcDbEntity
  8
0
100
AcDbBlockBegin
  2
*Model_Space
 70
     0
 10
0.0
 20
0.0
 30
0.0
  3
*Model_Space
  1
*Model_Space
  0
ENDBLK
  5
7C8
330
1D
100
AcDbEntity
  8
0
100
AcDbBlockEnd
  0
BLOCK
  5
7C5
330
1B
100
AcDbEntity
 67
     1
  8
0
100
AcDbBlockBegin
  2
*Paper_Space
 70
     0
 10
0.0
 20
0.0
 30
0.0
  3
*Paper_Space
  1
*Paper_Space
  0
ENDBLK
  5
7C6
330
1B
100
AcDbEntity
 67
     1
  8
0
100
AcDbBlockEnd
  0
ENDSEC
  0
SECTION
  2
ENTITIES
  0
LINE
  5
21
330
1D
100
AcDbEntity
  8
0
100
AcDbLine
 10
38.1908
 20
299.893
 30
0.0
 11
38.2658
 21
299.893
 31
0.0
  0
LINE
  5
22
330
1D
100
AcDbEntity
  8
0
100
AcDbLine
 10
38.1908
 20
299.893
 30
0.0
 11
38.1908
 21
319.893
 31
0.0
  0
LINE
  5
23
330
1D
100
AcDbEntity
  8
0
100
AcDbLine
 10
38.2658
 20
299.893
 30
0.0
 11
38.3267
 21
299.893
 31
0.0
  0
LINE
  5
24
330
1D
100
AcDbEntity
  8
0
100
AcDbLine
 10
38.3267
 20
299.893
 30
0.0
 11
38.4624
 21
299.893
 31
0.0
  0
LINE
  5
25
330
1D
100
AcDbEntity
  8
0
100
AcDbLine
 10
38.4624
 20
299.893
 30
0.0
 11
38.6229
 21
299.893
 31
0.0
  0
LINE
  5
26
330
1D
100
AcDbEntity
  8
0
100
AcDbLine
 10
38.6229
 20
299.893
 30
0.0
 11
38.8132
 21
299.893
 31
0.0
  0
LINE
  5
27
330
1D
100
AcDbEntity
  8
0
100
AcDbLine
 10
38.8132
 20
299.893
 30
0.0
 11
39.0564
 21
299.893
 31
0.0
  0
LINE
  5
28
330
1D
100
AcDbEntity
  8
0
100
AcDbLine
 10
39.0564
 20
299.893
 30
0.0
 11
39.2997
 21
299.893
 31
0.0
  0
LINE
  5
29
330
1D
100
AcDbEntity
  8
0
100
AcDbLine
 10
39.2997
 20
299.893
 30
0.0
 11
39.7862
 21
299.893
 31
0.0
  0
LINE
  5
2A
330
1D
100
AcDbEntity
  8
0
100
AcDbLine
 10
39.7862
 20
299.893
 30
0.0
 11
40.6376
 21
299.893
 31
0.0
  0
LINE
  5
2B
330
1D
100
AcDbEntity
  8
0
100
AcDbLine
 10
40.6376
 20
299.893
 30
0.0
 11
41.6715
 21
299.893
 31
0.0
  0
LINE
  5
2C
330
1D
100
AcDbEntity
  8
0
100
AcDbLine
 10
41.6715
 20
299.893
 30
0.0
 11
42.827
 21
299.893
 31
0.0
  0
LINE
  5
2D
330
1D
100
AcDbEntity
  8
0
100
AcDbLine
 10
92.1908
 20
299.893
 30
0.0
 11
102.1908
 21
299.893
 31
0.0
  0
LINE
  5
2E
330
1D
100
AcDbEntity
  8
0
100
AcDbLine
 10
102.1908
 20
299.893
 30
0.0
 11
105.7898
 21
299.893
 31
0.0
  0
LINE
  5
2F
330
1D
100
AcDbEntity
  8
0
100
AcDbLine
 10
105.7898
 20
299.893
 30
0.0
 11
109.5018
 21
299.893
 31
0.0
  0
LINE
  5
30
330
1D
100
AcDbEntity
  8
0
100
AcDbLine
 10
109.5018
 20
299.893
 30
0.0
 11
113.0678
 21
299.893
 31
0.0
  0
LINE
  5
31
330
1D
100
AcDbEntity
  8
0
100
AcDbLine
 10
113.0678
 20
299.893
 30
0.0
 11
116.1708
 21
299.893
 31
0.0
  0
LINE
  5
32
330
1D
100
AcDbEntity
  8
0
100
AcDbLine
 10
116.1708
 20
299.893
 30
0.0
 11
119.0568
 21
299.893
 31
0.0
  0
LINE
  5
33
330
1D
100
AcDbEntity
  8
0
100
AcDbLine
 10
119.0568
 20
299.893
 30
0.0
 11
122.1598
 21
299.893
 31
0.0
  0
LINE
  5
34
330
1D
100
AcDbEntity
  8
0
100
AcDbLine
 10
122.1598
 20
299.893
 30
0.0
 11
125.3248
 21
299.893
 31
0.0
  0
LINE
  5
35
330
1D
100
AcDbEntity
  8
0
100
AcDbLine
 10
125.3248
 20
299.893
 30
0.0
 11
128.2458
 21
299.893
 31
0.0
  0
LINE
  5
36
330
1D
100
AcDbEntity
  8
0
100
AcDbLine
 10
128.2458
 20
299.893
 30
0.0
 11
131.0458
 21
299.893
 31
0.0
  0
LINE
  5
37
330
1D
100
AcDbEntity
  8
0
100
AcDbLine
 10
131.0458
 20
299.893
 30
0.0
 11
133.3578
 21
299.893
 31
0.0
  0
LINE
  5
38
330
1D
100
AcDbEntity
  8
0
100
AcDbLine
 10
133.3578
 20
299.893
 30
0.0
 11
135.3058
 21
299.893
 31
0.0
  0
LINE
  5
39
330
1D
100
AcDbEntity
  8
0
100
AcDbLine
 10
145.1908
 20
299.893
 30
0.0
 11
151.1908
 21
299.893
 31
0.0
  0
LINE
  5
3A
330
1D
100
AcDbEntity
  8
0
100
AcDbLine
 10
154.1908
 20
200.277615
 30
0.0
 11
154.5868
 21
200.277615
 31
0.0
  0
LINE
  5
3B
330
1D
100
AcDbEntity
  8
0
100
AcDbLine
 10
154.1908
 20
200.277615
 30
0.0
 11
154.4548
 21
199.893
 31
0.0
  0
LINE
  5
3C
330
1D
100
AcDbEntity
  8
0
100
AcDbLine
 10
154.1908
 20
200.277615
 30
0.0
 11
154.1908
 21
269.5084
 31
0.0
  0
LINE
  5
3D
330
1D
100
AcDbEntity
  8
0
100
AcDbLine
 10
154.1908
 20
270.493
 30
0.0
 11
154.4548
 21
269.893
 31
0.0
  0
LINE
  5
3E
330
1D
100
AcDbEntity
  8
0
100
AcDbLine
 10
154.1908
 20
270.493
 30
0.0
 11
154.1908
 21
299.893
 31
0.0
  0
LINE
  5
3F
330
1D
100
AcDbEntity
  8
0
100
AcDbLine
 10
154.1908
 20
269.5084
 30
0.0
 11
154.5868
 21
269.5084
 31
0.0
  0
LINE
  5
40
330
1D
100
AcDbEntity
  8
0
100
AcDbLine
 10
154.1908
 20
269.5084
 30
0.0
 11
154.4548
 21
269.893
 31
0.0
  0
LINE
  5
41
330
1D
100
AcDbEntity
  8
0
100
AcDbLine
 10
154.1908
 20
269.5084
 30
0.0
 11
154.1908
 21
200.277615
 31
0.0
  0
LINE
  5
42
330
1D
100
AcDbEntity
  8
0
100
AcDbLine
 10
154.4548
 20
199.893
 30
0.0
 11
154.8508
 21
199.893
 31
0.0
  0
LINE
  5
43
330
1D
100
AcDbEntity
  8
0
100
AcDbLine
 10
154.8508
 20
199.893
 30
0.0
 11
155.9068
 21
199.893
 31
0.0
  0
LINE
  5
44
330
1D
100
AcDbEntity
  8
0
100
AcDbLine
 10
154.5868
 20
200.277615
 30
0.0
 11
155.6428
 21
200.277615
 31
0.0
  0
LINE
  5
45
330
1D
100
AcDbEntity
  8
0
100
AcDbLine
 10
155.6428
 20
200.277615
 30
0.0
 11
157.4028
 21
200.277615
 31
0.0
  0
LINE
  5
46
330
1D
100
AcDbEntity
  8
0
100
AcDbLine
 10
154.5868
 20
269.5084
 30
0.0
 11
155.6428
 21
269.5084
 31
0.0
  0
LINE
  5
47
330
1D
100
AcDbEntity
  8
0
100
AcDbLine
 10
155.9068
 20
199.893
 30
0.0
 11
157.6228
 21
199.893
 31
0.0
  0
LINE
  5
48
330
1D
100
AcDbEntity
  8
0
100
AcDbLine
 10
157.6228
 20
199.893
 30
0.0
 11
159.8668
 21
199.893
 31
0.0
  0
LINE
  5
49
330
1D
100
AcDbEntity
  8
0
100
AcDbLine
 10
157.4028
 20
200.277615
 30
0.0
 11
159.7348
 21
200.277615
 31
0.0
  0
LINE
  5
4A
330
1D
100
AcDbEntity
  8
0
100
AcDbLine
 10
155.6428
 20
269.5084
 30
0.0
 11
157.4028
 21
269.5084
 31
0.0
  0
LINE
  5
4B
330
1D
100
AcDbEntity
  8
0
100
AcDbLine
 10
154.4548
 20
269.893
 30
0.0
 11
154.8508
 21
269.893
 31
0.0
  0
LINE
  5
4C
330
1D
100
AcDbEntity
  8
0
100
AcDbLine
 10
154.8508
 20
269.893
 30
0.0
 11
155.9068
 21
269.893
 31
0.0
  0
LINE
  5
4D
330
1D
100
AcDbEntity
  8
0
100
AcDbLine
 10
155.9068
 20
269.893
 30
0.0
 11
157.6228
 21
269.893
 31
0.0
  0
LINE
  5
4E
330
1D
100
AcDbEntity
  8
0
100
AcDbLine
 10
157.6228
 20
269.893
 30
0.0
 11
159.8668
 21
269.893
 31
0.0
  0
LINE
  5
4F
330
1D
100
AcDbEntity
  8
0
100
AcDbLine
 10
157.4028
 20
269.5084
 30
0.0
 11
159.7348
 21
269.5084
 31
0.0
  0
LINE
  5
50
330
1D
100
AcDbEntity
  8
0
100
AcDbLine
 10
154.1908
 20
299.893
 30
0.0
 11
160.1908
 21
299.893
 31
0.0
  0
LINE
  5
51
330
1D
100
AcDbEntity
  8
0
100
AcDbLine
 10
154.1908
 20
299.893
 30
0.0
 11
154.1908
 21
270.493
 31
0.0
  0
LINE
  5
52
330
1D
100
AcDbEntity
  8
0
100
AcDbLine
 10
151.1908
 20
299.893
 30
0.0
 11
151.1908
 21
318.893
 31
0.0
  0
LINE
  5
53
330
1D
100
AcDbEntity
  8
0
100
AcDbLine
 10
151.1908
 20
299.893
 30
0.0
 11
154.1908
 21
299.893
 31
0.0
  0
LINE
  5
54
330
1D
100
AcDbEntity
  8
0
100
AcDbLine
 10
151.1908
 20
299.893
 30
0.0
 11
165.1908
 21
299.893
 31
0.0
  0
LINE
  5
55
330
1D
100
AcDbEntity
  8
0
100
AcDbLine
 10
146.1158
 20
299.893
 30
0.0
 11
146.1908
 21
299.893
 31
0.0
  0
LINE
  5
56
330
1D
100
AcDbEntity
  8
0
100
AcDbLine
 10
146.0548
 20
299.893
 30
0.0
 11
146.1158
 21
299.893
 31
0.0
  0
LINE
  5
57
330
1D
100
AcDbEntity
  8
0
100
AcDbLine
 10
145.9188
 20
299.893
 30
0.0
 11
146.0548
 21
299.893
 31
0.0
  0
LINE
  5
58
330
1D
100
AcDbEntity
  8
0
100
AcDbLine
 10
145.7588
 20
299.893
 30
0.0
 11
145.9188
 21
299.893
 31
0.0
  0
LINE
  5
59
330
1D
100
AcDbEntity
  8
0
100
AcDbLine
 10
145.5688
 20
299.893
 30
0.0
 11
145.7588
 21
299.893
 31
0.0
  0
LINE
  5
5A
330
1D
100
AcDbEntity
  8
0
100
AcDbLine
 10
145.3248
 20
299.893
 30
0.0
 11
145.5688
 21
299.893
 31
0.0
  0
LINE
  5
5B
330
1D
100
AcDbEntity
  8
0
100
AcDbLine
 10
145.0818
 20
299.893
 30
0.0
 11
145.3248
 21
299.893
 31
0.0
  0
LINE
  5
5C
330
1D
100
AcDbEntity
  8
0
100
AcDbLine
 10
144.5958
 20
299.893
 30
0.0
 11
145.0818
 21
299.893
 31
0.0
  0
LINE
  5
5D
330
1D
100
AcDbEntity
  8
0
100
AcDbLine
 10
143.7438
 20
299.893
 30
0.0
 11
144.5958
 21
299.893
 31
0.0
  0
LINE
  5
5E
330
1D
100
AcDbEntity
  8
0
100
AcDbLine
 10
142.7098
 20
299.893
 30
0.0
 11
143.7438
 21
299.893
 31
0.0
  0
LINE
  5
5F
330
1D
100
AcDbEntity
  8
0
100
AcDbLine
 10
141.5548
 20
299.893
 30
0.0
 11
142.7098
 21
299.893
 31
0.0
  0
LINE
  5
60
330
1D
100
AcDbEntity
  8
0
100
AcDbLine
 10
140.2778
 20
299.893
 30
0.0
 11
141.5548
 21
299.893
 31
0.0
  0
LINE
  5
61
330
1D
100
AcDbEntity
  8
0
100
AcDbLine
 10
138.7908
 20
299.893
 30
0.0
 11
140.2778
 21
299.893
 31
0.0
  0
LINE
  5
62
330
1D
100
AcDbEntity
  8
0
100
AcDbLine
 10
135.3058
 20
299.893
 30
0.0
 11
137.0708
 21
299.893
 31
0.0
  0
LINE
  5
63
330
1D
100
AcDbEntity
  8
0
100
AcDbLine
 10
137.0708
 20
299.893
 30
0.0
 11
138.7908
 21
299.893
 31
0.0
  0
LINE
  5
64
330
1D
100
AcDbEntity
  8
0
100
AcDbLine
 10
82.1908
 20
299.893
 30
0.0
 11
92.1908
 21
299.893
 31
0.0
  0
LINE
  5
65
330
1D
100
AcDbEntity
  8
0
100
AcDbLine
 10
78.5922
 20
299.893
 30
0.0
 11
82.1908
 21
299.893
 31
0.0
  0
LINE
  5
66
330
1D
100
AcDbEntity
  8
0
100
AcDbLine
 10
74.8799
 20
299.893
 30
0.0
 11
78.5922
 21
299.893
 31
0.0
  0
LINE
  5
67
330
1D
100
AcDbEntity
  8
0
100
AcDbLine
 10
71.3141
 20
299.893
 30
0.0
 11
74.8799
 21
299.893
 31
0.0
  0
LINE
  5
68
330
1D
100
AcDbEntity
  8
0
100
AcDbLine
 10
68.2103
 20
299.893
 30
0.0
 11
71.3141
 21
299.893
 31
0.0
  0
LINE
  5
69
330
1D
100
AcDbEntity
  8
0
100
AcDbLine
 10
65.3251
 20
299.893
 30
0.0
 11
68.2103
 21
299.893
 31
0.0
  0
LINE
  5
6A
330
1D
100
AcDbEntity
  8
0
100
AcDbLine
 10
62.2214
 20
299.893
 30
0.0
 11
65.3251
 21
299.893
 31
0.0
  0
LINE
  5
6B
330
1D
100
AcDbEntity
  8
0
100
AcDbLine
 10
59.0567
 20
299.893
 30
0.0
 11
62.2214
 21
299.893
 31
0.0
  0
LINE
  5
6C
330
1D
100
AcDbEntity
  8
0
100
AcDbLine
 10
56.1355
 20
299.893
 30
0.0
 11
59.0567
 21
299.893
 31
0.0
  0
LINE
  5
6D
330
1D
100
AcDbEntity
  8
0
100
AcDbLine
 10
53.3361
 20
299.893
 30
0.0
 11
56.1355
 21
299.893
 31
0.0
  0
LINE
  5
6E
330
1D
100
AcDbEntity
  8
0
100
AcDbLine
 10
51.0234
 20
299.893
 30
0.0
 11
53.3361
 21
299.893
 31
0.0
  0
LINE
  5
6F
330
1D
100
AcDbEntity
  8
0
100
AcDbLine
 10
49.076
 20
299.893
 30
0.0
 11
51.0234
 21
299.893
 31
0.0
  0
LINE
  5
70
330
1D
100
AcDbEntity
  8
0
100
AcDbLine
 10
47.3111
 20
299.893
 30
0.0
 11
49.076
 21
299.893
 31
0.0
  0
LINE
  5
71
330
1D
100
AcDbEntity
  8
0
100
AcDbLine
 10
45.5908
 20
299.893
 30
0.0
 11
47.3111
 21
299.893
 31
0.0
  0
LINE
  5
72
330
1D
100
AcDbEntity
  8
0
100
AcDbLine
 10
42.827
 20
299.893
 30
0.0
 11
44.1041
 21
299.893
 31
0.0
  0
LINE
  5
73
330
1D
100
AcDbEntity
  8
0
100
AcDbLine
 10
38.2658
 20
319.893
 30
0.0
 11
38.3267
 21
319.893
 31
0.0
  0
LINE
  5
74
330
1D
100
AcDbEntity
  8
0
100
AcDbLine
 10
38.3267
 20
319.893
 30
0.0
 11
38.4624
 21
319.893
 31
0.0
  0
LINE
  5
75
330
1D
100
AcDbEntity
  8
0
100
AcDbLine
 10
38.4624
 20
319.893
 30
0.0
 11
38.6229
 21
319.893
 31
0.0
  0
LINE
  5
76
330
1D
100
AcDbEntity
  8
0
100
AcDbLine
 10
38.6229
 20
319.893
 30
0.0
 11
38.8132
 21
319.893
 31
0.0
  0
LINE
  5
77
330
1D
100
AcDbEntity
  8
0
100
AcDbLine
 10
38.8132
 20
319.893
 30
0.0
 11
39.0564
 21
319.893
 31
0.0
  0
LINE
  5
78
330
1D
100
AcDbEntity
  8
0
100
AcDbLine
 10
39.0564
 20
319.893
 30
0.0
 11
39.2997
 21
319.893
 31
0.0
  0
LINE
  5
79
330
1D
100
AcDbEntity
  8
0
100
AcDbLine
 10
39.2997
 20
319.893
 30
0.0
 11
39.7862
 21
319.893
 31
0.0
  0
LINE
  5
7A
330
1D
100
AcDbEntity
  8
0
100
AcDbLine
 10
39.7862
 20
319.893
 30
0.0
 11
40.6376
 21
319.893
 31
0.0
  0
LINE
  5
7B
330
1D
100
AcDbEntity
  8
0
100
AcDbLine
 10
40.6376
 20
319.893
 30
0.0
 11
41.6715
 21
319.893
 31
0.0
  0
LINE
  5
7C
330
1D
100
AcDbEntity
  8
0
100
AcDbLine
 10
41.6715
 20
319.893
 30
0.0
 11
42.827
 21
319.893
 31
0.0
  0
LINE
  5
7D
330
1D
100
AcDbEntity
  8
0
100
AcDbLine
 10
42.827
 20
319.893
 30
0.0
 11
44.1041
 21
319.893
 31
0.0
  0
LINE
  5
7E
330
1D
100
AcDbEntity
  8
0
100
AcDbLine
 10
44.1041
 20
319.893
 30
0.0
 11
45.5908
 21
319.893
 31
0.0
  0
LINE
  5
7F
330
1D
100
AcDbEntity
  8
0
100
AcDbLine
 10
82.1908
 20
319.893
 30
0.0
 11
92.1908
 21
319.893
 31
0.0
  0
LINE
  5
80
330
1D
100
AcDbEntity
  8
0
100
AcDbLine
 10
78.5922
 20
319.893
 30
0.0
 11
82.1908
 21
319.893
 31
0.0
  0
LINE
  5
81
330
1D
100
AcDbEntity
  8
0
100
AcDbLine
 10
74.8799
 20
319.893
 30
0.0
 11
78.5922
 21
319.893
 31
0.0
  0
LINE
  5
82
330
1D
100
AcDbEntity
  8
0
100
AcDbLine
 10
71.3141
 20
319.893
 30
0.0
 11
74.8799
 21
319.893
 31
0.0
  0
LINE
  5
83
330
1D
100
AcDbEntity
  8
0
100
AcDbLine
 10
68.2103
 20
319.893
 30
0.0
 11
71.3141
 21
319.893
 31
0.0
  0
LINE
  5
84
330
1D
100
AcDbEntity
  8
0
100
AcDbLine
 10
65.3251
 20
319.893
 30
0.0
 11
68.2103
 21
319.893
 31
0.0
  0
LINE
  5
85
330
1D
100
AcDbEntity
  8
0
100
AcDbLine
 10
62.2214
 20
319.893
 30
0.0
 11
65.3251
 21
319.893
 31
0.0
  0
LINE
  5
86
330
1D
100
AcDbEntity
  8
0
100
AcDbLine
 10
59.0567
 20
319.893
 30
0.0
 11
62.2214
 21
319.893
 31
0.0
  0
LINE
  5
87
330
1D
100
AcDbEntity
  8
0
100
AcDbLine
 10
56.1355
 20
319.893
 30
0.0
 11
59.0567
 21
319.893
 31
0.0
  0
LINE
  5
88
330
1D
100
AcDbEntity
  8
0
100
AcDbLine
 10
53.3361
 20
319.893
 30
0.0
 11
56.1355
 21
319.893
 31
0.0
  0
LINE
  5
89
330
1D
100
AcDbEntity
  8
0
100
AcDbLine
 10
51.0234
 20
319.893
 30
0.0
 11
53.3361
 21
319.893
 31
0.0
  0
LINE
  5
8A
330
1D
100
AcDbEntity
  8
0
100
AcDbLine
 10
49.076
 20
319.893
 30
0.0
 11
51.0234
 21
319.893
 31
0.0
  0
LINE
  5
8B
330
1D
100
AcDbEntity
  8
0
100
AcDbLine
 10
47.3111
 20
319.893
 30
0.0
 11
49.076
 21
319.893
 31
0.0
  0
LINE
  5
8C
330
1D
100
AcDbEntity
  8
0
100
AcDbLine
 10
45.5908
 20
319.893
 30
0.0
 11
47.3111
 21
319.893
 31
0.0
  0
LINE
  5
8D
330
1D
100
AcDbEntity
  8
0
100
AcDbLine
 10
92.1908
 20
319.893
 30
0.0
 11
102.1908
 21
319.893
 31
0.0
  0
LINE
  5
8E
330
1D
100
AcDbEntity
  8
0
100
AcDbLine
 10
102.1908
 20
319.893
 30
0.0
 11
105.7898
 21
319.893
 31
0.0
  0
LINE
  5
8F
330
1D
100
AcDbEntity
  8
0
100
AcDbLine
 10
105.7898
 20
319.893
 30
0.0
 11
109.5018
 21
319.893
 31
0.0
  0
LINE
  5
90
330
1D
100
AcDbEntity
  8
0
100
AcDbLine
 10
109.5018
 20
319.893
 30
0.0
 11
113.0678
 21
319.893
 31
0.0
  0
LINE
  5
91
330
1D
100
AcDbEntity
  8
0
100
AcDbLine
 10
113.0678
 20
319.893
 30
0.0
 11
116.1708
 21
319.893
 31
0.0
  0
LINE
  5
92
330
1D
100
AcDbEntity
  8
0
100
AcDbLine
 10
116.1708
 20
319.893
 30
0.0
 11
119.0568
 21
319.893
 31
0.0
  0
LINE
  5
93
330
1D
100
AcDbEntity
  8
0
100
AcDbLine
 10
119.0568
 20
319.893
 30
0.0
 11
122.1598
 21
319.893
 31
0.0
  0
LINE
  5
94
330
1D
100
AcDbEntity
  8
0
100
AcDbLine
 10
122.1598
 20
319.893
 30
0.0
 11
125.3248
 21
319.893
 31
0.0
  0
LINE
  5
95
330
1D
100
AcDbEntity
  8
0
100
AcDbLine
 10
125.3248
 20
319.893
 30
0.0
 11
128.2458
 21
319.893
 31
0.0
  0
LINE
  5
96
330
1D
100
AcDbEntity
  8
0
100
AcDbLine
 10
128.2458
 20
319.893
 30
0.0
 11
131.0458
 21
319.893
 31
0.0
  0
LINE
  5
97
330
1D
100
AcDbEntity
  8
0
100
AcDbLine
 10
131.0458
 20
319.893
 30
0.0
 11
133.3578
 21
319.893
 31
0.0
  0
LINE
  5
98
330
1D
100
AcDbEntity
  8
0
100
AcDbLine
 10
133.3578
 20
319.893
 30
0.0
 11
135.3058
 21
319.893
 31
0.0
  0
LINE
  5
99
330
1D
100
AcDbEntity
  8
0
100
AcDbLine
 10
135.3058
 20
319.893
 30
0.0
 11
137.0708
 21
319.893
 31
0.0
  0
LINE
  5
9A
330
1D
100
AcDbEntity
  8
0
100
AcDbLine
 10
137.0708
 20
319.893
 30
0.0
 11
138.7908
 21
319.893
 31
0.0
  0
LINE
  5
9B
330
1D
100
AcDbEntity
  8
0
100
AcDbLine
 10
151.1908
 20
317.893
 30
0.0
 11
165.1908
 21
317.893
 31
0.0
  0
LINE
  5
9C
330
1D
100
AcDbEntity
  8
0
100
AcDbLine
 10
146.11275
 20
318.893
 30
0.0
 11
151.1908
 21
318.893
 31
0.0
  0
LINE
  5
9E
330
1D
100
AcDbEntity
  8
0
100
AcDbLine
 10
151.1908
 20
318.893
 30
0.0
 11
151.1908
 21
299.893
 31
0.0
  0
LINE
  5
9F
330
1D
100
AcDbEntity
  8
0
100
AcDbLine
 10
146.1908
 20
319.893
 30
0.0
 11
146.1908
 21
318.893
 31
0.0
  0
LINE
  5
A0
330
1D
100
AcDbEntity
  8
0
100
AcDbLine
 10
146.1158
 20
319.893
 30
0.0
 11
146.1908
 21
319.893
 31
0.0
  0
LINE
  5
A1
330
1D
100
AcDbEntity
  8
0
100
AcDbLine
 10
146.1908
 20
318.893
 30
0.0
 11
146.1908
 21
319.893
 31
0.0
  0
LINE
  5
A2
330
1D
100
AcDbEntity
  8
0
100
AcDbLine
 10
146.0548
 20
319.893
 30
0.0
 11
146.1158
 21
319.893
 31
0.0
  0
LINE
  5
A3
330
1D
100
AcDbEntity
  8
0
100
AcDbLine
 10
145.9188
 20
319.893
 30
0.0
 11
146.0548
 21
319.893
 31
0.0
  0
LINE
  5
A4
330
1D
100
AcDbEntity
  8
0
100
AcDbLine
 10
145.7588
 20
319.893
 30
0.0
 11
145.9188
 21
319.893
 31
0.0
  0
LINE
  5
A5
330
1D
100
AcDbEntity
  8
0
100
AcDbLine
 10
145.5688
 20
319.893
 30
0.0
 11
145.7588
 21
319.893
 31
0.0
  0
LINE
  5
A6
330
1D
100
AcDbEntity
  8
0
100
AcDbLine
 10
145.3248
 20
319.893
 30
0.0
 11
145.5688
 21
319.893
 31
0.0
  0
LINE
  5
A7
330
1D
100
AcDbEntity
  8
0
100
AcDbLine
 10
145.0818
 20
319.893
 30
0.0
 11
145.3248
 21
319.893
 31
0.0
  0
LINE
  5
A8
330
1D
100
AcDbEntity
  8
0
100
AcDbLine
 10
144.5958
 20
319.893
 30
0.0
 11
145.0818
 21
319.893
 31
0.0
  0
LINE
  5
A9
330
1D
100
AcDbEntity
  8
0
100
AcDbLine
 10
143.7438
 20
319.893
 30
0.0
 11
144.5958
 21
319.893
 31
0.0
  0
LINE
  5
AA
330
1D
100
AcDbEntity
  8
0
100
AcDbLine
 10
142.7098
 20
319.893
 30
0.0
 11
143.7438
 21
319.893
 31
0.0
  0
LINE
  5
AB
330
1D
100
AcDbEntity
  8
0
100
AcDbLine
 10
141.5548
 20
319.893
 30
0.0
 11
142.7098
 21
319.893
 31
0.0
  0
LINE
  5
AC
330
1D
100
AcDbEntity
  8
0
100
AcDbLine
 10
140.2778
 20
319.893
 30
0.0
 11
141.5548
 21
319.893
 31
0.0
  0
LINE
  5
F5
330
1D
100
AcDbEntity
  8
0
100
AcDbLine
 10
138.7908
 20
319.893
 30
0.0
 11
140.2778
 21
319.893
 31
0.0
  0
LINE
  5
F6
330
1D
100
AcDbEntity
  8
0
100
AcDbLine
 10
44.1041
 20
299.893
 30
0.0
 11
45.5908
 21
299.893
 31
0.0
  0
LINE
  5
F7
330
1D
100
AcDbEntity
  8
0
100
AcDbLine
 10
38.1908
 20
319.893
 30
0.0
 11
38.1908
 21
299.893
 31
0.0
  0
LINE
  5
F8
330
1D
100
AcDbEntity
  8
0
100
AcDbLine
 10
38.1908
 20
319.893
 30
0.0
 11
38.2658
 21
319.893
 31
0.0
  0
LINE
  5
70B
330
1D
100
AcDbEntity
  8
0
100
AcDbLine
 10
154.1908
 20
957.508
 30
0.0
 11
154.5868
 21
957.508
 31
0.0
  0
LINE
  5
70C
330
1D
100
AcDbEntity
  8
0
100
AcDbLine
 10
154.1908
 20
957.508
 30
0.0
 11
154.4548
 21
957.893
 31
0.0
  0
LINE
  5
70D
330
1D
100
AcDbEntity
  8
0
100
AcDbLine
 10
154.5868
 20
957.508
 30
0.0
 11
155.6428
 21
957.508
 31
0.0
  0
LINE
  5
70E
330
1D
100
AcDbEntity
  8
0
100
AcDbLine
 10
154.4548
 20
957.893
 30
0.0
 11
154.8508
 21
957.893
 31
0.0
  0
LINE
  5
70F
330
1D
100
AcDbEntity
  8
0
100
AcDbLine
 10
154.8508
 20
957.893
 30
0.0
 11
155.9068
 21
957.893
 31
0.0
  0
LINE
  5
710
330
1D
100
AcDbEntity
  8
0
100
AcDbLine
 10
155.9068
 20
957.893
 30
0.0
 11
157.6228
 21
957.893
 31
0.0
  0
LINE
  5
711
330
1D
100
AcDbEntity
  8
0
100
AcDbLine
 10
155.6428
 20
957.508
 30
0.0
 11
157.4028
 21
957.508
 31
0.0
  0
LINE
  5
712
330
1D
100
AcDbEntity
  8
0
100
AcDbLine
 10
157.4028
 20
957.508
 30
0.0
 11
159.7348
 21
957.508
 31
0.0
  0
LINE
  5
714
330
1D
100
AcDbEntity
  8
0
100
AcDbLine
 10
157.6228
 20
957.893
 30
0.0
 11
159.8668
 21
957.893
 31
0.0
  0
LINE
  5
71A
330
1D
100
AcDbEntity
  8
0
100
AcDbLine
 10
159.7348
 20
200.277615
 30
0.0
 11
162.3748
 21
200.277615
 31
0.0
  0
LINE
  5
71B
330
1D
100
AcDbEntity
  8
0
100
AcDbLine
 10
159.8668
 20
199.893
 30
0.0
 11
162.4188
 21
199.893
 31
0.0
  0
LINE
  5
71C
330
1D
100
AcDbEntity
  8
0
100
AcDbLine
 10
165.1908
 20
199.893
 30
0.0
 11
167.9628
 21
199.893
 31
0.0
  0
LINE
  5
71D
330
1D
100
AcDbEntity
  8
0
100
AcDbLine
 10
165.1908
 20
200.277615
 30
0.0
 11
168.0068
 21
200.277615
 31
0.0
  0
LINE
  5
71E
330
1D
100
AcDbEntity
  8
0
100
AcDbLine
 10
162.4188
 20
199.893
 30
0.0
 11
165.1908
 21
199.893
 31
0.0
  0
LINE
  5
71F
330
1D
100
AcDbEntity
  8
0
100
AcDbLine
 10
162.3748
 20
200.277615
 30
0.0
 11
165.1908
 21
200.277615
 31
0.0
  0
LINE
  5
720
330
1D
100
AcDbEntity
  8
0
100
AcDbLine
 10
165.1908
 20
269.5084
 30
0.0
 11
168.0068
 21
269.5084
 31
0.0
  0
LINE
  5
721
330
1D
100
AcDbEntity
  8
0
100
AcDbLine
 10
159.7348
 20
269.5084
 30
0.0
 11
162.3748
 21
269.5084
 31
0.0
  0
LINE
  5
722
330
1D
100
AcDbEntity
  8
0
100
AcDbLine
 10
159.8668
 20
269.893
 30
0.0
 11
162.4188
 21
269.893
 31
0.0
  0
LINE
  5
723
330
1D
100
AcDbEntity
  8
0
100
AcDbLine
 10
165.1908
 20
269.893
 30
0.0
 11
167.9628
 21
269.893
 31
0.0
  0
LINE
  5
724
330
1D
100
AcDbEntity
  8
0
100
AcDbLine
 10
162.4188
 20
269.893
 30
0.0
 11
165.1908
 21
269.893
 31
0.0
  0
LINE
  5
725
330
1D
100
AcDbEntity
  8
0
100
AcDbLine
 10
162.3748
 20
269.5084
 30
0.0
 11
165.1908
 21
269.5084
 31
0.0
  0
LINE
  5
726
330
1D
100
AcDbEntity
  8
0
100
AcDbLine
 10
167.9628
 20
199.893
 30
0.0
 11
170.5148
 21
199.893
 31
0.0
  0
LINE
  5
727
330
1D
100
AcDbEntity
  8
0
100
AcDbLine
 10
170.5148
 20
199.893
 30
0.0
 11
172.7588
 21
199.893
 31
0.0
  0
LINE
  5
728
330
1D
100
AcDbEntity
  8
0
100
AcDbLine
 10
170.6468
 20
200.277615
 30
0.0
 11
172.9788
 21
200.277615
 31
0.0
  0
LINE
  5
729
330
1D
100
AcDbEntity
  8
0
100
AcDbLine
 10
168.0068
 20
200.277615
 30
0.0
 11
170.6468
 21
200.277615
 31
0.0
  0
LINE
  5
72A
330
1D
100
AcDbEntity
  8
0
100
AcDbLine
 10
168.0068
 20
269.5084
 30
0.0
 11
170.6468
 21
269.5084
 31
0.0
  0
LINE
  5
72B
330
1D
100
AcDbEntity
  8
0
100
AcDbLine
 10
167.9628
 20
269.893
 30
0.0
 11
189.838643695392
 21
269.893
 31
0.0
  0
LINE
  5
72C
330
1D
100
AcDbEntity
  8
0
100
AcDbLine
 10
169.708133532474
 20
224.893
 30
0.0
 11
189.873305242343
 21
224.893
 31
0.0
  0
LINE
  5
72D
330
1D
100
AcDbEntity
  8
0
100
AcDbLine
 10
170.6468
 20
299.893
 30
0.0
 11
172.9788
 21
299.893
 31
0.0
  0
LINE
  5
72E
330
1D
100
AcDbEntity
  8
0
100
AcDbLine
 10
168.0068
 20
299.893
 30
0.0
 11
170.6468
 21
299.893
 31
0.0
  0
LINE
  5
72F
330
1D
100
AcDbEntity
  8
0
100
AcDbLine
 10
172.7588
 20
199.893
 30
0.0
 11
174.4748
 21
199.893
 31
0.0
  0
LINE
  5
730
330
1D
100
AcDbEntity
  8
0
100
AcDbLine
 10
172.9788
 20
200.277615
 30
0.0
 11
174.7388
 21
200.277615
 31
0.0
  0
LINE
  5
731
330
1D
100
AcDbEntity
  8
0
100
AcDbLine
 10
175.5308
 20
199.893
 30
0.0
 11
175.9268
 21
199.893
 31
0.0
  0
LINE
  5
732
330
1D
100
AcDbEntity
  8
0
100
AcDbLine
 10
174.4748
 20
199.893
 30
0.0
 11
175.5308
 21
199.893
 31
0.0
  0
LINE
  5
733
330
1D
100
AcDbEntity
  8
0
100
AcDbLine
 10
175.7948
 20
200.277615
 30
0.0
 11
176.1908
 21
200.277615
 31
0.0
  0
LINE
  5
734
330
1D
100
AcDbEntity
  8
0
100
AcDbLine
 10
174.7388
 20
200.277615
 30
0.0
 11
175.7948
 21
200.277615
 31
0.0
  0
LINE
  5
735
330
1D
100
AcDbEntity
  8
0
100
AcDbLine
 10
175.9268
 20
199.893
 30
0.0
 11
176.1908
 21
200.277615
 31
0.0
  0
LINE
  5
736
330
1D
100
AcDbEntity
  8
0
100
AcDbLine
 10
176.1908
 20
200.277615
 30
0.0
 11
176.1908
 21
224.893
 31
0.0
  0
LINE
  5
737
330
1D
100
AcDbEntity
  8
0
100
AcDbLine
 10
176.1908
 20
270.493
 30
0.0
 11
176.1908
 21
299.893
 31
0.0
  0
LINE
  5
738
330
1D
100
AcDbEntity
  8
0
100
AcDbLine
 10
175.9268
 20
269.893
 30
0.0
 11
176.1908
 21
270.493
 31
0.0
  0
LINE
  5
739
330
1D
100
AcDbEntity
  8
0
100
AcDbLine
 10
176.1908
 20
224.893
 30
0.0
 11
189.873305242343
 21
224.893
 31
0.0
  0
LINE
  5
73A
330
1D
100
AcDbEntity
  8
0
100
AcDbLine
 10
176.1908
 20
224.893
 30
0.0
 11
176.1908
 21
200.277615
 31
0.0
  0
LINE
  5
73B
330
1D
100
AcDbEntity
  8
0
100
AcDbLine
 10
175.7948
 20
299.893
 30
0.0
 11
176.1908
 21
299.893
 31
0.0
  0
LINE
  5
73C
330
1D
100
AcDbEntity
  8
0
100
AcDbLine
 10
174.7388
 20
299.893
 30
0.0
 11
175.7948
 21
299.893
 31
0.0
  0
LINE
  5
73D
330
1D
100
AcDbEntity
  8
0
100
AcDbLine
 10
172.9788
 20
299.893
 30
0.0
 11
174.7388
 21
299.893
 31
0.0
  0
LINE
  5
73E
330
1D
100
AcDbEntity
  8
0
100
AcDbLine
 10
174.3948
 20
299.893
 30
0.0
 11
176.4748
 21
299.893
 31
0.0
  0
LINE
  5
73F
330
1D
100
AcDbEntity
  8
0
100
AcDbLine
 10
171.6388
 20
299.893
 30
0.0
 11
174.3948
 21
299.893
 31
0.0
  0
LINE
  5
740
330
1D
100
AcDbEntity
  8
0
100
AcDbLine
 10
168.5188
 20
299.893
 30
0.0
 11
171.6388
 21
299.893
 31
0.0
  0
LINE
  5
741
330
1D
100
AcDbEntity
  8
0
100
AcDbLine
 10
165.1908
 20
299.893
 30
0.0
 11
168.5188
 21
299.893
 31
0.0
  0
LINE
  5
742
330
1D
100
AcDbEntity
  8
0
100
AcDbLine
 10
165.1908
 20
299.893
 30
0.0
 11
168.0068
 21
299.893
 31
0.0
  0
LINE
  5
74C
330
1D
100
AcDbEntity
  8
0
100
AcDbLine
 10
174.3948
 20
317.893
 30
0.0
 11
176.4748
 21
317.893
 31
0.0
  0
LINE
  5
74D
330
1D
100
AcDbEntity
  8
0
100
AcDbLine
 10
171.6388
 20
317.893
 30
0.0
 11
174.3948
 21
317.893
 31
0.0
  0
LINE
  5
75D
330
1D
100
AcDbEntity
  8
0
100
AcDbLine
 10
168.5188
 20
317.893
 30
0.0
 11
171.6388
 21
317.893
 31
0.0
  0
LINE
  5
75E
330
1D
100
AcDbEntity
  8
0
100
AcDbLine
 10
165.1908
 20
317.893
 30
0.0
 11
168.5188
 21
317.893
 31
0.0
  0
LINE
  5
75F
330
1D
100
AcDbEntity
  8
0
100
AcDbLine
 10
160.1908
 20
299.893
 30
0.0
 11
165.1908
 21
299.893
 31
0.0
  0
LINE
  5
770
330
1D
100
AcDbEntity
  8
0
100
AcDbLine
 10
178.1908
 20
299.893
 30
0.0
 11
178.1908
 21
317.893
 31
0.0
  0
LINE
  5
771
330
1D
100
AcDbEntity
  8
0
100
AcDbLine
 10
177.7228
 20
299.893
 30
0.0
 11
178.1908
 21
299.893
 31
0.0
  0
LINE
  5
772
330
1D
100
AcDbEntity
  8
0
100
AcDbLine
 10
177.7228
 20
317.893
 30
0.0
 11
178.1908
 21
317.893
 31
0.0
  0
LINE
  5
77F
330
1D
100
AcDbEntity
  8
0
100
AcDbLine
 10
176.4748
 20
317.893
 30
0.0
 11
177.7228
 21
317.893
 31
0.0
  0
LINE
  5
797
330
1D
100
AcDbEntity
  8
0
100
AcDbLine
 10
178.1908
 20
317.893
 30
0.0
 11
178.1908
 21
299.893
 31
0.0
  0
LINE
  5
798
330
1D
100
AcDbEntity
  8
0
100
AcDbLine
 10
176.4748
 20
299.893
 30
0.0
 11
177.7228
 21
299.893
 31
0.0
  0
LINE
  5
799
330
1D
100
AcDbEntity
  8
0
100
AcDbLine
 10
176.1908
 20
299.893
 30
0.0
 11
176.4748
 21
299.893
 31
0.0
  0
LINE
  5
79A
330
1D
100
AcDbEntity
  8
0
100
AcDbLine
 10
176.1908
 20
299.893
 30
0.0
 11
176.1908
 21
270.493
 31
0.0
  0
LINE
  5
79B
330
1D
100
AcDbEntity
  8
0
100
AcDbLine
 10
159.7348
 20
957.508
 30
0.0
 11
162.3748
 21
957.508
 31
0.0
  0
LINE
  5
79C
330
1D
100
AcDbEntity
  8
0
100
AcDbLine
 10
159.8668
 20
957.893
 30
0.0
 11
162.4188
 21
957.893
 31
0.0
  0
LINE
  5
7AD
330
1D
100
AcDbEntity
  8
0
100
AcDbLine
 10
165.1908
 20
957.893
 30
0.0
 11
167.9628
 21
957.893
 31
0.0
  0
LINE
  5
7B1
330
1D
100
AcDbEntity
  8
0
100
AcDbLine
 10
175.7948
 20
957.508
 30
0.0
 11
176.1908
 21
957.508
 31
0.0
  0
LINE
  5
7B3
330
1D
100
AcDbEntity
  8
0
100
AcDbLine
 10
174.7388
 20
957.508
 30
0.0
 11
175.7948
 21
957.508
 31
0.0
  0
LINE
  5
7B4
330
1D
100
AcDbEntity
  8
0
100
AcDbLine
 10
172.9788
 20
957.508
 30
0.0
 11
174.7388
 21
957.508
 31
0.0
  0
LINE
  5
7B5
330
1D
100
AcDbEntity
  8
0
100
AcDbLine
 10
170.6468
 20
957.508
 30
0.0
 11
172.9788
 21
957.508
 31
0.0
  0
LINE
  5
7B6
330
1D
100
AcDbEntity
  8
0
100
AcDbLine
 10
175.9268
 20
957.893
 30
0.0
 11
176.1908
 21
957.508
 31
0.0
  0
LINE
  5
7B7
330
1D
100
AcDbEntity
  8
0
100
AcDbLine
 10
175.5308
 20
957.893
 30
0.0
 11
175.9268
 21
957.893
 31
0.0
  0
LINE
  5
7B8
330
1D
100
AcDbEntity
  8
0
100
AcDbLine
 10
174.4748
 20
957.893
 30
0.0
 11
175.5308
 21
957.893
 31
0.0
  0
LINE
  5
7B9
330
1D
100
AcDbEntity
  8
0
100
AcDbLine
 10
172.7588
 20
957.893
 30
0.0
 11
174.4748
 21
957.893
 31
0.0
  0
LINE
  5
7BA
330
1D
100
AcDbEntity
  8
0
100
AcDbLine
 10
170.5148
 20
957.893
 30
0.0
 11
172.7588
 21
957.893
 31
0.0
  0
LINE
  5
7BB
330
1D
100
AcDbEntity
  8
0
100
AcDbLine
 10
167.9628
 20
957.893
 30
0.0
 11
170.5148
 21
957.893
 31
0.0
  0
LINE
  5
7BC
330
1D
100
AcDbEntity
  8
0
100
AcDbLine
 10
168.0068
 20
957.508
 30
0.0
 11
170.6468
 21
957.508
 31
0.0
  0
LINE
  5
7BD
330
1D
100
AcDbEntity
  8
0
100
AcDbLine
 10
165.1908
 20
957.508
 30
0.0
 11
168.0068
 21
957.508
 31
0.0
  0
LINE
  5
7BE
330
1D
100
AcDbEntity
  8
0
100
AcDbLine
 10
162.4188
 20
957.893
 30
0.0
 11
165.1908
 21
957.893
 31
0.0
  0
LINE
  5
7BF
330
1D
100
AcDbEntity
  8
0
100
AcDbLine
 10
162.3748
 20
957.508
 30
0.0
 11
165.1908
 21
957.508
 31
0.0
  0
LINE
  5
F27
330
1D
100
AcDbEntity
  8
0
100
AcDbLine
 10
139.2588
 20
646.872
 30
0.0
 11
155.5578
 21
621.64
 31
0.0
  0
LINE
  5
F28
330
1D
100
AcDbEntity
  8
0
100
AcDbLine
 10
139.2588
 20
646.872
 30
0.0
 11
139.6058
 21
647.071
 31
0.0
  0
LINE
  5
F29
330
1D
100
AcDbEntity
  8
0
100
AcDbLine
 10
139.6058
 20
647.071
 30
0.0
 11
140.5578
 21
647.622
 31
0.0
  0
LINE
  5
F57
330
1D
100
AcDbEntity
  8
0
100
AcDbLine
 10
154.1908
 20
317.893
 30
0.0
 11
154.1908
 21
623.756212282962
 31
0.0
  0
LINE
  5
F58
330
1D
100
AcDbEntity
  8
0
100
AcDbLine
 10
154.1908
 20
317.893
 30
0.0
 11
154.1908
 21
623.756212282962
 31
0.0
  0
LINE
  5
F5A
330
1D
100
AcDbEntity
  8
0
100
AcDbLine
 10
149.5748
 20
610.893
 30
0.0
 11
150.1508
 21
606.861
 31
0.0
  0
LINE
  5
F5B
330
1D
100
AcDbEntity
  8
0
100
AcDbLine
 10
149.5748
 20
610.893
 30
0.0
 11
150.1508
 21
614.925
 31
0.0
  0
LINE
  5
F5C
330
1D
100
AcDbEntity
  8
0
100
AcDbLine
 10
150.1508
 20
614.925
 30
0.0
 11
151.6868
 21
618.637
 31
0.0
  0
LINE
  5
F5D
330
1D
100
AcDbEntity
  8
0
100
AcDbLine
 10
151.6868
 20
618.637
 30
0.0
 11
154.1828
 21
621.901
 31
0.0
  0
LINE
  5
F5E
330
1D
100
AcDbEntity
  8
0
100
AcDbLine
 10
150.1508
 20
606.861
 30
0.0
 11
151.6868
 21
603.149
 31
0.0
  0
LINE
  5
F5F
330
1D
100
AcDbEntity
  8
0
100
AcDbLine
 10
151.6868
 20
603.149
 30
0.0
 11
154.1828
 21
599.885
 31
0.0
  0
LINE
  5
F64
330
1D
100
AcDbEntity
  8
0
100
AcDbLine
 10
158.7638
 20
617.625
 30
0.0
 11
161.1018
 21
618.975
 31
0.0
  0
LINE
  5
F65
330
1D
100
AcDbEntity
  8
0
100
AcDbLine
 10
158.696512050104
 20
617.741546574245
 30
0.0
 11
166.2418
 21
600.147
 31
0.0
  0
LINE
  5
F66
330
1D
100
AcDbEntity
  8
0
100
AcDbLine
 10
158.696512050104
 20
617.741546574245
 30
0.0
 11
166.2418
 21
600.147
 31
0.0
  0
LINE
  5
F67
330
1D
100
AcDbEntity
  8
0
100
AcDbLine
 10
155.5578
 20
621.64
 30
0.0
 11
155.9048
 21
621.841
 31
0.0
  0
LINE
  5
F68
330
1D
100
AcDbEntity
  8
0
100
AcDbLine
 10
142.2038
 20
648.571
 30
0.0
 11
144.2818
 21
649.771
 31
0.0
  0
LINE
  5
F69
330
1D
100
AcDbEntity
  8
0
100
AcDbLine
 10
144.2818
 20
649.771
 30
0.0
 11
146.6208
 21
651.122
 31
0.0
  0
LINE
  5
F6A
330
1D
100
AcDbEntity
  8
0
100
AcDbLine
 10
156.223609364981
 20
622.024755333603
 30
0.0
 11
158.696512050104
 21
617.741546574245
 31
0.0
  0
LINE
  5
F6B
330
1D
100
AcDbEntity
  8
0
100
AcDbLine
 10
154.1908
 20
672.956346785398
 30
0.0
 11
154.1908
 21
887.293
 31
0.0
  0
LINE
  5
F6C
330
1D
100
AcDbEntity
  8
0
100
AcDbLine
 10
154.8598
 20
655.786
 30
0.0
 11
157.1988
 21
657.136
 31
0.0
  0
LINE
  5
F6D
330
1D
100
AcDbEntity
  8
0
100
AcDbLine
 10
157.1988
 20
657.136
 30
0.0
 11
159.0178
 21
658.186
 31
0.0
  0
LINE
  5
F6E
330
1D
100
AcDbEntity
  8
0
100
AcDbLine
 10
151.8168
 20
654.122
 30
0.0
 11
154.1548
 21
655.471
 31
0.0
  0
LINE
  5
F6F
330
1D
100
AcDbEntity
  8
0
100
AcDbLine
 10
149.2188
 20
652.622
 30
0.0
 11
151.8168
 21
654.122
 31
0.0
  0
LINE
  5
F70
330
1D
100
AcDbEntity
  8
0
100
AcDbLine
 10
146.6208
 20
651.122
 30
0.0
 11
149.2188
 21
652.622
 31
0.0
  0
LINE
  5
F71
330
1D
100
AcDbEntity
  8
0
100
AcDbLine
 10
155.9048
 20
621.841
 30
0.0
 11
156.223609364981
 21
622.024755333603
 31
0.0
  0
LINE
  5
F72
330
1D
100
AcDbEntity
  8
0
100
AcDbLine
 10
140.5578
 20
647.622
 30
0.0
 11
141.71528471484
 21
648.289346898167
 31
0.0
  0
LINE
  5
F73
330
1D
100
AcDbEntity
  8
0
100
AcDbLine
 10
140.5578
 20
647.622
 30
0.0
 11
142.2038
 21
648.571
 31
0.0
  0
LINE
  5
F74
330
1D
100
AcDbEntity
  8
0
100
AcDbLine
 10
154.4548
 20
887.893
 30
0.0
 11
154.8508
 21
887.893
 31
0.0
  0
LINE
  5
F75
330
1D
100
AcDbEntity
  8
0
100
AcDbLine
 10
154.1908
 20
887.293
 30
0.0
 11
154.4548
 21
887.893
 31
0.0
  0
LINE
  5
F76
330
1D
100
AcDbEntity
  8
0
100
AcDbLine
 10
154.8508
 20
887.893
 30
0.0
 11
155.9068
 21
887.893
 31
0.0
  0
LINE
  5
F77
330
1D
100
AcDbEntity
  8
0
100
AcDbLine
 10
154.1908
 20
888.278
 30
0.0
 11
154.4548
 21
887.893
 31
0.0
  0
LINE
  5
F78
330
1D
100
AcDbEntity
  8
0
100
AcDbLine
 10
154.1908
 20
888.278
 30
0.0
 11
154.1908
 21
957.513
 31
0.0
  0
LINE
  5
F79
330
1D
100
AcDbEntity
  8
0
100
AcDbLine
 10
154.1908
 20
957.513
 30
0.0
 11
154.1908
 21
888.278
 31
0.0
  0
LINE
  5
F7A
330
1D
100
AcDbEntity
  8
0
100
AcDbLine
 10
154.1908
 20
957.513
 30
0.0
 11
154.4548
 21
957.893
 31
0.0
  0
LINE
  5
F7B
330
1D
100
AcDbEntity
  8
0
100
AcDbLine
 10
154.4548
 20
957.893
 30
0.0
 11
154.8508
 21
957.893
 31
0.0
  0
LINE
  5
F7C
330
1D
100
AcDbEntity
  8
0
100
AcDbLine
 10
154.8508
 20
957.893
 30
0.0
 11
155.9068
 21
957.893
 31
0.0
  0
LINE
  5
F7D
330
1D
100
AcDbEntity
  8
0
100
AcDbLine
 10
155.9068
 20
957.893
 30
0.0
 11
157.6228
 21
957.893
 31
0.0
  0
LINE
  5
F7E
330
1D
100
AcDbEntity
  8
0
100
AcDbLine
 10
157.6228
 20
957.893
 30
0.0
 11
159.8668
 21
957.893
 31
0.0
  0
LINE
  5
F7F
330
1D
100
AcDbEntity
  8
0
100
AcDbLine
 10
155.9068
 20
887.893
 30
0.0
 11
157.6228
 21
887.893
 31
0.0
  0
LINE
  5
F80
330
1D
100
AcDbEntity
  8
0
100
AcDbLine
 10
157.6228
 20
887.893
 30
0.0
 11
159.8668
 21
887.893
 31
0.0
  0
LINE
  5
F81
330
1D
100
AcDbEntity
  8
0
100
AcDbLine
 10
159.0178
 20
658.186
 30
0.0
 11
160.0568
 21
658.786
 31
0.0
  0
LINE
  5
F8C
330
1D
100
AcDbEntity
  8
0
100
AcDbLine
 10
166.2418
 20
600.147
 30
0.0
 11
174.1428
 21
577.351
 31
0.0
  0
LINE
  5
FAE
330
1D
100
AcDbEntity
  8
0
100
AcDbLine
 10
176.1908
 20
317.893
 30
0.0
 11
176.1908
 21
569.29212
 31
0.0
  0
LINE
  5
FB0
330
1D
100
AcDbEntity
  8
0
100
AcDbLine
 10
189.6418
 20
475.449
 30
0.0
 11
190.0438
 21
-46.45541
 31
0.0
  0
LINE
  5
FB1
330
1D
100
AcDbEntity
  8
0
100
AcDbLine
 10
189.6418
 20
475.449
 30
0.0
 11
190.0438
 21
-46.45541
 31
0.0
  0
LINE
  5
FB2
330
1D
100
AcDbEntity
  8
0
100
AcDbLine
 10
198.9598
 20
-49.892914
 30
0.0
 11
201.8658
 21
-49.384614
 31
0.0
  0
LINE
  5
FB3
330
1D
100
AcDbEntity
  8
0
100
AcDbLine
 10
204.2578
 20
-48.43361
 30
0.0
 11
205.6868
 21
-47.05981
 31
0.0
  0
LINE
  5
FB4
330
1D
100
AcDbEntity
  8
0
100
AcDbLine
 10
201.8658
 20
-49.384614
 30
0.0
 11
204.2578
 21
-48.43361
 31
0.0
  0
LINE
  5
FB5
330
1D
100
AcDbEntity
  8
0
100
AcDbLine
 10
195.8168
 20
-49.764014
 30
0.0
 11
198.9598
 21
-49.892914
 31
0.0
  0
LINE
  5
FB6
330
1D
100
AcDbEntity
  8
0
100
AcDbLine
 10
193.0178
 20
-49.06131
 30
0.0
 11
195.8168
 21
-49.764014
 31
0.0
  0
LINE
  5
FB7
330
1D
100
AcDbEntity
  8
0
100
AcDbLine
 10
204.9198
 20
-44.09041
 30
0.0
 11
205.9498
 21
-45.51801
 31
0.0
  0
LINE
  5
FB8
330
1D
100
AcDbEntity
  8
0
100
AcDbLine
 10
202.9838
 20
-42.91431
 30
0.0
 11
204.9198
 21
-44.09041
 31
0.0
  0
LINE
  5
FB9
330
1D
100
AcDbEntity
  8
0
100
AcDbLine
 10
200.1898
 20
-42.21051
 30
0.0
 11
202.9838
 21
-42.91431
 31
0.0
  0
LINE
  5
FBA
330
1D
100
AcDbEntity
  8
0
100
AcDbLine
 10
197.0468
 20
-42.07941
 30
0.0
 11
200.1898
 21
-42.21051
 31
0.0
  0
LINE
  5
FBB
330
1D
100
AcDbEntity
  8
0
100
AcDbLine
 10
194.1368
 20
-42.58461
 30
0.0
 11
197.0468
 21
-42.07941
 31
0.0
  0
LINE
  5
FBC
330
1D
100
AcDbEntity
  8
0
100
AcDbLine
 10
191.7418
 20
-43.53671
 30
0.0
 11
194.1368
 21
-42.58461
 31
0.0
  0
LINE
  5
FBD
330
1D
100
AcDbEntity
  8
0
100
AcDbLine
 10
190.3088
 20
-44.91041
 30
0.0
 11
191.7418
 21
-43.53671
 31
0.0
  0
LINE
  5
FBE
330
1D
100
AcDbEntity
  8
0
100
AcDbLine
 10
205.6418
 20
475.453
 30
0.0
 11
205.9498
 21
-45.51801
 31
0.0
  0
LINE
  5
FBF
330
1D
100
AcDbEntity
  8
0
100
AcDbLine
 10
205.6418
 20
475.453
 30
0.0
 11
205.9498
 21
-45.51801
 31
0.0
  0
LINE
  5
FC0
330
1D
100
AcDbEntity
  8
0
100
AcDbLine
 10
205.6868
 20
-47.05981
 30
0.0
 11
205.9498
 21
-45.51801
 31
0.0
  0
LINE
  5
FC1
330
1D
100
AcDbEntity
  8
0
100
AcDbLine
 10
191.0778
 20
-47.88511
 30
0.0
 11
193.0178
 21
-49.06131
 31
0.0
  0
LINE
  5
FC2
330
1D
100
AcDbEntity
  8
0
100
AcDbLine
 10
190.0438
 20
-46.45541
 30
0.0
 11
191.0778
 21
-47.88511
 31
0.0
  0
LINE
  5
FC3
330
1D
100
AcDbEntity
  8
0
100
AcDbLine
 10
190.0438
 20
-46.45541
 30
0.0
 11
190.3088
 21
-44.91041
 31
0.0
  0
LINE
  5
FC4
330
1D
100
AcDbEntity
  8
0
100
AcDbLine
 10
203.6418
 20
509.854
 30
0.0
 11
205.6418
 21
475.453
 31
0.0
  0
LINE
  5
FC5
330
1D
100
AcDbEntity
  8
0
100
AcDbLine
 10
187.8408
 20
507.05
 30
0.0
 11
189.6418
 21
475.449
 31
0.0
  0
LINE
  5
FC6
330
1D
100
AcDbEntity
  8
0
100
AcDbLine
 10
199.9418
 20
534.252
 30
0.0
 11
203.6418
 21
509.854
 31
0.0
  0
LINE
  5
FC7
330
1D
100
AcDbEntity
  8
0
100
AcDbLine
 10
184.9418
 20
528.747
 30
0.0
 11
187.8408
 21
507.05
 31
0.0
  0
LINE
  5
FC8
330
1D
100
AcDbEntity
  8
0
100
AcDbLine
 10
194.8418
 20
559.649
 30
0.0
 11
199.9418
 21
534.252
 31
0.0
  0
LINE
  5
FC9
330
1D
100
AcDbEntity
  8
0
100
AcDbLine
 10
180.3428
 20
552.954
 30
0.0
 11
184.9418
 21
528.747
 31
0.0
  0
LINE
  5
FCA
330
1D
100
AcDbEntity
  8
0
100
AcDbLine
 10
188.0418
 20
585.357
 30
0.0
 11
194.8418
 21
559.649
 31
0.0
  0
LINE
  5
FCB
330
1D
100
AcDbEntity
  8
0
100
AcDbLine
 10
174.1428
 20
577.351
 30
0.0
 11
180.3428
 21
552.954
 31
0.0
  0
LINE
  5
FCC
330
1D
100
AcDbEntity
  8
0
100
AcDbLine
 10
161.1018
 20
618.975
 30
0.0
 11
163.7868
 21
620.525
 31
0.0
  0
LINE
  5
FCD
330
1D
100
AcDbEntity
  8
0
100
AcDbLine
 10
169.6758
 20
623.925
 30
0.0
 11
172.3598
 21
625.475
 31
0.0
  0
LINE
  5
FCE
330
1D
100
AcDbEntity
  8
0
100
AcDbLine
 10
166.7308
 20
622.225
 30
0.0
 11
169.6758
 21
623.925
 31
0.0
  0
LINE
  5
FCF
330
1D
100
AcDbEntity
  8
0
100
AcDbLine
 10
163.7868
 20
620.525
 30
0.0
 11
166.7308
 21
622.225
 31
0.0
  0
LINE
  5
FD0
330
1D
100
AcDbEntity
  8
0
100
AcDbLine
 10
160.0568
 20
658.786
 30
0.0
 11
160.4898
 21
659.036
 31
0.0
  0
LINE
  5
FD1
330
1D
100
AcDbEntity
  8
0
100
AcDbLine
 10
180.265375364609
 20
607.103027552261
 30
0.0
 11
180.8068
 21
610.893
 31
0.0
  0
LINE
  5
FD2
330
1D
100
AcDbEntity
  8
0
100
AcDbLine
 10
172.091400000098
 20
625.320000000057
 30
0.0
 11
172.719646153545
 21
625.682692307519
 31
0.0
  0
LINE
  5
FD3
330
1D
100
AcDbEntity
  8
0
100
AcDbLine
 10
172.091400000098
 20
625.320000000057
 30
0.0
 11
172.719646153544
 21
625.682692307518
 31
0.0
  0
LINE
  5
FD4
330
1D
100
AcDbEntity
  8
0
100
AcDbLine
 10
174.406425000588
 20
626.656250000339
 30
0.0
 11
174.9588
 21
626.975
 31
0.0
  0
LINE
  5
FD5
330
1D
100
AcDbEntity
  8
0
100
AcDbLine
 10
174.40642500059
 20
626.65625000034
 30
0.0
 11
174.9588
 21
626.975
 31
0.0
  0
LINE
  5
FD6
330
1D
100
AcDbEntity
  8
0
100
AcDbLine
 10
174.6988
 20
626.825
 30
0.0
 11
176.5178
 21
627.875
 31
0.0
  0
LINE
  5
FD7
330
1D
100
AcDbEntity
  8
0
100
AcDbLine
 10
172.3598
 20
625.475
 30
0.0
 11
174.6988
 21
626.825
 31
0.0
  0
LINE
  5
FD8
330
1D
100
AcDbEntity
  8
0
100
AcDbLine
 10
176.1908
 20
616.330818551991
 30
0.0
 11
176.1908
 21
627.686242440901
 31
0.0
  0
LINE
  5
FD9
330
1D
100
AcDbEntity
  8
0
100
AcDbLine
 10
176.1988
 20
621.901
 30
0.0
 11
178.6948
 21
618.637
 31
0.0
  0
LINE
  5
FDA
330
1D
100
AcDbEntity
  8
0
100
AcDbLine
 10
176.1908
 20
631.8409708
 30
0.0
 11
176.1908
 21
887.293
 31
0.0
  0
LINE
  5
FDB
330
1D
100
AcDbEntity
  8
0
100
AcDbLine
 10
176.1908
 20
627.686242440901
 30
0.0
 11
176.1908
 21
616.330818551991
 31
0.0
  0
LINE
  5
FDC
330
1D
100
AcDbEntity
  8
0
100
AcDbLine
 10
176.1908
 20
631.8409708
 30
0.0
 11
176.1908
 21
887.293
 31
0.0
  0
LINE
  5
FDD
330
1D
100
AcDbEntity
  8
0
100
AcDbLine
 10
174.9588
 20
626.975
 30
0.0
 11
175.608299999948
 21
627.34999999997
 31
0.0
  0
LINE
  5
FDE
330
1D
100
AcDbEntity
  8
0
100
AcDbLine
 10
174.9588
 20
626.975
 30
0.0
 11
175.608299999949
 21
627.34999999997
 31
0.0
  0
LINE
  5
FDF
330
1D
100
AcDbEntity
  8
0
100
AcDbLine
 10
178.6948
 20
618.637
 30
0.0
 11
180.2308
 21
614.925
 31
0.0
  0
LINE
  5
FE0
330
1D
100
AcDbEntity
  8
0
100
AcDbLine
 10
180.2308
 20
614.925
 30
0.0
 11
180.8068
 21
610.893
 31
0.0
  0
LINE
  5
FE1
330
1D
100
AcDbEntity
  8
0
100
AcDbLine
 10
177.5568
 20
628.475
 30
0.0
 11
177.9898
 21
628.725
 31
0.0
  0
LINE
  5
FE2
330
1D
100
AcDbEntity
  8
0
100
AcDbLine
 10
176.5178
 20
627.875
 30
0.0
 11
177.5568
 21
628.475
 31
0.0
  0
LINE
  5
FE3
330
1D
100
AcDbEntity
  8
0
100
AcDbLine
 10
179.6428
 20
608.844
 30
0.0
 11
188.0418
 21
585.357
 31
0.0
  0
LINE
  5
FE4
330
1D
100
AcDbEntity
  8
0
100
AcDbLine
 10
172.05562169029
 20
625.299338159445
 30
0.0
 11
179.6428
 21
608.844
 31
0.0
  0
LINE
  5
FE5
330
1D
100
AcDbEntity
  8
0
100
AcDbLine
 10
159.8668
 20
957.893
 30
0.0
 11
162.4188
 21
957.893
 31
0.0
  0
LINE
  5
FE6
330
1D
100
AcDbEntity
  8
0
100
AcDbLine
 10
159.8668
 20
887.893
 30
0.0
 11
162.4188
 21
887.893
 31
0.0
  0
LINE
  5
FE7
330
1D
100
AcDbEntity
  8
0
100
AcDbLine
 10
160.4898
 20
659.036
 30
0.0
 11
177.9898
 21
628.725
 31
0.0
  0
LINE
  5
FE8
330
1D
100
AcDbEntity
  8
0
100
AcDbLine
 10
175.5308
 20
887.893
 30
0.0
 11
175.9268
 21
887.893
 31
0.0
  0
LINE
  5
FE9
330
1D
100
AcDbEntity
  8
0
100
AcDbLine
 10
174.4748
 20
887.893
 30
0.0
 11
175.5308
 21
887.893
 31
0.0
  0
LINE
  5
FEA
330
1D
100
AcDbEntity
  8
0
100
AcDbLine
 10
172.7588
 20
887.893
 30
0.0
 11
174.4748
 21
887.893
 31
0.0
  0
LINE
  5
FEB
330
1D
100
AcDbEntity
  8
0
100
AcDbLine
 10
170.5148
 20
887.893
 30
0.0
 11
172.7588
 21
887.893
 31
0.0
  0
LINE
  5
FEC
330
1D
100
AcDbEntity
  8
0
100
AcDbLine
 10
167.9628
 20
887.893
 30
0.0
 11
170.5148
 21
887.893
 31
0.0
  0
LINE
  5
FED
330
1D
100
AcDbEntity
  8
0
100
AcDbLine
 10
167.9628
 20
887.893
 30
0.0
 11
200.1908
 21
887.893
 31
0.0
  0
LINE
  5
FEE
330
1D
100
AcDbEntity
  8
0
100
AcDbLine
 10
165.1908
 20
887.893
 30
0.0
 11
167.9628
 21
887.893
 31
0.0
  0
LINE
  5
FEF
330
1D
100
AcDbEntity
  8
0
100
AcDbLine
 10
200.1908
 20
887.893
 30
0.0
 11
200.1908
 21
932.893
 31
0.0
  0
LINE
  5
FF0
330
1D
100
AcDbEntity
  8
0
100
AcDbLine
 10
175.9268
 20
887.893
 30
0.0
 11
176.1908
 21
887.293
 31
0.0
  0
LINE
  5
FF1
330
1D
100
AcDbEntity
  8
0
100
AcDbLine
 10
175.9268
 20
887.893
 30
0.0
 11
200.1908
 21
887.893
 31
0.0
  0
LINE
  5
FF2
330
1D
100
AcDbEntity
  8
0
100
AcDbLine
 10
168.945585296454
 20
932.893
 30
0.0
 11
200.1908
 21
932.893
 31
0.0
  0
LINE
  5
FF3
330
1D
100
AcDbEntity
  8
0
100
AcDbLine
 10
176.1908
 20
957.513
 30
0.0
 11
176.1908
 21
932.893
 31
0.0
  0
LINE
  5
FF4
330
1D
100
AcDbEntity
  8
0
100
AcDbLine
 10
200.1908
 20
932.893
 30
0.0
 11
200.1908
 21
887.893
 31
0.0
  0
LINE
  5
FF5
330
1D
100
AcDbEntity
  8
0
100
AcDbLine
 10
176.1908
 20
932.893
 30
0.0
 11
176.1908
 21
957.513
 31
0.0
  0
LINE
  5
FF6
330
1D
100
AcDbEntity
  8
0
100
AcDbLine
 10
175.9268
 20
957.893
 30
0.0
 11
176.1908
 21
957.513
 31
0.0
  0
LINE
  5
FF7
330
1D
100
AcDbEntity
  8
0
100
AcDbLine
 10
175.5308
 20
957.893
 30
0.0
 11
175.9268
 21
957.893
 31
0.0
  0
LINE
  5
FF8
330
1D
100
AcDbEntity
  8
0
100
AcDbLine
 10
174.4748
 20
957.893
 30
0.0
 11
175.5308
 21
957.893
 31
0.0
  0
LINE
  5
FF9
330
1D
100
AcDbEntity
  8
0
100
AcDbLine
 10
172.7588
 20
957.893
 30
0.0
 11
174.4748
 21
957.893
 31
0.0
  0
LINE
  5
FFA
330
1D
100
AcDbEntity
  8
0
100
AcDbLine
 10
170.5148
 20
957.893
 30
0.0
 11
172.7588
 21
957.893
 31
0.0
  0
LINE
  5
FFB
330
1D
100
AcDbEntity
  8
0
100
AcDbLine
 10
167.9628
 20
957.893
 30
0.0
 11
170.5148
 21
957.893
 31
0.0
  0
LINE
  5
FFC
330
1D
100
AcDbEntity
  8
0
100
AcDbLine
 10
165.1908
 20
957.893
 30
0.0
 11
167.9628
 21
957.893
 31
0.0
  0
LINE
  5
FFD
330
1D
100
AcDbEntity
  8
0
100
AcDbLine
 10
162.4188
 20
957.893
 30
0.0
 11
165.1908
 21
957.893
 31
0.0
  0
LINE
  5
FFE
330
1D
100
AcDbEntity
  8
0
100
AcDbLine
 10
162.4188
 20
887.893
 30
0.0
 11
165.1908
 21
887.893
 31
0.0
  0
LINE
  5
FFF
330
1D
100
AcDbEntity
  8
0
100
AcDbLine
 10
25.558923914367
 20
796.696645898644
 30
0.0
 11
25.809349277512
 21
796.408995351115
 31
0.0
  0
LINE
  5
1000
330
1D
100
AcDbEntity
  8
0
100
AcDbLine
 10
25.809349277512
 20
796.408995351115
 30
0.0
 11
26.14168288334
 21
796.039414041473
 31
0.0
  0
LINE
  5
1001
330
1D
100
AcDbEntity
  8
0
100
AcDbLine
 10
26.968220427941
 20
795.145019063085
 30
0.0
 11
27.410814319859
 21
794.676214171007
 31
0.0
  0
LINE
  5
1002
330
1D
100
AcDbEntity
  8
0
100
AcDbLine
 10
26.534320764658
 20
795.610882800891
 30
0.0
 11
26.968220427941
 21
795.145019063085
 31
0.0
  0
LINE
  5
1003
330
1D
100
AcDbEntity
  8
0
100
AcDbLine
 10
26.14168288334
 20
796.039414041473
 30
0.0
 11
26.534320764658
 21
795.610882800891
 31
0.0
  0
LINE
  5
1004
330
1D
100
AcDbEntity
  8
0
100
AcDbLine
 10
0.242159356649
 20
835.635783401419
 30
0.0
 11
2.372229783638
 21
829.360753604664
 31
0.0
  0
LINE
  5
1005
330
1D
100
AcDbEntity
  8
0
100
AcDbLine
 10
0.242159356649
 20
835.635783401419
 30
0.0
 11
2.372229783638
 21
829.360753604664
 31
0.0
  0
LINE
  5
1006
330
1D
100
AcDbEntity
  8
0
100
AcDbLine
 10
0.082648702272
 20
840.002462843689
 30
0.0
 11
0.242159356649
 21
835.635783401419
 31
0.0
  0
LINE
  5
1007
330
1D
100
AcDbEntity
  8
0
100
AcDbLine
 10
1.151637056395
 20
842.93714098573
 30
0.0
 11
1.820694130147
 21
843.680157830631
 31
0.0
  0
LINE
  5
1008
330
1D
100
AcDbEntity
  8
0
100
AcDbLine
 10
1.151637056395
 20
842.93714098573
 30
0.0
 11
0.082648702272
 21
840.002462843689
 31
0.0
  0
LINE
  5
1009
330
1D
100
AcDbEntity
  8
0
100
AcDbLine
 10
2.318238119681
 20
843.232397299505
 30
0.0
 11
2.907973018861
 21
842.70138810788
 31
0.0
  0
LINE
  5
100A
330
1D
100
AcDbEntity
  8
0
100
AcDbLine
 10
2.907973018861
 20
842.70138810788
 30
0.0
 11
3.521686904103
 21
842.148451738429
 31
0.0
  0
LINE
  5
100B
330
1D
100
AcDbEntity
  8
0
100
AcDbLine
 10
2.741575098851
 20
844.22235845615
 30
0.0
 11
5.65957607206
 21
842.944104398283
 31
0.0
  0
LINE
  5
100C
330
1D
100
AcDbEntity
  8
0
100
AcDbLine
 10
2.741575098851
 20
844.22235845615
 30
0.0
 11
5.65957607206
 21
842.944104398283
 31
0.0
  0
LINE
  5
100D
330
1D
100
AcDbEntity
  8
0
100
AcDbLine
 10
1.820694130147
 20
843.680157830631
 30
0.0
 11
1.975376606242
 21
843.541199738268
 31
0.0
  0
LINE
  5
100E
330
1D
100
AcDbEntity
  8
0
100
AcDbLine
 10
1.820694130147
 20
843.680157830631
 30
0.0
 11
2.741575098851
 21
844.22235845615
 31
0.0
  0
LINE
  5
100F
330
1D
100
AcDbEntity
  8
0
100
AcDbLine
 10
1.975376606242
 20
843.541199738268
 30
0.0
 11
2.318238119681
 21
843.232397299505
 31
0.0
  0
LINE
  5
1010
330
1D
100
AcDbEntity
  8
0
100
AcDbLine
 10
3.521686904103
 20
842.148451738429
 30
0.0
 11
4.384679993656
 21
841.371919616117
 31
0.0
  0
LINE
  5
1011
330
1D
100
AcDbEntity
  8
0
100
AcDbLine
 10
2.372229783638
 20
829.360753604664
 30
0.0
 11
3.690812787416
 21
827.125281048167
 31
0.0
  0
LINE
  5
1012
330
1D
100
AcDbEntity
  8
0
100
AcDbLine
 10
7.143772491056
 20
838.887528004396
 30
0.0
 11
8.442970380165
 21
837.717124757418
 31
0.0
  0
LINE
  5
1013
330
1D
100
AcDbEntity
  8
0
100
AcDbLine
 10
5.367314571419
 20
840.487052630077
 30
0.0
 11
6.228887379311
 21
839.711340507765
 31
0.0
  0
LINE
  5
1014
330
1D
100
AcDbEntity
  8
0
100
AcDbLine
 10
6.228887379311
 20
839.711340507765
 30
0.0
 11
7.143772491056
 21
838.887528004396
 31
0.0
  0
LINE
  5
1015
330
1D
100
AcDbEntity
  8
0
100
AcDbLine
 10
8.442970380165
 20
837.717124757418
 30
0.0
 11
10.069535506873
 21
836.252638198696
 31
0.0
  0
LINE
  5
1016
330
1D
100
AcDbEntity
  8
0
100
AcDbLine
 10
5.65957607206
 20
842.944104398283
 30
0.0
 11
11.398201983652
 21
839.114756042791
 31
0.0
  0
LINE
  5
1017
330
1D
100
AcDbEntity
  8
0
100
AcDbLine
 10
4.384679993656
 20
841.371919616117
 30
0.0
 11
5.367314571419
 21
840.487052630077
 31
0.0
  0
LINE
  5
1018
330
1D
100
AcDbEntity
  8
0
100
AcDbLine
 10
3.188778623273
 20
826.829217681772
 30
0.0
 11
3.212902136648
 21
826.767600832596
 31
0.0
  0
LINE
  5
1019
330
1D
100
AcDbEntity
  8
0
100
AcDbLine
 10
3.212902136648
 20
826.767600832596
 30
0.0
 11
3.271424738686
 21
826.648364952715
 31
0.0
  0
LINE
  5
101A
330
1D
100
AcDbEntity
  8
0
100
AcDbLine
 10
3.23846668468
 20
826.784479928659
 30
0.0
 11
3.309127555308
 21
826.680868146693
 31
0.0
  0
LINE
  5
101B
330
1D
100
AcDbEntity
  8
0
100
AcDbLine
 10
3.40871552915
 20
826.52475957721
 30
0.0
 11
3.528999070876
 21
826.328296782794
 31
0.0
  0
LINE
  5
101C
330
1D
100
AcDbEntity
  8
0
100
AcDbLine
 10
3.309127555308
 20
826.680868146693
 30
0.0
 11
3.40871552915
 21
826.52475957721
 31
0.0
  0
LINE
  5
101D
330
1D
100
AcDbEntity
  8
0
100
AcDbLine
 10
3.559482925855
 20
826.455496368429
 30
0.0
 11
3.570528940156
 21
826.379028626419
 31
0.0
  0
LINE
  5
101E
330
1D
100
AcDbEntity
  8
0
100
AcDbLine
 10
3.271424738686
 20
826.648364952715
 30
0.0
 11
3.360551238857
 21
826.479936579312
 31
0.0
  0
LINE
  5
101F
330
1D
100
AcDbEntity
  8
0
100
AcDbLine
 10
3.360551238857
 20
826.479936579312
 30
0.0
 11
3.46980035957
 21
826.281761607069
 31
0.0
  0
LINE
  5
1020
330
1D
100
AcDbEntity
  8
0
100
AcDbLine
 10
9.14675643719
 20
817.638737965845
 30
0.0
 11
9.270097674071
 21
817.47157125479
 31
0.0
  0
LINE
  5
1021
330
1D
100
AcDbEntity
  8
0
100
AcDbLine
 10
10.676317719526
 20
815.96721582014
 30
0.0
 11
10.752839170991
 21
815.906754861947
 31
0.0
  0
LINE
  5
1022
330
1D
100
AcDbEntity
  8
0
100
AcDbLine
 10
10.636783883051
 20
815.980341206749
 30
0.0
 11
11.128445474665
 21
816.383010988723
 31
0.0
  0
LINE
  5
1023
330
1D
100
AcDbEntity
  8
0
100
AcDbLine
 10
10.640818492742
 20
815.939329355722
 30
0.0
 11
10.691126804487
 21
815.844465907706
 31
0.0
  0
LINE
  5
1024
330
1D
100
AcDbEntity
  8
0
100
AcDbLine
 10
11.674257610869
 20
814.618098414847
 30
0.0
 11
11.787988920512
 21
814.507286821559
 31
0.0
  0
LINE
  5
1025
330
1D
100
AcDbEntity
  8
0
100
AcDbLine
 10
11.787988920512
 20
814.507286821559
 30
0.0
 11
11.864510371977
 21
814.446825863366
 31
0.0
  0
LINE
  5
1026
330
1D
100
AcDbEntity
  8
0
100
AcDbLine
 10
11.849651287016
 20
814.56948917326
 30
0.0
 11
11.89992299622
 21
814.474762327785
 31
0.0
  0
LINE
  5
1027
330
1D
100
AcDbEntity
  8
0
100
AcDbLine
 10
14.500012613621
 20
811.970049649355
 30
0.0
 11
14.646777432938
 21
811.781853773176
 31
0.0
  0
LINE
  5
1028
330
1D
100
AcDbEntity
  8
0
100
AcDbLine
 10
14.378331184362
 20
812.139491231541
 30
0.0
 11
14.500012613621
 21
811.970049649355
 31
0.0
  0
LINE
  5
1029
330
1D
100
AcDbEntity
  8
0
100
AcDbLine
 10
14.247654514018
 20
812.422552599141
 30
0.0
 11
14.248657777057
 21
812.372090301698
 31
0.0
  0
LINE
  5
102A
330
1D
100
AcDbEntity
  8
0
100
AcDbLine
 10
14.247654514018
 20
812.422552599141
 30
0.0
 11
14.631306648243
 21
812.754802619045
 31
0.0
  0
LINE
  5
102B
330
1D
100
AcDbEntity
  8
0
100
AcDbLine
 10
14.502487968178
 20
812.261337089215
 30
0.0
 11
14.651452856556
 21
812.118751844429
 31
0.0
  0
LINE
  5
102C
330
1D
100
AcDbEntity
  8
0
100
AcDbLine
 10
14.382443261076
 20
812.361013557334
 30
0.0
 11
14.502487968178
 21
812.261337089215
 31
0.0
  0
LINE
  5
102D
330
1D
100
AcDbEntity
  8
0
100
AcDbLine
 10
14.294840016542
 20
812.417480286894
 30
0.0
 11
14.382443261076
 21
812.361013557334
 31
0.0
  0
LINE
  5
102E
330
1D
100
AcDbEntity
  8
0
100
AcDbLine
 10
14.248657777057
 20
812.372090301698
 30
0.0
 11
14.294514422751
 21
812.274716341905
 31
0.0
  0
LINE
  5
102F
330
1D
100
AcDbEntity
  8
0
100
AcDbLine
 10
14.294514422751
 20
812.274716341905
 30
0.0
 11
14.378331184362
 21
812.139491231541
 31
0.0
  0
LINE
  5
1030
330
1D
100
AcDbEntity
  8
0
100
AcDbLine
 10
11.903957605911
 20
814.433750476758
 30
0.0
 11
12.267350709516
 21
814.731368644001
 31
0.0
  0
LINE
  5
1031
330
1D
100
AcDbEntity
  8
0
100
AcDbLine
 10
11.965803581766
 20
814.484402197451
 30
0.0
 11
14.30448024956
 21
811.156177660278
 31
0.0
  0
LINE
  5
1032
330
1D
100
AcDbEntity
  8
0
100
AcDbLine
 10
11.373800404099
 20
814.948491267222
 30
0.0
 11
11.535398682535
 21
814.765587695888
 31
0.0
  0
LINE
  5
1033
330
1D
100
AcDbEntity
  8
0
100
AcDbLine
 10
11.761124013629
 20
814.705355437898
 30
0.0
 11
11.849651287016
 21
814.56948917326
 31
0.0
  0
LINE
  5
1034
330
1D
100
AcDbEntity
  8
0
100
AcDbLine
 10
11.641987070742
 20
814.87240419976
 30
0.0
 11
11.761124013629
 21
814.705355437898
 31
0.0
  0
LINE
  5
1035
330
1D
100
AcDbEntity
  8
0
100
AcDbLine
 10
11.496029431102
 20
815.06359815215
 30
0.0
 11
11.641987070742
 21
814.87240419976
 31
0.0
  0
LINE
  5
1036
330
1D
100
AcDbEntity
  8
0
100
AcDbLine
 10
11.535398682535
 20
814.765587695888
 30
0.0
 11
11.674257610869
 21
814.618098414847
 31
0.0
  0
LINE
  5
1037
330
1D
100
AcDbEntity
  8
0
100
AcDbLine
 10
11.204559116663
 20
815.150356758643
 30
0.0
 11
11.373800404099
 21
814.948491267222
 31
0.0
  0
LINE
  5
1038
330
1D
100
AcDbEntity
  8
0
100
AcDbLine
 10
11.167027687403
 20
815.465550416285
 30
0.0
 11
11.3361323723
 21
815.263648322323
 31
0.0
  0
LINE
  5
1039
330
1D
100
AcDbEntity
  8
0
100
AcDbLine
 10
11.3361323723
 20
815.263648322323
 30
0.0
 11
11.496029431102
 21
815.06359815215
 31
0.0
  0
LINE
  5
103A
330
1D
100
AcDbEntity
  8
0
100
AcDbLine
 10
11.04466205786
 20
815.350406928816
 30
0.0
 11
11.204559116663
 21
815.150356758643
 31
0.0
  0
LINE
  5
103B
330
1D
100
AcDbEntity
  8
0
100
AcDbLine
 10
10.898791020761
 20
815.541550881207
 30
0.0
 11
11.04466205786
 21
815.350406928816
 31
0.0
  0
LINE
  5
103C
330
1D
100
AcDbEntity
  8
0
100
AcDbLine
 10
10.752839170991
 20
815.906754861947
 30
0.0
 11
10.866520480634
 21
815.795856666119
 31
0.0
  0
LINE
  5
103D
330
1D
100
AcDbEntity
  8
0
100
AcDbLine
 10
10.866520480634
 20
815.795856666119
 30
0.0
 11
11.005429408968
 21
815.648453987619
 31
0.0
  0
LINE
  5
103E
330
1D
100
AcDbEntity
  8
0
100
AcDbLine
 10
11.005429408968
 20
815.648453987619
 30
0.0
 11
11.167027687403
 21
815.465550416285
 31
0.0
  0
LINE
  5
103F
330
1D
100
AcDbEntity
  8
0
100
AcDbLine
 10
10.779704077874
 20
815.708686245609
 30
0.0
 11
10.898791020761
 21
815.541550881207
 31
0.0
  0
LINE
  5
1040
330
1D
100
AcDbEntity
  8
0
100
AcDbLine
 10
10.691126804487
 20
815.844465907706
 30
0.0
 11
10.779704077874
 21
815.708686245609
 31
0.0
  0
LINE
  5
1041
330
1D
100
AcDbEntity
  8
0
100
AcDbLine
 10
10.161136728095
 20
816.444096167889
 30
0.0
 11
10.214809399193
 21
816.358259961209
 31
0.0
  0
LINE
  5
1042
330
1D
100
AcDbEntity
  8
0
100
AcDbLine
 10
10.225396636828
 20
816.326397594705
 30
0.0
 11
10.513267198046
 21
816.554007296265
 31
0.0
  0
LINE
  5
1043
330
1D
100
AcDbEntity
  8
0
100
AcDbLine
 10
10.225396636828
 20
816.326397594705
 30
0.0
 11
10.513267198046
 21
816.554007296265
 31
0.0
  0
LINE
  5
1044
330
1D
100
AcDbEntity
  8
0
100
AcDbLine
 10
10.225396636828
 20
816.326397594705
 30
0.0
 11
10.576304475296
 21
816.603848779887
 31
0.0
  0
LINE
  5
1045
330
1D
100
AcDbEntity
  8
0
100
AcDbLine
 10
10.126909744498
 20
816.415013293309
 30
0.0
 11
10.197414208665
 21
816.343130607406
 31
0.0
  0
LINE
  5
1046
330
1D
100
AcDbEntity
  8
0
100
AcDbLine
 10
10.066662340391
 20
816.578661728371
 30
0.0
 11
10.161136728095
 21
816.444096167889
 31
0.0
  0
LINE
  5
1047
330
1D
100
AcDbEntity
  8
0
100
AcDbLine
 10
9.943407706051
 20
816.745778439425
 30
0.0
 11
10.066662340391
 21
816.578661728371
 31
0.0
  0
LINE
  5
1048
330
1D
100
AcDbEntity
  8
0
100
AcDbLine
 10
10.024050420303
 20
816.530055717771
 30
0.0
 11
10.126909744498
 21
816.415013293309
 31
0.0
  0
LINE
  5
1049
330
1D
100
AcDbEntity
  8
0
100
AcDbLine
 10
9.888716620838
 20
816.689250701117
 30
0.0
 11
10.024050420303
 21
816.530055717771
 31
0.0
  0
LINE
  5
104A
330
1D
100
AcDbEntity
  8
0
100
AcDbLine
 10
10.512152740759
 20
816.553126131865
 30
0.0
 11
10.813143459731
 21
816.124779319268
 31
0.0
  0
LINE
  5
104B
330
1D
100
AcDbEntity
  8
0
100
AcDbLine
 10
10.512152740759
 20
816.553126131865
 30
0.0
 11
10.813143459731
 21
816.124779319268
 31
0.0
  0
LINE
  5
104C
330
1D
100
AcDbEntity
  8
0
100
AcDbLine
 10
9.799018719758
 20
816.935489379114
 30
0.0
 11
9.943407706051
 21
816.745778439425
 31
0.0
  0
LINE
  5
104D
330
1D
100
AcDbEntity
  8
0
100
AcDbLine
 10
9.640954673658
 20
817.137714420418
 30
0.0
 11
9.799018719758
 21
816.935489379114
 31
0.0
  0
LINE
  5
104E
330
1D
100
AcDbEntity
  8
0
100
AcDbLine
 10
9.732744175428
 20
816.879298501084
 30
0.0
 11
9.888716620838
 21
816.689250701117
 31
0.0
  0
LINE
  5
104F
330
1D
100
AcDbEntity
  8
0
100
AcDbLine
 10
9.572550706464
 20
817.079635273798
 30
0.0
 11
9.732744175428
 21
816.879298501084
 31
0.0
  0
LINE
  5
1050
330
1D
100
AcDbEntity
  8
0
100
AcDbLine
 10
9.414350057822
 20
817.281823712561
 30
0.0
 11
9.572550706464
 21
817.079635273798
 31
0.0
  0
LINE
  5
1051
330
1D
100
AcDbEntity
  8
0
100
AcDbLine
 10
13.89318662397
 20
810.681996203926
 30
0.0
 11
13.977596274964
 21
810.587998008098
 31
0.0
  0
LINE
  5
1052
330
1D
100
AcDbEntity
  8
0
100
AcDbLine
 10
13.843535165103
 20
810.726597354498
 30
0.0
 11
13.881320856305
 21
810.674644091459
 31
0.0
  0
LINE
  5
1053
330
1D
100
AcDbEntity
  8
0
100
AcDbLine
 10
13.881320856305
 20
810.674644091459
 30
0.0
 11
13.962625955566
 21
810.571468654295
 31
0.0
  0
LINE
  5
1054
330
1D
100
AcDbEntity
  8
0
100
AcDbLine
 10
13.977596274964
 20
810.587998008098
 30
0.0
 11
14.100003348571
 21
810.44781327879
 31
0.0
  0
LINE
  5
1055
330
1D
100
AcDbEntity
  8
0
100
AcDbLine
 10
13.962625955566
 20
810.571468654295
 30
0.0
 11
14.082012452036
 21
810.424252131918
 31
0.0
  0
LINE
  5
1056
330
1D
100
AcDbEntity
  8
0
100
AcDbLine
 10
17.628656168467
 20
806.82721924512
 30
0.0
 11
17.702989024542
 21
806.715367528514
 31
0.0
  0
LINE
  5
1057
330
1D
100
AcDbEntity
  8
0
100
AcDbLine
 10
17.675854433356
 20
806.872369037938
 30
0.0
 11
17.773950429152
 21
806.790676286676
 31
0.0
  0
LINE
  5
1058
330
1D
100
AcDbEntity
  8
0
100
AcDbLine
 10
17.614387206824
 20
806.909704678584
 30
0.0
 11
17.675854433356
 21
806.872369037938
 31
0.0
  0
LINE
  5
1059
330
1D
100
AcDbEntity
  8
0
100
AcDbLine
 10
17.596995606134
 20
806.895381542564
 30
0.0
 11
17.628656168467
 21
806.82721924512
 31
0.0
  0
LINE
  5
105A
330
1D
100
AcDbEntity
  8
0
100
AcDbLine
 10
17.596995606134
 20
806.895381542564
 30
0.0
 11
17.734915778093
 21
807.017995545479
 31
0.0
  0
LINE
  5
105B
330
1D
100
AcDbEntity
  8
0
100
AcDbLine
 10
17.596995606134
 20
806.895381542564
 30
0.0
 11
18.071358672444
 21
807.317100523691
 31
0.0
  0
LINE
  5
105C
330
1D
100
AcDbEntity
  8
0
100
AcDbLine
 10
18.755438603889
 20
805.532463672349
 30
0.0
 11
18.853584599685
 21
805.450857523627
 31
0.0
  0
LINE
  5
105D
330
1D
100
AcDbEntity
  8
0
100
AcDbLine
 10
18.932393426908
 20
805.427758416461
 30
0.0
 11
19.41827549538
 21
805.859718038567
 31
0.0
  0
LINE
  5
105E
330
1D
100
AcDbEntity
  8
0
100
AcDbLine
 10
18.900782864575
 20
805.496007316445
 30
0.0
 11
18.932393426908
 21
805.427758416461
 31
0.0
  0
LINE
  5
105F
330
1D
100
AcDbEntity
  8
0
100
AcDbLine
 10
18.853584599685
 20
805.450857523627
 30
0.0
 11
18.915001826218
 21
805.413435280441
 31
0.0
  0
LINE
  5
1060
330
1D
100
AcDbEntity
  8
0
100
AcDbLine
 10
18.466240620202
 20
805.817558071156
 30
0.0
 11
18.621933454072
 21
805.659425969793
 31
0.0
  0
LINE
  5
1061
330
1D
100
AcDbEntity
  8
0
100
AcDbLine
 10
19.001930348819
 20
805.489578237484
 30
0.0
 11
20.314968446302
 21
803.905642108715
 31
0.0
  0
LINE
  5
1062
330
1D
100
AcDbEntity
  8
0
100
AcDbLine
 10
19.001930348819
 20
805.489578237484
 30
0.0
 11
20.314968446302
 21
803.905642108715
 31
0.0
  0
LINE
  5
1063
330
1D
100
AcDbEntity
  8
0
100
AcDbLine
 10
18.8264500085
 20
805.60785903305
 30
0.0
 11
18.900782864575
 21
805.496007316445
 31
0.0
  0
LINE
  5
1064
330
1D
100
AcDbEntity
  8
0
100
AcDbLine
 10
18.717094343204
 20
805.754249464663
 30
0.0
 11
18.8264500085
 21
805.60785903305
 31
0.0
  0
LINE
  5
1065
330
1D
100
AcDbEntity
  8
0
100
AcDbLine
 10
18.575222790627
 20
805.929920727451
 30
0.0
 11
18.717094343204
 21
805.754249464663
 31
0.0
  0
LINE
  5
1066
330
1D
100
AcDbEntity
  8
0
100
AcDbLine
 10
18.621933454072
 20
805.659425969793
 30
0.0
 11
18.755438603889
 21
805.532463672349
 31
0.0
  0
LINE
  5
1067
330
1D
100
AcDbEntity
  8
0
100
AcDbLine
 10
18.291897408977
 20
806.004586771359
 30
0.0
 11
18.466240620202
 21
805.817558071156
 31
0.0
  0
LINE
  5
1068
330
1D
100
AcDbEntity
  8
0
100
AcDbLine
 10
18.237628226605
 20
806.318589790206
 30
0.0
 11
18.413966628359
 21
806.120016861369
 31
0.0
  0
LINE
  5
1069
330
1D
100
AcDbEntity
  8
0
100
AcDbLine
 10
18.413966628359
 20
806.120016861369
 30
0.0
 11
18.575222790627
 21
805.929920727451
 31
0.0
  0
LINE
  5
106A
330
1D
100
AcDbEntity
  8
0
100
AcDbLine
 10
18.115422404683
 20
806.203123097656
 30
0.0
 11
18.291897408977
 21
806.004586771359
 31
0.0
  0
LINE
  5
106B
330
1D
100
AcDbEntity
  8
0
100
AcDbLine
 10
17.954252844955
 20
806.393169231574
 30
0.0
 11
18.115422404683
 21
806.203123097656
 31
0.0
  0
LINE
  5
106C
330
1D
100
AcDbEntity
  8
0
100
AcDbLine
 10
17.773950429152
 20
806.790676286676
 30
0.0
 11
17.90750557897
 21
806.663800591772
 31
0.0
  0
LINE
  5
106D
330
1D
100
AcDbEntity
  8
0
100
AcDbLine
 10
17.90750557897
 20
806.663800591772
 30
0.0
 11
18.063148412839
 21
806.505581887868
 31
0.0
  0
LINE
  5
106E
330
1D
100
AcDbEntity
  8
0
100
AcDbLine
 10
18.063148412839
 20
806.505581887868
 30
0.0
 11
18.237628226605
 21
806.318589790206
 31
0.0
  0
LINE
  5
106F
330
1D
100
AcDbEntity
  8
0
100
AcDbLine
 10
17.812294689837
 20
806.568890494361
 30
0.0
 11
17.954252844955
 21
806.393169231574
 31
0.0
  0
LINE
  5
1070
330
1D
100
AcDbEntity
  8
0
100
AcDbLine
 10
17.702989024542
 20
806.715367528514
 30
0.0
 11
17.812294689837
 21
806.568890494361
 31
0.0
  0
LINE
  5
1071
330
1D
100
AcDbEntity
  8
0
100
AcDbLine
 10
16.266659944682
 20
808.201772585808
 30
0.0
 11
16.685853958914
 21
808.561096459477
 31
0.0
  0
LINE
  5
1072
330
1D
100
AcDbEntity
  8
0
100
AcDbLine
 10
16.233041240778
 20
808.261943282562
 30
0.0
 11
16.266659944682
 21
808.201772585808
 31
0.0
  0
LINE
  5
1073
330
1D
100
AcDbEntity
  8
0
100
AcDbLine
 10
16.203112333392
 20
808.234304894355
 30
0.0
 11
16.254757574476
 21
808.194557075882
 31
0.0
  0
LINE
  5
1074
330
1D
100
AcDbEntity
  8
0
100
AcDbLine
 10
16.109177107111
 20
808.325604309816
 30
0.0
 11
16.203112333392
 21
808.234304894355
 31
0.0
  0
LINE
  5
1075
330
1D
100
AcDbEntity
  8
0
100
AcDbLine
 10
16.15416389833
 20
808.372723717876
 30
0.0
 11
16.233041240778
 21
808.261943282562
 31
0.0
  0
LINE
  5
1076
330
1D
100
AcDbEntity
  8
0
100
AcDbLine
 10
16.040644131419
 20
808.519901713923
 30
0.0
 11
16.15416389833
 21
808.372723717876
 31
0.0
  0
LINE
  5
1077
330
1D
100
AcDbEntity
  8
0
100
AcDbLine
 10
15.900687642351
 20
808.693889964009
 30
0.0
 11
16.040644131419
 21
808.519901713923
 31
0.0
  0
LINE
  5
1078
330
1D
100
AcDbEntity
  8
0
100
AcDbLine
 10
15.830397776772
 20
808.624544345568
 30
0.0
 11
15.984554712257
 21
808.455751990167
 31
0.0
  0
LINE
  5
1079
330
1D
100
AcDbEntity
  8
0
100
AcDbLine
 10
15.984554712257
 20
808.455751990167
 30
0.0
 11
16.109177107111
 21
808.325604309816
 31
0.0
  0
LINE
  5
107A
330
1D
100
AcDbEntity
  8
0
100
AcDbLine
 10
15.66047059095
 20
808.817221826138
 30
0.0
 11
15.830397776772
 21
808.624544345568
 31
0.0
  0
LINE
  5
107B
330
1D
100
AcDbEntity
  8
0
100
AcDbLine
 10
15.001304253622
 20
809.371112239246
 30
0.0
 11
15.082522750343
 21
809.267986802082
 31
0.0
  0
LINE
  5
107C
330
1D
100
AcDbEntity
  8
0
100
AcDbLine
 10
15.082522750343
 20
809.267986802082
 30
0.0
 11
15.120345044086
 21
809.215896936503
 31
0.0
  0
LINE
  5
107D
330
1D
100
AcDbEntity
  8
0
100
AcDbLine
 10
15.492333597508
 20
809.013600010864
 30
0.0
 11
15.66047059095
 21
808.817221826138
 31
0.0
  0
LINE
  5
107E
330
1D
100
AcDbEntity
  8
0
100
AcDbLine
 10
16.551323241718
 20
808.445779692565
 30
0.0
 11
17.734915778093
 21
807.017995545479
 31
0.0
  0
LINE
  5
107F
330
1D
100
AcDbEntity
  8
0
100
AcDbLine
 10
16.551323241718
 20
808.445779692565
 30
0.0
 11
17.734915778093
 21
807.017995545479
 31
0.0
  0
LINE
  5
1080
330
1D
100
AcDbEntity
  8
0
100
AcDbLine
 10
15.740285069921
 20
808.886264558895
 30
0.0
 11
15.900687642351
 21
808.693889964009
 31
0.0
  0
LINE
  5
1081
330
1D
100
AcDbEntity
  8
0
100
AcDbLine
 10
15.572098076479
 20
809.082556141081
 30
0.0
 11
15.740285069921
 21
808.886264558895
 31
0.0
  0
LINE
  5
1082
330
1D
100
AcDbEntity
  8
0
100
AcDbLine
 10
15.331931025078
 20
809.205974605751
 30
0.0
 11
15.492333597508
 21
809.013600010864
 31
0.0
  0
LINE
  5
1083
330
1D
100
AcDbEntity
  8
0
100
AcDbLine
 10
15.070656982678
 20
809.260634689615
 30
0.0
 11
15.118387864409
 21
809.210907001863
 31
0.0
  0
LINE
  5
1084
330
1D
100
AcDbEntity
  8
0
100
AcDbLine
 10
15.118387864409
 20
809.210907001863
 30
0.0
 11
15.243387942686
 21
809.316047786817
 31
0.0
  0
LINE
  5
1085
330
1D
100
AcDbEntity
  8
0
100
AcDbLine
 10
14.986333934224
 20
809.354582885444
 30
0.0
 11
15.070656982678
 21
809.260634689615
 31
0.0
  0
LINE
  5
1086
330
1D
100
AcDbEntity
  8
0
100
AcDbLine
 10
14.578963247387
 20
809.883996158328
 30
0.0
 11
14.738339986792
 21
809.692444768522
 31
0.0
  0
LINE
  5
1087
330
1D
100
AcDbEntity
  8
0
100
AcDbLine
 10
14.881831154612
 20
809.518378761623
 30
0.0
 11
15.001304253622
 21
809.371112239246
 31
0.0
  0
LINE
  5
1088
330
1D
100
AcDbEntity
  8
0
100
AcDbLine
 10
14.738339986792
 20
809.692444768522
 30
0.0
 11
14.881831154612
 21
809.518378761623
 31
0.0
  0
LINE
  5
1089
330
1D
100
AcDbEntity
  8
0
100
AcDbLine
 10
15.0784547691
 20
809.527140851883
 30
0.0
 11
15.19197453601
 21
809.379962855836
 31
0.0
  0
LINE
  5
108A
330
1D
100
AcDbEntity
  8
0
100
AcDbLine
 10
15.19197453601
 20
809.379962855836
 30
0.0
 11
15.331931025078
 21
809.205974605751
 31
0.0
  0
LINE
  5
108B
330
1D
100
AcDbEntity
  8
0
100
AcDbLine
 10
14.965958722747
 20
809.698091983951
 30
0.0
 11
14.999527426651
 21
809.637834684657
 31
0.0
  0
LINE
  5
108C
330
1D
100
AcDbEntity
  8
0
100
AcDbLine
 10
14.965958722747
 20
809.698091983951
 30
0.0
 11
15.377666300209
 21
810.050998648955
 31
0.0
  0
LINE
  5
108D
330
1D
100
AcDbEntity
  8
0
100
AcDbLine
 10
14.999527426651
 20
809.637834684657
 30
0.0
 11
15.0784547691
 21
809.527140851883
 31
0.0
  0
LINE
  5
108E
330
1D
100
AcDbEntity
  8
0
100
AcDbLine
 10
14.977861092953
 20
809.705307493877
 30
0.0
 11
15.029506334037
 21
809.665559675405
 31
0.0
  0
LINE
  5
108F
330
1D
100
AcDbEntity
  8
0
100
AcDbLine
 10
15.029506334037
 20
809.665559675405
 30
0.0
 11
15.123441560318
 21
809.574260259943
 31
0.0
  0
LINE
  5
1090
330
1D
100
AcDbEntity
  8
0
100
AcDbLine
 10
15.123441560318
 20
809.574260259943
 30
0.0
 11
15.248013955173
 21
809.444025977052
 31
0.0
  0
LINE
  5
1091
330
1D
100
AcDbEntity
  8
0
100
AcDbLine
 10
15.248013955173
 20
809.444025977052
 30
0.0
 11
15.402220890657
 21
809.275320224191
 31
0.0
  0
LINE
  5
1092
330
1D
100
AcDbEntity
  8
0
100
AcDbLine
 10
15.402220890657
 20
809.275320224191
 30
0.0
 11
15.572098076479
 21
809.082556141081
 31
0.0
  0
LINE
  5
1093
330
1D
100
AcDbEntity
  8
0
100
AcDbLine
 10
15.243387942686
 20
809.316047786817
 30
0.0
 11
15.331931025078
 21
809.205974605751
 31
0.0
  0
LINE
  5
1094
330
1D
100
AcDbEntity
  8
0
100
AcDbLine
 10
14.713469925133
 20
809.669968558141
 30
0.0
 11
14.863926860618
 21
809.494767614752
 31
0.0
  0
LINE
  5
1095
330
1D
100
AcDbEntity
  8
0
100
AcDbLine
 10
14.863926860618
 20
809.494767614752
 30
0.0
 11
14.986333934224
 21
809.354582885444
 31
0.0
  0
LINE
  5
1096
330
1D
100
AcDbEntity
  8
0
100
AcDbLine
 10
14.551411134921
 20
809.86087449968
 30
0.0
 11
14.713469925133
 21
809.669968558141
 31
0.0
  0
LINE
  5
1097
330
1D
100
AcDbEntity
  8
0
100
AcDbLine
 10
14.082012452036
 20
810.424252131918
 30
0.0
 11
14.225503619856
 21
810.250186125019
 31
0.0
  0
LINE
  5
1098
330
1D
100
AcDbEntity
  8
0
100
AcDbLine
 10
14.225503619856
 20
810.250186125019
 30
0.0
 11
14.384966961801
 21
810.058584735213
 31
0.0
  0
LINE
  5
1099
330
1D
100
AcDbEntity
  8
0
100
AcDbLine
 10
14.100003348571
 20
810.44781327879
 30
0.0
 11
14.250460284055
 21
810.2726123354
 31
0.0
  0
LINE
  5
109A
330
1D
100
AcDbEntity
  8
0
100
AcDbLine
 10
14.250460284055
 20
810.2726123354
 30
0.0
 11
14.412519074268
 21
810.081706393861
 31
0.0
  0
LINE
  5
109B
330
1D
100
AcDbEntity
  8
0
100
AcDbLine
 10
14.412519074268
 20
810.081706393861
 30
0.0
 11
14.578963247387
 21
809.883996158328
 31
0.0
  0
LINE
  5
109C
330
1D
100
AcDbEntity
  8
0
100
AcDbLine
 10
14.384966961801
 20
810.058584735213
 30
0.0
 11
14.551411134921
 21
809.86087449968
 31
0.0
  0
LINE
  5
109D
330
1D
100
AcDbEntity
  8
0
100
AcDbLine
 10
15.156132453223
 20
811.213882547399
 30
0.0
 11
15.305097341601
 21
811.071297302613
 31
0.0
  0
LINE
  5
109E
330
1D
100
AcDbEntity
  8
0
100
AcDbLine
 10
14.9915152637
 20
811.384557211347
 30
0.0
 11
15.156132453223
 21
811.213882547399
 31
0.0
  0
LINE
  5
109F
330
1D
100
AcDbEntity
  8
0
100
AcDbLine
 10
14.815932117835
 20
811.580038281755
 30
0.0
 11
14.9915152637
 21
811.384557211347
 31
0.0
  0
LINE
  5
10A0
330
1D
100
AcDbEntity
  8
0
100
AcDbLine
 10
14.646777432938
 20
811.781853773176
 30
0.0
 11
14.815932117835
 21
811.580038281755
 31
0.0
  0
LINE
  5
10A1
330
1D
100
AcDbEntity
  8
0
100
AcDbLine
 10
14.651452856556
 20
812.118751844429
 30
0.0
 11
14.816206648619
 21
811.948113783022
 31
0.0
  0
LINE
  5
10A2
330
1D
100
AcDbEntity
  8
0
100
AcDbLine
 10
14.816206648619
 20
811.948113783022
 30
0.0
 11
14.991739794484
 21
811.752546110073
 31
0.0
  0
LINE
  5
10A3
330
1D
100
AcDbEntity
  8
0
100
AcDbLine
 10
14.991739794484
 20
811.752546110073
 30
0.0
 11
15.160894479381
 21
811.550730618652
 31
0.0
  0
LINE
  5
10A4
330
1D
100
AcDbEntity
  8
0
100
AcDbLine
 10
15.160894479381
 20
811.550730618652
 30
0.0
 11
15.307659298698
 21
811.362534742473
 31
0.0
  0
LINE
  5
10A5
330
1D
100
AcDbEntity
  8
0
100
AcDbLine
 10
15.307659298698
 20
811.362534742473
 30
0.0
 11
15.429304125417
 21
811.193229762828
 31
0.0
  0
LINE
  5
10A6
330
1D
100
AcDbEntity
  8
0
100
AcDbLine
 10
15.305097341601
 20
811.071297302613
 30
0.0
 11
15.425228651243
 21
810.971570834494
 31
0.0
  0
LINE
  5
10A7
330
1D
100
AcDbEntity
  8
0
100
AcDbLine
 10
15.425228651243
 20
810.971570834494
 30
0.0
 11
15.512745293237
 21
810.915154104934
 31
0.0
  0
LINE
  5
10A8
330
1D
100
AcDbEntity
  8
0
100
AcDbLine
 10
15.559014135262
 20
810.96049409013
 30
0.0
 11
15.560017398301
 21
810.910031792687
 31
0.0
  0
LINE
  5
10A9
330
1D
100
AcDbEntity
  8
0
100
AcDbLine
 10
15.560017398301
 20
810.910031792687
 30
0.0
 11
16.045738862592
 21
811.33067578703
 31
0.0
  0
LINE
  5
10AA
330
1D
100
AcDbEntity
  8
0
100
AcDbLine
 10
15.513157489568
 20
811.057868049923
 30
0.0
 11
15.559014135262
 21
810.96049409013
 31
0.0
  0
LINE
  5
10AB
330
1D
100
AcDbEntity
  8
0
100
AcDbLine
 10
18.981915103088
 20
811.538132475681
 30
0.0
 11
19.10201321135
 21
811.469948501084
 31
0.0
  0
LINE
  5
10AC
330
1D
100
AcDbEntity
  8
0
100
AcDbLine
 10
18.680093210164
 20
811.8099616223
 30
0.0
 11
18.839010915164
 21
811.651815161583
 31
0.0
  0
LINE
  5
10AD
330
1D
100
AcDbEntity
  8
0
100
AcDbLine
 10
18.517146855517
 20
811.996530257143
 30
0.0
 11
18.680093210164
 21
811.8099616223
 31
0.0
  0
LINE
  5
10AE
330
1D
100
AcDbEntity
  8
0
100
AcDbLine
 10
18.839010915164
 20
811.651815161583
 30
0.0
 11
18.981915103088
 21
811.538132475681
 31
0.0
  0
LINE
  5
10AF
330
1D
100
AcDbEntity
  8
0
100
AcDbLine
 10
19.10201321135
 20
811.469948501084
 30
0.0
 11
19.191282550349
 21
811.456167531788
 31
0.0
  0
LINE
  5
10B0
330
1D
100
AcDbEntity
  8
0
100
AcDbLine
 10
19.191282550349
 20
811.456167531788
 30
0.0
 11
19.754852092644
 21
811.877977602445
 31
0.0
  0
LINE
  5
10B1
330
1D
100
AcDbEntity
  8
0
100
AcDbLine
 10
19.191282550349
 20
811.456167531788
 30
0.0
 11
19.238211199996
 21
811.502050337307
 31
0.0
  0
LINE
  5
10B2
330
1D
100
AcDbEntity
  8
0
100
AcDbLine
 10
19.241174031422
 20
811.599182111871
 30
0.0
 11
19.238211199996
 21
811.502050337307
 31
0.0
  0
LINE
  5
10B3
330
1D
100
AcDbEntity
  8
0
100
AcDbLine
 10
15.429304125417
 20
811.193229762828
 30
0.0
 11
15.513157489568
 21
811.057868049923
 31
0.0
  0
LINE
  5
10B4
330
1D
100
AcDbEntity
  8
0
100
AcDbLine
 10
13.845405742239
 20
810.731637289138
 30
0.0
 11
14.323235859856
 21
811.133552506583
 31
0.0
  0
LINE
  5
10B5
330
1D
100
AcDbEntity
  8
0
100
AcDbLine
 10
13.845405742239
 20
810.731637289138
 30
0.0
 11
13.89318662397
 21
810.681996203926
 31
0.0
  0
LINE
  5
10B6
330
1D
100
AcDbEntity
  8
0
100
AcDbLine
 10
13.845405742239
 20
810.731637289138
 30
0.0
 11
14.337202205931
 21
811.145299959942
 31
0.0
  0
LINE
  5
10B7
330
1D
100
AcDbEntity
  8
0
100
AcDbLine
 10
19.793793466218
 20
803.468347050189
 30
0.0
 11
20.329416754294
 21
803.917765050012
 31
0.0
  0
LINE
  5
10B8
330
1D
100
AcDbEntity
  8
0
100
AcDbLine
 10
19.817001727407
 20
803.440744937722
 30
0.0
 11
19.878717218828
 21
803.367239304478
 31
0.0
  0
LINE
  5
10B9
330
1D
100
AcDbEntity
  8
0
100
AcDbLine
 10
19.878717218828
 20
803.367239304478
 30
0.0
 11
19.981480837017
 21
803.244631112351
 31
0.0
  0
LINE
  5
10BA
330
1D
100
AcDbEntity
  8
0
100
AcDbLine
 10
19.981480837017
 20
803.244631112351
 30
0.0
 11
20.117743097451
 21
803.082244270576
 31
0.0
  0
LINE
  5
10BB
330
1D
100
AcDbEntity
  8
0
100
AcDbLine
 10
20.117743097451
 20
803.082244270576
 30
0.0
 11
20.272118428544
 21
802.898430187466
 31
0.0
  0
LINE
  5
10BC
330
1D
100
AcDbEntity
  8
0
100
AcDbLine
 10
21.486318417299
 20
801.664286258539
 30
0.0
 11
21.586494471053
 21
801.534396273343
 31
0.0
  0
LINE
  5
10BD
330
1D
100
AcDbEntity
  8
0
100
AcDbLine
 10
21.453790214069
 20
801.623945757865
 30
0.0
 11
21.559238768748
 21
801.510988012154
 31
0.0
  0
LINE
  5
10BE
330
1D
100
AcDbEntity
  8
0
100
AcDbLine
 10
21.657675661079
 20
801.42228571101
 30
0.0
 11
22.147854407061
 21
801.837566422693
 31
0.0
  0
LINE
  5
10BF
330
1D
100
AcDbEntity
  8
0
100
AcDbLine
 10
22.38101635406
 20
800.951548542436
 30
0.0
 11
22.533772069912
 21
800.766129203437
 31
0.0
  0
LINE
  5
10C0
330
1D
100
AcDbEntity
  8
0
100
AcDbLine
 10
23.040657474953
 20
800.195080478585
 30
0.0
 11
23.182105633772
 21
800.049675876296
 31
0.0
  0
LINE
  5
10C1
330
1D
100
AcDbEntity
  8
0
100
AcDbLine
 10
25.783655592777
 20
797.725292583721
 30
0.0
 11
25.950775410243
 21
797.556752598524
 31
0.0
  0
LINE
  5
10C2
330
1D
100
AcDbEntity
  8
0
100
AcDbLine
 10
25.603863601185
 20
797.917083719489
 30
0.0
 11
25.783655592777
 21
797.725292583721
 31
0.0
  0
LINE
  5
10C3
330
1D
100
AcDbEntity
  8
0
100
AcDbLine
 10
25.42926705786
 20
798.114073635624
 30
0.0
 11
25.603863601185
 21
797.917083719489
 31
0.0
  0
LINE
  5
10C4
330
1D
100
AcDbEntity
  8
0
100
AcDbLine
 10
25.276300572493
 20
798.296727911113
 30
0.0
 11
25.42926705786
 21
798.114073635624
 31
0.0
  0
LINE
  5
10C5
330
1D
100
AcDbEntity
  8
0
100
AcDbLine
 10
25.147944272103
 20
798.460208277366
 30
0.0
 11
25.276300572493
 21
798.296727911113
 31
0.0
  0
LINE
  5
10C6
330
1D
100
AcDbEntity
  8
0
100
AcDbLine
 10
25.563205892483
 20
798.248862502299
 30
0.0
 11
25.742947884076
 21
798.056984763991
 31
0.0
  0
LINE
  5
10C7
330
1D
100
AcDbEntity
  8
0
100
AcDbLine
 10
25.742947884076
 20
798.056984763991
 30
0.0
 11
25.917681029941
 21
797.860031450396
 31
0.0
  0
LINE
  5
10C8
330
1D
100
AcDbEntity
  8
0
100
AcDbLine
 10
25.917681029941
 20
797.860031450396
 30
0.0
 11
26.070647515308
 21
797.677377174907
 31
0.0
  0
LINE
  5
10C9
330
1D
100
AcDbEntity
  8
0
100
AcDbLine
 10
24.998862603609
 20
798.726991253059
 30
0.0
 11
25.393283628645
 21
799.086203847486
 31
0.0
  0
LINE
  5
10CA
330
1D
100
AcDbEntity
  8
0
100
AcDbLine
 10
25.246211379018
 20
798.559011899256
 30
0.0
 11
25.396122677557
 21
798.417265884955
 31
0.0
  0
LINE
  5
10CB
330
1D
100
AcDbEntity
  8
0
100
AcDbLine
 10
25.396122677557
 20
798.417265884955
 30
0.0
 11
25.563205892483
 21
798.248862502299
 31
0.0
  0
LINE
  5
10CC
330
1D
100
AcDbEntity
  8
0
100
AcDbLine
 10
25.127026479537
 20
798.65957759786
 30
0.0
 11
25.246211379018
 21
798.559011899256
 31
0.0
  0
LINE
  5
10CD
330
1D
100
AcDbEntity
  8
0
100
AcDbLine
 10
25.041925862947
 20
798.718179006171
 30
0.0
 11
25.127026479537
 21
798.65957759786
 31
0.0
  0
LINE
  5
10CE
330
1D
100
AcDbEntity
  8
0
100
AcDbLine
 10
25.005357725077
 20
798.681441133442
 30
0.0
 11
25.057502639361
 21
798.589558774339
 31
0.0
  0
LINE
  5
10CF
330
1D
100
AcDbEntity
  8
0
100
AcDbLine
 10
25.057502639361
 20
798.589558774339
 30
0.0
 11
25.147944272103
 21
798.460208277366
 31
0.0
  0
LINE
  5
10D0
330
1D
100
AcDbEntity
  8
0
100
AcDbLine
 10
23.40930300087
 20
799.863193259455
 30
0.0
 11
23.905795146437
 21
800.295688923162
 31
0.0
  0
LINE
  5
10D1
330
1D
100
AcDbEntity
  8
0
100
AcDbLine
 10
23.345086170198
 20
799.990566446031
 30
0.0
 11
23.400972942912
 21
799.900565175841
 31
0.0
  0
LINE
  5
10D2
330
1D
100
AcDbEntity
  8
0
100
AcDbLine
 10
23.25009742314
 20
800.121041109979
 30
0.0
 11
23.345086170198
 21
799.990566446031
 31
0.0
  0
LINE
  5
10D3
330
1D
100
AcDbEntity
  8
0
100
AcDbLine
 10
23.296783353576
 20
799.939703513492
 30
0.0
 11
23.37235839488
 21
799.878403324815
 31
0.0
  0
LINE
  5
10D4
330
1D
100
AcDbEntity
  8
0
100
AcDbLine
 10
23.182105633772
 20
800.049675876296
 30
0.0
 11
23.296783353576
 21
799.939703513492
 31
0.0
  0
LINE
  5
10D5
330
1D
100
AcDbEntity
  8
0
100
AcDbLine
 10
22.699993999845
 20
800.571434031414
 30
0.0
 11
22.874850350791
 21
800.374294115278
 31
0.0
  0
LINE
  5
10D6
330
1D
100
AcDbEntity
  8
0
100
AcDbLine
 10
22.630465009852
 20
800.859606288146
 30
0.0
 11
22.805234758257
 21
800.662516372011
 31
0.0
  0
LINE
  5
10D7
330
1D
100
AcDbEntity
  8
0
100
AcDbLine
 10
22.805234758257
 20
800.662516372011
 30
0.0
 11
22.97145668819
 21
800.467821199988
 31
0.0
  0
LINE
  5
10D8
330
1D
100
AcDbEntity
  8
0
100
AcDbLine
 10
23.617251566188
 20
800.04433782252
 30
0.0
 11
29.522805362919
 21
793.652832838394
 31
0.0
  0
LINE
  5
10D9
330
1D
100
AcDbEntity
  8
0
100
AcDbLine
 10
23.617251566188
 20
800.04433782252
 30
0.0
 11
29.522805362919
 21
793.652832838394
 31
0.0
  0
LINE
  5
10DA
330
1D
100
AcDbEntity
  8
0
100
AcDbLine
 10
23.124212404042
 20
800.282401860989
 30
0.0
 11
23.25009742314
 21
800.121041109979
 31
0.0
  0
LINE
  5
10DB
330
1D
100
AcDbEntity
  8
0
100
AcDbLine
 10
22.97145668819
 20
800.467821199988
 30
0.0
 11
23.124212404042
 21
800.282401860989
 31
0.0
  0
LINE
  5
10DC
330
1D
100
AcDbEntity
  8
0
100
AcDbLine
 10
22.874850350791
 20
800.374294115278
 30
0.0
 11
23.040657474953
 21
800.195080478585
 31
0.0
  0
LINE
  5
10DD
330
1D
100
AcDbEntity
  8
0
100
AcDbLine
 10
22.533772069912
 20
800.766129203437
 30
0.0
 11
22.699993999845
 21
800.571434031414
 31
0.0
  0
LINE
  5
10DE
330
1D
100
AcDbEntity
  8
0
100
AcDbLine
 10
21.586494471053
 20
801.534396273343
 30
0.0
 11
21.644549192959
 21
801.452150001303
 31
0.0
  0
LINE
  5
10DF
330
1D
100
AcDbEntity
  8
0
100
AcDbLine
 10
22.160179190444
 20
801.243247354854
 30
0.0
 11
22.255131334962
 21
801.112909293446
 31
0.0
  0
LINE
  5
10E0
330
1D
100
AcDbEntity
  8
0
100
AcDbLine
 10
22.32320972687
 20
801.184224527129
 30
0.0
 11
22.464571283149
 21
801.03886992484
 31
0.0
  0
LINE
  5
10E1
330
1D
100
AcDbEntity
  8
0
100
AcDbLine
 10
22.464571283149
 20
801.03886992484
 30
0.0
 11
22.630465009852
 21
800.859606288146
 31
0.0
  0
LINE
  5
10E2
330
1D
100
AcDbEntity
  8
0
100
AcDbLine
 10
22.255131334962
 20
801.112909293446
 30
0.0
 11
22.38101635406
 21
800.951548542436
 31
0.0
  0
LINE
  5
10E3
330
1D
100
AcDbEntity
  8
0
100
AcDbLine
 10
21.559238768748
 20
801.510988012154
 30
0.0
 11
21.630689643077
 21
801.439944556737
 31
0.0
  0
LINE
  5
10E4
330
1D
100
AcDbEntity
  8
0
100
AcDbLine
 10
21.356515706748
 20
801.826061368903
 30
0.0
 11
21.486318417299
 21
801.664286258539
 31
0.0
  0
LINE
  5
10E5
330
1D
100
AcDbEntity
  8
0
100
AcDbLine
 10
22.095925757232
 20
801.37075714397
 30
0.0
 11
22.281967423346
 21
801.532823870644
 31
0.0
  0
LINE
  5
10E6
330
1D
100
AcDbEntity
  8
0
100
AcDbLine
 10
22.095925757232
 20
801.37075714397
 30
0.0
 11
22.535159635705
 21
801.753387542931
 31
0.0
  0
LINE
  5
10E7
330
1D
100
AcDbEntity
  8
0
100
AcDbLine
 10
22.132870363222
 20
801.35554707861
 30
0.0
 11
22.208445404526
 21
801.294246889932
 31
0.0
  0
LINE
  5
10E8
330
1D
100
AcDbEntity
  8
0
100
AcDbLine
 10
22.208445404526
 20
801.294246889932
 30
0.0
 11
22.32320972687
 21
801.184224527129
 31
0.0
  0
LINE
  5
10E9
330
1D
100
AcDbEntity
  8
0
100
AcDbLine
 10
22.10425581519
 20
801.333385227584
 30
0.0
 11
22.160179190444
 21
801.243247354854
 31
0.0
  0
LINE
  5
10EA
330
1D
100
AcDbEntity
  8
0
100
AcDbLine
 10
21.314124363796
 20
801.779637409111
 30
0.0
 11
21.453790214069
 21
801.623945757865
 31
0.0
  0
LINE
  5
10EB
330
1D
100
AcDbEntity
  8
0
100
AcDbLine
 10
21.079401610091
 20
801.936285674
 30
0.0
 11
21.136170007615
 21
801.983917545572
 31
0.0
  0
LINE
  5
10EC
330
1D
100
AcDbEntity
  8
0
100
AcDbLine
 10
20.98570870716
 20
802.160004805816
 30
0.0
 11
21.152400252336
 21
801.964923031252
 31
0.0
  0
LINE
  5
10ED
330
1D
100
AcDbEntity
  8
0
100
AcDbLine
 10
21.205292041704
 20
802.010134297741
 30
0.0
 11
21.356515706748
 21
801.826061368903
 31
0.0
  0
LINE
  5
10EE
330
1D
100
AcDbEntity
  8
0
100
AcDbLine
 10
21.152400252336
 20
801.964923031252
 30
0.0
 11
21.314124363796
 21
801.779637409111
 31
0.0
  0
LINE
  5
10EF
330
1D
100
AcDbEntity
  8
0
100
AcDbLine
 10
20.994564460021
 20
802.037343419711
 30
0.0
 11
21.056279951443
 21
801.963837786467
 31
0.0
  0
LINE
  5
10F0
330
1D
100
AcDbEntity
  8
0
100
AcDbLine
 10
20.891664239292
 20
802.159915009298
 30
0.0
 11
20.994564460021
 21
802.037343419711
 31
0.0
  0
LINE
  5
10F1
330
1D
100
AcDbEntity
  8
0
100
AcDbLine
 10
20.820673379767
 20
802.356555233728
 30
0.0
 11
20.98570870716
 21
802.160004805816
 31
0.0
  0
LINE
  5
10F2
330
1D
100
AcDbEntity
  8
0
100
AcDbLine
 10
20.669449714724
 20
802.540628162565
 30
0.0
 11
20.820673379767
 21
802.356555233728
 31
0.0
  0
LINE
  5
10F3
330
1D
100
AcDbEntity
  8
0
100
AcDbLine
 10
20.873565169135
 20
802.401766500216
 30
0.0
 11
21.040256714311
 21
802.206684725652
 31
0.0
  0
LINE
  5
10F4
330
1D
100
AcDbEntity
  8
0
100
AcDbLine
 10
21.040256714311
 20
802.206684725652
 30
0.0
 11
21.205292041704
 21
802.010134297741
 31
0.0
  0
LINE
  5
10F5
330
1D
100
AcDbEntity
  8
0
100
AcDbLine
 10
20.755451978858
 20
802.322388453613
 30
0.0
 11
20.891664239292
 21
802.159915009298
 31
0.0
  0
LINE
  5
10F6
330
1D
100
AcDbEntity
  8
0
100
AcDbLine
 10
20.601163250305
 20
802.506152536723
 30
0.0
 11
20.755451978858
 21
802.322388453613
 31
0.0
  0
LINE
  5
10F7
330
1D
100
AcDbEntity
  8
0
100
AcDbLine
 10
22.078237166278
 20
801.778586514783
 30
0.0
 11
22.281967423346
 21
801.532823870644
 31
0.0
  0
LINE
  5
10F8
330
1D
100
AcDbEntity
  8
0
100
AcDbLine
 10
20.439470950418
 20
802.832293258126
 30
0.0
 11
20.539647004172
 21
802.70240327293
 31
0.0
  0
LINE
  5
10F9
330
1D
100
AcDbEntity
  8
0
100
AcDbLine
 10
20.539647004172
 20
802.70240327293
 30
0.0
 11
20.669449714724
 21
802.540628162565
 31
0.0
  0
LINE
  5
10FA
330
1D
100
AcDbEntity
  8
0
100
AcDbLine
 10
20.368289760393
 20
802.944403820459
 30
0.0
 11
20.870422764056
 21
803.369797642422
 31
0.0
  0
LINE
  5
10FB
330
1D
100
AcDbEntity
  8
0
100
AcDbLine
 10
20.381416228512
 20
802.914539530166
 30
0.0
 11
20.439470950418
 21
802.832293258126
 31
0.0
  0
LINE
  5
10FC
330
1D
100
AcDbEntity
  8
0
100
AcDbLine
 10
20.395239175854
 20
802.926881577272
 30
0.0
 11
20.466726652723
 21
802.855701519314
 31
0.0
  0
LINE
  5
10FD
330
1D
100
AcDbEntity
  8
0
100
AcDbLine
 10
20.466726652723
 20
802.855701519314
 30
0.0
 11
20.572225207402
 21
802.742830376144
 31
0.0
  0
LINE
  5
10FE
330
1D
100
AcDbEntity
  8
0
100
AcDbLine
 10
20.572225207402
 20
802.742830376144
 30
0.0
 11
20.711754455134
 21
802.587102122358
 31
0.0
  0
LINE
  5
10FF
330
1D
100
AcDbEntity
  8
0
100
AcDbLine
 10
20.711754455134
 20
802.587102122358
 30
0.0
 11
20.873565169135
 21
802.401766500216
 31
0.0
  0
LINE
  5
1100
330
1D
100
AcDbEntity
  8
0
100
AcDbLine
 10
22.635260555601
 20
802.226312417035
 30
0.0
 11
22.74724730981
 21
802.077479165099
 31
0.0
  0
LINE
  5
1101
330
1D
100
AcDbEntity
  8
0
100
AcDbLine
 10
22.824412738457
 20
804.743933608104
 30
0.0
 11
22.946098719449
 21
804.578299909752
 31
0.0
  0
LINE
  5
1102
330
1D
100
AcDbEntity
  8
0
100
AcDbLine
 10
22.73728546507
 20
804.882224743872
 30
0.0
 11
22.824412738457
 21
804.743933608104
 31
0.0
  0
LINE
  5
1103
330
1D
100
AcDbEntity
  8
0
100
AcDbLine
 10
22.97538336615
 20
804.893022405718
 30
0.0
 11
23.13113126723
 21
804.761185683561
 31
0.0
  0
LINE
  5
1104
330
1D
100
AcDbEntity
  8
0
100
AcDbLine
 10
22.844849686302
 20
804.988131440123
 30
0.0
 11
22.97538336615
 21
804.893022405718
 31
0.0
  0
LINE
  5
1105
330
1D
100
AcDbEntity
  8
0
100
AcDbLine
 10
22.748359135072
 20
805.037604902943
 30
0.0
 11
22.844849686302
 21
804.988131440123
 31
0.0
  0
LINE
  5
1106
330
1D
100
AcDbEntity
  8
0
100
AcDbLine
 10
22.698315490977
 20
805.033126768773
 30
0.0
 11
22.696572343854
 21
804.978707549391
 31
0.0
  0
LINE
  5
1107
330
1D
100
AcDbEntity
  8
0
100
AcDbLine
 10
22.698315490977
 20
805.033126768773
 30
0.0
 11
22.846613821931
 21
805.171227425385
 31
0.0
  0
LINE
  5
1108
330
1D
100
AcDbEntity
  8
0
100
AcDbLine
 10
22.698315490977
 20
805.033126768773
 30
0.0
 11
22.748359135072
 21
805.037604902943
 31
0.0
  0
LINE
  5
1109
330
1D
100
AcDbEntity
  8
0
100
AcDbLine
 10
22.696572343854
 20
804.978707549391
 30
0.0
 11
22.73728546507
 21
804.882224743872
 31
0.0
  0
LINE
  5
110A
330
1D
100
AcDbEntity
  8
0
100
AcDbLine
 10
23.456899188001
 20
804.009032273812
 30
0.0
 11
23.630646504542
 21
803.844171453741
 31
0.0
  0
LINE
  5
110B
330
1D
100
AcDbEntity
  8
0
100
AcDbLine
 10
23.278420336129
 20
804.192097834295
 30
0.0
 11
23.456899188001
 21
804.009032273812
 31
0.0
  0
LINE
  5
110C
330
1D
100
AcDbEntity
  8
0
100
AcDbLine
 10
23.10198456232
 20
804.388302109784
 30
0.0
 11
23.278420336129
 21
804.192097834295
 31
0.0
  0
LINE
  5
110D
330
1D
100
AcDbEntity
  8
0
100
AcDbLine
 10
22.946098719449
 20
804.578299909752
 30
0.0
 11
23.10198456232
 21
804.388302109784
 31
0.0
  0
LINE
  5
110E
330
1D
100
AcDbEntity
  8
0
100
AcDbLine
 10
23.13113126723
 20
804.761185683561
 30
0.0
 11
23.304878583771
 21
804.596324863489
 31
0.0
  0
LINE
  5
110F
330
1D
100
AcDbEntity
  8
0
100
AcDbLine
 10
23.304878583771
 20
804.596324863489
 30
0.0
 11
23.483270833102
 21
804.413309303007
 31
0.0
  0
LINE
  5
1110
330
1D
100
AcDbEntity
  8
0
100
AcDbLine
 10
23.483270833102
 20
804.413309303007
 30
0.0
 11
23.659706606912
 21
804.217105027518
 31
0.0
  0
LINE
  5
1111
330
1D
100
AcDbEntity
  8
0
100
AcDbLine
 10
22.73183029046
 20
802.319976104285
 30
0.0
 11
22.869965825036
 21
802.2022338685
 31
0.0
  0
LINE
  5
1112
330
1D
100
AcDbEntity
  8
0
100
AcDbLine
 10
23.659706606912
 20
804.217105027518
 30
0.0
 11
23.815592449782
 21
804.02710722755
 31
0.0
  0
LINE
  5
1113
330
1D
100
AcDbEntity
  8
0
100
AcDbLine
 10
23.630646504542
 20
803.844171453741
 30
0.0
 11
23.786394405622
 21
803.712334731584
 31
0.0
  0
LINE
  5
1114
330
1D
100
AcDbEntity
  8
0
100
AcDbLine
 10
23.815592449782
 20
804.02710722755
 30
0.0
 11
23.937365033315
 21
803.861423529198
 31
0.0
  0
LINE
  5
1115
330
1D
100
AcDbEntity
  8
0
100
AcDbLine
 10
22.624368526999
 20
802.398646870099
 30
0.0
 11
22.73183029046
 21
802.319976104285
 31
0.0
  0
LINE
  5
1116
330
1D
100
AcDbEntity
  8
0
100
AcDbLine
 10
22.556189826796
 20
802.430157897353
 30
0.0
 11
23.038797379138
 21
802.881936083714
 31
0.0
  0
LINE
  5
1117
330
1D
100
AcDbEntity
  8
0
100
AcDbLine
 10
22.556189826796
 20
802.430157897353
 30
0.0
 11
22.624368526999
 21
802.398646870099
 31
0.0
  0
LINE
  5
1118
330
1D
100
AcDbEntity
  8
0
100
AcDbLine
 10
22.537049892156
 20
802.407606558103
 30
0.0
 11
22.565648018924
 21
802.336939966666
 31
0.0
  0
LINE
  5
1119
330
1D
100
AcDbEntity
  8
0
100
AcDbLine
 10
22.565648018924
 20
802.336939966666
 30
0.0
 11
22.635260555601
 21
802.226312417035
 31
0.0
  0
LINE
  5
111A
330
1D
100
AcDbEntity
  8
0
100
AcDbLine
 10
23.415990354492
 20
801.342776095697
 30
0.0
 11
23.57967671284
 21
801.188689184861
 31
0.0
  0
LINE
  5
111B
330
1D
100
AcDbEntity
  8
0
100
AcDbLine
 10
23.240407655043
 20
801.518857939321
 30
0.0
 11
23.415990354492
 21
801.342776095697
 31
0.0
  0
LINE
  5
111C
330
1D
100
AcDbEntity
  8
0
100
AcDbLine
 10
23.058663997401
 20
801.712468690332
 30
0.0
 11
23.240407655043
 21
801.518857939321
 31
0.0
  0
LINE
  5
111D
330
1D
100
AcDbEntity
  8
0
100
AcDbLine
 10
23.57967671284
 20
801.188689184861
 30
0.0
 11
23.717862247415
 21
801.071033551617
 31
0.0
  0
LINE
  5
111E
330
1D
100
AcDbEntity
  8
0
100
AcDbLine
 10
23.717862247415
 20
801.071033551617
 30
0.0
 11
23.825274010876
 21
800.992276183262
 31
0.0
  0
LINE
  5
111F
330
1D
100
AcDbEntity
  8
0
100
AcDbLine
 10
23.825274010876
 20
800.992276183262
 30
0.0
 11
23.893502711079
 21
800.960851758548
 31
0.0
  0
LINE
  5
1120
330
1D
100
AcDbEntity
  8
0
100
AcDbLine
 10
23.893502711079
 20
800.960851758548
 30
0.0
 11
24.313235141427
 21
801.353771337239
 31
0.0
  0
LINE
  5
1121
330
1D
100
AcDbEntity
  8
0
100
AcDbLine
 10
23.883994518952
 20
801.053983086696
 30
0.0
 11
23.91259264572
 21
800.983316495258
 31
0.0
  0
LINE
  5
1122
330
1D
100
AcDbEntity
  8
0
100
AcDbLine
 10
23.814381982275
 20
801.164610636326
 30
0.0
 11
23.883994518952
 21
801.053983086696
 31
0.0
  0
LINE
  5
1123
330
1D
100
AcDbEntity
  8
0
100
AcDbLine
 10
23.702308625526
 20
801.313493888262
 30
0.0
 11
23.814381982275
 21
801.164610636326
 31
0.0
  0
LINE
  5
1124
330
1D
100
AcDbEntity
  8
0
100
AcDbLine
 10
22.889083221741
 20
801.904946170902
 30
0.0
 11
23.058663997401
 21
801.712468690332
 31
0.0
  0
LINE
  5
1125
330
1D
100
AcDbEntity
  8
0
100
AcDbLine
 10
22.74724730981
 20
802.077479165099
 30
0.0
 11
22.889083221741
 21
801.904946170902
 31
0.0
  0
LINE
  5
1126
330
1D
100
AcDbEntity
  8
0
100
AcDbLine
 10
23.786394405622
 20
803.712334731584
 30
0.0
 11
23.916841482929
 21
803.617275697179
 31
0.0
  0
LINE
  5
1127
330
1D
100
AcDbEntity
  8
0
100
AcDbLine
 10
23.916841482929
 20
803.617275697179
 30
0.0
 11
24.013332034159
 21
803.567802234359
 31
0.0
  0
LINE
  5
1128
330
1D
100
AcDbEntity
  8
0
100
AcDbLine
 10
24.013332034159
 20
803.567802234359
 30
0.0
 11
24.063375678255
 21
803.572280368528
 31
0.0
  0
LINE
  5
1129
330
1D
100
AcDbEntity
  8
0
100
AcDbLine
 10
24.065205427918
 20
803.62664958791
 30
0.0
 11
24.063375678255
 21
803.572280368528
 31
0.0
  0
LINE
  5
112A
330
1D
100
AcDbEntity
  8
0
100
AcDbLine
 10
24.063375678255
 20
803.572280368528
 30
0.0
 11
24.659282888242
 21
804.127264067675
 31
0.0
  0
LINE
  5
112B
330
1D
100
AcDbEntity
  8
0
100
AcDbLine
 10
24.024405704162
 20
803.723182393429
 30
0.0
 11
24.065205427918
 21
803.62664958791
 31
0.0
  0
LINE
  5
112C
330
1D
100
AcDbEntity
  8
0
100
AcDbLine
 10
23.937365033315
 20
803.861423529198
 30
0.0
 11
24.024405704162
 21
803.723182393429
 31
0.0
  0
LINE
  5
112D
330
1D
100
AcDbEntity
  8
0
100
AcDbLine
 10
22.869965825036
 20
802.2022338685
 30
0.0
 11
23.033652183384
 21
802.048146957665
 31
0.0
  0
LINE
  5
112E
330
1D
100
AcDbEntity
  8
0
100
AcDbLine
 10
23.033652183384
 20
802.048146957665
 30
0.0
 11
23.209234882833
 21
801.87206511404
 31
0.0
  0
LINE
  5
112F
330
1D
100
AcDbEntity
  8
0
100
AcDbLine
 10
23.209234882833
 20
801.87206511404
 30
0.0
 11
23.390978540475
 21
801.678454363029
 31
0.0
  0
LINE
  5
1130
330
1D
100
AcDbEntity
  8
0
100
AcDbLine
 10
23.390978540475
 20
801.678454363029
 30
0.0
 11
23.560522713594
 21
801.486113485
 31
0.0
  0
LINE
  5
1131
330
1D
100
AcDbEntity
  8
0
100
AcDbLine
 10
27.832734230206
 20
803.838000892452
 30
0.0
 11
28.010825775381
 21
803.662664497094
 31
0.0
  0
LINE
  5
1132
330
1D
100
AcDbEntity
  8
0
100
AcDbLine
 10
27.661794608819
 20
804.031724783183
 30
0.0
 11
27.832734230206
 21
803.838000892452
 31
0.0
  0
LINE
  5
1133
330
1D
100
AcDbEntity
  8
0
100
AcDbLine
 10
27.506107357638
 20
804.238466554046
 30
0.0
 11
27.661794608819
 21
804.031724783183
 31
0.0
  0
LINE
  5
1134
330
1D
100
AcDbEntity
  8
0
100
AcDbLine
 10
27.382723111756
 20
804.437758771326
 30
0.0
 11
27.506107357638
 21
804.238466554046
 31
0.0
  0
LINE
  5
1135
330
1D
100
AcDbEntity
  8
0
100
AcDbLine
 10
28.010825775381
 20
803.662664497094
 30
0.0
 11
28.184244184537
 21
803.521433992719
 31
0.0
  0
LINE
  5
1136
330
1D
100
AcDbEntity
  8
0
100
AcDbLine
 10
28.184244184537
 20
803.521433992719
 30
0.0
 11
28.342936383312
 21
803.418496943762
 31
0.0
  0
LINE
  5
1137
330
1D
100
AcDbEntity
  8
0
100
AcDbLine
 10
28.342936383312
 20
803.418496943762
 30
0.0
 11
28.47827346432
 21
803.363107644217
 31
0.0
  0
LINE
  5
1138
330
1D
100
AcDbEntity
  8
0
100
AcDbLine
 10
27.301566930983
 20
804.610592142879
 30
0.0
 11
27.382723111756
 21
804.437758771326
 31
0.0
  0
LINE
  5
1139
330
1D
100
AcDbEntity
  8
0
100
AcDbLine
 10
27.260492405157
 20
804.754048977251
 30
0.0
 11
27.301566930983
 21
804.610592142879
 31
0.0
  0
LINE
  5
113A
330
1D
100
AcDbEntity
  8
0
100
AcDbLine
 10
28.232344516295
 20
804.239946211185
 30
0.0
 11
28.388118370017
 21
804.033154440322
 31
0.0
  0
LINE
  5
113B
330
1D
100
AcDbEntity
  8
0
100
AcDbLine
 10
28.388118370017
 20
804.033154440322
 30
0.0
 11
28.511416013358
 21
803.833912223043
 31
0.0
  0
LINE
  5
113C
330
1D
100
AcDbEntity
  8
0
100
AcDbLine
 10
28.511416013358
 20
803.833912223043
 30
0.0
 11
28.592658796671
 21
803.66102885149
 31
0.0
  0
LINE
  5
113D
330
1D
100
AcDbEntity
  8
0
100
AcDbLine
 10
28.47827346432
 20
803.363107644217
 30
0.0
 11
28.574593765213
 21
803.364539299164
 31
0.0
  0
LINE
  5
113E
330
1D
100
AcDbEntity
  8
0
100
AcDbLine
 10
28.574593765213
 20
803.364539299164
 30
0.0
 11
29.232538306677
 21
803.934669456258
 31
0.0
  0
LINE
  5
113F
330
1D
100
AcDbEntity
  8
0
100
AcDbLine
 10
28.574593765213
 20
803.364539299164
 30
0.0
 11
28.625292991997
 21
803.418752935857
 31
0.0
  0
LINE
  5
1140
330
1D
100
AcDbEntity
  8
0
100
AcDbLine
 10
28.633646719957
 20
803.517622017117
 30
0.0
 11
28.625292991997
 21
803.418752935857
 31
0.0
  0
LINE
  5
1141
330
1D
100
AcDbEntity
  8
0
100
AcDbLine
 10
28.592658796671
 20
803.66102885149
 30
0.0
 11
28.633646719957
 21
803.517622017117
 31
0.0
  0
LINE
  5
1142
330
1D
100
AcDbEntity
  8
0
100
AcDbLine
 10
27.883449952273
 20
804.609043099815
 30
0.0
 11
28.061454894908
 21
804.433756704457
 31
0.0
  0
LINE
  5
1143
330
1D
100
AcDbEntity
  8
0
100
AcDbLine
 10
28.061454894908
 20
804.433756704457
 30
0.0
 11
28.232344516295
 21
804.239946211185
 31
0.0
  0
LINE
  5
1144
330
1D
100
AcDbEntity
  8
0
100
AcDbLine
 10
27.709894940577
 20
804.750237001649
 30
0.0
 11
27.883449952273
 21
804.609043099815
 31
0.0
  0
LINE
  5
1145
330
1D
100
AcDbEntity
  8
0
100
AcDbLine
 10
27.551289344343
 20
804.853124050606
 30
0.0
 11
27.709894940577
 21
804.750237001649
 31
0.0
  0
LINE
  5
1146
330
1D
100
AcDbEntity
  8
0
100
AcDbLine
 10
27.415952263334
 20
804.908513350152
 30
0.0
 11
27.551289344343
 21
804.853124050606
 31
0.0
  0
LINE
  5
1147
330
1D
100
AcDbEntity
  8
0
100
AcDbLine
 10
27.319545359901
 20
804.907131695205
 30
0.0
 11
27.961956030308
 21
805.463856708322
 31
0.0
  0
LINE
  5
1148
330
1D
100
AcDbEntity
  8
0
100
AcDbLine
 10
27.319545359901
 20
804.907131695205
 30
0.0
 11
27.415952263334
 21
804.908513350152
 31
0.0
  0
LINE
  5
1149
330
1D
100
AcDbEntity
  8
0
100
AcDbLine
 10
27.268932735658
 20
804.852868058511
 30
0.0
 11
27.260492405157
 21
804.754048977251
 31
0.0
  0
LINE
  5
114A
330
1D
100
AcDbEntity
  8
0
100
AcDbLine
 10
27.268932735658
 20
804.852868058511
 30
0.0
 11
27.319545359901
 21
804.907131695205
 31
0.0
  0
LINE
  5
114B
330
1D
100
AcDbEntity
  8
0
100
AcDbLine
 10
23.560522713594
 20
801.486113485
 30
0.0
 11
23.702308625526
 21
801.313493888262
 31
0.0
  0
LINE
  5
114C
330
1D
100
AcDbEntity
  8
0
100
AcDbLine
 10
20.436597538155
 20
802.702316362095
 30
0.0
 11
20.601163250305
 21
802.506152536723
 31
0.0
  0
LINE
  5
114D
330
1D
100
AcDbEntity
  8
0
100
AcDbLine
 10
20.272118428544
 20
802.898430187466
 30
0.0
 11
20.436597538155
 21
802.702316362095
 31
0.0
  0
LINE
  5
114E
330
1D
100
AcDbEntity
  8
0
100
AcDbLine
 10
18.35635723413
 20
812.207834463572
 30
0.0
 11
18.517146855517
 21
811.996530257143
 31
0.0
  0
LINE
  5
114F
330
1D
100
AcDbEntity
  8
0
100
AcDbLine
 10
9.480674602153
 20
817.338101193131
 30
0.0
 11
9.640954673658
 21
817.137714420418
 31
0.0
  0
LINE
  5
1150
330
1D
100
AcDbEntity
  8
0
100
AcDbLine
 10
19.205151875801
 20
811.737989908138
 30
0.0
 11
19.241174031422
 21
811.599182111871
 31
0.0
  0
LINE
  5
1151
330
1D
100
AcDbEntity
  8
0
100
AcDbLine
 10
9.324652156742
 20
817.528062390558
 30
0.0
 11
9.480674602153
 21
817.338101193131
 31
0.0
  0
LINE
  5
1152
330
1D
100
AcDbEntity
  8
0
100
AcDbLine
 10
9.270097674071
 20
817.47157125479
 30
0.0
 11
9.414350057822
 21
817.281823712561
 31
0.0
  0
LINE
  5
1153
330
1D
100
AcDbEntity
  8
0
100
AcDbLine
 10
9.173814371579
 20
817.564803682954
 30
0.0
 11
9.232890632515
 21
817.489126768417
 31
0.0
  0
LINE
  5
1154
330
1D
100
AcDbEntity
  8
0
100
AcDbLine
 10
8.998559378387
 20
817.859053130466
 30
0.0
 11
9.052282049486
 21
817.773303526327
 31
0.0
  0
LINE
  5
1155
330
1D
100
AcDbEntity
  8
0
100
AcDbLine
 10
9.052282049486
 20
817.773303526327
 30
0.0
 11
9.14675643719
 21
817.638737965845
 31
0.0
  0
LINE
  5
1156
330
1D
100
AcDbEntity
  8
0
100
AcDbLine
 10
8.988022140752
 20
817.891002099511
 30
0.0
 11
9.425806456406
 21
818.237176727824
 31
0.0
  0
LINE
  5
1157
330
1D
100
AcDbEntity
  8
0
100
AcDbLine
 10
9.016004568916
 20
817.874269086809
 30
0.0
 11
9.086509033083
 21
817.802386400907
 31
0.0
  0
LINE
  5
1158
330
1D
100
AcDbEntity
  8
0
100
AcDbLine
 10
9.086509033083
 20
817.802386400907
 30
0.0
 11
9.189318357278
 21
817.687257373904
 31
0.0
  0
LINE
  5
1159
330
1D
100
AcDbEntity
  8
0
100
AcDbLine
 10
9.189318357278
 20
817.687257373904
 30
0.0
 11
9.324652156742
 21
817.528062390558
 31
0.0
  0
LINE
  5
115A
330
1D
100
AcDbEntity
  8
0
100
AcDbLine
 10
18.214651776018
 20
812.423593410411
 30
0.0
 11
18.35635723413
 21
812.207834463572
 31
0.0
  0
LINE
  5
115B
330
1D
100
AcDbEntity
  8
0
100
AcDbLine
 10
18.10442682228
 20
812.622678190275
 30
0.0
 11
18.214651776018
 21
812.423593410411
 31
0.0
  0
LINE
  5
115C
330
1D
100
AcDbEntity
  8
0
100
AcDbLine
 10
19.016443946371
 20
812.114138186574
 30
0.0
 11
19.126668900109
 21
811.91505340671
 31
0.0
  0
LINE
  5
115D
330
1D
100
AcDbEntity
  8
0
100
AcDbLine
 10
19.126668900109
 20
811.91505340671
 30
0.0
 11
19.205151875801
 21
811.737989908138
 31
0.0
  0
LINE
  5
115E
330
1D
100
AcDbEntity
  8
0
100
AcDbLine
 10
9.075332804197
 20
817.69082860464
 30
0.0
 11
9.173814371579
 21
817.564803682954
 31
0.0
  0
LINE
  5
115F
330
1D
100
AcDbEntity
  8
0
100
AcDbLine
 10
8.944772209813
 20
817.857891021701
 30
0.0
 11
9.075332804197
 21
817.69082860464
 31
0.0
  0
LINE
  5
1160
330
1D
100
AcDbEntity
  8
0
100
AcDbLine
 10
18.026030449128
 20
812.799691688847
 30
0.0
 11
18.10442682228
 21
812.622678190275
 31
0.0
  0
LINE
  5
1161
330
1D
100
AcDbEntity
  8
0
100
AcDbLine
 10
18.714035469412
 20
812.541151339841
 30
0.0
 11
18.874738488258
 21
812.329897133413
 31
0.0
  0
LINE
  5
1162
330
1D
100
AcDbEntity
  8
0
100
AcDbLine
 10
18.874738488258
 20
812.329897133413
 30
0.0
 11
19.016443946371
 21
812.114138186574
 31
0.0
  0
LINE
  5
1163
330
1D
100
AcDbEntity
  8
0
100
AcDbLine
 10
17.990058293507
 20
812.938586087654
 30
0.0
 11
18.026030449128
 21
812.799691688847
 31
0.0
  0
LINE
  5
1164
330
1D
100
AcDbEntity
  8
0
100
AcDbLine
 10
8.797031557471
 20
818.046996705501
 30
0.0
 11
8.944772209813
 21
817.857891021701
 31
0.0
  0
LINE
  5
1165
330
1D
100
AcDbEntity
  8
0
100
AcDbLine
 10
8.639387126613
 20
818.248748541724
 30
0.0
 11
8.797031557471
 21
818.046996705501
 31
0.0
  0
LINE
  5
1166
330
1D
100
AcDbEntity
  8
0
100
AcDbLine
 10
4.166658996785
 20
825.18695617242
 30
0.0
 11
4.190732510161
 21
825.125252720703
 31
0.0
  0
LINE
  5
1167
330
1D
100
AcDbEntity
  8
0
100
AcDbLine
 10
4.183723664434
 20
825.116713043802
 30
0.0
 11
4.249580940545
 21
825.15495319667
 31
0.0
  0
LINE
  5
1168
330
1D
100
AcDbEntity
  8
0
100
AcDbLine
 10
5.699922391588
 20
823.497246273603
 30
0.0
 11
5.828499080436
 21
823.366547631358
 31
0.0
  0
LINE
  5
1169
330
1D
100
AcDbEntity
  8
0
100
AcDbLine
 10
5.557385517762
 20
823.665565166185
 30
0.0
 11
5.699922391588
 21
823.497246273603
 31
0.0
  0
LINE
  5
116A
330
1D
100
AcDbEntity
  8
0
100
AcDbLine
 10
5.95992211052
 20
823.278324425063
 30
0.0
 11
6.866538161554
 21
821.741284060096
 31
0.0
  0
LINE
  5
116B
330
1D
100
AcDbEntity
  8
0
100
AcDbLine
 10
5.95992211052
 20
823.278324425063
 30
0.0
 11
6.866538161554
 21
821.741284060096
 31
0.0
  0
LINE
  5
116C
330
1D
100
AcDbEntity
  8
0
100
AcDbLine
 10
5.931573537202
 20
823.288677827438
 30
0.0
 11
6.006146723778
 21
823.26144237547
 31
0.0
  0
LINE
  5
116D
330
1D
100
AcDbEntity
  8
0
100
AcDbLine
 10
6.866538161554
 20
821.741284060096
 30
0.0
 11
8.524251206137
 21
819.382154511942
 31
0.0
  0
LINE
  5
116E
330
1D
100
AcDbEntity
  8
0
100
AcDbLine
 10
8.476774734344
 20
821.036895616374
 30
0.0
 11
8.61936160817
 21
820.868663326333
 31
0.0
  0
LINE
  5
116F
330
1D
100
AcDbEntity
  8
0
100
AcDbLine
 10
8.324274789858
 20
821.240757964373
 30
0.0
 11
8.476774734344
 21
821.036895616374
 31
0.0
  0
LINE
  5
1170
330
1D
100
AcDbEntity
  8
0
100
AcDbLine
 10
8.176874141218
 20
821.461652551859
 30
0.0
 11
8.324274789858
 21
821.240757964373
 31
0.0
  0
LINE
  5
1171
330
1D
100
AcDbEntity
  8
0
100
AcDbLine
 10
8.048501180329
 20
821.677104061282
 30
0.0
 11
8.176874141218
 21
821.461652551859
 31
0.0
  0
LINE
  5
1172
330
1D
100
AcDbEntity
  8
0
100
AcDbLine
 10
7.941578854535
 20
821.879709160544
 30
0.0
 11
8.048501180329
 21
821.677104061282
 31
0.0
  0
LINE
  5
1173
330
1D
100
AcDbEntity
  8
0
100
AcDbLine
 10
7.867222416024
 20
822.053120031171
 30
0.0
 11
7.941578854535
 21
821.879709160544
 31
0.0
  0
LINE
  5
1174
330
1D
100
AcDbEntity
  8
0
100
AcDbLine
 10
7.825772761328
 20
822.190327123283
 30
0.0
 11
7.867222416024
 21
822.053120031171
 31
0.0
  0
LINE
  5
1175
330
1D
100
AcDbEntity
  8
0
100
AcDbLine
 10
8.311096025553
 20
821.907931675015
 30
0.0
 11
8.463682572579
 21
821.704019327016
 31
0.0
  0
LINE
  5
1176
330
1D
100
AcDbEntity
  8
0
100
AcDbLine
 10
8.463682572579
 20
821.704019327016
 30
0.0
 11
8.61113322122
 21
821.483211342071
 31
0.0
  0
LINE
  5
1177
330
1D
100
AcDbEntity
  8
0
100
AcDbLine
 10
8.61113322122
 20
821.483211342071
 30
0.0
 11
8.739506182108
 21
821.267759832648
 31
0.0
  0
LINE
  5
1178
330
1D
100
AcDbEntity
  8
0
100
AcDbLine
 10
8.747888297018
 20
820.737878081547
 30
0.0
 11
8.851012753784
 21
820.660094880167
 31
0.0
  0
LINE
  5
1179
330
1D
100
AcDbEntity
  8
0
100
AcDbLine
 10
8.851012753784
 20
820.660094880167
 30
0.0
 11
8.92558594036
 21
820.632859428199
 31
0.0
  0
LINE
  5
117A
330
1D
100
AcDbEntity
  8
0
100
AcDbLine
 10
8.92558594036
 20
820.632859428199
 30
0.0
 11
8.96490741033
 21
820.663966212015
 31
0.0
  0
LINE
  5
117B
330
1D
100
AcDbEntity
  8
0
100
AcDbLine
 10
8.92558594036
 20
820.632859428199
 30
0.0
 11
9.271511024508
 21
820.862209020477
 31
0.0
  0
LINE
  5
117C
330
1D
100
AcDbEntity
  8
0
100
AcDbLine
 10
8.96223460111
 20
820.754536770647
 30
0.0
 11
8.96490741033
 21
820.663966212015
 31
0.0
  0
LINE
  5
117D
330
1D
100
AcDbEntity
  8
0
100
AcDbLine
 10
8.920648343874
 20
820.891707260218
 30
0.0
 11
8.96223460111
 21
820.754536770647
 31
0.0
  0
LINE
  5
117E
330
1D
100
AcDbEntity
  8
0
100
AcDbLine
 10
8.846378507902
 20
821.065068130846
 30
0.0
 11
8.920648343874
 21
820.891707260218
 31
0.0
  0
LINE
  5
117F
330
1D
100
AcDbEntity
  8
0
100
AcDbLine
 10
8.61936160817
 20
820.868663326333
 30
0.0
 11
8.747888297018
 21
820.737878081547
 31
0.0
  0
LINE
  5
1180
330
1D
100
AcDbEntity
  8
0
100
AcDbLine
 10
8.739506182108
 20
821.267759832648
 30
0.0
 11
8.846378507902
 21
821.065068130846
 31
0.0
  0
LINE
  5
1181
330
1D
100
AcDbEntity
  8
0
100
AcDbLine
 10
7.823099952108
 20
822.280897681915
 30
0.0
 11
7.825772761328
 21
822.190327123283
 31
0.0
  0
LINE
  5
1182
330
1D
100
AcDbEntity
  8
0
100
AcDbLine
 10
7.823099952108
 20
822.280897681915
 30
0.0
 11
7.862334819537
 21
822.31205446573
 31
0.0
  0
LINE
  5
1183
330
1D
100
AcDbEntity
  8
0
100
AcDbLine
 10
7.936994608654
 20
822.284769013763
 30
0.0
 11
8.039982462879
 21
822.206949209842
 31
0.0
  0
LINE
  5
1184
330
1D
100
AcDbEntity
  8
0
100
AcDbLine
 10
7.862334819537
 20
822.31205446573
 30
0.0
 11
8.204720299787
 21
822.539057287716
 31
0.0
  0
LINE
  5
1185
330
1D
100
AcDbEntity
  8
0
100
AcDbLine
 10
7.862334819537
 20
822.31205446573
 30
0.0
 11
7.936994608654
 21
822.284769013763
 31
0.0
  0
LINE
  5
1186
330
1D
100
AcDbEntity
  8
0
100
AcDbLine
 10
8.039982462879
 20
822.206949209842
 30
0.0
 11
8.168559151727
 21
822.076250567597
 31
0.0
  0
LINE
  5
1187
330
1D
100
AcDbEntity
  8
0
100
AcDbLine
 10
8.168559151727
 20
822.076250567597
 30
0.0
 11
8.311096025553
 21
821.907931675015
 31
0.0
  0
LINE
  5
1188
330
1D
100
AcDbEntity
  8
0
100
AcDbLine
 10
6.006146723778
 20
823.26144237547
 30
0.0
 11
6.045518193747
 21
823.292635761827
 31
0.0
  0
LINE
  5
1189
330
1D
100
AcDbEntity
  8
0
100
AcDbLine
 10
6.006146723778
 20
823.26144237547
 30
0.0
 11
6.69747505583
 21
823.719795580694
 31
0.0
  0
LINE
  5
118A
330
1D
100
AcDbEntity
  8
0
100
AcDbLine
 10
6.042845384527
 20
823.383206320458
 30
0.0
 11
6.045518193747
 21
823.292635761827
 31
0.0
  0
LINE
  5
118B
330
1D
100
AcDbEntity
  8
0
100
AcDbLine
 10
6.001345729832
 20
823.520326810029
 30
0.0
 11
6.042845384527
 21
823.383206320458
 31
0.0
  0
LINE
  5
118C
330
1D
100
AcDbEntity
  8
0
100
AcDbLine
 10
5.828499080436
 20
823.366547631358
 30
0.0
 11
5.931573537202
 21
823.288677827438
 31
0.0
  0
LINE
  5
118D
330
1D
100
AcDbEntity
  8
0
100
AcDbLine
 10
5.92698929132
 20
823.693737680657
 30
0.0
 11
6.001345729832
 21
823.520326810029
 31
0.0
  0
LINE
  5
118E
330
1D
100
AcDbEntity
  8
0
100
AcDbLine
 10
5.820116965526
 20
823.896429382459
 30
0.0
 11
5.92698929132
 21
823.693737680657
 31
0.0
  0
LINE
  5
118F
330
1D
100
AcDbEntity
  8
0
100
AcDbLine
 10
5.404885573276
 20
823.869427514185
 30
0.0
 11
5.557385517762
 21
823.665565166185
 31
0.0
  0
LINE
  5
1190
330
1D
100
AcDbEntity
  8
0
100
AcDbLine
 10
5.257484924635
 20
824.09032210167
 30
0.0
 11
5.404885573276
 21
823.869427514185
 31
0.0
  0
LINE
  5
1191
330
1D
100
AcDbEntity
  8
0
100
AcDbLine
 10
5.691694004638
 20
824.111794289342
 30
0.0
 11
5.820116965526
 21
823.896429382459
 31
0.0
  0
LINE
  5
1192
330
1D
100
AcDbEntity
  8
0
100
AcDbLine
 10
5.129061963747
 20
824.305687008553
 30
0.0
 11
5.257484924635
 21
824.09032210167
 31
0.0
  0
LINE
  5
1193
330
1D
100
AcDbEntity
  8
0
100
AcDbLine
 10
5.022189637953
 20
824.508378710355
 30
0.0
 11
5.129061963747
 21
824.305687008553
 31
0.0
  0
LINE
  5
1194
330
1D
100
AcDbEntity
  8
0
100
AcDbLine
 10
4.590744885253
 20
824.76509447802
 30
0.0
 11
4.953062775264
 21
824.985313219679
 31
0.0
  0
LINE
  5
1195
330
1D
100
AcDbEntity
  8
0
100
AcDbLine
 10
4.590744885253
 20
824.76509447802
 30
0.0
 11
5.189962834288
 21
825.129302336241
 31
0.0
  0
LINE
  5
1196
330
1D
100
AcDbEntity
  8
0
100
AcDbLine
 10
4.534047978119
 20
824.801292554231
 30
0.0
 11
4.590744885253
 21
824.76509447802
 31
0.0
  0
LINE
  5
1197
330
1D
100
AcDbEntity
  8
0
100
AcDbLine
 10
4.605053611363
 20
824.858677918633
 30
0.0
 11
4.616186228204
 21
824.782160176624
 31
0.0
  0
LINE
  5
1198
330
1D
100
AcDbEntity
  8
0
100
AcDbLine
 10
5.544293355997
 20
824.332688876827
 30
0.0
 11
5.691694004638
 21
824.111794289342
 31
0.0
  0
LINE
  5
1199
330
1D
100
AcDbEntity
  8
0
100
AcDbLine
 10
4.555966649972
 20
824.991056807514
 30
0.0
 11
4.605053611363
 21
824.858677918633
 31
0.0
  0
LINE
  5
119A
330
1D
100
AcDbEntity
  8
0
100
AcDbLine
 10
4.947833199441
 20
824.681789580982
 30
0.0
 11
5.022189637953
 21
824.508378710355
 31
0.0
  0
LINE
  5
119B
330
1D
100
AcDbEntity
  8
0
100
AcDbLine
 10
4.334080995779
 20
825.036139580982
 30
0.0
 11
4.445127815348
 21
824.896278314494
 31
0.0
  0
LINE
  5
119C
330
1D
100
AcDbEntity
  8
0
100
AcDbLine
 10
4.445127815348
 20
824.896278314494
 30
0.0
 11
4.534047978119
 21
824.801292554231
 31
0.0
  0
LINE
  5
119D
330
1D
100
AcDbEntity
  8
0
100
AcDbLine
 10
4.249580940545
 20
825.15495319667
 30
0.0
 11
4.334080995779
 21
825.036139580982
 31
0.0
  0
LINE
  5
119E
330
1D
100
AcDbEntity
  8
0
100
AcDbLine
 10
8.023708372224
 20
819.036761657982
 30
0.0
 11
8.50523949597
 21
819.412984434419
 31
0.0
  0
LINE
  5
119F
330
1D
100
AcDbEntity
  8
0
100
AcDbLine
 10
8.105009881647
 20
818.932780003034
 30
0.0
 11
8.203578051569
 21
818.806705081348
 31
0.0
  0
LINE
  5
11A0
330
1D
100
AcDbEntity
  8
0
100
AcDbLine
 10
8.04593362071
 20
819.008456917571
 30
0.0
 11
8.105009881647
 21
818.932780003034
 31
0.0
  0
LINE
  5
11A1
330
1D
100
AcDbEntity
  8
0
100
AcDbLine
 10
8.203578051569
 20
818.806705081348
 30
0.0
 11
8.334002043412
 21
818.639606061747
 31
0.0
  0
LINE
  5
11A2
330
1D
100
AcDbEntity
  8
0
100
AcDbLine
 10
18.551052512224
 20
812.727856577225
 30
0.0
 11
18.714035469412
 21
812.541151339841
 31
0.0
  0
LINE
  5
11A3
330
1D
100
AcDbEntity
  8
0
100
AcDbLine
 10
18.392084807224
 20
812.885916435402
 30
0.0
 11
18.551052512224
 21
812.727856577225
 31
0.0
  0
LINE
  5
11A4
330
1D
100
AcDbEntity
  8
0
100
AcDbLine
 10
18.249180619301
 20
812.999599121304
 30
0.0
 11
18.392084807224
 21
812.885916435402
 31
0.0
  0
LINE
  5
11A5
330
1D
100
AcDbEntity
  8
0
100
AcDbLine
 10
18.129169113578
 20
813.0677330959
 30
0.0
 11
18.249180619301
 21
812.999599121304
 31
0.0
  0
LINE
  5
11A6
330
1D
100
AcDbEntity
  8
0
100
AcDbLine
 10
18.03994977458
 20
813.081600667737
 30
0.0
 11
18.685090843605
 21
813.564416163516
 31
0.0
  0
LINE
  5
11A7
330
1D
100
AcDbEntity
  8
0
100
AcDbLine
 10
18.03994977458
 20
813.081600667737
 30
0.0
 11
18.129169113578
 21
813.0677330959
 31
0.0
  0
LINE
  5
11A8
330
1D
100
AcDbEntity
  8
0
100
AcDbLine
 10
17.993021124933
 20
813.035717862218
 30
0.0
 11
17.990058293507
 21
812.938586087654
 31
0.0
  0
LINE
  5
11A9
330
1D
100
AcDbEntity
  8
0
100
AcDbLine
 10
17.993021124933
 20
813.035717862218
 30
0.0
 11
18.03994977458
 21
813.081600667737
 31
0.0
  0
LINE
  5
11AA
330
1D
100
AcDbEntity
  8
0
100
AcDbLine
 10
12.839053303329
 20
817.069183734624
 30
0.0
 11
12.998107610869
 21
816.911073876447
 31
0.0
  0
LINE
  5
11AB
330
1D
100
AcDbEntity
  8
0
100
AcDbLine
 10
12.676156948682
 20
817.255838972008
 30
0.0
 11
12.839053303329
 21
817.069183734624
 31
0.0
  0
LINE
  5
11AC
330
1D
100
AcDbEntity
  8
0
100
AcDbLine
 10
12.515367327295
 20
817.467143178436
 30
0.0
 11
12.676156948682
 21
817.255838972008
 31
0.0
  0
LINE
  5
11AD
330
1D
100
AcDbEntity
  8
0
100
AcDbLine
 10
12.373661869182
 20
817.682902125275
 30
0.0
 11
12.515367327295
 21
817.467143178436
 31
0.0
  0
LINE
  5
11AE
330
1D
100
AcDbEntity
  8
0
100
AcDbLine
 10
12.263386915444
 20
817.881900302599
 30
0.0
 11
12.373661869182
 21
817.682902125275
 31
0.0
  0
LINE
  5
11AF
330
1D
100
AcDbEntity
  8
0
100
AcDbLine
 10
12.998107610869
 20
816.911073876447
 30
0.0
 11
13.140925196252
 21
816.797441190545
 31
0.0
  0
LINE
  5
11B0
330
1D
100
AcDbEntity
  8
0
100
AcDbLine
 10
12.185040542293
 20
818.059000403711
 30
0.0
 11
12.263386915444
 21
817.881900302599
 31
0.0
  0
LINE
  5
11B1
330
1D
100
AcDbEntity
  8
0
100
AcDbLine
 10
13.033748581423
 20
817.589205848277
 30
0.0
 11
13.175454039536
 21
817.373446901438
 31
0.0
  0
LINE
  5
11B2
330
1D
100
AcDbEntity
  8
0
100
AcDbLine
 10
13.175454039536
 20
817.373446901438
 30
0.0
 11
13.285678993274
 21
817.174362121574
 31
0.0
  0
LINE
  5
11B3
330
1D
100
AcDbEntity
  8
0
100
AcDbLine
 10
13.140925196252
 20
816.797441190545
 30
0.0
 11
13.261023304515
 21
816.729257215949
 31
0.0
  0
LINE
  5
11B4
330
1D
100
AcDbEntity
  8
0
100
AcDbLine
 10
13.261023304515
 20
816.729257215949
 30
0.0
 11
13.350242643514
 21
816.715389644112
 31
0.0
  0
LINE
  5
11B5
330
1D
100
AcDbEntity
  8
0
100
AcDbLine
 10
13.350242643514
 20
816.715389644112
 30
0.0
 11
13.97432159964
 21
817.182442518397
 31
0.0
  0
LINE
  5
11B6
330
1D
100
AcDbEntity
  8
0
100
AcDbLine
 10
13.350242643514
 20
816.715389644112
 30
0.0
 11
13.397171293161
 21
816.761272449632
 31
0.0
  0
LINE
  5
11B7
330
1D
100
AcDbEntity
  8
0
100
AcDbLine
 10
13.400134124587
 20
816.858404224195
 30
0.0
 11
13.397171293161
 21
816.761272449632
 31
0.0
  0
LINE
  5
11B8
330
1D
100
AcDbEntity
  8
0
100
AcDbLine
 10
13.364161968966
 20
816.997298623003
 30
0.0
 11
13.400134124587
 21
816.858404224195
 31
0.0
  0
LINE
  5
11B9
330
1D
100
AcDbEntity
  8
0
100
AcDbLine
 10
13.285678993274
 20
817.174362121574
 30
0.0
 11
13.364161968966
 21
816.997298623003
 31
0.0
  0
LINE
  5
11BA
330
1D
100
AcDbEntity
  8
0
100
AcDbLine
 10
12.71009920793
 20
817.987028689549
 30
0.0
 11
12.872995562577
 21
817.800373452165
 31
0.0
  0
LINE
  5
11BB
330
1D
100
AcDbEntity
  8
0
100
AcDbLine
 10
12.872995562577
 20
817.800373452165
 30
0.0
 11
13.033748581423
 21
817.589205848277
 31
0.0
  0
LINE
  5
11BC
330
1D
100
AcDbEntity
  8
0
100
AcDbLine
 10
12.551094900389
 20
818.145225150266
 30
0.0
 11
12.71009920793
 21
817.987028689549
 31
0.0
  0
LINE
  5
11BD
330
1D
100
AcDbEntity
  8
0
100
AcDbLine
 10
12.408190712466
 20
818.258907836169
 30
0.0
 11
12.551094900389
 21
818.145225150266
 31
0.0
  0
LINE
  5
11BE
330
1D
100
AcDbEntity
  8
0
100
AcDbLine
 10
12.288179206743
 20
818.327041810765
 30
0.0
 11
12.408190712466
 21
818.258907836169
 31
0.0
  0
LINE
  5
11BF
330
1D
100
AcDbEntity
  8
0
100
AcDbLine
 10
12.198909867745
 20
818.340822780061
 30
0.0
 11
12.653455697379
 21
818.680999185851
 31
0.0
  0
LINE
  5
11C0
330
1D
100
AcDbEntity
  8
0
100
AcDbLine
 10
12.198909867745
 20
818.340822780061
 30
0.0
 11
12.288179206743
 21
818.327041810765
 31
0.0
  0
LINE
  5
11C1
330
1D
100
AcDbEntity
  8
0
100
AcDbLine
 10
12.151981218098
 20
818.294939974542
 30
0.0
 11
12.149018386672
 21
818.197808199978
 31
0.0
  0
LINE
  5
11C2
330
1D
100
AcDbEntity
  8
0
100
AcDbLine
 10
12.151981218098
 20
818.294939974542
 30
0.0
 11
12.198909867745
 21
818.340822780061
 31
0.0
  0
LINE
  5
11C3
330
1D
100
AcDbEntity
  8
0
100
AcDbLine
 10
12.149018386672
 20
818.197808199978
 30
0.0
 11
12.185040542293
 21
818.059000403711
 31
0.0
  0
LINE
  5
11C4
330
1D
100
AcDbEntity
  8
0
100
AcDbLine
 10
8.334002043412
 20
818.639606061747
 30
0.0
 11
8.481742695754
 21
818.450500377947
 31
0.0
  0
LINE
  5
11C5
330
1D
100
AcDbEntity
  8
0
100
AcDbLine
 10
8.481742695754
 20
818.450500377947
 30
0.0
 11
8.639387126613
 21
818.248748541724
 31
0.0
  0
LINE
  5
11C6
330
1D
100
AcDbEntity
  8
0
100
AcDbLine
 10
4.141131051294
 20
825.169940473816
 30
0.0
 11
4.183723664434
 21
825.116713043802
 31
0.0
  0
LINE
  5
11C7
330
1D
100
AcDbEntity
  8
0
100
AcDbLine
 10
4.108172997288
 20
825.30605544976
 30
0.0
 11
4.166658996785
 21
825.18695617242
 31
0.0
  0
LINE
  5
11C8
330
1D
100
AcDbEntity
  8
0
100
AcDbLine
 10
4.202410147357
 20
825.22127898164
 30
0.0
 11
4.334080995779
 21
825.036139580982
 31
0.0
  0
LINE
  5
11C9
330
1D
100
AcDbEntity
  8
0
100
AcDbLine
 10
4.476219314926
 20
825.162730371446
 30
0.0
 11
4.555966649972
 21
824.991056807514
 31
0.0
  0
LINE
  5
11CA
330
1D
100
AcDbEntity
  8
0
100
AcDbLine
 10
4.018959894577
 20
825.474533823163
 30
0.0
 11
4.108172997288
 21
825.30605544976
 31
0.0
  0
LINE
  5
11CB
330
1D
100
AcDbEntity
  8
0
100
AcDbLine
 10
4.062273342593
 20
825.435554915777
 30
0.0
 11
4.202410147357
 21
825.22127898164
 31
0.0
  0
LINE
  5
11CC
330
1D
100
AcDbEntity
  8
0
100
AcDbLine
 10
4.942945602955
 20
824.940724015542
 30
0.0
 11
5.801296565306
 21
825.509813833736
 31
0.0
  0
LINE
  5
11CD
330
1D
100
AcDbEntity
  8
0
100
AcDbLine
 10
4.942945602955
 20
824.940724015542
 30
0.0
 11
5.017605392072
 21
824.913438563574
 31
0.0
  0
LINE
  5
11CE
330
1D
100
AcDbEntity
  8
0
100
AcDbLine
 10
4.903660735526
 20
824.909480629185
 30
0.0
 11
4.942945602955
 21
824.940724015542
 31
0.0
  0
LINE
  5
11CF
330
1D
100
AcDbEntity
  8
0
100
AcDbLine
 10
4.903660735526
 20
824.909480629185
 30
0.0
 11
4.906333544746
 21
824.818910070553
 31
0.0
  0
LINE
  5
11D0
330
1D
100
AcDbEntity
  8
0
100
AcDbLine
 10
5.017605392072
 20
824.913438563574
 30
0.0
 11
5.120679848837
 21
824.835568759653
 31
0.0
  0
LINE
  5
11D1
330
1D
100
AcDbEntity
  8
0
100
AcDbLine
 10
5.120679848837
 20
824.835568759653
 30
0.0
 11
5.249169935145
 21
824.704920117408
 31
0.0
  0
LINE
  5
11D2
330
1D
100
AcDbEntity
  8
0
100
AcDbLine
 10
5.249169935145
 20
824.704920117408
 30
0.0
 11
5.391706808971
 21
824.536601224826
 31
0.0
  0
LINE
  5
11D3
330
1D
100
AcDbEntity
  8
0
100
AcDbLine
 10
5.391706808971
 20
824.536601224826
 30
0.0
 11
5.544293355997
 21
824.332688876827
 31
0.0
  0
LINE
  5
11D4
330
1D
100
AcDbEntity
  8
0
100
AcDbLine
 10
4.906333544746
 20
824.818910070553
 30
0.0
 11
4.947833199441
 21
824.681789580982
 31
0.0
  0
LINE
  5
11D5
330
1D
100
AcDbEntity
  8
0
100
AcDbLine
 10
4.070383578126
 20
825.273602255782
 30
0.0
 11
4.141131051294
 21
825.169940473816
 31
0.0
  0
LINE
  5
11D6
330
1D
100
AcDbEntity
  8
0
100
AcDbLine
 10
3.970845604284
 20
825.429797427805
 30
0.0
 11
4.070383578126
 21
825.273602255782
 31
0.0
  0
LINE
  5
11D7
330
1D
100
AcDbEntity
  8
0
100
AcDbLine
 10
3.592782423924
 20
826.06457279095
 30
0.0
 11
3.722781921993
 21
825.841138526564
 31
0.0
  0
LINE
  5
11D8
330
1D
100
AcDbEntity
  8
0
100
AcDbLine
 10
3.656865813982
 20
826.113368478451
 30
0.0
 11
3.78672870951
 21
825.889897611525
 31
0.0
  0
LINE
  5
11D9
330
1D
100
AcDbEntity
  8
0
100
AcDbLine
 10
3.528999070876
 20
826.328296782794
 30
0.0
 11
3.656865813982
 21
826.113368478451
 31
0.0
  0
LINE
  5
11DA
330
1D
100
AcDbEntity
  8
0
100
AcDbLine
 10
3.619615901547
 20
826.246649737538
 30
0.0
 11
3.699449839134
 21
826.074926173606
 31
0.0
  0
LINE
  5
11DB
330
1D
100
AcDbEntity
  8
0
100
AcDbLine
 10
3.699449839134
 20
826.074926173606
 30
0.0
 11
3.803481268393
 21
825.874913894668
 31
0.0
  0
LINE
  5
11DC
330
1D
100
AcDbEntity
  8
0
100
AcDbLine
 10
3.570528940156
 20
826.379028626419
 30
0.0
 11
3.619615901547
 21
826.246649737538
 31
0.0
  0
LINE
  5
11DD
330
1D
100
AcDbEntity
  8
0
100
AcDbLine
 10
3.584924268806
 20
826.472562067032
 30
0.0
 11
4.19333580413
 21
826.842374480361
 31
0.0
  0
LINE
  5
11DE
330
1D
100
AcDbEntity
  8
0
100
AcDbLine
 10
3.584924268806
 20
826.472562067032
 30
0.0
 11
3.64167117594
 21
826.436450593362
 31
0.0
  0
LINE
  5
11DF
330
1D
100
AcDbEntity
  8
0
100
AcDbLine
 10
3.64167117594
 20
826.436450593362
 30
0.0
 11
3.730454736171
 21
826.341428230558
 31
0.0
  0
LINE
  5
11E0
330
1D
100
AcDbEntity
  8
0
100
AcDbLine
 10
3.730454736171
 20
826.341428230558
 30
0.0
 11
3.84158815828
 21
826.20151696407
 31
0.0
  0
LINE
  5
11E1
330
1D
100
AcDbEntity
  8
0
100
AcDbLine
 10
3.84158815828
 20
826.20151696407
 30
0.0
 11
3.973259006702
 21
826.016377563412
 31
0.0
  0
LINE
  5
11E2
330
1D
100
AcDbEntity
  8
0
100
AcDbLine
 10
3.78672870951
 20
825.889897611525
 30
0.0
 11
3.909710773864
 21
825.672708795406
 31
0.0
  0
LINE
  5
11E3
330
1D
100
AcDbEntity
  8
0
100
AcDbLine
 10
3.909710773864
 20
825.672708795406
 30
0.0
 11
4.018959894577
 21
825.474533823163
 31
0.0
  0
LINE
  5
11E4
330
1D
100
AcDbEntity
  8
0
100
AcDbLine
 10
3.927908781014
 20
825.656428668387
 30
0.0
 11
4.062273342593
 21
825.435554915777
 31
0.0
  0
LINE
  5
11E5
330
1D
100
AcDbEntity
  8
0
100
AcDbLine
 10
3.803481268393
 20
825.874913894668
 30
0.0
 11
3.927908781014
 21
825.656428668387
 31
0.0
  0
LINE
  5
11E6
330
1D
100
AcDbEntity
  8
0
100
AcDbLine
 10
3.973259006702
 20
826.016377563412
 30
0.0
 11
4.113395811467
 21
825.802101629275
 31
0.0
  0
LINE
  5
11E7
330
1D
100
AcDbEntity
  8
0
100
AcDbLine
 10
4.113395811467
 20
825.802101629275
 30
0.0
 11
4.247723770505
 21
825.581364479206
 31
0.0
  0
LINE
  5
11E8
330
1D
100
AcDbEntity
  8
0
100
AcDbLine
 10
4.372187885666
 20
825.362742650385
 30
0.0
 11
4.476219314926
 21
825.162730371446
 31
0.0
  0
LINE
  5
11E9
330
1D
100
AcDbEntity
  8
0
100
AcDbLine
 10
4.247723770505
 20
825.581364479206
 30
0.0
 11
4.372187885666
 21
825.362742650385
 31
0.0
  0
LINE
  5
11EA
330
1D
100
AcDbEntity
  8
0
100
AcDbLine
 10
3.722781921993
 20
825.841138526564
 30
0.0
 11
3.850562062558
 21
825.626260222221
 31
0.0
  0
LINE
  5
11EB
330
1D
100
AcDbEntity
  8
0
100
AcDbLine
 10
3.850562062558
 20
825.626260222221
 30
0.0
 11
3.970845604284
 21
825.429797427805
 31
0.0
  0
LINE
  5
11EC
330
1D
100
AcDbEntity
  8
0
100
AcDbLine
 10
3.46980035957
 20
826.281761607069
 30
0.0
 11
3.592782423924
 21
826.06457279095
 31
0.0
  0
LINE
  5
11ED
330
1D
100
AcDbEntity
  8
0
100
AcDbLine
 10
10.069535506873
 20
836.252638198696
 30
0.0
 11
11.979723371987
 21
834.533180633075
 31
0.0
  0
LINE
  5
11EE
330
1D
100
AcDbEntity
  8
0
100
AcDbLine
 10
11.398201983652
 20
839.114756042791
 30
0.0
 11
23.075963430134
 21
829.924632186768
 31
0.0
  0
LINE
  5
11EF
330
1D
100
AcDbEntity
  8
0
100
AcDbLine
 10
14.272888040608
 20
832.46905834925
 30
0.0
 11
16.78221635947
 21
830.208542490389
 31
0.0
  0
LINE
  5
11F0
330
1D
100
AcDbEntity
  8
0
100
AcDbLine
 10
16.78221635947
 20
830.208542490389
 30
0.0
 11
19.428336430689
 21
827.826556896669
 31
0.0
  0
LINE
  5
11F1
330
1D
100
AcDbEntity
  8
0
100
AcDbLine
 10
11.979723371987
 20
834.533180633075
 30
0.0
 11
14.272888040608
 21
832.46905834925
 31
0.0
  0
LINE
  5
11F2
330
1D
100
AcDbEntity
  8
0
100
AcDbLine
 10
23.075963430134
 20
829.924632186768
 30
0.0
 11
34.557441398993
 21
820.258935374815
 31
0.0
  0
LINE
  5
11F3
330
1D
100
AcDbEntity
  8
0
100
AcDbLine
 10
19.428336430689
 20
827.826556896669
 30
0.0
 11
23.597364231416
 21
824.072724865695
 31
0.0
  0
LINE
  5
11F4
330
1D
100
AcDbEntity
  8
0
100
AcDbLine
 10
27.97054305814
 20
820.135092784165
 30
0.0
 11
31.907623303091
 21
816.590115801896
 31
0.0
  0
LINE
  5
11F5
330
1D
100
AcDbEntity
  8
0
100
AcDbLine
 10
31.907623303091
 20
816.590115801896
 30
0.0
 11
36.668361688285
 21
812.303556566596
 31
0.0
  0
LINE
  5
11F6
330
1D
100
AcDbEntity
  8
0
100
AcDbLine
 10
34.780619855004
 20
820.05849179978
 30
0.0
 11
41.840524317131
 21
813.701805024765
 31
0.0
  0
LINE
  5
11F7
330
1D
100
AcDbEntity
  8
0
100
AcDbLine
 10
34.557441398993
 20
820.258935374815
 30
0.0
 11
34.780619855004
 21
820.05849179978
 31
0.0
  0
LINE
  5
11F8
330
1D
100
AcDbEntity
  8
0
100
AcDbLine
 10
34.557441398993
 20
820.258935374815
 30
0.0
 11
34.780619855004
 21
820.05849179978
 31
0.0
  0
LINE
  5
11F9
330
1D
100
AcDbEntity
  8
0
100
AcDbLine
 10
23.597364231416
 20
824.072724865695
 30
0.0
 11
27.97054305814
 21
820.135092784165
 31
0.0
  0
LINE
  5
11FA
330
1D
100
AcDbEntity
  8
0
100
AcDbLine
 10
3.195837469
 20
826.837843961213
 30
0.0
 11
3.690812787416
 21
827.125281048167
 31
0.0
  0
LINE
  5
11FB
330
1D
100
AcDbEntity
  8
0
100
AcDbLine
 10
3.195837469
 20
826.837843961213
 30
0.0
 11
3.23846668468
 21
826.784479928659
 31
0.0
  0
LINE
  5
11FC
330
1D
100
AcDbEntity
  8
0
100
AcDbLine
 10
3.195837469
 20
826.837843961213
 30
0.0
 11
3.710656945442
 21
827.136804747963
 31
0.0
  0
LINE
  5
11FD
330
1D
100
AcDbEntity
  8
0
100
AcDbLine
 10
25.405164419999
 20
796.910126642253
 30
0.0
 11
25.9979986835
 21
797.46768581155
 31
0.0
  0
LINE
  5
11FE
330
1D
100
AcDbEntity
  8
0
100
AcDbLine
 10
25.950775410243
 20
797.556752598524
 30
0.0
 11
26.100736708783
 21
797.415093186764
 31
0.0
  0
LINE
  5
11FF
330
1D
100
AcDbEntity
  8
0
100
AcDbLine
 10
26.100736708783
 20
797.415093186764
 30
0.0
 11
26.219835005723
 21
797.31457748816
 31
0.0
  0
LINE
  5
1200
330
1D
100
AcDbEntity
  8
0
100
AcDbLine
 10
26.219835005723
 20
797.31457748816
 30
0.0
 11
26.304885622313
 21
797.255889477309
 31
0.0
  0
LINE
  5
1201
330
1D
100
AcDbEntity
  8
0
100
AcDbLine
 10
26.347948881651
 20
797.247077230421
 30
0.0
 11
26.769030469091
 21
797.630570502557
 31
0.0
  0
LINE
  5
1202
330
1D
100
AcDbEntity
  8
0
100
AcDbLine
 10
26.289395448439
 20
797.38445970914
 30
0.0
 11
26.341453760184
 21
797.292627350038
 31
0.0
  0
LINE
  5
1203
330
1D
100
AcDbEntity
  8
0
100
AcDbLine
 10
36.668361688285
 20
812.303556566596
 30
0.0
 11
42.999980800884
 21
806.602442563792
 31
0.0
  0
LINE
  5
1204
330
1D
100
AcDbEntity
  8
0
100
AcDbLine
 10
26.198917213158
 20
797.513946808654
 30
0.0
 11
26.289395448439
 21
797.38445970914
 31
0.0
  0
LINE
  5
1205
330
1D
100
AcDbEntity
  8
0
100
AcDbLine
 10
26.070647515308
 20
797.677377174907
 30
0.0
 11
26.198917213158
 21
797.513946808654
 31
0.0
  0
LINE
  5
1206
330
1D
100
AcDbEntity
  8
0
100
AcDbLine
 10
25.422347552318
 20
796.866488700462
 30
0.0
 11
25.558923914367
 21
796.696645898644
 31
0.0
  0
LINE
  5
1207
330
1D
100
AcDbEntity
  8
0
100
AcDbLine
 10
38.509839628723
 20
784.620489920451
 30
0.0
 11
38.8380292131
 21
784.387130955107
 31
0.0
  0
LINE
  5
1208
330
1D
100
AcDbEntity
  8
0
100
AcDbLine
 10
38.8380292131
 20
784.387130955107
 30
0.0
 11
39.05132505227
 21
784.265370185592
 31
0.0
  0
LINE
  5
1209
330
1D
100
AcDbEntity
  8
0
100
AcDbLine
 10
39.05132505227
 20
784.265370185592
 30
0.0
 11
39.155531182486
 21
784.246660497588
 31
0.0
  0
LINE
  5
120A
330
1D
100
AcDbEntity
  8
0
100
AcDbLine
 10
31.509334305814
 20
790.848659022517
 30
0.0
 11
31.92804084048
 21
790.461080014019
 31
0.0
  0
LINE
  5
120B
330
1D
100
AcDbEntity
  8
0
100
AcDbLine
 10
31.92804084048
 20
790.461080014019
 30
0.0
 11
32.278881437307
 21
790.155753753083
 31
0.0
  0
LINE
  5
120C
330
1D
100
AcDbEntity
  8
0
100
AcDbLine
 10
32.278881437307
 20
790.155753753083
 30
0.0
 11
32.549202317781
 21
789.940563252409
 31
0.0
  0
LINE
  5
120D
330
1D
100
AcDbEntity
  8
0
100
AcDbLine
 10
32.549202317781
 20
789.940563252409
 30
0.0
 11
32.717128937568
 21
789.836220689824
 31
0.0
  0
LINE
  5
120E
330
1D
100
AcDbEntity
  8
0
100
AcDbLine
 10
32.676096081493
 20
790.005749698323
 30
0.0
 11
32.757814509154
 21
789.861690166945
 31
0.0
  0
LINE
  5
120F
330
1D
100
AcDbEntity
  8
0
100
AcDbLine
 10
32.757814509154
 20
789.861690166945
 30
0.0
 11
33.384659401359
 21
790.489749501556
 31
0.0
  0
LINE
  5
1210
330
1D
100
AcDbEntity
  8
0
100
AcDbLine
 10
32.488968071899
 20
790.249234478187
 30
0.0
 11
32.676096081493
 21
790.005749698323
 31
0.0
  0
LINE
  5
1211
330
1D
100
AcDbEntity
  8
0
100
AcDbLine
 10
31.058177462854
 20
791.283032448327
 30
0.0
 11
31.509334305814
 21
790.848659022517
 31
0.0
  0
LINE
  5
1212
330
1D
100
AcDbEntity
  8
0
100
AcDbLine
 10
30.588745371407
 20
791.752552215238
 30
0.0
 11
31.058177462854
 21
791.283032448327
 31
0.0
  0
LINE
  5
1213
330
1D
100
AcDbEntity
  8
0
100
AcDbLine
 10
30.148536862396
 20
792.211088711708
 30
0.0
 11
30.588745371407
 21
791.752552215238
 31
0.0
  0
LINE
  5
1214
330
1D
100
AcDbEntity
  8
0
100
AcDbLine
 10
29.778165383838
 20
792.61498649317
 30
0.0
 11
30.148536862396
 21
792.211088711708
 31
0.0
  0
LINE
  5
1215
330
1D
100
AcDbEntity
  8
0
100
AcDbLine
 10
30.913742568331
 20
791.922063872628
 30
0.0
 11
31.383174659778
 21
791.452544105718
 31
0.0
  0
LINE
  5
1216
330
1D
100
AcDbEntity
  8
0
100
AcDbLine
 10
31.383174659778
 20
791.452544105718
 30
0.0
 11
31.823296566248
 21
790.994057609248
 31
0.0
  0
LINE
  5
1217
330
1D
100
AcDbEntity
  8
0
100
AcDbLine
 10
33.087174871634
 20
790.191688628572
 30
0.0
 11
37.411753295167
 21
786.067148599635
 31
0.0
  0
LINE
  5
1218
330
1D
100
AcDbEntity
  8
0
100
AcDbLine
 10
31.823296566248
 20
790.994057609248
 30
0.0
 11
32.193668044806
 21
790.590159827785
 31
0.0
  0
LINE
  5
1219
330
1D
100
AcDbEntity
  8
0
100
AcDbLine
 10
32.193668044806
 20
790.590159827785
 30
0.0
 11
32.488968071899
 21
790.249234478187
 31
0.0
  0
LINE
  5
121A
330
1D
100
AcDbEntity
  8
0
100
AcDbLine
 10
37.151821709281
 20
785.757533886388
 30
0.0
 11
37.632725855236
 21
785.335084300754
 31
0.0
  0
LINE
  5
121B
330
1D
100
AcDbEntity
  8
0
100
AcDbLine
 10
37.632725855236
 20
785.335084300754
 30
0.0
 11
38.092620073953
 21
784.949244453679
 31
0.0
  0
LINE
  5
121C
330
1D
100
AcDbEntity
  8
0
100
AcDbLine
 10
38.092620073953
 20
784.949244453679
 30
0.0
 11
38.509839628723
 21
784.620489920451
 31
0.0
  0
LINE
  5
121D
330
1D
100
AcDbEntity
  8
0
100
AcDbLine
 10
36.681562049698
 20
786.191620263241
 30
0.0
 11
37.151821709281
 21
785.757533886388
 31
0.0
  0
LINE
  5
121E
330
1D
100
AcDbEntity
  8
0
100
AcDbLine
 10
37.411839897707
 20
786.067098599635
 30
0.0
 11
41.965782949381
 21
782.197402033684
 31
0.0
  0
LINE
  5
121F
330
1D
100
AcDbEntity
  8
0
100
AcDbLine
 10
36.249615649453
 20
786.608667151871
 30
0.0
 11
36.681562049698
 21
786.191620263241
 31
0.0
  0
LINE
  5
1220
330
1D
100
AcDbEntity
  8
0
100
AcDbLine
 10
35.879053463039
 20
786.989234617637
 30
0.0
 11
36.249615649453
 21
786.608667151871
 31
0.0
  0
LINE
  5
1221
330
1D
100
AcDbEntity
  8
0
100
AcDbLine
 10
35.612728168954
 20
787.291145676942
 30
0.0
 11
35.879053463039
 21
786.989234617637
 31
0.0
  0
LINE
  5
1222
330
1D
100
AcDbEntity
  8
0
100
AcDbLine
 10
35.469375081047
 20
787.490650845265
 30
0.0
 11
35.612728168954
 21
787.291145676942
 31
0.0
  0
LINE
  5
1223
330
1D
100
AcDbEntity
  8
0
100
AcDbLine
 10
37.893829436486
 20
786.796528969518
 30
0.0
 11
38.087434825538
 21
786.628863339974
 31
0.0
  0
LINE
  5
1224
330
1D
100
AcDbEntity
  8
0
100
AcDbLine
 10
38.087434825538
 20
786.628863339974
 30
0.0
 11
38.274715858937
 21
786.478243605115
 31
0.0
  0
LINE
  5
1225
330
1D
100
AcDbEntity
  8
0
100
AcDbLine
 10
38.274715858937
 20
786.478243605115
 30
0.0
 11
38.447163244539
 21
786.352931238611
 31
0.0
  0
LINE
  5
1226
330
1D
100
AcDbEntity
  8
0
100
AcDbLine
 10
38.447163244539
 20
786.352931238611
 30
0.0
 11
38.585778975195
 21
786.267820726834
 31
0.0
  0
LINE
  5
1227
330
1D
100
AcDbEntity
  8
0
100
AcDbLine
 10
38.585778975195
 20
786.267820726834
 30
0.0
 11
38.679510938436
 21
786.228369249462
 31
0.0
  0
LINE
  5
1228
330
1D
100
AcDbEntity
  8
0
100
AcDbLine
 10
38.679510938436
 20
786.228369249462
 30
0.0
 11
38.730103620638
 21
786.230798345526
 31
0.0
  0
LINE
  5
1229
330
1D
100
AcDbEntity
  8
0
100
AcDbLine
 10
37.706979303323
 20
786.971495045477
 30
0.0
 11
37.893829436486
 21
786.796528969518
 31
0.0
  0
LINE
  5
122A
330
1D
100
AcDbEntity
  8
0
100
AcDbLine
 10
37.537561409645
 20
787.142054645916
 30
0.0
 11
37.706979303323
 21
786.971495045477
 31
0.0
  0
LINE
  5
122B
330
1D
100
AcDbEntity
  8
0
100
AcDbLine
 10
37.394831457758
 20
787.300439117485
 30
0.0
 11
37.537561409645
 21
787.142054645916
 31
0.0
  0
LINE
  5
122C
330
1D
100
AcDbEntity
  8
0
100
AcDbLine
 10
37.295717839569
 20
787.42936929506
 30
0.0
 11
37.394831457758
 21
787.300439117485
 31
0.0
  0
LINE
  5
122D
330
1D
100
AcDbEntity
  8
0
100
AcDbLine
 10
37.24672362944
 20
787.518508833839
 30
0.0
 11
37.295717839569
 21
787.42936929506
 31
0.0
  0
LINE
  5
122E
330
1D
100
AcDbEntity
  8
0
100
AcDbLine
 10
37.886466918314
 20
787.170976713971
 30
0.0
 11
38.080072307366
 21
787.003311084428
 31
0.0
  0
LINE
  5
122F
330
1D
100
AcDbEntity
  8
0
100
AcDbLine
 10
37.699185884915
 20
787.32159644883
 30
0.0
 11
37.886466918314
 21
787.170976713971
 31
0.0
  0
LINE
  5
1230
330
1D
100
AcDbEntity
  8
0
100
AcDbLine
 10
37.526738499313
 20
787.446908815334
 30
0.0
 11
37.699185884915
 21
787.32159644883
 31
0.0
  0
LINE
  5
1231
330
1D
100
AcDbEntity
  8
0
100
AcDbLine
 10
37.388122768657
 20
787.532019327111
 30
0.0
 11
37.526738499313
 21
787.446908815334
 31
0.0
  0
LINE
  5
1232
330
1D
100
AcDbEntity
  8
0
100
AcDbLine
 10
37.294390805416
 20
787.571470804483
 30
0.0
 11
37.388122768657
 21
787.532019327111
 31
0.0
  0
LINE
  5
1233
330
1D
100
AcDbEntity
  8
0
100
AcDbLine
 10
37.243798123214
 20
787.56904170842
 30
0.0
 11
37.720538954942
 21
788.098508589441
 31
0.0
  0
LINE
  5
1234
330
1D
100
AcDbEntity
  8
0
100
AcDbLine
 10
37.243798123214
 20
787.56904170842
 30
0.0
 11
37.294390805416
 21
787.571470804483
 31
0.0
  0
LINE
  5
1235
330
1D
100
AcDbEntity
  8
0
100
AcDbLine
 10
37.243798123214
 20
787.56904170842
 30
0.0
 11
37.24672362944
 21
787.518508833839
 31
0.0
  0
LINE
  5
1236
330
1D
100
AcDbEntity
  8
0
100
AcDbLine
 10
38.080072307366
 20
787.003311084428
 30
0.0
 11
38.267009043069
 21
786.828295008468
 31
0.0
  0
LINE
  5
1237
330
1D
100
AcDbEntity
  8
0
100
AcDbLine
 10
38.267009043069
 20
786.828295008468
 30
0.0
 11
38.436340334207
 21
786.65778540803
 31
0.0
  0
LINE
  5
1238
330
1D
100
AcDbEntity
  8
0
100
AcDbLine
 10
38.436340334207
 20
786.65778540803
 30
0.0
 11
38.579070286095
 21
786.499400936461
 31
0.0
  0
LINE
  5
1239
330
1D
100
AcDbEntity
  8
0
100
AcDbLine
 10
38.579070286095
 20
786.499400936461
 30
0.0
 11
38.678183904283
 21
786.370470758885
 31
0.0
  0
LINE
  5
123A
330
1D
100
AcDbEntity
  8
0
100
AcDbLine
 10
38.678183904283
 20
786.370470758885
 30
0.0
 11
38.727178114413
 21
786.281331220106
 31
0.0
  0
LINE
  5
123B
330
1D
100
AcDbEntity
  8
0
100
AcDbLine
 10
38.730103620638
 20
786.230798345526
 30
0.0
 11
39.141303580825
 21
786.687466097581
 31
0.0
  0
LINE
  5
123C
330
1D
100
AcDbEntity
  8
0
100
AcDbLine
 10
38.727178114413
 20
786.281331220106
 30
0.0
 11
38.730103620638
 21
786.230798345526
 31
0.0
  0
LINE
  5
123D
330
1D
100
AcDbEntity
  8
0
100
AcDbLine
 10
35.439810740198
 20
787.592243904822
 30
0.0
 11
35.61207897892
 21
787.783576891469
 31
0.0
  0
LINE
  5
123E
330
1D
100
AcDbEntity
  8
0
100
AcDbLine
 10
35.439810740198
 20
787.592243904822
 30
0.0
 11
35.469375081047
 21
787.490650845265
 31
0.0
  0
LINE
  5
123F
330
1D
100
AcDbEntity
  8
0
100
AcDbLine
 10
53.585396347985
 20
772.8071201106
 30
0.0
 11
53.785769239813
 21
772.674576139705
 31
0.0
  0
LINE
  5
1240
330
1D
100
AcDbEntity
  8
0
100
AcDbLine
 10
53.37443666494
 20
772.952127221216
 30
0.0
 11
53.585396347985
 21
772.8071201106
 31
0.0
  0
LINE
  5
1241
330
1D
100
AcDbEntity
  8
0
100
AcDbLine
 10
54.349853079917
 20
771.979398010494
 30
0.0
 11
54.428022607594
 21
771.915791604033
 31
0.0
  0
LINE
  5
1242
330
1D
100
AcDbEntity
  8
0
100
AcDbLine
 10
54.428022607594
 20
771.915791604033
 30
0.0
 11
54.551370904534
 21
771.822637121361
 31
0.0
  0
LINE
  5
1243
330
1D
100
AcDbEntity
  8
0
100
AcDbLine
 10
54.551370904534
 20
771.822637121361
 30
0.0
 11
54.720804188521
 21
771.700104177721
 31
0.0
  0
LINE
  5
1244
330
1D
100
AcDbEntity
  8
0
100
AcDbLine
 10
54.762602711149
 20
771.747101342594
 30
0.0
 11
54.961493552169
 21
771.6159903844
 31
0.0
  0
LINE
  5
1245
330
1D
100
AcDbEntity
  8
0
100
AcDbLine
 10
54.720804188521
 20
771.700104177721
 30
0.0
 11
54.922030412448
 21
771.558638221378
 31
0.0
  0
LINE
  5
1246
330
1D
100
AcDbEntity
  8
0
100
AcDbLine
 10
54.360611925644
 20
771.994432877924
 30
0.0
 11
54.448434081264
 21
771.945345313489
 31
0.0
  0
LINE
  5
1247
330
1D
100
AcDbEntity
  8
0
100
AcDbLine
 10
54.448434081264
 20
771.945345313489
 30
0.0
 11
54.588112247485
 21
771.859274994091
 31
0.0
  0
LINE
  5
1248
330
1D
100
AcDbEntity
  8
0
100
AcDbLine
 10
54.588112247485
 20
771.859274994091
 30
0.0
 11
54.762602711149
 21
771.747101342594
 31
0.0
  0
LINE
  5
1249
330
1D
100
AcDbEntity
  8
0
100
AcDbLine
 10
54.098961332517
 20
772.485440756798
 30
0.0
 11
54.194350217697
 21
772.439259152407
 31
0.0
  0
LINE
  5
124A
330
1D
100
AcDbEntity
  8
0
100
AcDbLine
 10
54.329535715263
 20
772.004407302638
 30
0.0
 11
54.639935227277
 21
772.459957905087
 31
0.0
  0
LINE
  5
124B
330
1D
100
AcDbEntity
  8
0
100
AcDbLine
 10
54.329535715263
 20
772.004407302638
 30
0.0
 11
54.69125148459
 21
772.535271012967
 31
0.0
  0
LINE
  5
124C
330
1D
100
AcDbEntity
  8
0
100
AcDbLine
 10
56.141397425511
 20
770.646443841075
 30
0.0
 11
56.317075195871
 21
770.527926665099
 31
0.0
  0
LINE
  5
124D
330
1D
100
AcDbEntity
  8
0
100
AcDbLine
 10
64.074063443916
 20
765.411224424428
 30
0.0
 11
64.232952052852
 21
765.307827567849
 31
0.0
  0
LINE
  5
124E
330
1D
100
AcDbEntity
  8
0
100
AcDbLine
 10
124.436857217589
 20
675.348050127233
 30
0.0
 11
139.713954969539
 21
647.190759625805
 31
0.0
  0
LINE
  5
124F
330
1D
100
AcDbEntity
  8
0
100
AcDbLine
 10
139.713954969539
 20
647.190759625805
 30
0.0
 11
140.368672572169
 21
647.568763778171
 31
0.0
  0
LINE
  5
1250
330
1D
100
AcDbEntity
  8
0
100
AcDbLine
 10
139.713954969539
 20
647.190759625805
 30
0.0
 11
141.559061405357
 21
648.256032251664
 31
0.0
  0
LINE
  5
1251
330
1D
100
AcDbEntity
  8
0
100
AcDbLine
 10
139.713954969539
 20
647.190759625805
 30
0.0
 11
141.559061405438
 21
648.256032251712
 31
0.0
  0
LINE
  5
1252
330
1D
100
AcDbEntity
  8
0
100
AcDbLine
 10
153.244735423903
 20
655.002758838823
 30
0.0
 11
159.0178
 21
658.186
 31
0.0
  0
LINE
  5
1253
330
1D
100
AcDbEntity
  8
0
100
AcDbLine
 10
148.879951406366
 20
652.482731156385
 30
0.0
 11
153.244735423903
 21
655.002758838823
 31
0.0
  0
LINE
  5
1254
330
1D
100
AcDbEntity
  8
0
100
AcDbLine
 10
145.024423857542
 20
650.25676155184
 30
0.0
 11
148.879951406366
 21
652.482731156385
 31
0.0
  0
LINE
  5
1255
330
1D
100
AcDbEntity
  8
0
100
AcDbLine
 10
142.114576179184
 20
648.576757530638
 30
0.0
 11
145.024423857542
 21
650.25676155184
 31
0.0
  0
LINE
  5
1256
330
1D
100
AcDbEntity
  8
0
100
AcDbLine
 10
140.368672572169
 20
647.568763778171
 30
0.0
 11
142.114576179184
 21
648.576757530638
 31
0.0
  0
LINE
  5
1257
330
1D
100
AcDbEntity
  8
0
100
AcDbLine
 10
114.738996305445
 20
696.254862302662
 30
0.0
 11
124.436857217589
 21
675.348050127233
 31
0.0
  0
LINE
  5
1258
330
1D
100
AcDbEntity
  8
0
100
AcDbLine
 10
160.749875403784
 20
659.186042601895
 30
0.0
 11
161.615888105677
 21
659.686020601572
 31
0.0
  0
LINE
  5
1259
330
1D
100
AcDbEntity
  8
0
100
AcDbLine
 10
159.883862701892
 20
658.686064602218
 30
0.0
 11
160.749875403784
 21
659.186042601895
 31
0.0
  0
LINE
  5
125A
330
1D
100
AcDbEntity
  8
0
100
AcDbLine
 10
159.0178
 20
658.186
 30
0.0
 11
159.883862701892
 21
658.686064602218
 31
0.0
  0
LINE
  5
125B
330
1D
100
AcDbEntity
  8
0
100
AcDbLine
 10
108.071096947895
 20
711.737721835629
 30
0.0
 11
114.738996305445
 21
696.254862302662
 31
0.0
  0
LINE
  5
125C
330
1D
100
AcDbEntity
  8
0
100
AcDbLine
 10
103.552576138523
 20
723.02741421874
 30
0.0
 11
108.071096947895
 21
711.737721835629
 31
0.0
  0
LINE
  5
125D
330
1D
100
AcDbEntity
  8
0
100
AcDbLine
 10
99.583041714592
 20
733.977978914099
 30
0.0
 11
103.552576138523
 21
723.02741421874
 31
0.0
  0
LINE
  5
125E
330
1D
100
AcDbEntity
  8
0
100
AcDbLine
 10
93.54290508337
 20
744.350155384163
 30
0.0
 11
94.142488835908
 21
743.518664906953
 31
0.0
  0
LINE
  5
125F
330
1D
100
AcDbEntity
  8
0
100
AcDbLine
 10
95.760829950514
 20
741.667713941429
 30
0.0
 11
99.583041714592
 21
733.977978914099
 31
0.0
  0
LINE
  5
1260
330
1D
100
AcDbEntity
  8
0
100
AcDbLine
 10
94.386831701829
 20
743.243879165194
 30
0.0
 11
94.534822024336
 21
743.407748066912
 31
0.0
  0
LINE
  5
1261
330
1D
100
AcDbEntity
  8
0
100
AcDbLine
 10
94.142488835908
 20
743.518664906953
 30
0.0
 11
94.386831701829
 21
743.243879165194
 31
0.0
  0
LINE
  5
1262
330
1D
100
AcDbEntity
  8
0
100
AcDbLine
 10
83.421962804384
 20
754.082169136488
 30
0.0
 11
84.80246687995
 21
753.003272335424
 31
0.0
  0
LINE
  5
1263
330
1D
100
AcDbEntity
  8
0
100
AcDbLine
 10
84.80246687995
 20
753.003272335424
 30
0.0
 11
86.653352223191
 21
751.537099788901
 31
0.0
  0
LINE
  5
1264
330
1D
100
AcDbEntity
  8
0
100
AcDbLine
 10
86.653352223191
 20
751.537099788901
 30
0.0
 11
88.964874586967
 21
749.528773965793
 31
0.0
  0
LINE
  5
1265
330
1D
100
AcDbEntity
  8
0
100
AcDbLine
 10
88.964874586967
 20
749.528773965793
 30
0.0
 11
90.905323322708
 21
747.635729765581
 31
0.0
  0
LINE
  5
1266
330
1D
100
AcDbEntity
  8
0
100
AcDbLine
 10
90.905323322708
 20
747.635729765581
 30
0.0
 11
92.449446506627
 21
745.808229573273
 31
0.0
  0
LINE
  5
1267
330
1D
100
AcDbEntity
  8
0
100
AcDbLine
 10
92.449446506627
 20
745.808229573273
 30
0.0
 11
93.54290508337
 21
744.350155384163
 31
0.0
  0
LINE
  5
1268
330
1D
100
AcDbEntity
  8
0
100
AcDbLine
 10
119.153264465545
 20
732.70259903419
 30
0.0
 11
125.150131297806
 21
722.86947707389
 31
0.0
  0
LINE
  5
1269
330
1D
100
AcDbEntity
  8
0
100
AcDbLine
 10
125.150131297806
 20
722.86947707389
 30
0.0
 11
134.491926252635
 21
707.325940569544
 31
0.0
  0
LINE
  5
126A
330
1D
100
AcDbEntity
  8
0
100
AcDbLine
 10
134.491926252635
 20
707.325940569544
 30
0.0
 11
145.782456199112
 21
687.521712081221
 31
0.0
  0
LINE
  5
126B
330
1D
100
AcDbEntity
  8
0
100
AcDbLine
 10
145.782456199112
 20
687.521712081221
 30
0.0
 11
161.615888105677
 21
659.686020601572
 31
0.0
  0
LINE
  5
126C
330
1D
100
AcDbEntity
  8
0
100
AcDbLine
 10
64.350108560425
 20
765.250348591403
 30
0.0
 11
64.404558095503
 21
765.208057952607
 31
0.0
  0
LINE
  5
126D
330
1D
100
AcDbEntity
  8
0
100
AcDbLine
 10
64.404558095503
 20
765.208057952607
 30
0.0
 11
64.764284260294
 21
765.740042470415
 31
0.0
  0
LINE
  5
126E
330
1D
100
AcDbEntity
  8
0
100
AcDbLine
 10
64.247749167169
 20
765.324456921652
 30
0.0
 11
64.350108560425
 21
765.250348591403
 31
0.0
  0
LINE
  5
126F
330
1D
100
AcDbEntity
  8
0
100
AcDbLine
 10
64.344024585829
 20
765.23781083829
 30
0.0
 11
64.399710019292
 21
765.20566083829
 31
0.0
  0
LINE
  5
1270
330
1D
100
AcDbEntity
  8
0
100
AcDbLine
 10
64.232952052852
 20
765.307827567849
 30
0.0
 11
64.344024585829
 21
765.23781083829
 31
0.0
  0
LINE
  5
1271
330
1D
100
AcDbEntity
  8
0
100
AcDbLine
 10
61.674402365133
 20
767.29168951503
 30
0.0
 11
61.775056244761
 21
767.207827148526
 31
0.0
  0
LINE
  5
1272
330
1D
100
AcDbEntity
  8
0
100
AcDbLine
 10
61.629439174856
 20
767.339010985
 30
0.0
 11
61.674402365133
 21
767.29168951503
 31
0.0
  0
LINE
  5
1273
330
1D
100
AcDbEntity
  8
0
100
AcDbLine
 10
61.698772684531
 20
767.324500146424
 30
0.0
 11
61.817152139445
 21
767.257539376908
 31
0.0
  0
LINE
  5
1274
330
1D
100
AcDbEntity
  8
0
100
AcDbLine
 10
61.635436546912
 20
767.351598738113
 30
0.0
 11
61.848336249719
 21
767.660203854679
 31
0.0
  0
LINE
  5
1275
330
1D
100
AcDbEntity
  8
0
100
AcDbLine
 10
61.635436546912
 20
767.351598738113
 30
0.0
 11
61.698772684531
 21
767.324500146424
 31
0.0
  0
LINE
  5
1276
330
1D
100
AcDbEntity
  8
0
100
AcDbLine
 10
61.635436546912
 20
767.351598738113
 30
0.0
 11
61.948896291302
 21
767.805968940048
 31
0.0
  0
LINE
  5
1277
330
1D
100
AcDbEntity
  8
0
100
AcDbLine
 10
61.817152139445
 20
767.257539376908
 30
0.0
 11
61.975409659468
 21
767.160049442268
 31
0.0
  0
LINE
  5
1278
330
1D
100
AcDbEntity
  8
0
100
AcDbLine
 10
61.975409659468
 20
767.160049442268
 30
0.0
 11
62.163033324512
 21
767.039023162827
 31
0.0
  0
LINE
  5
1279
330
1D
100
AcDbEntity
  8
0
100
AcDbLine
 10
61.775056244761
 20
767.207827148526
 30
0.0
 11
61.917491779337
 21
767.097532731214
 31
0.0
  0
LINE
  5
127A
330
1D
100
AcDbEntity
  8
0
100
AcDbLine
 10
61.917491779337
 20
767.097532731214
 30
0.0
 11
62.101416148536
 21
766.961899083417
 31
0.0
  0
LINE
  5
127B
330
1D
100
AcDbEntity
  8
0
100
AcDbLine
 10
62.310845446824
 20
766.813041268646
 30
0.0
 11
62.523633590839
 21
766.666401145328
 31
0.0
  0
LINE
  5
127C
330
1D
100
AcDbEntity
  8
0
100
AcDbLine
 10
62.583977819473
 20
766.752920415265
 30
0.0
 11
62.793407117762
 21
766.604062600494
 31
0.0
  0
LINE
  5
127D
330
1D
100
AcDbEntity
  8
0
100
AcDbLine
 10
62.371189675459
 20
766.899560538583
 30
0.0
 11
62.583977819473
 21
766.752920415265
 31
0.0
  0
LINE
  5
127E
330
1D
100
AcDbEntity
  8
0
100
AcDbLine
 10
62.163033324512
 20
767.039023162827
 30
0.0
 11
62.371189675459
 21
766.899560538583
 31
0.0
  0
LINE
  5
127F
330
1D
100
AcDbEntity
  8
0
100
AcDbLine
 10
62.101416148536
 20
766.961899083417
 30
0.0
 11
62.310845446824
 21
766.813041268646
 31
0.0
  0
LINE
  5
1280
330
1D
100
AcDbEntity
  8
0
100
AcDbLine
 10
62.523633590839
 20
766.666401145328
 30
0.0
 11
62.731789941785
 21
766.526938521085
 31
0.0
  0
LINE
  5
1281
330
1D
100
AcDbEntity
  8
0
100
AcDbLine
 10
62.763801705246
 20
766.317584521839
 30
0.0
 11
62.81957374125
 21
766.285384521839
 31
0.0
  0
LINE
  5
1282
330
1D
100
AcDbEntity
  8
0
100
AcDbLine
 10
62.81957374125
 20
766.285384521839
 30
0.0
 11
62.930646274227
 21
766.215367792279
 31
0.0
  0
LINE
  5
1283
330
1D
100
AcDbEntity
  8
0
100
AcDbLine
 10
62.793407117762
 20
766.604062600494
 30
0.0
 11
62.977331486961
 21
766.468428952697
 31
0.0
  0
LINE
  5
1284
330
1D
100
AcDbEntity
  8
0
100
AcDbLine
 10
62.731789941785
 20
766.526938521085
 30
0.0
 11
62.850486467784
 21
766.450373558339
 31
0.0
  0
LINE
  5
1285
330
1D
100
AcDbEntity
  8
0
100
AcDbLine
 10
62.731789941785
 20
766.526938521085
 30
0.0
 11
62.919413606829
 21
766.405912241643
 31
0.0
  0
LINE
  5
1286
330
1D
100
AcDbEntity
  8
0
100
AcDbLine
 10
62.759040231576
 20
766.315137407522
 30
0.0
 11
62.813489766654
 21
766.272846768726
 31
0.0
  0
LINE
  5
1287
330
1D
100
AcDbEntity
  8
0
100
AcDbLine
 10
62.759040231576
 20
766.315137407522
 30
0.0
 11
62.850486467784
 21
766.450373558339
 31
0.0
  0
LINE
  5
1288
330
1D
100
AcDbEntity
  8
0
100
AcDbLine
 10
62.930646274227
 20
766.215367792279
 30
0.0
 11
63.089534883163
 21
766.111970935701
 31
0.0
  0
LINE
  5
1289
330
1D
100
AcDbEntity
  8
0
100
AcDbLine
 10
63.077671126852
 20
766.308422307003
 30
0.0
 11
63.196050581767
 21
766.241461537487
 31
0.0
  0
LINE
  5
128A
330
1D
100
AcDbEntity
  8
0
100
AcDbLine
 10
62.919413606829
 20
766.405912241643
 30
0.0
 11
63.077671126852
 21
766.308422307003
 31
0.0
  0
LINE
  5
128B
330
1D
100
AcDbEntity
  8
0
100
AcDbLine
 10
63.119767021536
 20
766.358134535385
 30
0.0
 11
63.220420901165
 21
766.274272168881
 31
0.0
  0
LINE
  5
128C
330
1D
100
AcDbEntity
  8
0
100
AcDbLine
 10
62.977331486961
 20
766.468428952697
 30
0.0
 11
63.119767021536
 21
766.358134535385
 31
0.0
  0
LINE
  5
128D
330
1D
100
AcDbEntity
  8
0
100
AcDbLine
 10
62.813489766654
 20
766.272846768726
 30
0.0
 11
62.915762557369
 21
766.198788438477
 31
0.0
  0
LINE
  5
128E
330
1D
100
AcDbEntity
  8
0
100
AcDbLine
 10
62.915762557369
 20
766.198788438477
 30
0.0
 11
63.067973667231
 21
766.091625814234
 31
0.0
  0
LINE
  5
128F
330
1D
100
AcDbEntity
  8
0
100
AcDbLine
 10
63.089534883163
 20
766.111970935701
 30
0.0
 11
63.277627201555
 21
765.98755638767
 31
0.0
  0
LINE
  5
1290
330
1D
100
AcDbEntity
  8
0
100
AcDbLine
 10
63.277627201555
 20
765.98755638767
 30
0.0
 11
63.484757719476
 21
765.848916968507
 31
0.0
  0
LINE
  5
1291
330
1D
100
AcDbEntity
  8
0
100
AcDbLine
 10
63.220420901165
 20
766.274272168881
 30
0.0
 11
63.265434091442
 21
766.227037301451
 31
0.0
  0
LINE
  5
1292
330
1D
100
AcDbEntity
  8
0
100
AcDbLine
 10
63.259473321926
 20
766.214312945798
 30
0.0
 11
63.567407264664
 21
766.660677151999
 31
0.0
  0
LINE
  5
1293
330
1D
100
AcDbEntity
  8
0
100
AcDbLine
 10
63.196050581767
 20
766.241461537487
 30
0.0
 11
63.259473321926
 21
766.214312945798
 31
0.0
  0
LINE
  5
1294
330
1D
100
AcDbEntity
  8
0
100
AcDbLine
 10
63.067973667231
 20
766.091625814234
 30
0.0
 11
63.257896112642
 21
765.960381139183
 31
0.0
  0
LINE
  5
1295
330
1D
100
AcDbEntity
  8
0
100
AcDbLine
 10
63.257896112642
 20
765.960381139183
 30
0.0
 11
63.464642655967
 21
765.819076656511
 31
0.0
  0
LINE
  5
1296
330
1D
100
AcDbEntity
  8
0
100
AcDbLine
 10
63.678840607603
 20
765.674278391622
 30
0.0
 11
63.885884522984
 21
765.535688972459
 31
0.0
  0
LINE
  5
1297
330
1D
100
AcDbEntity
  8
0
100
AcDbLine
 10
64.095624659848
 20
765.431569545895
 30
0.0
 11
64.247749167169
 21
765.324456921652
 31
0.0
  0
LINE
  5
1298
330
1D
100
AcDbEntity
  8
0
100
AcDbLine
 10
63.905615611897
 20
765.562864220946
 30
0.0
 11
64.095624659848
 21
765.431569545895
 31
0.0
  0
LINE
  5
1299
330
1D
100
AcDbEntity
  8
0
100
AcDbLine
 10
63.698955671112
 20
765.704118703618
 30
0.0
 11
63.905615611897
 21
765.562864220946
 31
0.0
  0
LINE
  5
129A
330
1D
100
AcDbEntity
  8
0
100
AcDbLine
 10
63.484757719476
 20
765.848916968507
 30
0.0
 11
63.698955671112
 21
765.704118703618
 31
0.0
  0
LINE
  5
129B
330
1D
100
AcDbEntity
  8
0
100
AcDbLine
 10
70.379370932504
 20
762.185737352008
 30
0.0
 11
70.470339498286
 21
762.141299529834
 31
0.0
  0
LINE
  5
129C
330
1D
100
AcDbEntity
  8
0
100
AcDbLine
 10
70.470339498286
 20
762.141299529834
 30
0.0
 11
70.614583689911
 21
762.061137798424
 31
0.0
  0
LINE
  5
129D
330
1D
100
AcDbEntity
  8
0
100
AcDbLine
 10
70.366138881697
 20
762.16681876772
 30
0.0
 11
70.445341422075
 21
762.104001591744
 31
0.0
  0
LINE
  5
129E
330
1D
100
AcDbEntity
  8
0
100
AcDbLine
 10
70.346558119583
 20
762.192903892889
 30
0.0
 11
70.542178783944
 21
762.5017224003
 31
0.0
  0
LINE
  5
129F
330
1D
100
AcDbEntity
  8
0
100
AcDbLine
 10
70.346558119583
 20
762.192903892889
 30
0.0
 11
70.585954981206
 21
762.570830129501
 31
0.0
  0
LINE
  5
12A0
330
1D
100
AcDbEntity
  8
0
100
AcDbLine
 10
70.445341422075
 20
762.104001591744
 30
0.0
 11
70.570959334258
 21
762.013578197986
 31
0.0
  0
LINE
  5
12A1
330
1D
100
AcDbEntity
  8
0
100
AcDbLine
 10
70.614583689911
 20
762.061137798424
 30
0.0
 11
70.793916973898
 21
761.955752157778
 31
0.0
  0
LINE
  5
12A2
330
1D
100
AcDbEntity
  8
0
100
AcDbLine
 10
70.793916973898
 20
761.955752157778
 30
0.0
 11
70.997431019999
 21
761.832248825678
 31
0.0
  0
LINE
  5
12A3
330
1D
100
AcDbEntity
  8
0
100
AcDbLine
 10
70.570959334258
 20
762.013578197986
 30
0.0
 11
70.743142618245
 21
761.895808394066
 31
0.0
  0
LINE
  5
12A4
330
1D
100
AcDbEntity
  8
0
100
AcDbLine
 10
70.743142618245
 20
761.895808394066
 30
0.0
 11
70.948018842172
 21
761.76066442317
 31
0.0
  0
LINE
  5
12A5
330
1D
100
AcDbEntity
  8
0
100
AcDbLine
 10
71.214583523368
 20
761.696367994504
 30
0.0
 11
71.43125205214
 21
761.557648894739
 31
0.0
  0
LINE
  5
12A6
330
1D
100
AcDbEntity
  8
0
100
AcDbLine
 10
70.997431019999
 20
761.832248825678
 30
0.0
 11
71.214583523368
 21
761.696367994504
 31
0.0
  0
LINE
  5
12A7
330
1D
100
AcDbEntity
  8
0
100
AcDbLine
 10
70.948018842172
 20
761.76066442317
 30
0.0
 11
71.164687370945
 21
761.621945323406
 31
0.0
  0
LINE
  5
12A8
330
1D
100
AcDbEntity
  8
0
100
AcDbLine
 10
71.164687370945
 20
761.621945323406
 30
0.0
 11
71.381839874314
 21
761.486064492231
 31
0.0
  0
LINE
  5
12A9
330
1D
100
AcDbEntity
  8
0
100
AcDbLine
 10
71.607496860354
 20
761.326913857137
 30
0.0
 11
71.688119273714
 21
761.276555973304
 31
0.0
  0
LINE
  5
12AA
330
1D
100
AcDbEntity
  8
0
100
AcDbLine
 10
71.764687204402
 20
761.257175519485
 30
0.0
 11
71.908931396026
 21
761.177013788076
 31
0.0
  0
LINE
  5
12AB
330
1D
100
AcDbEntity
  8
0
100
AcDbLine
 10
71.688119273714
 20
761.276555973304
 30
0.0
 11
71.823883338319
 21
761.191706231043
 31
0.0
  0
LINE
  5
12AC
330
1D
100
AcDbEntity
  8
0
100
AcDbLine
 10
71.823883338319
 20
761.191706231043
 30
0.0
 11
72.003780723922
 21
761.079297643055
 31
0.0
  0
LINE
  5
12AD
330
1D
100
AcDbEntity
  8
0
100
AcDbLine
 10
72.003780723922
 20
761.079297643055
 30
0.0
 11
72.20742682083
 21
760.952023029663
 31
0.0
  0
LINE
  5
12AE
330
1D
100
AcDbEntity
  8
0
100
AcDbLine
 10
72.20742682083
 20
760.952023029663
 30
0.0
 11
72.424679324199
 21
760.816315403569
 31
0.0
  0
LINE
  5
12AF
330
1D
100
AcDbEntity
  8
0
100
AcDbLine
 10
73.025475310078
 20
760.440924576096
 30
0.0
 11
73.16037334928
 21
760.356574833835
 31
0.0
  0
LINE
  5
12B0
330
1D
100
AcDbEntity
  8
0
100
AcDbLine
 10
81.794277387124
 20
755.310935295055
 30
0.0
 11
83.421962804384
 21
754.082169136488
 31
0.0
  0
LINE
  5
12B1
330
1D
100
AcDbEntity
  8
0
100
AcDbLine
 10
73.272388702579
 20
760.286591116977
 30
0.0
 11
73.598554640583
 21
760.80844742622
 31
0.0
  0
LINE
  5
12B2
330
1D
100
AcDbEntity
  8
0
100
AcDbLine
 10
73.16037334928
 20
760.356574833835
 30
0.0
 11
73.241811788043
 21
760.305630347462
 31
0.0
  0
LINE
  5
12B3
330
1D
100
AcDbEntity
  8
0
100
AcDbLine
 10
72.641881827568
 20
760.680521174935
 30
0.0
 11
72.845577924476
 21
760.553333164084
 31
0.0
  0
LINE
  5
12B4
330
1D
100
AcDbEntity
  8
0
100
AcDbLine
 10
72.845577924476
 20
760.553333164084
 30
0.0
 11
73.025475310078
 21
760.440924576096
 31
0.0
  0
LINE
  5
12B5
330
1D
100
AcDbEntity
  8
0
100
AcDbLine
 10
72.424679324199
 20
760.816315403569
 30
0.0
 11
72.641881827568
 21
760.680521174935
 31
0.0
  0
LINE
  5
12B6
330
1D
100
AcDbEntity
  8
0
100
AcDbLine
 10
72.032712774729
 20
761.125409425021
 30
0.0
 11
72.331153890396
 21
761.597068072631
 31
0.0
  0
LINE
  5
12B7
330
1D
100
AcDbEntity
  8
0
100
AcDbLine
 10
71.908931396026
 20
761.177013788076
 30
0.0
 11
71.999899961808
 21
761.132575965902
 31
0.0
  0
LINE
  5
12B8
330
1D
100
AcDbEntity
  8
0
100
AcDbLine
 10
71.933929472237
 20
761.214311726165
 30
0.0
 11
72.013132012616
 21
761.151494550189
 31
0.0
  0
LINE
  5
12B9
330
1D
100
AcDbEntity
  8
0
100
AcDbLine
 10
71.808361560055
 20
761.304821722464
 30
0.0
 11
71.933929472237
 21
761.214311726165
 31
0.0
  0
LINE
  5
12BA
330
1D
100
AcDbEntity
  8
0
100
AcDbLine
 10
80.403143184539
 20
756.381420176032
 30
0.0
 11
81.794277387124
 21
755.310935295055
 31
0.0
  0
LINE
  5
12BB
330
1D
100
AcDbEntity
  8
0
100
AcDbLine
 10
71.636128276067
 20
761.422504923844
 30
0.0
 11
71.808361560055
 21
761.304821722464
 31
0.0
  0
LINE
  5
12BC
330
1D
100
AcDbEntity
  8
0
100
AcDbLine
 10
71.43125205214
 20
761.557648894739
 30
0.0
 11
71.636128276067
 21
761.422504923844
 31
0.0
  0
LINE
  5
12BD
330
1D
100
AcDbEntity
  8
0
100
AcDbLine
 10
71.586219945818
 20
761.362061160132
 30
0.0
 11
71.764687204402
 21
761.257175519485
 31
0.0
  0
LINE
  5
12BE
330
1D
100
AcDbEntity
  8
0
100
AcDbLine
 10
71.381839874314
 20
761.486064492231
 30
0.0
 11
71.586219945818
 21
761.362061160132
 31
0.0
  0
LINE
  5
12BF
330
1D
100
AcDbEntity
  8
0
100
AcDbLine
 10
68.657821294012
 20
763.332325910388
 30
0.0
 11
68.856578864592
 21
763.19078412102
 31
0.0
  0
LINE
  5
12C0
330
1D
100
AcDbEntity
  8
0
100
AcDbLine
 10
68.496686790392
 20
763.455032763265
 30
0.0
 11
68.657821294012
 21
763.332325910388
 31
0.0
  0
LINE
  5
12C1
330
1D
100
AcDbEntity
  8
0
100
AcDbLine
 10
69.075020340706
 20
763.043535856131
 30
0.0
 11
69.290699638994
 21
762.905503358906
 31
0.0
  0
LINE
  5
12C2
330
1D
100
AcDbEntity
  8
0
100
AcDbLine
 10
68.856578864592
 20
763.19078412102
 30
0.0
 11
69.075020340706
 21
763.043535856131
 31
0.0
  0
LINE
  5
12C3
330
1D
100
AcDbEntity
  8
0
100
AcDbLine
 10
69.290699638994
 20
762.905503358906
 30
0.0
 11
69.496042146064
 21
762.780367014105
 31
0.0
  0
LINE
  5
12C4
330
1D
100
AcDbEntity
  8
0
100
AcDbLine
 10
69.819133276874
 20
762.605377268143
 30
0.0
 11
69.918481969675
 21
762.56545425174
 31
0.0
  0
LINE
  5
12C5
330
1D
100
AcDbEntity
  8
0
100
AcDbLine
 10
69.874507632527
 20
762.67328846557
 30
0.0
 11
69.942764020483
 21
762.60351199745
 31
0.0
  0
LINE
  5
12C6
330
1D
100
AcDbEntity
  8
0
100
AcDbLine
 10
79.215603790169
 20
757.268541608992
 30
0.0
 11
80.403143184539
 21
756.381420176032
 31
0.0
  0
LINE
  5
12C7
330
1D
100
AcDbEntity
  8
0
100
AcDbLine
 10
69.960058884211
 20
762.565467580139
 30
0.0
 11
70.085253337141
 21
762.755993582717
 31
0.0
  0
LINE
  5
12C8
330
1D
100
AcDbEntity
  8
0
100
AcDbLine
 10
69.960058884211
 20
762.565467580139
 30
0.0
 11
70.30907346299
 21
763.096612139505
 31
0.0
  0
LINE
  5
12C9
330
1D
100
AcDbEntity
  8
0
100
AcDbLine
 10
69.674650558921
 20
762.679325859832
 30
0.0
 11
69.819133276874
 21
762.605377268143
 31
0.0
  0
LINE
  5
12CA
330
1D
100
AcDbEntity
  8
0
100
AcDbLine
 10
69.496042146064
 20
762.780367014105
 30
0.0
 11
69.674650558921
 21
762.679325859832
 31
0.0
  0
LINE
  5
12CB
330
1D
100
AcDbEntity
  8
0
100
AcDbLine
 10
63.464642655967
 20
765.819076656511
 30
0.0
 11
63.678840607603
 21
765.674278391622
 31
0.0
  0
LINE
  5
12CC
330
1D
100
AcDbEntity
  8
0
100
AcDbLine
 10
63.885884522984
 20
765.535688972459
 30
0.0
 11
64.074063443916
 21
765.411224424428
 31
0.0
  0
LINE
  5
12CD
330
1D
100
AcDbEntity
  8
0
100
AcDbLine
 10
56.559198395993
 20
770.364696349403
 30
0.0
 11
56.950147603736
 21
770.944309234348
 31
0.0
  0
LINE
  5
12CE
330
1D
100
AcDbEntity
  8
0
100
AcDbLine
 10
68.37446721216
 20
763.556542244086
 30
0.0
 11
68.496686790392
 21
763.455032763265
 31
0.0
  0
LINE
  5
12CF
330
1D
100
AcDbEntity
  8
0
100
AcDbLine
 10
69.751991644133
 20
762.775084548932
 30
0.0
 11
69.874507632527
 21
762.67328846557
 31
0.0
  0
LINE
  5
12D0
330
1D
100
AcDbEntity
  8
0
100
AcDbLine
 10
69.591203550674
 20
762.897591401809
 30
0.0
 11
69.751991644133
 21
762.775084548932
 31
0.0
  0
LINE
  5
12D1
330
1D
100
AcDbEntity
  8
0
100
AcDbLine
 10
68.306434029284
 20
763.626305314746
 30
0.0
 11
68.37446721216
 21
763.556542244086
 31
0.0
  0
LINE
  5
12D2
330
1D
100
AcDbEntity
  8
0
100
AcDbLine
 10
56.449742850315
 20
770.438513783117
 30
0.0
 11
56.529358083997
 21
770.384811412912
 31
0.0
  0
LINE
  5
12D3
330
1D
100
AcDbEntity
  8
0
100
AcDbLine
 10
56.317075195871
 20
770.527926665099
 30
0.0
 11
56.449742850315
 21
770.438513783117
 31
0.0
  0
LINE
  5
12D4
330
1D
100
AcDbEntity
  8
0
100
AcDbLine
 10
54.961493552169
 20
771.6159903844
 30
0.0
 11
55.174196055538
 21
771.472401927132
 31
0.0
  0
LINE
  5
12D5
330
1D
100
AcDbEntity
  8
0
100
AcDbLine
 10
54.901141112903
 20
771.483056893231
 30
0.0
 11
54.942586256579
 21
771.544502571639
 31
0.0
  0
LINE
  5
12D6
330
1D
100
AcDbEntity
  8
0
100
AcDbLine
 10
54.930981424899
 20
771.462941829721
 30
0.0
 11
55.010596658581
 21
771.409239459516
 31
0.0
  0
LINE
  5
12D7
330
1D
100
AcDbEntity
  8
0
100
AcDbLine
 10
55.133459710737
 20
771.413244508221
 30
0.0
 11
55.346162214105
 21
771.269656050953
 31
0.0
  0
LINE
  5
12D8
330
1D
100
AcDbEntity
  8
0
100
AcDbLine
 10
55.346162214105
 20
771.269656050953
 30
0.0
 11
55.545003055125
 21
771.138458490219
 31
0.0
  0
LINE
  5
12D9
330
1D
100
AcDbEntity
  8
0
100
AcDbLine
 10
55.385625353826
 20
771.327008213976
 30
0.0
 11
55.586851577753
 21
771.185542257633
 31
0.0
  0
LINE
  5
12DA
330
1D
100
AcDbEntity
  8
0
100
AcDbLine
 10
55.174196055538
 20
771.472401927132
 30
0.0
 11
55.385625353826
 21
771.327008213976
 31
0.0
  0
LINE
  5
12DB
330
1D
100
AcDbEntity
  8
0
100
AcDbLine
 10
55.010596658581
 20
771.409239459516
 30
0.0
 11
55.143214313025
 21
771.319739974993
 31
0.0
  0
LINE
  5
12DC
330
1D
100
AcDbEntity
  8
0
100
AcDbLine
 10
55.143214313025
 20
771.319739974993
 30
0.0
 11
55.318978685926
 21
771.201172799017
 31
0.0
  0
LINE
  5
12DD
330
1D
100
AcDbEntity
  8
0
100
AcDbLine
 10
55.719493518789
 20
771.026284838722
 30
0.0
 11
55.85922168501
 21
770.940301121865
 31
0.0
  0
LINE
  5
12DE
330
1D
100
AcDbEntity
  8
0
100
AcDbLine
 10
55.545003055125
 20
771.138458490219
 30
0.0
 11
55.719493518789
 21
771.026284838722
 31
0.0
  0
LINE
  5
12DF
330
1D
100
AcDbEntity
  8
0
100
AcDbLine
 10
55.75623486174
 20
771.062922711452
 30
0.0
 11
55.879633158681
 21
770.96985483132
 31
0.0
  0
LINE
  5
12E0
330
1D
100
AcDbEntity
  8
0
100
AcDbLine
 10
55.586851577753
 20
771.185542257633
 30
0.0
 11
55.75623486174
 21
771.062922711452
 31
0.0
  0
LINE
  5
12E1
330
1D
100
AcDbEntity
  8
0
100
AcDbLine
 10
55.318978685926
 20
771.201172799017
 30
0.0
 11
55.517955167592
 21
771.067010174774
 31
0.0
  0
LINE
  5
12E2
330
1D
100
AcDbEntity
  8
0
100
AcDbLine
 10
55.517955167592
 20
771.067010174774
 30
0.0
 11
55.730188055718
 21
770.923808320046
 31
0.0
  0
LINE
  5
12E3
330
1D
100
AcDbEntity
  8
0
100
AcDbLine
 10
78.726826370072
 20
757.635954283791
 30
0.0
 11
79.215603790169
 21
757.268541608992
 31
0.0
  0
LINE
  5
12E4
330
1D
100
AcDbEntity
  8
0
100
AcDbLine
 10
55.978070051011
 20
770.881152530175
 30
0.0
 11
56.348630003027
 21
771.424996198901
 31
0.0
  0
LINE
  5
12E5
330
1D
100
AcDbEntity
  8
0
100
AcDbLine
 10
55.85922168501
 20
770.940301121865
 30
0.0
 11
55.947080443171
 21
770.891076954889
 31
0.0
  0
LINE
  5
12E6
330
1D
100
AcDbEntity
  8
0
100
AcDbLine
 10
55.879633158681
 20
770.96985483132
 30
0.0
 11
55.957752686358
 21
770.906161822319
 31
0.0
  0
LINE
  5
12E7
330
1D
100
AcDbEntity
  8
0
100
AcDbLine
 10
64.778747565222
 20
765.708973125817
 30
0.0
 11
68.333099987583
 21
763.731036901241
 31
0.0
  0
LINE
  5
12E8
330
1D
100
AcDbEntity
  8
0
100
AcDbLine
 10
68.330456272471
 20
763.664513060457
 30
0.0
 11
68.430014772893
 21
763.624353441514
 31
0.0
  0
LINE
  5
12E9
330
1D
100
AcDbEntity
  8
0
100
AcDbLine
 10
68.430014772893
 20
763.624353441514
 30
0.0
 11
68.574324285766
 21
763.550504849825
 31
0.0
  0
LINE
  5
12EA
330
1D
100
AcDbEntity
  8
0
100
AcDbLine
 10
68.574324285766
 20
763.550504849825
 30
0.0
 11
68.752932698623
 21
763.449463695552
 31
0.0
  0
LINE
  5
12EB
330
1D
100
AcDbEntity
  8
0
100
AcDbLine
 10
69.392445980095
 20
763.039133191177
 30
0.0
 11
69.591203550674
 21
762.897591401809
 31
0.0
  0
LINE
  5
12EC
330
1D
100
AcDbEntity
  8
0
100
AcDbLine
 10
69.17395450398
 20
763.186294853526
 30
0.0
 11
69.392445980095
 21
763.039133191177
 31
0.0
  0
LINE
  5
12ED
330
1D
100
AcDbEntity
  8
0
100
AcDbLine
 10
68.958325205692
 20
763.32441395329
 30
0.0
 11
69.17395450398
 21
763.186294853526
 31
0.0
  0
LINE
  5
12EE
330
1D
100
AcDbEntity
  8
0
100
AcDbLine
 10
70.085253337141
 20
762.755993582717
 30
0.0
 11
70.542178783944
 21
762.5017224003
 31
0.0
  0
LINE
  5
12EF
330
1D
100
AcDbEntity
  8
0
100
AcDbLine
 10
68.752932698623
 20
763.449463695552
 30
0.0
 11
68.958325205692
 21
763.32441395329
 31
0.0
  0
LINE
  5
12F0
330
1D
100
AcDbEntity
  8
0
100
AcDbLine
 10
60.007005750446
 20
768.624673862024
 30
0.0
 11
60.126026359634
 21
768.562423604285
 31
0.0
  0
LINE
  5
12F1
330
1D
100
AcDbEntity
  8
0
100
AcDbLine
 10
58.629168781795
 20
769.636790227774
 30
0.0
 11
58.720546124243
 21
769.547660427555
 31
0.0
  0
LINE
  5
12F2
330
1D
100
AcDbEntity
  8
0
100
AcDbLine
 10
58.585514694984
 20
769.693979131459
 30
0.0
 11
58.629168781795
 21
769.636790227774
 31
0.0
  0
LINE
  5
12F3
330
1D
100
AcDbEntity
  8
0
100
AcDbLine
 10
58.669053202808
 20
769.688472071399
 30
0.0
 11
58.788073811996
 21
769.62622181366
 31
0.0
  0
LINE
  5
12F4
330
1D
100
AcDbEntity
  8
0
100
AcDbLine
 10
58.597977130549
 20
769.712764703044
 30
0.0
 11
58.652183527709
 21
769.788379982149
 31
0.0
  0
LINE
  5
12F5
330
1D
100
AcDbEntity
  8
0
100
AcDbLine
 10
58.597977130549
 20
769.712764703044
 30
0.0
 11
58.669053202808
 21
769.688472071399
 31
0.0
  0
LINE
  5
12F6
330
1D
100
AcDbEntity
  8
0
100
AcDbLine
 10
58.597977130549
 20
769.712764703044
 30
0.0
 11
58.97672201358
 21
770.241095334495
 31
0.0
  0
LINE
  5
12F7
330
1D
100
AcDbEntity
  8
0
100
AcDbLine
 10
58.860733324868
 20
769.428271781608
 30
0.0
 11
59.034325900999
 21
769.289942943284
 31
0.0
  0
LINE
  5
12F8
330
1D
100
AcDbEntity
  8
0
100
AcDbLine
 10
59.034325900999
 20
769.289942943284
 30
0.0
 11
59.23852314848
 21
769.136022950685
 31
0.0
  0
LINE
  5
12F9
330
1D
100
AcDbEntity
  8
0
100
AcDbLine
 10
59.23852314848
 20
769.136022950685
 30
0.0
 11
59.4544136627
 21
768.981356290187
 31
0.0
  0
LINE
  5
12FA
330
1D
100
AcDbEntity
  8
0
100
AcDbLine
 10
59.556556413962
 20
769.114872724998
 30
0.0
 11
59.760753661442
 21
768.9609527324
 31
0.0
  0
LINE
  5
12FB
330
1D
100
AcDbEntity
  8
0
100
AcDbLine
 10
59.340665899742
 20
769.269539385496
 30
0.0
 11
59.556556413962
 21
769.114872724998
 31
0.0
  0
LINE
  5
12FC
330
1D
100
AcDbEntity
  8
0
100
AcDbLine
 10
59.134721984361
 20
769.410034060547
 30
0.0
 11
59.340665899742
 21
769.269539385496
 31
0.0
  0
LINE
  5
12FD
330
1D
100
AcDbEntity
  8
0
100
AcDbLine
 10
58.788073811996
 20
769.62622181366
 30
0.0
 11
58.945096653267
 21
769.532793352691
 31
0.0
  0
LINE
  5
12FE
330
1D
100
AcDbEntity
  8
0
100
AcDbLine
 10
58.945096653267
 20
769.532793352691
 30
0.0
 11
59.134721984361
 21
769.410034060547
 31
0.0
  0
LINE
  5
12FF
330
1D
100
AcDbEntity
  8
0
100
AcDbLine
 10
58.720546124243
 20
769.547660427555
 30
0.0
 11
58.860733324868
 21
769.428271781608
 31
0.0
  0
LINE
  5
1300
330
1D
100
AcDbEntity
  8
0
100
AcDbLine
 10
59.4544136627
 20
768.981356290187
 30
0.0
 11
59.660357578081
 21
768.840861615137
 31
0.0
  0
LINE
  5
1301
330
1D
100
AcDbEntity
  8
0
100
AcDbLine
 10
60.074483438198
 20
768.703148645588
 30
0.0
 11
60.165910780647
 21
768.61410544791
 31
0.0
  0
LINE
  5
1302
330
1D
100
AcDbEntity
  8
0
100
AcDbLine
 10
60.165910780647
 20
768.61410544791
 30
0.0
 11
60.209514867458
 21
768.556829941684
 31
0.0
  0
LINE
  5
1303
330
1D
100
AcDbEntity
  8
0
100
AcDbLine
 10
60.197102431893
 20
768.53813097264
 30
0.0
 11
60.566894792411
 21
769.053913505712
 31
0.0
  0
LINE
  5
1304
330
1D
100
AcDbEntity
  8
0
100
AcDbLine
 10
60.126026359634
 20
768.562423604285
 30
0.0
 11
60.197102431893
 21
768.53813097264
 31
0.0
  0
LINE
  5
1305
330
1D
100
AcDbEntity
  8
0
100
AcDbLine
 10
59.934346237573
 20
768.822623894075
 30
0.0
 11
60.074483438198
 21
768.703148645588
 31
0.0
  0
LINE
  5
1306
330
1D
100
AcDbEntity
  8
0
100
AcDbLine
 10
60.304620280539
 20
768.688095748135
 30
0.0
 11
61.848336249719
 21
767.660203854679
 31
0.0
  0
LINE
  5
1307
330
1D
100
AcDbEntity
  8
0
100
AcDbLine
 10
59.760753661442
 20
768.9609527324
 30
0.0
 11
59.934346237573
 21
768.822623894075
 31
0.0
  0
LINE
  5
1308
330
1D
100
AcDbEntity
  8
0
100
AcDbLine
 10
59.660357578081
 20
768.840861615137
 30
0.0
 11
59.849982909174
 21
768.718102322993
 31
0.0
  0
LINE
  5
1309
330
1D
100
AcDbEntity
  8
0
100
AcDbLine
 10
59.849982909174
 20
768.718102322993
 30
0.0
 11
60.007005750446
 21
768.624673862024
 31
0.0
  0
LINE
  5
130A
330
1D
100
AcDbEntity
  8
0
100
AcDbLine
 10
73.563539177158
 20
760.820387107929
 30
0.0
 11
76.083715586037
 21
759.41795211581
 31
0.0
  0
LINE
  5
130B
330
1D
100
AcDbEntity
  8
0
100
AcDbLine
 10
76.083715586037
 20
759.41795211581
 30
0.0
 11
77.706797403588
 21
758.677097100865
 31
0.0
  0
LINE
  5
130C
330
1D
100
AcDbEntity
  8
0
100
AcDbLine
 10
78.13409067524
 20
758.317305944883
 30
0.0
 11
78.352261127801
 21
758.187188253429
 31
0.0
  0
LINE
  5
130D
330
1D
100
AcDbEntity
  8
0
100
AcDbLine
 10
78.555180908258
 20
757.768655623041
 30
0.0
 11
78.726826370072
 21
757.635954283791
 31
0.0
  0
LINE
  5
130E
330
1D
100
AcDbEntity
  8
0
100
AcDbLine
 10
78.352261127801
 20
758.187188253429
 30
0.0
 11
78.587923885207
 21
758.063368122709
 31
0.0
  0
LINE
  5
130F
330
1D
100
AcDbEntity
  8
0
100
AcDbLine
 10
77.685019661603
 20
758.721492133057
 30
0.0
 11
77.711801712411
 21
758.763880005787
 31
0.0
  0
LINE
  5
1310
330
1D
100
AcDbEntity
  8
0
100
AcDbLine
 10
77.685019661603
 20
758.721492133057
 30
0.0
 11
77.720027338253
 21
758.65012720767
 31
0.0
  0
LINE
  5
1311
330
1D
100
AcDbEntity
  8
0
100
AcDbLine
 10
77.711801712411
 20
758.763880005787
 30
0.0
 11
77.802303617694
 21
758.770633903921
 31
0.0
  0
LINE
  5
1312
330
1D
100
AcDbEntity
  8
0
100
AcDbLine
 10
77.802303617694
 20
758.770633903921
 30
0.0
 11
77.942767047205
 21
758.743923700439
 31
0.0
  0
LINE
  5
1313
330
1D
100
AcDbEntity
  8
0
100
AcDbLine
 10
77.720027338253
 20
758.65012720767
 30
0.0
 11
77.808614488322
 21
758.555564652488
 31
0.0
  0
LINE
  5
1314
330
1D
100
AcDbEntity
  8
0
100
AcDbLine
 10
77.951765086407
 20
758.441508761505
 30
0.0
 11
78.13409067524
 21
758.317305944883
 31
0.0
  0
LINE
  5
1315
330
1D
100
AcDbEntity
  8
0
100
AcDbLine
 10
78.81491421075
 20
757.958526899375
 30
0.0
 11
79.027851977409
 21
757.873345930079
 31
0.0
  0
LINE
  5
1316
330
1D
100
AcDbEntity
  8
0
100
AcDbLine
 10
79.4390159865
 20
757.797502884068
 30
0.0
 11
79.466664062711
 21
757.839390756798
 31
0.0
  0
LINE
  5
1317
330
1D
100
AcDbEntity
  8
0
100
AcDbLine
 10
79.34938010662
 20
757.790248985935
 30
0.0
 11
79.4390159865
 21
757.797502884068
 31
0.0
  0
LINE
  5
1318
330
1D
100
AcDbEntity
  8
0
100
AcDbLine
 10
79.208100651705
 20
757.817545791957
 30
0.0
 11
79.34938010662
 21
757.790248985935
 31
0.0
  0
LINE
  5
1319
330
1D
100
AcDbEntity
  8
0
100
AcDbLine
 10
79.027851977409
 20
757.873345930079
 30
0.0
 11
79.208100651705
 21
757.817545791957
 31
0.0
  0
LINE
  5
131A
330
1D
100
AcDbEntity
  8
0
100
AcDbLine
 10
77.808614488322
 20
758.555564652488
 30
0.0
 11
77.951765086407
 21
758.441508761505
 31
0.0
  0
LINE
  5
131B
330
1D
100
AcDbEntity
  8
0
100
AcDbLine
 10
78.587923885207
 20
758.063368122709
 30
0.0
 11
78.739129488177
 21
757.993529990391
 31
0.0
  0
LINE
  5
131C
330
1D
100
AcDbEntity
  8
0
100
AcDbLine
 10
78.587923885207
 20
758.063368122709
 30
0.0
 11
78.81491421075
 21
757.958526899375
 31
0.0
  0
LINE
  5
131D
330
1D
100
AcDbEntity
  8
0
100
AcDbLine
 10
68.289175768096
 20
763.664213129518
 30
0.0
 11
68.333099987583
 21
763.731036901241
 31
0.0
  0
LINE
  5
131E
330
1D
100
AcDbEntity
  8
0
100
AcDbLine
 10
68.289175768096
 20
763.664213129518
 30
0.0
 11
68.60077101059
 21
764.138256142642
 31
0.0
  0
LINE
  5
131F
330
1D
100
AcDbEntity
  8
0
100
AcDbLine
 10
55.730188055718
 20
770.923808320046
 30
0.0
 11
55.942384341305
 21
770.780743067859
 31
0.0
  0
LINE
  5
1320
330
1D
100
AcDbEntity
  8
0
100
AcDbLine
 10
55.942384341305
 20
770.780743067859
 30
0.0
 11
56.141397425511
 21
770.646443841075
 31
0.0
  0
LINE
  5
1321
330
1D
100
AcDbEntity
  8
0
100
AcDbLine
 10
54.922030412448
 20
771.558638221378
 30
0.0
 11
55.133459710737
 21
771.413244508221
 31
0.0
  0
LINE
  5
1322
330
1D
100
AcDbEntity
  8
0
100
AcDbLine
 10
77.942767047205
 20
758.743923700439
 30
0.0
 11
78.122965721502
 21
758.688036959777
 31
0.0
  0
LINE
  5
1323
330
1D
100
AcDbEntity
  8
0
100
AcDbLine
 10
79.431656386062
 20
757.910755682185
 30
0.0
 11
79.466664062711
 21
757.839390756798
 31
0.0
  0
LINE
  5
1324
330
1D
100
AcDbEntity
  8
0
100
AcDbLine
 10
78.122965721502
 20
758.688036959777
 30
0.0
 11
78.335903488161
 21
758.60285599048
 31
0.0
  0
LINE
  5
1325
330
1D
100
AcDbEntity
  8
0
100
AcDbLine
 10
54.23248431191
 20
772.434909341085
 30
0.0
 11
54.374226415301
 21
772.636881600445
 31
0.0
  0
LINE
  5
1326
330
1D
100
AcDbEntity
  8
0
100
AcDbLine
 10
54.23248431191
 20
772.434909341085
 30
0.0
 11
54.567090552947
 21
772.911699066097
 31
0.0
  0
LINE
  5
1327
330
1D
100
AcDbEntity
  8
0
100
AcDbLine
 10
53.959371434887
 20
772.566263961878
 30
0.0
 11
54.098961332517
 21
772.485440756798
 31
0.0
  0
LINE
  5
1328
330
1D
100
AcDbEntity
  8
0
100
AcDbLine
 10
53.785769239813
 20
772.674576139705
 30
0.0
 11
53.959371434887
 21
772.566263961878
 31
0.0
  0
LINE
  5
1329
330
1D
100
AcDbEntity
  8
0
100
AcDbLine
 10
52.964417041109
 20
773.251552400642
 30
0.0
 11
53.160028201527
 21
773.105360869013
 31
0.0
  0
LINE
  5
132A
330
1D
100
AcDbEntity
  8
0
100
AcDbLine
 10
62.633365030015
 20
767.640661573168
 30
0.0
 11
65.055689708647
 21
766.327931969349
 31
0.0
  0
LINE
  5
132B
330
1D
100
AcDbEntity
  8
0
100
AcDbLine
 10
56.939619408524
 20
770.928700358617
 30
0.0
 11
58.652183527709
 21
769.788379982149
 31
0.0
  0
LINE
  5
132C
330
1D
100
AcDbEntity
  8
0
100
AcDbLine
 10
65.567732372179
 20
765.988534897866
 30
0.0
 11
65.748848668868
 21
765.88523752581
 31
0.0
  0
LINE
  5
132D
330
1D
100
AcDbEntity
  8
0
100
AcDbLine
 10
65.748848668868
 20
765.88523752581
 30
0.0
 11
65.892223502989
 21
765.815970023035
 31
0.0
  0
LINE
  5
132E
330
1D
100
AcDbEntity
  8
0
100
AcDbLine
 10
79.343119235992
 20
758.005404839908
 30
0.0
 11
79.431656386062
 21
757.910755682185
 31
0.0
  0
LINE
  5
132F
330
1D
100
AcDbEntity
  8
0
100
AcDbLine
 10
79.199918637907
 20
758.119374128351
 30
0.0
 11
79.343119235992
 21
758.005404839908
 31
0.0
  0
LINE
  5
1330
330
1D
100
AcDbEntity
  8
0
100
AcDbLine
 10
78.335903488161
 20
758.60285599048
 30
0.0
 11
78.563759839107
 21
758.497514767146
 31
0.0
  0
LINE
  5
1331
330
1D
100
AcDbEntity
  8
0
100
AcDbLine
 10
54.144633060226
 20
772.538746509659
 30
0.0
 11
54.213402845641
 21
772.470059272024
 31
0.0
  0
LINE
  5
1332
330
1D
100
AcDbEntity
  8
0
100
AcDbLine
 10
54.023150084534
 20
772.641331823505
 30
0.0
 11
54.144633060226
 21
772.538746509659
 31
0.0
  0
LINE
  5
1333
330
1D
100
AcDbEntity
  8
0
100
AcDbLine
 10
53.160028201527
 20
773.105360869013
 30
0.0
 11
53.37443666494
 21
772.952127221216
 31
0.0
  0
LINE
  5
1334
330
1D
100
AcDbEntity
  8
0
100
AcDbLine
 10
49.450402424372
 20
775.259700545914
 30
0.0
 11
49.942972974802
 21
775.907602226699
 31
0.0
  0
LINE
  5
1335
330
1D
100
AcDbEntity
  8
0
100
AcDbLine
 10
49.222001140637
 20
775.39029791797
 30
0.0
 11
49.405234871041
 21
775.27226804869
 31
0.0
  0
LINE
  5
1336
330
1D
100
AcDbEntity
  8
0
100
AcDbLine
 10
52.614852981462
 20
773.548289688833
 30
0.0
 11
52.683759369418
 21
773.479639053738
 31
0.0
  0
LINE
  5
1337
330
1D
100
AcDbEntity
  8
0
100
AcDbLine
 10
52.633905609406
 20
773.57908980845
 30
0.0
 11
52.729294494586
 21
773.532908204059
 31
0.0
  0
LINE
  5
1338
330
1D
100
AcDbEntity
  8
0
100
AcDbLine
 10
52.729294494586
 20
773.532908204059
 30
0.0
 11
52.869020994757
 21
773.452121601519
 31
0.0
  0
LINE
  5
1339
330
1D
100
AcDbEntity
  8
0
100
AcDbLine
 10
52.595908117733
 20
773.583476222312
 30
0.0
 11
52.754339821437
 21
773.809251806447
 31
0.0
  0
LINE
  5
133A
330
1D
100
AcDbEntity
  8
0
100
AcDbLine
 10
52.595908117733
 20
773.583476222312
 30
0.0
 11
52.974114561027
 21
774.122445245949
 31
0.0
  0
LINE
  5
133B
330
1D
100
AcDbEntity
  8
0
100
AcDbLine
 10
52.683759369418
 20
773.479639053738
 30
0.0
 11
52.80510574257
 21
773.377017137352
 31
0.0
  0
LINE
  5
133C
330
1D
100
AcDbEntity
  8
0
100
AcDbLine
 10
65.365235313376
 20
766.114799703637
 30
0.0
 11
65.567732372179
 21
765.988534897866
 31
0.0
  0
LINE
  5
133D
330
1D
100
AcDbEntity
  8
0
100
AcDbLine
 10
65.892223502989
 20
765.815970023035
 30
0.0
 11
65.993812388169
 21
765.78052713365
 31
0.0
  0
LINE
  5
133E
330
1D
100
AcDbEntity
  8
0
100
AcDbLine
 10
77.796799666882
 20
758.935771074233
 30
0.0
 11
77.685019661603
 21
758.721492133057
 31
0.0
  0
LINE
  5
133F
330
1D
100
AcDbEntity
  8
0
100
AcDbLine
 10
79.017593049075
 20
758.243576944973
 30
0.0
 11
79.199918637907
 21
758.119374128351
 31
0.0
  0
LINE
  5
1340
330
1D
100
AcDbEntity
  8
0
100
AcDbLine
 10
78.563759839107
 20
758.497514767146
 30
0.0
 11
78.79855657111
 21
758.374194636426
 31
0.0
  0
LINE
  5
1341
330
1D
100
AcDbEntity
  8
0
100
AcDbLine
 10
65.146830439802
 20
766.261911365986
 30
0.0
 11
65.365235313376
 21
766.114799703637
 31
0.0
  0
LINE
  5
1342
330
1D
100
AcDbEntity
  8
0
100
AcDbLine
 10
64.934001399253
 20
766.416080654428
 30
0.0
 11
65.146830439802
 21
766.261911365986
 31
0.0
  0
LINE
  5
1343
330
1D
100
AcDbEntity
  8
0
100
AcDbLine
 10
66.047870973184
 20
765.790239508135
 30
0.0
 11
73.479280501864
 21
761.762938225007
 31
0.0
  0
LINE
  5
1344
330
1D
100
AcDbEntity
  8
0
100
AcDbLine
 10
66.044115839886
 20
765.78485526782
 30
0.0
 11
66.334409774881
 21
766.201088776451
 31
0.0
  0
LINE
  5
1345
330
1D
100
AcDbEntity
  8
0
100
AcDbLine
 10
65.993812388169
 20
765.78052713365
 30
0.0
 11
66.044115839886
 21
765.78485526782
 31
0.0
  0
LINE
  5
1346
330
1D
100
AcDbEntity
  8
0
100
AcDbLine
 10
78.79855657111
 20
758.374194636426
 30
0.0
 11
79.017593049075
 21
758.243576944973
 31
0.0
  0
LINE
  5
1347
330
1D
100
AcDbEntity
  8
0
100
AcDbLine
 10
53.863838785994
 20
772.766796560215
 30
0.0
 11
54.023150084534
 21
772.641331823505
 31
0.0
  0
LINE
  5
1348
330
1D
100
AcDbEntity
  8
0
100
AcDbLine
 10
53.668227625576
 20
772.912988091844
 30
0.0
 11
53.863838785994
 21
772.766796560215
 31
0.0
  0
LINE
  5
1349
330
1D
100
AcDbEntity
  8
0
100
AcDbLine
 10
64.747022031904
 20
766.562022890213
 30
0.0
 11
64.934001399253
 21
766.416080654428
 31
0.0
  0
LINE
  5
134A
330
1D
100
AcDbEntity
  8
0
100
AcDbLine
 10
53.453955764704
 20
773.066258342181
 30
0.0
 11
53.668227625576
 21
772.912988091844
 31
0.0
  0
LINE
  5
134B
330
1D
100
AcDbEntity
  8
0
100
AcDbLine
 10
53.242996081658
 20
773.211265452797
 30
0.0
 11
53.453955764704
 21
773.066258342181
 31
0.0
  0
LINE
  5
134C
330
1D
100
AcDbEntity
  8
0
100
AcDbLine
 10
52.869020994757
 20
773.452121601519
 30
0.0
 11
53.042573189831
 21
773.343722821152
 31
0.0
  0
LINE
  5
134D
330
1D
100
AcDbEntity
  8
0
100
AcDbLine
 10
53.042573189831
 20
773.343722821152
 30
0.0
 11
53.242996081658
 21
773.211265452797
 31
0.0
  0
LINE
  5
134E
330
1D
100
AcDbEntity
  8
0
100
AcDbLine
 10
52.80510574257
 20
773.377017137352
 30
0.0
 11
52.964417041109
 21
773.251552400642
 31
0.0
  0
LINE
  5
134F
330
1D
100
AcDbEntity
  8
0
100
AcDbLine
 10
48.909798089739
 20
775.609346371537
 30
0.0
 11
49.222001140637
 21
775.39029791797
 31
0.0
  0
LINE
  5
1350
330
1D
100
AcDbEntity
  8
0
100
AcDbLine
 10
48.507435130108
 20
775.901233282373
 30
0.0
 11
48.909798089739
 21
775.609346371537
 31
0.0
  0
LINE
  5
1351
330
1D
100
AcDbEntity
  8
0
100
AcDbLine
 10
45.481684301733
 20
778.267879116584
 30
0.0
 11
45.951941877625
 21
778.88643147128
 31
0.0
  0
LINE
  5
1352
330
1D
100
AcDbEntity
  8
0
100
AcDbLine
 10
45.481684301733
 20
778.267879116584
 30
0.0
 11
45.560011455503
 21
778.186745726526
 31
0.0
  0
LINE
  5
1353
330
1D
100
AcDbEntity
  8
0
100
AcDbLine
 10
45.560011455503
 20
778.186745726526
 30
0.0
 11
45.775649530457
 21
778.003241828392
 31
0.0
  0
LINE
  5
1354
330
1D
100
AcDbEntity
  8
0
100
AcDbLine
 10
45.775649530457
 20
778.003241828392
 30
0.0
 11
46.096374497742
 21
777.742553766985
 31
0.0
  0
LINE
  5
1355
330
1D
100
AcDbEntity
  8
0
100
AcDbLine
 10
46.096374497742
 20
777.742553766985
 30
0.0
 11
46.523119370058
 21
777.405297567707
 31
0.0
  0
LINE
  5
1356
330
1D
100
AcDbEntity
  8
0
100
AcDbLine
 10
46.523119370058
 20
777.405297567707
 30
0.0
 11
47.019027363591
 21
777.020835408386
 31
0.0
  0
LINE
  5
1357
330
1D
100
AcDbEntity
  8
0
100
AcDbLine
 10
47.019027363591
 20
777.020835408386
 30
0.0
 11
47.531564006771
 21
776.629774915114
 31
0.0
  0
LINE
  5
1358
330
1D
100
AcDbEntity
  8
0
100
AcDbLine
 10
49.879892616751
 20
776.004199380467
 30
0.0
 11
50.036435966098
 21
775.869940415123
 31
0.0
  0
LINE
  5
1359
330
1D
100
AcDbEntity
  8
0
100
AcDbLine
 10
50.036435966098
 20
775.869940415123
 30
0.0
 11
50.221505525826
 21
775.721290295506
 31
0.0
  0
LINE
  5
135A
330
1D
100
AcDbEntity
  8
0
100
AcDbLine
 10
50.221505525826
 20
775.721290295506
 30
0.0
 11
50.431064951133
 21
775.562657867343
 31
0.0
  0
LINE
  5
135B
330
1D
100
AcDbEntity
  8
0
100
AcDbLine
 10
50.431064951133
 20
775.562657867343
 30
0.0
 11
50.645163606925
 21
775.409487617006
 31
0.0
  0
LINE
  5
135C
330
1D
100
AcDbEntity
  8
0
100
AcDbLine
 10
50.645163606925
 20
775.409487617006
 30
0.0
 11
50.842817845404
 21
775.276434800383
 31
0.0
  0
LINE
  5
135D
330
1D
100
AcDbEntity
  8
0
100
AcDbLine
 10
50.842817845404
 20
775.276434800383
 30
0.0
 11
51.01884132177
 21
775.165916404775
 31
0.0
  0
LINE
  5
135E
330
1D
100
AcDbEntity
  8
0
100
AcDbLine
 10
50.950237133847
 20
775.408290465679
 30
0.0
 11
51.106867085734
 21
775.273981500335
 31
0.0
  0
LINE
  5
135F
330
1D
100
AcDbEntity
  8
0
100
AcDbLine
 10
54.374226415301
 20
772.636881600445
 30
0.0
 11
54.639935227277
 21
772.459957905087
 31
0.0
  0
LINE
  5
1360
330
1D
100
AcDbEntity
  8
0
100
AcDbLine
 10
51.106867085734
 20
775.273981500335
 30
0.0
 11
51.219246729327
 21
775.166028752774
 31
0.0
  0
LINE
  5
1361
330
1D
100
AcDbEntity
  8
0
100
AcDbLine
 10
51.219246729327
 20
775.166028752774
 30
0.0
 11
51.286484206196
 21
775.087487478884
 31
0.0
  0
LINE
  5
1362
330
1D
100
AcDbEntity
  8
0
100
AcDbLine
 10
51.299743429279
 20
775.045653126932
 30
0.0
 11
51.615757784417
 21
775.475442435254
 31
0.0
  0
LINE
  5
1363
330
1D
100
AcDbEntity
  8
0
100
AcDbLine
 10
51.156950130488
 20
775.089527878446
 30
0.0
 11
51.253782797885
 21
775.04724697821
 31
0.0
  0
LINE
  5
1364
330
1D
100
AcDbEntity
  8
0
100
AcDbLine
 10
51.01884132177
 20
775.165916404775
 30
0.0
 11
51.156950130488
 21
775.089527878446
 31
0.0
  0
LINE
  5
1365
330
1D
100
AcDbEntity
  8
0
100
AcDbLine
 10
49.767426370618
 20
776.112202128028
 30
0.0
 11
49.879892616751
 21
776.004199380467
 31
0.0
  0
LINE
  5
1366
330
1D
100
AcDbEntity
  8
0
100
AcDbLine
 10
50.765254176659
 20
775.556890585296
 30
0.0
 11
50.950237133847
 21
775.408290465679
 31
0.0
  0
LINE
  5
1367
330
1D
100
AcDbEntity
  8
0
100
AcDbLine
 10
49.700188893749
 20
776.190743401918
 30
0.0
 11
49.767426370618
 21
776.112202128028
 31
0.0
  0
LINE
  5
1368
330
1D
100
AcDbEntity
  8
0
100
AcDbLine
 10
50.555608148812
 20
775.715573013459
 30
0.0
 11
50.765254176659
 21
775.556890585296
 31
0.0
  0
LINE
  5
1369
330
1D
100
AcDbEntity
  8
0
100
AcDbLine
 10
54.471706560055
 20
773.428054429172
 30
0.0
 11
54.680752845641
 21
773.279533216941
 31
0.0
  0
LINE
  5
136A
330
1D
100
AcDbEntity
  8
0
100
AcDbLine
 10
54.680752845641
 20
773.279533216941
 30
0.0
 11
54.867276510685
 21
773.156601681611
 31
0.0
  0
LINE
  5
136B
330
1D
100
AcDbEntity
  8
0
100
AcDbLine
 10
54.867276510685
 20
773.156601681611
 30
0.0
 11
55.02701704341
 21
773.060680400319
 31
0.0
  0
LINE
  5
136C
330
1D
100
AcDbEntity
  8
0
100
AcDbLine
 10
60.405230094362
 20
769.164475440156
 30
0.0
 11
62.633365030015
 21
767.640661573168
 31
0.0
  0
LINE
  5
136D
330
1D
100
AcDbEntity
  8
0
100
AcDbLine
 10
64.589655477476
 20
766.695256022532
 30
0.0
 11
64.747022031904
 21
766.562022890213
 31
0.0
  0
LINE
  5
136E
330
1D
100
AcDbEntity
  8
0
100
AcDbLine
 10
64.478012436424
 20
766.804284603118
 30
0.0
 11
64.589655477476
 21
766.695256022532
 31
0.0
  0
LINE
  5
136F
330
1D
100
AcDbEntity
  8
0
100
AcDbLine
 10
64.412771369716
 20
766.88548376084
 30
0.0
 11
64.478012436424
 21
766.804284603118
 31
0.0
  0
LINE
  5
1370
330
1D
100
AcDbEntity
  8
0
100
AcDbLine
 10
64.402745159336
 20
766.931917855053
 30
0.0
 11
64.770277893851
 21
767.458899032345
 31
0.0
  0
LINE
  5
1371
330
1D
100
AcDbEntity
  8
0
100
AcDbLine
 10
64.402745159336
 20
766.931917855053
 30
0.0
 11
64.452998611052
 21
766.936159386683
 31
0.0
  0
LINE
  5
1372
330
1D
100
AcDbEntity
  8
0
100
AcDbLine
 10
64.452998611052
 20
766.936159386683
 30
0.0
 11
64.554587496232
 21
766.900716497299
 31
0.0
  0
LINE
  5
1373
330
1D
100
AcDbEntity
  8
0
100
AcDbLine
 10
64.554587496232
 20
766.900716497299
 30
0.0
 11
64.697875727813
 21
766.831498994523
 31
0.0
  0
LINE
  5
1374
330
1D
100
AcDbEntity
  8
0
100
AcDbLine
 10
65.699788967317
 20
766.15466363012
 30
0.0
 11
65.857068919205
 21
766.021480497801
 31
0.0
  0
LINE
  5
1375
330
1D
100
AcDbEntity
  8
0
100
AcDbLine
 10
65.512809599968
 20
766.300605865905
 30
0.0
 11
65.699788967317
 21
766.15466363012
 31
0.0
  0
LINE
  5
1376
330
1D
100
AcDbEntity
  8
0
100
AcDbLine
 10
65.300030559419
 20
766.454861756888
 30
0.0
 11
65.512809599968
 21
766.300605865905
 31
0.0
  0
LINE
  5
1377
330
1D
100
AcDbEntity
  8
0
100
AcDbLine
 10
65.081625685845
 20
766.601973419237
 30
0.0
 11
65.300030559419
 21
766.454861756888
 31
0.0
  0
LINE
  5
1378
330
1D
100
AcDbEntity
  8
0
100
AcDbLine
 10
64.879042024502
 20
766.728288225007
 30
0.0
 11
65.081625685845
 21
766.601973419237
 31
0.0
  0
LINE
  5
1379
330
1D
100
AcDbEntity
  8
0
100
AcDbLine
 10
64.697875727813
 20
766.831498994523
 30
0.0
 11
64.879042024502
 21
766.728288225007
 31
0.0
  0
LINE
  5
137A
330
1D
100
AcDbEntity
  8
0
100
AcDbLine
 10
65.857068919205
 20
766.021480497801
 30
0.0
 11
65.968848562797
 21
765.912488519756
 31
0.0
  0
LINE
  5
137B
330
1D
100
AcDbEntity
  8
0
100
AcDbLine
 10
74.052079223431
 20
761.534073978164
 30
0.0
 11
74.865826816824
 21
761.208937550532
 31
0.0
  0
LINE
  5
137C
330
1D
100
AcDbEntity
  8
0
100
AcDbLine
 10
73.479280501864
 20
761.762938225007
 30
0.0
 11
74.865826816824
 21
761.208937550532
 31
0.0
  0
LINE
  5
137D
330
1D
100
AcDbEntity
  8
0
100
AcDbLine
 10
65.968848562797
 20
765.912488519756
 30
0.0
 11
66.034089629505
 21
765.831289362033
 31
0.0
  0
LINE
  5
137E
330
1D
100
AcDbEntity
  8
0
100
AcDbLine
 10
74.765284034859
 20
761.350361682869
 30
0.0
 11
74.792932111071
 21
761.392249555598
 31
0.0
  0
LINE
  5
137F
330
1D
100
AcDbEntity
  8
0
100
AcDbLine
 10
74.765284034859
 20
761.350361682869
 30
0.0
 11
74.800291711509
 21
761.278996757481
 31
0.0
  0
LINE
  5
1380
330
1D
100
AcDbEntity
  8
0
100
AcDbLine
 10
74.800291711509
 20
761.278996757481
 30
0.0
 11
74.888828861578
 21
761.184347599759
 31
0.0
  0
LINE
  5
1381
330
1D
100
AcDbEntity
  8
0
100
AcDbLine
 10
74.792932111071
 20
761.392249555598
 30
0.0
 11
74.882567990951
 21
761.399503453732
 31
0.0
  0
LINE
  5
1382
330
1D
100
AcDbEntity
  8
0
100
AcDbLine
 10
74.882567990951
 20
761.399503453732
 30
0.0
 11
75.023847445866
 21
761.37220664771
 31
0.0
  0
LINE
  5
1383
330
1D
100
AcDbEntity
  8
0
100
AcDbLine
 10
75.023847445866
 20
761.37220664771
 30
0.0
 11
75.204096120162
 21
761.316406509588
 31
0.0
  0
LINE
  5
1384
330
1D
100
AcDbEntity
  8
0
100
AcDbLine
 10
74.888828861578
 20
761.184347599759
 30
0.0
 11
75.032029459663
 21
761.070378311316
 31
0.0
  0
LINE
  5
1385
330
1D
100
AcDbEntity
  8
0
100
AcDbLine
 10
75.032029459663
 20
761.070378311316
 30
0.0
 11
75.214355048496
 21
760.946175494694
 31
0.0
  0
LINE
  5
1386
330
1D
100
AcDbEntity
  8
0
100
AcDbLine
 10
75.214355048496
 20
760.946175494694
 30
0.0
 11
75.433391526461
 21
760.81555780324
 31
0.0
  0
LINE
  5
1387
330
1D
100
AcDbEntity
  8
0
100
AcDbLine
 10
75.433391526461
 20
760.81555780324
 30
0.0
 11
75.668188258464
 21
760.69223767252
 31
0.0
  0
LINE
  5
1388
330
1D
100
AcDbEntity
  8
0
100
AcDbLine
 10
75.668188258464
 20
760.69223767252
 30
0.0
 11
75.89604460941
 21
760.586896449186
 31
0.0
  0
LINE
  5
1389
330
1D
100
AcDbEntity
  8
0
100
AcDbLine
 10
75.89604460941
 20
760.586896449186
 30
0.0
 11
76.108982376069
 21
760.50171547989
 31
0.0
  0
LINE
  5
138A
330
1D
100
AcDbEntity
  8
0
100
AcDbLine
 10
76.423333609249
 20
760.634187787179
 30
0.0
 11
76.511920759318
 21
760.539625231997
 31
0.0
  0
LINE
  5
138B
330
1D
100
AcDbEntity
  8
0
100
AcDbLine
 10
76.576704271977
 20
760.52534894345
 30
0.0
 11
80.612871646837
 21
758.912680528524
 31
0.0
  0
LINE
  5
138C
330
1D
100
AcDbEntity
  8
0
100
AcDbLine
 10
76.576704271977
 20
760.52534894345
 30
0.0
 11
78.272548288219
 21
759.847767012961
 31
0.0
  0
LINE
  5
138D
330
1D
100
AcDbEntity
  8
0
100
AcDbLine
 10
76.511920759318
 20
760.539625231997
 30
0.0
 11
76.546878435968
 21
760.468173704069
 31
0.0
  0
LINE
  5
138E
330
1D
100
AcDbEntity
  8
0
100
AcDbLine
 10
76.52014638516
 20
760.425872433879
 30
0.0
 11
76.546878435968
 21
760.468173704069
 31
0.0
  0
LINE
  5
138F
330
1D
100
AcDbEntity
  8
0
100
AcDbLine
 10
76.429644479876
 20
760.419118535746
 30
0.0
 11
76.52014638516
 21
760.425872433879
 31
0.0
  0
LINE
  5
1390
330
1D
100
AcDbEntity
  8
0
100
AcDbLine
 10
76.289181050365
 20
760.445828739228
 30
0.0
 11
76.429644479876
 21
760.419118535746
 31
0.0
  0
LINE
  5
1391
330
1D
100
AcDbEntity
  8
0
100
AcDbLine
 10
76.108982376069
 20
760.50171547989
 30
0.0
 11
76.289181050365
 21
760.445828739228
 31
0.0
  0
LINE
  5
1392
330
1D
100
AcDbEntity
  8
0
100
AcDbLine
 10
76.280183011164
 20
760.748243678162
 30
0.0
 11
76.423333609249
 21
760.634187787179
 31
0.0
  0
LINE
  5
1393
330
1D
100
AcDbEntity
  8
0
100
AcDbLine
 10
76.097857422331
 20
760.872446494784
 30
0.0
 11
76.280183011164
 21
760.748243678162
 31
0.0
  0
LINE
  5
1394
330
1D
100
AcDbEntity
  8
0
100
AcDbLine
 10
75.87968696977
 20
761.002564186237
 30
0.0
 11
76.097857422331
 21
760.872446494784
 31
0.0
  0
LINE
  5
1395
330
1D
100
AcDbEntity
  8
0
100
AcDbLine
 10
75.644024212363
 20
761.126384316958
 30
0.0
 11
75.87968696977
 21
761.002564186237
 31
0.0
  0
LINE
  5
1396
330
1D
100
AcDbEntity
  8
0
100
AcDbLine
 10
75.417033886821
 20
761.231225540291
 30
0.0
 11
75.644024212363
 21
761.126384316958
 31
0.0
  0
LINE
  5
1397
330
1D
100
AcDbEntity
  8
0
100
AcDbLine
 10
75.204096120162
 20
761.316406509588
 30
0.0
 11
75.417033886821
 21
761.231225540291
 31
0.0
  0
LINE
  5
1398
330
1D
100
AcDbEntity
  8
0
100
AcDbLine
 10
55.23799481377
 20
773.00330461785
 30
0.0
 11
55.636812895084
 21
773.530465887292
 31
0.0
  0
LINE
  5
1399
330
1D
100
AcDbEntity
  8
0
100
AcDbLine
 10
55.144296756064
 20
773.003014821332
 30
0.0
 11
55.217582635944
 21
772.981949688762
 31
0.0
  0
LINE
  5
139A
330
1D
100
AcDbEntity
  8
0
100
AcDbLine
 10
55.02701704341
 20
773.060680400319
 30
0.0
 11
55.144296756064
 21
773.003014821332
 31
0.0
  0
LINE
  5
139B
330
1D
100
AcDbEntity
  8
0
100
AcDbLine
 10
49.686929670667
 20
776.23257775387
 30
0.0
 11
50.024280941469
 21
776.691391250467
 31
0.0
  0
LINE
  5
139C
330
1D
100
AcDbEntity
  8
0
100
AcDbLine
 10
50.341509493021
 20
775.868743263797
 30
0.0
 11
50.555608148812
 21
775.715573013459
 31
0.0
  0
LINE
  5
139D
330
1D
100
AcDbEntity
  8
0
100
AcDbLine
 10
54.260108866158
 20
773.588556472578
 30
0.0
 11
54.471706560055
 21
773.428054429172
 31
0.0
  0
LINE
  5
139E
330
1D
100
AcDbEntity
  8
0
100
AcDbLine
 10
47.531564006771
 20
776.629774915114
 30
0.0
 11
48.040155459422
 21
776.246881151401
 31
0.0
  0
LINE
  5
139F
330
1D
100
AcDbEntity
  8
0
100
AcDbLine
 10
48.040155459422
 20
776.246881151401
 30
0.0
 11
48.507435130108
 21
775.901233282373
 31
0.0
  0
LINE
  5
13A0
330
1D
100
AcDbEntity
  8
0
100
AcDbLine
 10
45.353244063756
 20
778.741214098672
 30
0.0
 11
45.505041845219
 21
778.674935568642
 31
0.0
  0
LINE
  5
13A1
330
1D
100
AcDbEntity
  8
0
100
AcDbLine
 10
44.721619050874
 20
779.159807485028
 30
0.0
 11
45.091560867335
 21
778.901765506983
 31
0.0
  0
LINE
  5
13A2
330
1D
100
AcDbEntity
  8
0
100
AcDbLine
 10
43.779268624291
 20
779.875808667652
 30
0.0
 11
44.281304821054
 21
779.485960867684
 31
0.0
  0
LINE
  5
13A3
330
1D
100
AcDbEntity
  8
0
100
AcDbLine
 10
44.281304821054
 20
779.485960867684
 30
0.0
 11
44.721619050874
 21
779.159807485028
 31
0.0
  0
LINE
  5
13A4
330
1D
100
AcDbEntity
  8
0
100
AcDbLine
 10
42.014490769023
 20
781.389723758254
 30
0.0
 11
42.354910084558
 21
781.07274730864
 31
0.0
  0
LINE
  5
13A5
330
1D
100
AcDbEntity
  8
0
100
AcDbLine
 10
41.772204309562
 20
781.636071300483
 30
0.0
 11
42.014490769023
 21
781.389723758254
 31
0.0
  0
LINE
  5
13A6
330
1D
100
AcDbEntity
  8
0
100
AcDbLine
 10
41.650935058129
 20
781.792226795606
 30
0.0
 11
41.772204309562
 21
781.636071300483
 31
0.0
  0
LINE
  5
13A7
330
1D
100
AcDbEntity
  8
0
100
AcDbLine
 10
41.672027174297
 20
781.835359412447
 30
0.0
 11
42.231067745775
 21
782.524355275823
 31
0.0
  0
LINE
  5
13A8
330
1D
100
AcDbEntity
  8
0
100
AcDbLine
 10
41.672027174297
 20
781.835359412447
 30
0.0
 11
41.82382495576
 21
781.769080882417
 31
0.0
  0
LINE
  5
13A9
330
1D
100
AcDbEntity
  8
0
100
AcDbLine
 10
42.354910084558
 20
781.07274730864
 30
0.0
 11
42.784037900516
 21
780.69681848882
 31
0.0
  0
LINE
  5
13AA
330
1D
100
AcDbEntity
  8
0
100
AcDbLine
 10
42.784037900516
 20
780.69681848882
 30
0.0
 11
43.263229164489
 21
780.293602104565
 31
0.0
  0
LINE
  5
13AB
330
1D
100
AcDbEntity
  8
0
100
AcDbLine
 10
43.263229164489
 20
780.293602104565
 30
0.0
 11
43.779268624291
 21
779.875808667652
 31
0.0
  0
LINE
  5
13AC
330
1D
100
AcDbEntity
  8
0
100
AcDbLine
 10
44.393031119001
 20
779.813476492269
 30
0.0
 11
44.822158934958
 21
779.437547672449
 31
0.0
  0
LINE
  5
13AD
330
1D
100
AcDbEntity
  8
0
100
AcDbLine
 10
43.913839855027
 20
780.216692876524
 30
0.0
 11
44.393031119001
 21
779.813476492269
 31
0.0
  0
LINE
  5
13AE
330
1D
100
AcDbEntity
  8
0
100
AcDbLine
 10
43.397800395225
 20
780.634486313437
 30
0.0
 11
43.913839855027
 21
780.216692876524
 31
0.0
  0
LINE
  5
13AF
330
1D
100
AcDbEntity
  8
0
100
AcDbLine
 10
42.895764198462
 20
781.024334113404
 30
0.0
 11
43.397800395225
 21
780.634486313437
 31
0.0
  0
LINE
  5
13B0
330
1D
100
AcDbEntity
  8
0
100
AcDbLine
 10
42.455449968642
 20
781.35048749606
 30
0.0
 11
42.895764198462
 21
781.024334113404
 31
0.0
  0
LINE
  5
13B1
330
1D
100
AcDbEntity
  8
0
100
AcDbLine
 10
41.793821242674
 20
783.379312926938
 30
0.0
 11
41.848558977282
 21
783.29032146437
 31
0.0
  0
LINE
  5
13B2
330
1D
100
AcDbEntity
  8
0
100
AcDbLine
 10
41.792983043145
 20
783.425061122766
 30
0.0
 11
42.380257293548
 21
784.12701724158
 31
0.0
  0
LINE
  5
13B3
330
1D
100
AcDbEntity
  8
0
100
AcDbLine
 10
41.955412530111
 20
783.164197246838
 30
0.0
 11
42.100431008328
 21
783.015576619146
 31
0.0
  0
LINE
  5
13B4
330
1D
100
AcDbEntity
  8
0
100
AcDbLine
 10
41.848558977282
 20
783.29032146437
 30
0.0
 11
41.955412530111
 21
783.164197246838
 31
0.0
  0
LINE
  5
13B5
330
1D
100
AcDbEntity
  8
0
100
AcDbLine
 10
42.075156689684
 20
783.311800215128
 30
0.0
 11
42.250155037181
 21
783.193906244233
 31
0.0
  0
LINE
  5
13B6
330
1D
100
AcDbEntity
  8
0
100
AcDbLine
 10
41.938197880967
 20
783.390180599887
 30
0.0
 11
42.075156689684
 21
783.311800215128
 31
0.0
  0
LINE
  5
13B7
330
1D
100
AcDbEntity
  8
0
100
AcDbLine
 10
41.839745598328
 20
783.430856244233
 30
0.0
 11
41.938197880967
 21
783.390180599887
 31
0.0
  0
LINE
  5
13B8
330
1D
100
AcDbEntity
  8
0
100
AcDbLine
 10
42.554368149809
 20
784.562218811634
 30
0.0
 11
42.712367528261
 21
784.459681762676
 31
0.0
  0
LINE
  5
13B9
330
1D
100
AcDbEntity
  8
0
100
AcDbLine
 10
42.712367528261
 20
784.459681762676
 30
0.0
 11
42.828497240914
 21
784.400024325261
 31
0.0
  0
LINE
  5
13BA
330
1D
100
AcDbEntity
  8
0
100
AcDbLine
 10
42.273975696925
 20
782.85256483718
 30
0.0
 11
42.467927496138
 21
782.684699207636
 31
0.0
  0
LINE
  5
13BB
330
1D
100
AcDbEntity
  8
0
100
AcDbLine
 10
42.100431008328
 20
783.015576619146
 30
0.0
 11
42.273975696925
 21
782.85256483718
 31
0.0
  0
LINE
  5
13BC
330
1D
100
AcDbEntity
  8
0
100
AcDbLine
 10
42.447681261108
 20
783.046031699902
 30
0.0
 11
42.647155303508
 21
782.88433087613
 31
0.0
  0
LINE
  5
13BD
330
1D
100
AcDbEntity
  8
0
100
AcDbLine
 10
42.250155037181
 20
783.193906244233
 30
0.0
 11
42.447681261108
 21
783.046031699902
 31
0.0
  0
LINE
  5
13BE
330
1D
100
AcDbEntity
  8
0
100
AcDbLine
 10
42.828497240914
 20
784.400024325261
 30
0.0
 11
42.903439338577
 21
784.380427846038
 31
0.0
  0
LINE
  5
13BF
330
1D
100
AcDbEntity
  8
0
100
AcDbLine
 10
41.977437554239
 20
785.026945707665
 30
0.0
 11
42.172921404259
 21
784.85773366796
 31
0.0
  0
LINE
  5
13C0
330
1D
100
AcDbEntity
  8
0
100
AcDbLine
 10
42.172921404259
 20
784.85773366796
 30
0.0
 11
42.367849294236
 21
784.700158677213
 31
0.0
  0
LINE
  5
13C1
330
1D
100
AcDbEntity
  8
0
100
AcDbLine
 10
42.367849294236
 20
784.700158677213
 30
0.0
 11
42.554368149809
 21
784.562218811634
 31
0.0
  0
LINE
  5
13C2
330
1D
100
AcDbEntity
  8
0
100
AcDbLine
 10
41.79568979128
 20
785.19734934806
 30
0.0
 11
41.977437554239
 21
785.026945707665
 31
0.0
  0
LINE
  5
13C3
330
1D
100
AcDbEntity
  8
0
100
AcDbLine
 10
41.636982855796
 20
785.358260872287
 30
0.0
 11
41.79568979128
 21
785.19734934806
 31
0.0
  0
LINE
  5
13C4
330
1D
100
AcDbEntity
  8
0
100
AcDbLine
 10
41.511092065332
 20
785.501611626998
 30
0.0
 11
41.636982855796
 21
785.358260872287
 31
0.0
  0
LINE
  5
13C5
330
1D
100
AcDbEntity
  8
0
100
AcDbLine
 10
41.433313760989
 20
785.61129565215
 30
0.0
 11
41.511092065332
 21
785.501611626998
 31
0.0
  0
LINE
  5
13C6
330
1D
100
AcDbEntity
  8
0
100
AcDbLine
 10
41.407902940918
 20
785.679082820725
 30
0.0
 11
41.433313760989
 21
785.61129565215
 31
0.0
  0
LINE
  5
13C7
330
1D
100
AcDbEntity
  8
0
100
AcDbLine
 10
42.160414399714
 20
785.230070900637
 30
0.0
 11
42.355848249735
 21
785.060772258392
 31
0.0
  0
LINE
  5
13C8
330
1D
100
AcDbEntity
  8
0
100
AcDbLine
 10
41.965349907196
 20
785.387609288844
 30
0.0
 11
42.160414399714
 21
785.230070900637
 31
0.0
  0
LINE
  5
13C9
330
1D
100
AcDbEntity
  8
0
100
AcDbLine
 10
41.778967654165
 20
785.525585756964
 30
0.0
 11
41.965349907196
 21
785.387609288844
 31
0.0
  0
LINE
  5
13CA
330
1D
100
AcDbEntity
  8
0
100
AcDbLine
 10
41.620968275713
 20
785.628122805921
 30
0.0
 11
41.778967654165
 21
785.525585756964
 31
0.0
  0
LINE
  5
13CB
330
1D
100
AcDbEntity
  8
0
100
AcDbLine
 10
41.504788563059
 20
785.687693640796
 30
0.0
 11
41.620968275713
 21
785.628122805921
 31
0.0
  0
LINE
  5
13CC
330
1D
100
AcDbEntity
  8
0
100
AcDbLine
 10
41.429846465397
 20
785.707290120019
 30
0.0
 11
41.929224243858
 21
786.282754669413
 31
0.0
  0
LINE
  5
13CD
330
1D
100
AcDbEntity
  8
0
100
AcDbLine
 10
41.429846465397
 20
785.707290120019
 30
0.0
 11
41.504788563059
 21
785.687693640796
 31
0.0
  0
LINE
  5
13CE
330
1D
100
AcDbEntity
  8
0
100
AcDbLine
 10
42.355848249735
 20
785.060772258392
 30
0.0
 11
42.537596012693
 21
784.890368617997
 31
0.0
  0
LINE
  5
13CF
330
1D
100
AcDbEntity
  8
0
100
AcDbLine
 10
42.537596012693
 20
784.890368617997
 30
0.0
 11
42.696352948178
 21
784.729543696311
 31
0.0
  0
LINE
  5
13D0
330
1D
100
AcDbEntity
  8
0
100
AcDbLine
 10
42.696352948178
 20
784.729543696311
 30
0.0
 11
42.822243738641
 21
784.586192941599
 31
0.0
  0
LINE
  5
13D1
330
1D
100
AcDbEntity
  8
0
100
AcDbLine
 10
42.822243738641
 20
784.586192941599
 30
0.0
 11
42.899972042984
 21
784.476422313906
 31
0.0
  0
LINE
  5
13D2
330
1D
100
AcDbEntity
  8
0
100
AcDbLine
 10
42.899972042984
 20
784.476422313906
 30
0.0
 11
42.925296260515
 21
784.408685145332
 31
0.0
  0
LINE
  5
13D3
330
1D
100
AcDbEntity
  8
0
100
AcDbLine
 10
42.903439338577
 20
784.380427846038
 30
0.0
 11
43.40282085935
 21
784.955954330961
 31
0.0
  0
LINE
  5
13D4
330
1D
100
AcDbEntity
  8
0
100
AcDbLine
 10
42.865014365005
 20
782.375073839533
 30
0.0
 11
43.039976109962
 21
782.257316471178
 31
0.0
  0
LINE
  5
13D5
330
1D
100
AcDbEntity
  8
0
100
AcDbLine
 10
43.039976109962
 20
782.257316471178
 30
0.0
 11
43.176934918679
 21
782.178936086421
 31
0.0
  0
LINE
  5
13D6
330
1D
100
AcDbEntity
  8
0
100
AcDbLine
 10
43.176934918679
 20
782.178936086421
 30
0.0
 11
43.275337201319
 21
782.138173839533
 31
0.0
  0
LINE
  5
13D7
330
1D
100
AcDbEntity
  8
0
100
AcDbLine
 10
42.667401538538
 20
782.522998383864
 30
0.0
 11
42.865014365005
 21
782.375073839533
 31
0.0
  0
LINE
  5
13D8
330
1D
100
AcDbEntity
  8
0
100
AcDbLine
 10
42.467927496138
 20
782.684699207636
 30
0.0
 11
42.667401538538
 21
782.522998383864
 31
0.0
  0
LINE
  5
13D9
330
1D
100
AcDbEntity
  8
0
100
AcDbLine
 10
42.647155303508
 20
782.88433087613
 30
0.0
 11
42.841193705261
 21
782.716415246587
 31
0.0
  0
LINE
  5
13DA
330
1D
100
AcDbEntity
  8
0
100
AcDbLine
 10
42.841193705261
 20
782.716415246587
 30
0.0
 11
43.014738393859
 21
782.553403464621
 31
0.0
  0
LINE
  5
13DB
330
1D
100
AcDbEntity
  8
0
100
AcDbLine
 10
43.014738393859
 20
782.553403464621
 30
0.0
 11
43.159806872075
 21
782.404869439469
 31
0.0
  0
LINE
  5
13DC
330
1D
100
AcDbEntity
  8
0
100
AcDbLine
 10
43.159806872075
 20
782.404869439469
 30
0.0
 11
43.266523822364
 21
782.278708619397
 31
0.0
  0
LINE
  5
13DD
330
1D
100
AcDbEntity
  8
0
100
AcDbLine
 10
43.266523822364
 20
782.278708619397
 30
0.0
 11
43.321261556972
 21
782.189717156829
 31
0.0
  0
LINE
  5
13DE
330
1D
100
AcDbEntity
  8
0
100
AcDbLine
 10
43.322149756501
 20
782.144055563541
 30
0.0
 11
43.710623790214
 21
782.608390113844
 31
0.0
  0
LINE
  5
13DF
330
1D
100
AcDbEntity
  8
0
100
AcDbLine
 10
41.82382495576
 20
781.769080882417
 30
0.0
 11
42.085508152181
 21
781.608529474106
 31
0.0
  0
LINE
  5
13E0
330
1D
100
AcDbEntity
  8
0
100
AcDbLine
 10
42.085508152181
 20
781.608529474106
 30
0.0
 11
42.455449968642
 21
781.35048749606
 31
0.0
  0
LINE
  5
13E1
330
1D
100
AcDbEntity
  8
0
100
AcDbLine
 10
44.822158934958
 20
779.437547672449
 30
0.0
 11
45.162578250494
 21
779.120571222834
 31
0.0
  0
LINE
  5
13E2
330
1D
100
AcDbEntity
  8
0
100
AcDbLine
 10
45.162578250494
 20
779.120571222834
 30
0.0
 11
45.404864709954
 21
778.874223680605
 31
0.0
  0
LINE
  5
13E3
330
1D
100
AcDbEntity
  8
0
100
AcDbLine
 10
45.404864709954
 20
778.874223680605
 30
0.0
 11
45.526133961387
 21
778.718068185483
 31
0.0
  0
LINE
  5
13E4
330
1D
100
AcDbEntity
  8
0
100
AcDbLine
 10
49.732926904601
 20
776.230847300052
 30
0.0
 11
49.829722969458
 21
776.188703002356
 31
0.0
  0
LINE
  5
13E5
330
1D
100
AcDbEntity
  8
0
100
AcDbLine
 10
49.829722969458
 20
776.188703002356
 30
0.0
 11
49.967918380715
 21
776.112264476028
 31
0.0
  0
LINE
  5
13E6
330
1D
100
AcDbEntity
  8
0
100
AcDbLine
 10
50.143855254541
 20
776.001796080419
 30
0.0
 11
50.341509493021
 21
775.868743263797
 31
0.0
  0
LINE
  5
13E7
330
1D
100
AcDbEntity
  8
0
100
AcDbLine
 10
49.967918380715
 20
776.112264476028
 30
0.0
 11
50.143855254541
 21
776.001796080419
 31
0.0
  0
LINE
  5
13E8
330
1D
100
AcDbEntity
  8
0
100
AcDbLine
 10
54.066713026989
 20
773.744785053164
 30
0.0
 11
54.260108866158
 21
773.588556472578
 31
0.0
  0
LINE
  5
13E9
330
1D
100
AcDbEntity
  8
0
100
AcDbLine
 10
51.469041760082
 20
775.275904099121
 30
0.0
 11
58.928778099204
 21
770.174215913304
 31
0.0
  0
LINE
  5
13EA
330
1D
100
AcDbEntity
  8
0
100
AcDbLine
 10
53.636917846377
 20
774.179757963497
 30
0.0
 11
53.983763951046
 21
774.638222214255
 31
0.0
  0
LINE
  5
13EB
330
1D
100
AcDbEntity
  8
0
100
AcDbLine
 10
53.636917846377
 20
774.179757963497
 30
0.0
 11
53.675292510325
 21
774.115224831178
 31
0.0
  0
LINE
  5
13EC
330
1D
100
AcDbEntity
  8
0
100
AcDbLine
 10
53.896308015293
 20
773.891434915042
 30
0.0
 11
54.066713026989
 21
773.744785053164
 31
0.0
  0
LINE
  5
13ED
330
1D
100
AcDbEntity
  8
0
100
AcDbLine
 10
53.764891134065
 20
774.016614199784
 30
0.0
 11
53.896308015293
 21
773.891434915042
 31
0.0
  0
LINE
  5
13EE
330
1D
100
AcDbEntity
  8
0
100
AcDbLine
 10
53.675292510325
 20
774.115224831178
 30
0.0
 11
53.764891134065
 21
774.016614199784
 31
0.0
  0
LINE
  5
13EF
330
1D
100
AcDbEntity
  8
0
100
AcDbLine
 10
53.657330024203
 20
774.201112892585
 30
0.0
 11
53.730529301543
 21
774.180097760015
 31
0.0
  0
LINE
  5
13F0
330
1D
100
AcDbEntity
  8
0
100
AcDbLine
 10
53.730529301543
 20
774.180097760015
 30
0.0
 11
53.847895616737
 21
774.122382181028
 31
0.0
  0
LINE
  5
13F1
330
1D
100
AcDbEntity
  8
0
100
AcDbLine
 10
54.808113030618
 20
773.438327528183
 30
0.0
 11
54.978554644855
 21
773.291541063764
 31
0.0
  0
LINE
  5
13F2
330
1D
100
AcDbEntity
  8
0
100
AcDbLine
 10
54.614667191449
 20
773.594469506228
 30
0.0
 11
54.808113030618
 21
773.438327528183
 31
0.0
  0
LINE
  5
13F3
330
1D
100
AcDbEntity
  8
0
100
AcDbLine
 10
54.403119497552
 20
773.755058152174
 30
0.0
 11
54.614667191449
 21
773.594469506228
 31
0.0
  0
LINE
  5
13F4
330
1D
100
AcDbEntity
  8
0
100
AcDbLine
 10
54.194073211966
 20
773.903579364406
 30
0.0
 11
54.403119497552
 21
773.755058152174
 31
0.0
  0
LINE
  5
13F5
330
1D
100
AcDbEntity
  8
0
100
AcDbLine
 10
54.007636149462
 20
774.026460899735
 30
0.0
 11
54.194073211966
 21
773.903579364406
 31
0.0
  0
LINE
  5
13F6
330
1D
100
AcDbEntity
  8
0
100
AcDbLine
 10
45.925121518022
 20
779.19261512926
 30
0.0
 11
49.828058493633
 21
776.424519549678
 31
0.0
  0
LINE
  5
13F7
330
1D
100
AcDbEntity
  8
0
100
AcDbLine
 10
45.780499833488
 20
779.014392532567
 30
0.0
 11
52.754339821437
 21
773.809251806447
 31
0.0
  0
LINE
  5
13F8
330
1D
100
AcDbEntity
  8
0
100
AcDbLine
 10
46.362158394689
 20
779.171504980331
 30
0.0
 11
46.543484172199
 21
779.014970439701
 31
0.0
  0
LINE
  5
13F9
330
1D
100
AcDbEntity
  8
0
100
AcDbLine
 10
46.543484172199
 20
779.014970439701
 30
0.0
 11
46.742242189195
 21
778.85402942355
 31
0.0
  0
LINE
  5
13FA
330
1D
100
AcDbEntity
  8
0
100
AcDbLine
 10
46.742242189195
 20
778.85402942355
 30
0.0
 11
46.952481037366
 21
778.694773790306
 31
0.0
  0
LINE
  5
13FB
330
1D
100
AcDbEntity
  8
0
100
AcDbLine
 10
46.952481037366
 20
778.694773790306
 30
0.0
 11
47.153237646051
 21
778.553694436503
 31
0.0
  0
LINE
  5
13FC
330
1D
100
AcDbEntity
  8
0
100
AcDbLine
 10
47.153237646051
 20
778.553694436503
 30
0.0
 11
47.325689841125
 21
778.443390400248
 31
0.0
  0
LINE
  5
13FD
330
1D
100
AcDbEntity
  8
0
100
AcDbLine
 10
47.325689841125
 20
778.443390400248
 30
0.0
 11
47.466812751457
 21
778.364222451056
 31
0.0
  0
LINE
  5
13FE
330
1D
100
AcDbEntity
  8
0
100
AcDbLine
 10
46.213988954578
 20
779.31166798193
 30
0.0
 11
46.362158394689
 21
779.171504980331
 31
0.0
  0
LINE
  5
13FF
330
1D
100
AcDbEntity
  8
0
100
AcDbLine
 10
46.103821042395
 20
779.428851560666
 30
0.0
 11
46.213988954578
 21
779.31166798193
 31
0.0
  0
LINE
  5
1400
330
1D
100
AcDbEntity
  8
0
100
AcDbLine
 10
46.041133565526
 20
779.51527366573
 30
0.0
 11
46.103821042395
 21
779.428851560666
 31
0.0
  0
LINE
  5
1401
330
1D
100
AcDbEntity
  8
0
100
AcDbLine
 10
46.035960687245
 20
779.559713977726
 30
0.0
 11
46.462710987615
 21
780.106340358664
 31
0.0
  0
LINE
  5
1402
330
1D
100
AcDbEntity
  8
0
100
AcDbLine
 10
46.084760549124
 20
779.560637817901
 30
0.0
 11
46.179642512365
 21
779.523178198958
 31
0.0
  0
LINE
  5
1403
330
1D
100
AcDbEntity
  8
0
100
AcDbLine
 10
47.103007694163
 20
778.872293607772
 30
0.0
 11
47.284333471674
 21
778.715759067142
 31
0.0
  0
LINE
  5
1404
330
1D
100
AcDbEntity
  8
0
100
AcDbLine
 10
46.904299677167
 20
779.033321226464
 30
0.0
 11
47.103007694163
 21
778.872293607772
 31
0.0
  0
LINE
  5
1405
330
1D
100
AcDbEntity
  8
0
100
AcDbLine
 10
46.694060828997
 20
779.192576859708
 30
0.0
 11
46.904299677167
 21
779.033321226464
 31
0.0
  0
LINE
  5
1406
330
1D
100
AcDbEntity
  8
0
100
AcDbLine
 10
46.493304220312
 20
779.333656213511
 30
0.0
 11
46.694060828997
 21
779.192576859708
 31
0.0
  0
LINE
  5
1407
330
1D
100
AcDbEntity
  8
0
100
AcDbLine
 10
46.320852025238
 20
779.443960249766
 30
0.0
 11
46.493304220312
 21
779.333656213511
 31
0.0
  0
LINE
  5
1408
330
1D
100
AcDbEntity
  8
0
100
AcDbLine
 10
46.179642512365
 20
779.523178198958
 30
0.0
 11
46.320852025238
 21
779.443960249766
 31
0.0
  0
LINE
  5
1409
330
1D
100
AcDbEntity
  8
0
100
AcDbLine
 10
47.991704854078
 20
779.706162241287
 30
0.0
 11
48.35680205594
 21
780.158325073608
 31
0.0
  0
LINE
  5
140A
330
1D
100
AcDbEntity
  8
0
100
AcDbLine
 10
47.991704854078
 20
779.706162241287
 30
0.0
 11
48.022043173224
 21
779.639109751464
 31
0.0
  0
LINE
  5
140B
330
1D
100
AcDbEntity
  8
0
100
AcDbLine
 10
48.107684617288
 20
779.532045083816
 30
0.0
 11
48.236470151863
 21
779.39810817298
 31
0.0
  0
LINE
  5
140C
330
1D
100
AcDbEntity
  8
0
100
AcDbLine
 10
48.022043173224
 20
779.639109751464
 30
0.0
 11
48.107684617288
 21
779.532045083816
 31
0.0
  0
LINE
  5
140D
330
1D
100
AcDbEntity
  8
0
100
AcDbLine
 10
48.015685685252
 20
779.729498259289
 30
0.0
 11
48.086884258437
 21
779.71321780547
 31
0.0
  0
LINE
  5
140E
330
1D
100
AcDbEntity
  8
0
100
AcDbLine
 10
48.207524482867
 20
779.65257280362
 30
0.0
 11
48.363397324138
 21
779.557152484222
 31
0.0
  0
LINE
  5
140F
330
1D
100
AcDbEntity
  8
0
100
AcDbLine
 10
48.086884258437
 20
779.71321780547
 30
0.0
 11
48.207524482867
 21
779.65257280362
 31
0.0
  0
LINE
  5
1410
330
1D
100
AcDbEntity
  8
0
100
AcDbLine
 10
47.284333471674
 20
778.715759067142
 30
0.0
 11
47.432502911784
 21
778.575596065543
 31
0.0
  0
LINE
  5
1411
330
1D
100
AcDbEntity
  8
0
100
AcDbLine
 10
47.432502911784
 20
778.575596065543
 30
0.0
 11
47.542670823967
 21
778.458412486808
 31
0.0
  0
LINE
  5
1412
330
1D
100
AcDbEntity
  8
0
100
AcDbLine
 10
47.542670823967
 20
778.458412486808
 30
0.0
 11
47.605408300836
 21
778.372076984284
 31
0.0
  0
LINE
  5
1413
330
1D
100
AcDbEntity
  8
0
100
AcDbLine
 10
49.183575507535
 20
778.632942769125
 30
0.0
 11
49.339361746266
 21
778.537572449727
 31
0.0
  0
LINE
  5
1414
330
1D
100
AcDbEntity
  8
0
100
AcDbLine
 10
49.339361746266
 20
778.537572449727
 30
0.0
 11
49.460088573237
 21
778.476877447876
 31
0.0
  0
LINE
  5
1415
330
1D
100
AcDbEntity
  8
0
100
AcDbLine
 10
48.587980106194
 20
779.081541273248
 30
0.0
 11
48.78868978924
 21
778.918780641855
 31
0.0
  0
LINE
  5
1416
330
1D
100
AcDbEntity
  8
0
100
AcDbLine
 10
48.78868978924
 20
778.918780641855
 30
0.0
 11
48.994295882447
 21
778.763700841635
 31
0.0
  0
LINE
  5
1417
330
1D
100
AcDbEntity
  8
0
100
AcDbLine
 10
48.994295882447
 20
778.763700841635
 30
0.0
 11
49.183575507535
 21
778.632942769125
 31
0.0
  0
LINE
  5
1418
330
1D
100
AcDbEntity
  8
0
100
AcDbLine
 10
48.398747664484
 20
779.245181069766
 30
0.0
 11
48.587980106194
 21
779.081541273248
 31
0.0
  0
LINE
  5
1419
330
1D
100
AcDbEntity
  8
0
100
AcDbLine
 10
48.236470151863
 20
779.39810817298
 30
0.0
 11
48.398747664484
 21
779.245181069766
 31
0.0
  0
LINE
  5
141A
330
1D
100
AcDbEntity
  8
0
100
AcDbLine
 10
48.958992725479
 20
779.108553980098
 30
0.0
 11
49.148225167189
 21
778.94491418358
 31
0.0
  0
LINE
  5
141B
330
1D
100
AcDbEntity
  8
0
100
AcDbLine
 10
48.758196439893
 20
779.271364611492
 30
0.0
 11
48.958992725479
 21
779.108553980098
 31
0.0
  0
LINE
  5
141C
330
1D
100
AcDbEntity
  8
0
100
AcDbLine
 10
48.552726949226
 20
779.426481014252
 30
0.0
 11
48.758196439893
 21
779.271364611492
 31
0.0
  0
LINE
  5
141D
330
1D
100
AcDbEntity
  8
0
100
AcDbLine
 10
48.363397324138
 20
779.557152484222
 30
0.0
 11
48.552726949226
 21
779.426481014252
 31
0.0
  0
LINE
  5
141E
330
1D
100
AcDbEntity
  8
0
100
AcDbLine
 10
49.148225167189
 20
778.94491418358
 30
0.0
 11
49.31046607727
 21
778.792123682906
 31
0.0
  0
LINE
  5
141F
330
1D
100
AcDbEntity
  8
0
100
AcDbLine
 10
49.31046607727
 20
778.792123682906
 30
0.0
 11
49.439338214386
 21
778.658136772071
 31
0.0
  0
LINE
  5
1420
330
1D
100
AcDbEntity
  8
0
100
AcDbLine
 10
49.439338214386
 20
778.658136772071
 30
0.0
 11
49.524893055908
 21
778.551122104422
 31
0.0
  0
LINE
  5
1421
330
1D
100
AcDbEntity
  8
0
100
AcDbLine
 10
49.524893055908
 20
778.551122104422
 30
0.0
 11
49.555317977595
 21
778.4840196146
 31
0.0
  0
LINE
  5
1422
330
1D
100
AcDbEntity
  8
0
100
AcDbLine
 10
49.555317977595
 20
778.4840196146
 30
0.0
 11
49.77700290873
 21
778.758542321832
 31
0.0
  0
LINE
  5
1423
330
1D
100
AcDbEntity
  8
0
100
AcDbLine
 10
49.460088573237
 20
778.476877447876
 30
0.0
 11
49.53125054388
 21
778.460733596598
 31
0.0
  0
LINE
  5
1424
330
1D
100
AcDbEntity
  8
0
100
AcDbLine
 10
47.610581179117
 20
778.327636672288
 30
0.0
 11
47.987118619768
 21
778.809945175158
 31
0.0
  0
LINE
  5
1425
330
1D
100
AcDbEntity
  8
0
100
AcDbLine
 10
47.466812751457
 20
778.364222451056
 30
0.0
 11
47.561694714699
 21
778.326762832112
 31
0.0
  0
LINE
  5
1426
330
1D
100
AcDbEntity
  8
0
100
AcDbLine
 10
53.847895616737
 20
774.122382181028
 30
0.0
 11
54.007636149462
 21
774.026460899735
 31
0.0
  0
LINE
  5
1427
330
1D
100
AcDbEntity
  8
0
100
AcDbLine
 10
54.978554644855
 20
773.291541063764
 30
0.0
 11
55.110021526082
 21
773.166448381563
 31
0.0
  0
LINE
  5
1428
330
1D
100
AcDbEntity
  8
0
100
AcDbLine
 10
55.110021526082
 20
773.166448381563
 30
0.0
 11
55.199533547282
 21
773.067887750169
 31
0.0
  0
LINE
  5
1429
330
1D
100
AcDbEntity
  8
0
100
AcDbLine
 10
56.217047234532
 20
774.571473153882
 30
0.0
 11
56.276378493618
 21
774.480637909097
 31
0.0
  0
LINE
  5
142A
330
1D
100
AcDbEntity
  8
0
100
AcDbLine
 10
56.216253779114
 20
774.621698848786
 30
0.0
 11
56.705917584333
 21
775.272372085378
 31
0.0
  0
LINE
  5
142B
330
1D
100
AcDbEntity
  8
0
100
AcDbLine
 10
56.216253779114
 20
774.621698848786
 30
0.0
 11
56.270242871477
 21
774.629210699812
 31
0.0
  0
LINE
  5
142C
330
1D
100
AcDbEntity
  8
0
100
AcDbLine
 10
56.216253779114
 20
774.621698848786
 30
0.0
 11
56.217047234532
 21
774.571473153882
 31
0.0
  0
LINE
  5
142D
330
1D
100
AcDbEntity
  8
0
100
AcDbLine
 10
56.276378493618
 20
774.480637909097
 30
0.0
 11
56.38454999564
 21
774.360796446529
 31
0.0
  0
LINE
  5
142E
330
1D
100
AcDbEntity
  8
0
100
AcDbLine
 10
56.270242871477
 20
774.629210699812
 30
0.0
 11
56.370427462663
 21
774.598735501882
 31
0.0
  0
LINE
  5
142F
330
1D
100
AcDbEntity
  8
0
100
AcDbLine
 10
56.370427462663
 20
774.598735501882
 30
0.0
 11
56.51707620602
 21
774.526538576243
 31
0.0
  0
LINE
  5
1430
330
1D
100
AcDbEntity
  8
0
100
AcDbLine
 10
55.199533547282
 20
773.067887750169
 30
0.0
 11
55.23799481377
 21
773.00330461785
 31
0.0
  0
LINE
  5
1431
330
1D
100
AcDbEntity
  8
0
100
AcDbLine
 10
74.983091396066
 20
761.767891907732
 30
0.0
 11
74.765284034859
 21
761.350361682869
 31
0.0
  0
LINE
  5
1432
330
1D
100
AcDbEntity
  8
0
100
AcDbLine
 10
76.81417204419
 20
760.980567590703
 30
0.0
 11
76.546878435968
 21
760.468173704069
 31
0.0
  0
LINE
  5
1433
330
1D
100
AcDbEntity
  8
0
100
AcDbLine
 10
70.430279683406
 20
765.253713895119
 30
0.0
 11
70.510639076662
 21
765.141500447103
 31
0.0
  0
LINE
  5
1434
330
1D
100
AcDbEntity
  8
0
100
AcDbLine
 10
70.407250467725
 20
765.341026123501
 30
0.0
 11
70.806529470941
 21
766.010565775241
 31
0.0
  0
LINE
  5
1435
330
1D
100
AcDbEntity
  8
0
100
AcDbLine
 10
70.407250467725
 20
765.341026123501
 30
0.0
 11
70.447927709061
 21
765.392481172207
 31
0.0
  0
LINE
  5
1436
330
1D
100
AcDbEntity
  8
0
100
AcDbLine
 10
70.407250467725
 20
765.341026123501
 30
0.0
 11
70.430279683406
 21
765.253713895119
 31
0.0
  0
LINE
  5
1437
330
1D
100
AcDbEntity
  8
0
100
AcDbLine
 10
70.447927709061
 20
765.392481172207
 30
0.0
 11
70.544188460072
 21
765.405609683732
 31
0.0
  0
LINE
  5
1438
330
1D
100
AcDbEntity
  8
0
100
AcDbLine
 10
70.638659547728
 20
765.011238407398
 30
0.0
 11
70.812460969585
 21
764.869671300483
 31
0.0
  0
LINE
  5
1439
330
1D
100
AcDbEntity
  8
0
100
AcDbLine
 10
70.812460969585
 20
764.869671300483
 30
0.0
 11
71.015232641779
 21
764.727082139059
 31
0.0
  0
LINE
  5
143A
330
1D
100
AcDbEntity
  8
0
100
AcDbLine
 10
70.510639076662
 20
765.141500447103
 30
0.0
 11
70.638659547728
 21
765.011238407398
 31
0.0
  0
LINE
  5
143B
330
1D
100
AcDbEntity
  8
0
100
AcDbLine
 10
70.544188460072
 20
765.405609683732
 30
0.0
 11
70.686052851477
 21
765.384326017431
 31
0.0
  0
LINE
  5
143C
330
1D
100
AcDbEntity
  8
0
100
AcDbLine
 10
56.53194623067
 20
774.219694214445
 30
0.0
 11
56.714045213261
 21
774.0640989043
 31
0.0
  0
LINE
  5
143D
330
1D
100
AcDbEntity
  8
0
100
AcDbLine
 10
56.714045213261
 20
774.0640989043
 30
0.0
 11
56.914799640418
 21
773.905815771981
 31
0.0
  0
LINE
  5
143E
330
1D
100
AcDbEntity
  8
0
100
AcDbLine
 10
56.914799640418
 20
773.905815771981
 30
0.0
 11
57.128344706371
 21
773.750886675917
 31
0.0
  0
LINE
  5
143F
330
1D
100
AcDbEntity
  8
0
100
AcDbLine
 10
57.128344706371
 20
773.750886675917
 30
0.0
 11
57.33353073792
 21
773.615679307562
 31
0.0
  0
LINE
  5
1440
330
1D
100
AcDbEntity
  8
0
100
AcDbLine
 10
57.33353073792
 20
773.615679307562
 30
0.0
 11
57.511035560938
 21
773.511926679618
 31
0.0
  0
LINE
  5
1441
330
1D
100
AcDbEntity
  8
0
100
AcDbLine
 10
57.511035560938
 20
773.511926679618
 30
0.0
 11
57.657597701755
 21
773.439779753979
 31
0.0
  0
LINE
  5
1442
330
1D
100
AcDbEntity
  8
0
100
AcDbLine
 10
56.38454999564
 20
774.360796446529
 30
0.0
 11
56.53194623067
 21
774.219694214445
 31
0.0
  0
LINE
  5
1443
330
1D
100
AcDbEntity
  8
0
100
AcDbLine
 10
57.314066553697
 20
773.974366351561
 30
0.0
 11
57.496165536288
 21
773.818771041416
 31
0.0
  0
LINE
  5
1444
330
1D
100
AcDbEntity
  8
0
100
AcDbLine
 10
57.11331212654
 20
774.13264948388
 30
0.0
 11
57.314066553697
 21
773.974366351561
 31
0.0
  0
LINE
  5
1445
330
1D
100
AcDbEntity
  8
0
100
AcDbLine
 10
56.899680458046
 20
774.287628579944
 30
0.0
 11
57.11331212654
 21
774.13264948388
 31
0.0
  0
LINE
  5
1446
330
1D
100
AcDbEntity
  8
0
100
AcDbLine
 10
56.694581029038
 20
774.422785948299
 30
0.0
 11
56.899680458046
 21
774.287628579944
 31
0.0
  0
LINE
  5
1447
330
1D
100
AcDbEntity
  8
0
100
AcDbLine
 10
56.51707620602
 20
774.526538576243
 30
0.0
 11
56.694581029038
 21
774.422785948299
 31
0.0
  0
LINE
  5
1448
330
1D
100
AcDbEntity
  8
0
100
AcDbLine
 10
57.496165536288
 20
773.818771041416
 30
0.0
 11
57.643561771318
 21
773.677668809332
 31
0.0
  0
LINE
  5
1449
330
1D
100
AcDbEntity
  8
0
100
AcDbLine
 10
57.643561771318
 20
773.677668809332
 30
0.0
 11
57.75173327334
 21
773.557827346764
 31
0.0
  0
LINE
  5
144A
330
1D
100
AcDbEntity
  8
0
100
AcDbLine
 10
57.75173327334
 20
773.557827346764
 30
0.0
 11
57.810977929886
 21
773.467042101979
 31
0.0
  0
LINE
  5
144B
330
1D
100
AcDbEntity
  8
0
100
AcDbLine
 10
57.810977929886
 20
773.467042101979
 30
0.0
 11
57.811771385303
 21
773.416816407076
 31
0.0
  0
LINE
  5
144C
330
1D
100
AcDbEntity
  8
0
100
AcDbLine
 10
57.811771385303
 20
773.416816407076
 30
0.0
 11
57.933623161698
 21
773.578737097754
 31
0.0
  0
LINE
  5
144D
330
1D
100
AcDbEntity
  8
0
100
AcDbLine
 10
57.811771385303
 20
773.416816407076
 30
0.0
 11
57.933623161698
 21
773.578737097754
 31
0.0
  0
LINE
  5
144E
330
1D
100
AcDbEntity
  8
0
100
AcDbLine
 10
57.757918895481
 20
773.409341158589
 30
0.0
 11
57.811771385303
 21
773.416816407076
 31
0.0
  0
LINE
  5
144F
330
1D
100
AcDbEntity
  8
0
100
AcDbLine
 10
57.657597701755
 20
773.439779753979
 30
0.0
 11
57.757918895481
 21
773.409341158589
 31
0.0
  0
LINE
  5
1450
330
1D
100
AcDbEntity
  8
0
100
AcDbLine
 10
65.174156132404
 20
769.986440853924
 30
0.0
 11
65.401049274568
 21
769.848631304042
 31
0.0
  0
LINE
  5
1451
330
1D
100
AcDbEntity
  8
0
100
AcDbLine
 10
65.401049274568
 20
769.848631304042
 30
0.0
 11
65.630497226204
 21
769.730246813968
 31
0.0
  0
LINE
  5
1452
330
1D
100
AcDbEntity
  8
0
100
AcDbLine
 10
64.797669640893
 20
770.270547122263
 30
0.0
 11
64.97155766529
 21
770.128930015348
 31
0.0
  0
LINE
  5
1453
330
1D
100
AcDbEntity
  8
0
100
AcDbLine
 10
64.97155766529
 20
770.128930015348
 30
0.0
 11
65.174156132404
 21
769.986440853924
 31
0.0
  0
LINE
  5
1454
330
1D
100
AcDbEntity
  8
0
100
AcDbLine
 10
65.630497226204
 20
769.730246813968
 30
0.0
 11
65.839945762379
 21
769.641422320193
 31
0.0
  0
LINE
  5
1455
330
1D
100
AcDbEntity
  8
0
100
AcDbLine
 10
65.839945762379
 20
769.641422320193
 30
0.0
 11
66.024270973856
 21
769.581882951587
 31
0.0
  0
LINE
  5
1456
330
1D
100
AcDbEntity
  8
0
100
AcDbLine
 10
64.589289776571
 20
770.513022609983
 30
0.0
 11
64.669599169826
 21
770.400722559427
 31
0.0
  0
LINE
  5
1457
330
1D
100
AcDbEntity
  8
0
100
AcDbLine
 10
64.56626056089
 20
770.600334838366
 30
0.0
 11
64.926845581571
 21
771.204917766738
 31
0.0
  0
LINE
  5
1458
330
1D
100
AcDbEntity
  8
0
100
AcDbLine
 10
64.56626056089
 20
770.600334838366
 30
0.0
 11
64.606937802226
 21
770.651789887071
 31
0.0
  0
LINE
  5
1459
330
1D
100
AcDbEntity
  8
0
100
AcDbLine
 10
64.56626056089
 20
770.600334838366
 30
0.0
 11
64.589289776571
 21
770.513022609983
 31
0.0
  0
LINE
  5
145A
330
1D
100
AcDbEntity
  8
0
100
AcDbLine
 10
64.606937802226
 20
770.651789887071
 30
0.0
 11
64.703285155777
 21
770.664868398597
 31
0.0
  0
LINE
  5
145B
330
1D
100
AcDbEntity
  8
0
100
AcDbLine
 10
64.669599169826
 20
770.400722559427
 30
0.0
 11
64.797669640893
 21
770.270547122263
 31
0.0
  0
LINE
  5
145C
330
1D
100
AcDbEntity
  8
0
100
AcDbLine
 10
64.703285155777
 20
770.664868398597
 30
0.0
 11
64.845062944642
 21
770.643634732295
 31
0.0
  0
LINE
  5
145D
330
1D
100
AcDbEntity
  8
0
100
AcDbLine
 10
65.897862855747
 20
770.096537668534
 30
0.0
 11
66.071664277605
 21
769.954970561619
 31
0.0
  0
LINE
  5
145E
330
1D
100
AcDbEntity
  8
0
100
AcDbLine
 10
65.695177786093
 20
770.239076829958
 30
0.0
 11
65.897862855747
 21
770.096537668534
 31
0.0
  0
LINE
  5
145F
330
1D
100
AcDbEntity
  8
0
100
AcDbLine
 10
65.468284643929
 20
770.376886379841
 30
0.0
 11
65.695177786093
 21
770.239076829958
 31
0.0
  0
LINE
  5
1460
330
1D
100
AcDbEntity
  8
0
100
AcDbLine
 10
65.238836692293
 20
770.495270869914
 30
0.0
 11
65.468284643929
 21
770.376886379841
 31
0.0
  0
LINE
  5
1461
330
1D
100
AcDbEntity
  8
0
100
AcDbLine
 10
65.029388156119
 20
770.584095363689
 30
0.0
 11
65.238836692293
 21
770.495270869914
 31
0.0
  0
LINE
  5
1462
330
1D
100
AcDbEntity
  8
0
100
AcDbLine
 10
64.845062944642
 20
770.643634732295
 30
0.0
 11
65.029388156119
 21
770.584095363689
 31
0.0
  0
LINE
  5
1463
330
1D
100
AcDbEntity
  8
0
100
AcDbLine
 10
66.071664277605
 20
769.954970561619
 30
0.0
 11
66.199734748671
 21
769.824795124455
 31
0.0
  0
LINE
  5
1464
330
1D
100
AcDbEntity
  8
0
100
AcDbLine
 10
66.199734748671
 20
769.824795124455
 30
0.0
 11
66.280044141927
 21
769.712495073899
 31
0.0
  0
LINE
  5
1465
330
1D
100
AcDbEntity
  8
0
100
AcDbLine
 10
66.280044141927
 20
769.712495073899
 30
0.0
 11
66.303073357607
 21
769.625182845516
 31
0.0
  0
LINE
  5
1466
330
1D
100
AcDbEntity
  8
0
100
AcDbLine
 10
66.303073357607
 20
769.625182845516
 30
0.0
 11
66.715851859658
 21
770.317278290896
 31
0.0
  0
LINE
  5
1467
330
1D
100
AcDbEntity
  8
0
100
AcDbLine
 10
66.262396116272
 20
769.573727796811
 30
0.0
 11
66.303073357607
 21
769.625182845516
 31
0.0
  0
LINE
  5
1468
330
1D
100
AcDbEntity
  8
0
100
AcDbLine
 10
66.166135365261
 20
769.560599285286
 30
0.0
 11
66.262396116272
 21
769.573727796811
 31
0.0
  0
LINE
  5
1469
330
1D
100
AcDbEntity
  8
0
100
AcDbLine
 10
66.024270973856
 20
769.581882951587
 30
0.0
 11
66.166135365261
 21
769.560599285286
 31
0.0
  0
LINE
  5
146A
330
1D
100
AcDbEntity
  8
0
100
AcDbLine
 10
71.079876599128
 20
765.23604875759
 30
0.0
 11
71.308978140603
 21
765.117864267516
 31
0.0
  0
LINE
  5
146B
330
1D
100
AcDbEntity
  8
0
100
AcDbLine
 10
70.870428062954
 20
765.324873251365
 30
0.0
 11
71.079876599128
 21
765.23604875759
 31
0.0
  0
LINE
  5
146C
330
1D
100
AcDbEntity
  8
0
100
AcDbLine
 10
70.686052851477
 20
765.384326017431
 30
0.0
 11
70.870428062954
 21
765.324873251365
 31
0.0
  0
LINE
  5
146D
330
1D
100
AcDbEntity
  8
0
100
AcDbLine
 10
71.015232641779
 20
764.727082139059
 30
0.0
 11
71.241779373782
 21
764.589472589177
 31
0.0
  0
LINE
  5
146E
330
1D
100
AcDbEntity
  8
0
100
AcDbLine
 10
71.241779373782
 20
764.589472589177
 30
0.0
 11
71.471313927959
 21
764.471038099104
 31
0.0
  0
LINE
  5
146F
330
1D
100
AcDbEntity
  8
0
100
AcDbLine
 10
71.471313927959
 20
764.471038099104
 30
0.0
 11
71.680935669214
 21
764.382113605329
 31
0.0
  0
LINE
  5
1470
330
1D
100
AcDbEntity
  8
0
100
AcDbLine
 10
71.680935669214
 20
764.382113605329
 30
0.0
 11
71.864914470529
 21
764.322774236722
 31
0.0
  0
LINE
  5
1471
330
1D
100
AcDbEntity
  8
0
100
AcDbLine
 10
80.612871646837
 20
758.912680528524
 30
0.0
 11
86.82565804414
 21
757.675542225226
 31
0.0
  0
LINE
  5
1472
330
1D
100
AcDbEntity
  8
0
100
AcDbLine
 10
72.103645830728
 20
764.314269081946
 30
0.0
 11
72.143940059362
 21
764.366060733192
 31
0.0
  0
LINE
  5
1473
330
1D
100
AcDbEntity
  8
0
100
AcDbLine
 10
72.007261874636
 20
764.301327172962
 30
0.0
 11
72.103645830728
 21
764.314269081946
 31
0.0
  0
LINE
  5
1474
330
1D
100
AcDbEntity
  8
0
100
AcDbLine
 10
71.864914470529
 20
764.322774236722
 30
0.0
 11
72.007261874636
 21
764.301327172962
 31
0.0
  0
LINE
  5
1475
330
1D
100
AcDbEntity
  8
0
100
AcDbLine
 10
71.739249172744
 20
764.83711555621
 30
0.0
 11
71.91279078698
 21
764.695698449295
 31
0.0
  0
LINE
  5
1476
330
1D
100
AcDbEntity
  8
0
100
AcDbLine
 10
71.536390898009
 20
764.979754717634
 30
0.0
 11
71.739249172744
 21
764.83711555621
 31
0.0
  0
LINE
  5
1477
330
1D
100
AcDbEntity
  8
0
100
AcDbLine
 10
71.308978140603
 20
765.117864267516
 30
0.0
 11
71.536390898009
 21
764.979754717634
 31
0.0
  0
LINE
  5
1478
330
1D
100
AcDbEntity
  8
0
100
AcDbLine
 10
71.91279078698
 20
764.695698449295
 30
0.0
 11
72.040811258047
 21
764.565436409591
 31
0.0
  0
LINE
  5
1479
330
1D
100
AcDbEntity
  8
0
100
AcDbLine
 10
72.040811258047
 20
764.565436409591
 30
0.0
 11
72.121430458923
 21
764.453072961575
 31
0.0
  0
LINE
  5
147A
330
1D
100
AcDbEntity
  8
0
100
AcDbLine
 10
72.121430458923
 20
764.453072961575
 30
0.0
 11
72.143940059362
 21
764.366060733192
 31
0.0
  0
LINE
  5
147B
330
1D
100
AcDbEntity
  8
0
100
AcDbLine
 10
86.82565804414
 20
757.675542225226
 30
0.0
 11
90.723688738165
 21
758.38912943674
 31
0.0
  0
LINE
  5
147C
330
1D
100
AcDbEntity
  8
0
100
AcDbLine
 10
72.143940059362
 20
764.366060733192
 30
0.0
 11
72.434873309462
 21
764.8535755037
 31
0.0
  0
LINE
  5
147D
330
1D
100
AcDbEntity
  8
0
100
AcDbLine
 10
48.99825633145
 20
781.474960540529
 30
0.0
 11
49.177893909431
 21
781.362701952541
 31
0.0
  0
LINE
  5
147E
330
1D
100
AcDbEntity
  8
0
100
AcDbLine
 10
49.177893909431
 20
781.362701952541
 30
0.0
 11
49.320165153714
 21
781.290722976094
 31
0.0
  0
LINE
  5
147F
330
1D
100
AcDbEntity
  8
0
100
AcDbLine
 10
48.400745420183
 20
781.944641284137
 30
0.0
 11
48.595557027017
 21
781.777664885079
 31
0.0
  0
LINE
  5
1480
330
1D
100
AcDbEntity
  8
0
100
AcDbLine
 10
48.595557027017
 20
781.777664885079
 30
0.0
 11
48.797164082119
 21
781.618658547679
 31
0.0
  0
LINE
  5
1481
330
1D
100
AcDbEntity
  8
0
100
AcDbLine
 10
48.797164082119
 20
781.618658547679
 30
0.0
 11
48.99825633145
 21
781.474960540529
 31
0.0
  0
LINE
  5
1482
330
1D
100
AcDbEntity
  8
0
100
AcDbLine
 10
49.320165153714
 20
781.290722976094
 30
0.0
 11
49.424266474459
 21
781.25683175276
 31
0.0
  0
LINE
  5
1483
330
1D
100
AcDbEntity
  8
0
100
AcDbLine
 10
49.481065701242
 20
781.32161089938
 30
0.0
 11
49.476591465206
 21
781.26946129524
 31
0.0
  0
LINE
  5
1484
330
1D
100
AcDbEntity
  8
0
100
AcDbLine
 10
49.476591465206
 20
781.26946129524
 30
0.0
 11
50.039374065493
 21
781.954913295594
 31
0.0
  0
LINE
  5
1485
330
1D
100
AcDbEntity
  8
0
100
AcDbLine
 10
49.424266474459
 20
781.25683175276
 30
0.0
 11
49.476591465206
 21
781.26946129524
 31
0.0
  0
LINE
  5
1486
330
1D
100
AcDbEntity
  8
0
100
AcDbLine
 10
45.505041845219
 20
778.674935568642
 30
0.0
 11
46.054601330713
 21
779.352177842914
 31
0.0
  0
LINE
  5
1487
330
1D
100
AcDbEntity
  8
0
100
AcDbLine
 10
45.091560867335
 20
778.901765506983
 30
0.0
 11
45.353244063756
 21
778.741214098672
 31
0.0
  0
LINE
  5
1488
330
1D
100
AcDbEntity
  8
0
100
AcDbLine
 10
39.155531182486
 20
784.246660497588
 30
0.0
 11
39.328334228895
 21
784.438564503378
 31
0.0
  0
LINE
  5
1489
330
1D
100
AcDbEntity
  8
0
100
AcDbLine
 10
29.482865356745
 20
792.955911842769
 30
0.0
 11
29.778165383838
 21
792.61498649317
 31
0.0
  0
LINE
  5
148A
330
1D
100
AcDbEntity
  8
0
100
AcDbLine
 10
30.043879190705
 20
792.744016306936
 30
0.0
 11
30.462585725371
 21
792.356437298438
 31
0.0
  0
LINE
  5
148B
330
1D
100
AcDbEntity
  8
0
100
AcDbLine
 10
34.186369575036
 20
790.189420122462
 30
0.0
 11
34.28060942211
 21
790.144248325692
 31
0.0
  0
LINE
  5
148C
330
1D
100
AcDbEntity
  8
0
100
AcDbLine
 10
34.049748588492
 20
790.282385632388
 30
0.0
 11
34.186369575036
 21
790.189420122462
 31
0.0
  0
LINE
  5
148D
330
1D
100
AcDbEntity
  8
0
100
AcDbLine
 10
48.228023936666
 20
782.108678899128
 30
0.0
 11
48.400745420183
 21
781.944641284137
 31
0.0
  0
LINE
  5
148E
330
1D
100
AcDbEntity
  8
0
100
AcDbLine
 10
33.886780368014
 20
790.411116394502
 30
0.0
 11
34.049748588492
 21
790.282385632388
 31
0.0
  0
LINE
  5
148F
330
1D
100
AcDbEntity
  8
0
100
AcDbLine
 10
33.706517026069
 20
790.566691127511
 30
0.0
 11
33.886780368014
 21
790.411116394502
 31
0.0
  0
LINE
  5
1490
330
1D
100
AcDbEntity
  8
0
100
AcDbLine
 10
34.326185374752
 20
790.148188191271
 30
0.0
 11
34.962878324084
 21
790.805621637774
 31
0.0
  0
LINE
  5
1491
330
1D
100
AcDbEntity
  8
0
100
AcDbLine
 10
33.519333880204
 20
790.742080408551
 30
0.0
 11
33.706517026069
 21
790.566691127511
 31
0.0
  0
LINE
  5
1492
330
1D
100
AcDbEntity
  8
0
100
AcDbLine
 10
34.276304888882
 20
790.288992655439
 30
0.0
 11
34.327039995546
 21
790.195268437908
 31
0.0
  0
LINE
  5
1493
330
1D
100
AcDbEntity
  8
0
100
AcDbLine
 10
48.085125073692
 20
782.259770808113
 30
0.0
 11
48.228023936666
 21
782.108678899128
 31
0.0
  0
LINE
  5
1494
330
1D
100
AcDbEntity
  8
0
100
AcDbLine
 10
47.981800943727
 20
782.390208165365
 30
0.0
 11
48.085125073692
 21
782.259770808113
 31
0.0
  0
LINE
  5
1495
330
1D
100
AcDbEntity
  8
0
100
AcDbLine
 10
49.18478080672
 20
781.697630408551
 30
0.0
 11
49.327679669694
 21
781.546538499566
 31
0.0
  0
LINE
  5
1496
330
1D
100
AcDbEntity
  8
0
100
AcDbLine
 10
49.327679669694
 20
781.546538499566
 30
0.0
 11
49.430967197119
 21
781.416237744855
 31
0.0
  0
LINE
  5
1497
330
1D
100
AcDbEntity
  8
0
100
AcDbLine
 10
49.430967197119
 20
781.416237744855
 30
0.0
 11
49.481065701242
 21
781.32161089938
 31
0.0
  0
LINE
  5
1498
330
1D
100
AcDbEntity
  8
0
100
AcDbLine
 10
30.462585725371
 20
792.356437298438
 30
0.0
 11
30.913742568331
 21
791.922063872628
 31
0.0
  0
LINE
  5
1499
330
1D
100
AcDbEntity
  8
0
100
AcDbLine
 10
29.295873949692
 20
793.199433225173
 30
0.0
 11
29.482865356745
 21
792.955911842769
 31
0.0
  0
LINE
  5
149A
330
1D
100
AcDbEntity
  8
0
100
AcDbLine
 10
28.722852866994
 20
793.347131596133
 30
0.0
 11
28.811687904597
 21
793.277598394753
 31
0.0
  0
LINE
  5
149B
330
1D
100
AcDbEntity
  8
0
100
AcDbLine
 10
28.811687904597
 20
793.277598394753
 30
0.0
 11
29.377673861369
 21
793.80990679749
 31
0.0
  0
LINE
  5
149C
330
1D
100
AcDbEntity
  8
0
100
AcDbLine
 10
28.517772675873
 20
793.542322285485
 30
0.0
 11
28.722852866994
 21
793.347131596133
 31
0.0
  0
LINE
  5
149D
330
1D
100
AcDbEntity
  8
0
100
AcDbLine
 10
33.337672977525
 20
790.923634495363
 30
0.0
 11
33.519333880204
 21
790.742080408551
 31
0.0
  0
LINE
  5
149E
330
1D
100
AcDbEntity
  8
0
100
AcDbLine
 10
34.184033833277
 20
790.416974499063
 30
0.0
 11
34.276304888882
 21
790.288992655439
 31
0.0
  0
LINE
  5
149F
330
1D
100
AcDbEntity
  8
0
100
AcDbLine
 10
29.693038593877
 20
793.049342567873
 30
0.0
 11
30.043879190705
 21
792.744016306936
 31
0.0
  0
LINE
  5
14A0
330
1D
100
AcDbEntity
  8
0
100
AcDbLine
 10
34.048537598247
 20
790.578688135757
 30
0.0
 11
34.184033833277
 21
790.416974499063
 31
0.0
  0
LINE
  5
14A1
330
1D
100
AcDbEntity
  8
0
100
AcDbLine
 10
33.169950789853
 20
791.104531144758
 30
0.0
 11
33.337672977525
 21
790.923634495363
 31
0.0
  0
LINE
  5
14A2
330
1D
100
AcDbEntity
  8
0
100
AcDbLine
 10
33.034454554823
 20
791.266244781451
 30
0.0
 11
33.169950789853
 21
791.104531144758
 31
0.0
  0
LINE
  5
14A3
330
1D
100
AcDbEntity
  8
0
100
AcDbLine
 10
32.942146896678
 20
791.394363227617
 30
0.0
 11
33.034454554823
 21
791.266244781451
 31
0.0
  0
LINE
  5
14A4
330
1D
100
AcDbEntity
  8
0
100
AcDbLine
 10
32.891448392554
 20
791.487950842608
 30
0.0
 11
32.942146896678
 21
791.394363227617
 31
0.0
  0
LINE
  5
14A5
330
1D
100
AcDbEntity
  8
0
100
AcDbLine
 10
33.51188475949
 20
791.116578153004
 30
0.0
 11
33.699204507896
 21
790.941225474504
 31
0.0
  0
LINE
  5
14A6
330
1D
100
AcDbEntity
  8
0
100
AcDbLine
 10
33.699204507896
 20
790.941225474504
 30
0.0
 11
33.880778808035
 21
790.759721387693
 31
0.0
  0
LINE
  5
14A7
330
1D
100
AcDbEntity
  8
0
100
AcDbLine
 10
33.880778808035
 20
790.759721387693
 30
0.0
 11
34.048537598247
 21
790.578688135757
 31
0.0
  0
LINE
  5
14A8
330
1D
100
AcDbEntity
  8
0
100
AcDbLine
 10
29.422767713404
 20
793.264619671087
 30
0.0
 11
29.693038593877
 21
793.049342567873
 31
0.0
  0
LINE
  5
14A9
330
1D
100
AcDbEntity
  8
0
100
AcDbLine
 10
29.254791093616
 20
793.368875631131
 30
0.0
 11
29.422767713404
 21
793.264619671087
 31
0.0
  0
LINE
  5
14AA
330
1D
100
AcDbEntity
  8
0
100
AcDbLine
 10
29.214018919491
 20
793.34345615401
 30
0.0
 11
29.295873949692
 21
793.199433225173
 31
0.0
  0
LINE
  5
14AB
330
1D
100
AcDbEntity
  8
0
100
AcDbLine
 10
29.214018919491
 20
793.34345615401
 30
0.0
 11
29.830142202464
 21
793.960757147998
 31
0.0
  0
LINE
  5
14AC
330
1D
100
AcDbEntity
  8
0
100
AcDbLine
 10
47.931789042144
 20
782.48478501084
 30
0.0
 11
47.981800943727
 21
782.390208165365
 31
0.0
  0
LINE
  5
14AD
330
1D
100
AcDbEntity
  8
0
100
AcDbLine
 10
47.93621327818
 20
782.536848012439
 30
0.0
 11
48.33720256501
 21
783.025240703752
 31
0.0
  0
LINE
  5
14AE
330
1D
100
AcDbEntity
  8
0
100
AcDbLine
 10
47.93621327818
 20
782.536848012439
 30
0.0
 11
47.988538268927
 21
782.54947755492
 31
0.0
  0
LINE
  5
14AF
330
1D
100
AcDbEntity
  8
0
100
AcDbLine
 10
47.93621327818
 20
782.536848012439
 30
0.0
 11
47.931789042144
 21
782.48478501084
 31
0.0
  0
LINE
  5
14B0
330
1D
100
AcDbEntity
  8
0
100
AcDbLine
 10
48.817247716369
 20
782.028644422601
 30
0.0
 11
49.012059323203
 21
781.861668023542
 31
0.0
  0
LINE
  5
14B1
330
1D
100
AcDbEntity
  8
0
100
AcDbLine
 10
48.615690661267
 20
782.187737362541
 30
0.0
 11
48.817247716369
 21
782.028644422601
 31
0.0
  0
LINE
  5
14B2
330
1D
100
AcDbEntity
  8
0
100
AcDbLine
 10
47.988538268927
 20
782.54947755492
 30
0.0
 11
48.092639589673
 21
782.515586331585
 31
0.0
  0
LINE
  5
14B3
330
1D
100
AcDbEntity
  8
0
100
AcDbLine
 10
49.012059323203
 20
781.861668023542
 30
0.0
 11
49.18478080672
 21
781.697630408551
 31
0.0
  0
LINE
  5
14B4
330
1D
100
AcDbEntity
  8
0
100
AcDbLine
 10
48.414548411936
 20
782.331348767151
 30
0.0
 11
48.615690661267
 21
782.187737362541
 31
0.0
  0
LINE
  5
14B5
330
1D
100
AcDbEntity
  8
0
100
AcDbLine
 10
48.234910833955
 20
782.443607355139
 30
0.0
 11
48.414548411936
 21
782.331348767151
 31
0.0
  0
LINE
  5
14B6
330
1D
100
AcDbEntity
  8
0
100
AcDbLine
 10
48.092639589673
 20
782.515586331585
 30
0.0
 11
48.234910833955
 21
782.443607355139
 31
0.0
  0
LINE
  5
14B7
330
1D
100
AcDbEntity
  8
0
100
AcDbLine
 10
28.225032129601
 20
793.834080785907
 30
0.0
 11
28.517772675873
 21
793.542322285485
 31
0.0
  0
LINE
  5
14B8
330
1D
100
AcDbEntity
  8
0
100
AcDbLine
 10
27.844944625639
 20
794.223149917723
 30
0.0
 11
28.225032129601
 21
793.834080785907
 31
0.0
  0
LINE
  5
14B9
330
1D
100
AcDbEntity
  8
0
100
AcDbLine
 10
28.78779053024
 20
796.997406928199
 30
0.0
 11
28.937654645401
 21
796.822779189891
 31
0.0
  0
LINE
  5
14BA
330
1D
100
AcDbEntity
  8
0
100
AcDbLine
 10
28.676692044621
 20
797.142378706464
 30
0.0
 11
28.78779053024
 21
796.997406928199
 31
0.0
  0
LINE
  5
14BB
330
1D
100
AcDbEntity
  8
0
100
AcDbLine
 10
28.603632393627
 20
797.256035678959
 30
0.0
 11
28.676692044621
 21
797.142378706464
 31
0.0
  0
LINE
  5
14BC
330
1D
100
AcDbEntity
  8
0
100
AcDbLine
 10
29.113320099813
 20
796.634640682067
 30
0.0
 11
29.296166643138
 21
796.451940185094
 31
0.0
  0
LINE
  5
14BD
330
1D
100
AcDbEntity
  8
0
100
AcDbLine
 10
28.937654645401
 20
796.822779189891
 30
0.0
 11
29.113320099813
 21
796.634640682067
 31
0.0
  0
LINE
  5
14BE
330
1D
100
AcDbEntity
  8
0
100
AcDbLine
 10
29.101788670554
 20
796.994867660705
 30
0.0
 11
29.284252458916
 21
796.823704212689
 31
0.0
  0
LINE
  5
14BF
330
1D
100
AcDbEntity
  8
0
100
AcDbLine
 10
29.284252458916
 20
796.823704212689
 30
0.0
 11
29.467149002241
 21
796.641090318257
 31
0.0
  0
LINE
  5
14C0
330
1D
100
AcDbEntity
  8
0
100
AcDbLine
 10
28.932829107125
 20
797.140221112422
 30
0.0
 11
29.101788670554
 21
796.994867660705
 31
0.0
  0
LINE
  5
14C1
330
1D
100
AcDbEntity
  8
0
100
AcDbLine
 10
28.786143830288
 20
797.254354760219
 30
0.0
 11
28.932829107125
 21
797.140221112422
 31
0.0
  0
LINE
  5
14C2
330
1D
100
AcDbEntity
  8
0
100
AcDbLine
 10
28.67073495251
 20
797.328260720263
 30
0.0
 11
28.786143830288
 21
797.254354760219
 31
0.0
  0
LINE
  5
14C3
330
1D
100
AcDbEntity
  8
0
100
AcDbLine
 10
28.600807918357
 20
797.351543544286
 30
0.0
 11
28.850662722753
 21
797.600705607453
 31
0.0
  0
LINE
  5
14C4
330
1D
100
AcDbEntity
  8
0
100
AcDbLine
 10
28.600807918357
 20
797.351543544286
 30
0.0
 11
28.67073495251
 21
797.328260720263
 31
0.0
  0
LINE
  5
14C5
330
1D
100
AcDbEntity
  8
0
100
AcDbLine
 10
28.580137598959
 20
797.325141500881
 30
0.0
 11
28.603632393627
 21
797.256035678959
 31
0.0
  0
LINE
  5
14C6
330
1D
100
AcDbEntity
  8
0
100
AcDbLine
 10
28.648609343844
 20
795.401138041905
 30
0.0
 11
29.088849781148
 21
795.82598348254
 31
0.0
  0
LINE
  5
14C7
330
1D
100
AcDbEntity
  8
0
100
AcDbLine
 10
28.793478576772
 20
795.129858913789
 30
0.0
 11
28.921193018734
 21
794.969866816127
 31
0.0
  0
LINE
  5
14C8
330
1D
100
AcDbEntity
  8
0
100
AcDbLine
 10
28.699886239876
 20
795.261952231085
 30
0.0
 11
28.793478576772
 21
795.129858913789
 31
0.0
  0
LINE
  5
14C9
330
1D
100
AcDbEntity
  8
0
100
AcDbLine
 10
29.443727204142
 20
794.411722573946
 30
0.0
 11
29.618334328305
 21
794.247750984359
 31
0.0
  0
LINE
  5
14CA
330
1D
100
AcDbEntity
  8
0
100
AcDbLine
 10
29.262918929408
 20
794.592553455677
 30
0.0
 11
29.443727204142
 21
794.411722573946
 31
0.0
  0
LINE
  5
14CB
330
1D
100
AcDbEntity
  8
0
100
AcDbLine
 10
29.618334328305
 20
794.247750984359
 30
0.0
 11
29.773222421764
 21
794.115025031717
 31
0.0
  0
LINE
  5
14CC
330
1D
100
AcDbEntity
  8
0
100
AcDbLine
 10
29.773222421764
 20
794.115025031717
 30
0.0
 11
29.901340076208
 21
794.017731318561
 31
0.0
  0
LINE
  5
14CD
330
1D
100
AcDbEntity
  8
0
100
AcDbLine
 10
29.901340076208
 20
794.017731318561
 30
0.0
 11
29.993744986791
 21
793.964381318561
 31
0.0
  0
LINE
  5
14CE
330
1D
100
AcDbEntity
  8
0
100
AcDbLine
 10
30.038469977539
 20
793.963847274904
 30
0.0
 11
30.537523297484
 21
794.44544893992
 31
0.0
  0
LINE
  5
14CF
330
1D
100
AcDbEntity
  8
0
100
AcDbLine
 10
29.987143081507
 20
794.102946483183
 30
0.0
 11
30.034271266233
 21
794.012574893596
 31
0.0
  0
LINE
  5
14D0
330
1D
100
AcDbEntity
  8
0
100
AcDbLine
 10
29.082447514952
 20
794.784967796526
 30
0.0
 11
29.262918929408
 21
794.592553455677
 31
0.0
  0
LINE
  5
14D1
330
1D
100
AcDbEntity
  8
0
100
AcDbLine
 10
28.921193018734
 20
794.969866816127
 30
0.0
 11
29.082447514952
 21
794.784967796526
 31
0.0
  0
LINE
  5
14D2
330
1D
100
AcDbEntity
  8
0
100
AcDbLine
 10
29.068744993078
 20
795.117234332449
 30
0.0
 11
29.243352117241
 21
794.953262742862
 31
0.0
  0
LINE
  5
14D3
330
1D
100
AcDbEntity
  8
0
100
AcDbLine
 10
29.243352117241
 20
794.953262742862
 30
0.0
 11
29.424160391976
 21
794.772431861132
 31
0.0
  0
LINE
  5
14D4
330
1D
100
AcDbEntity
  8
0
100
AcDbLine
 10
29.424160391976
 20
794.772431861132
 30
0.0
 11
29.604631806431
 21
794.580017520282
 31
0.0
  0
LINE
  5
14D5
330
1D
100
AcDbEntity
  8
0
100
AcDbLine
 10
29.604631806431
 20
794.580017520282
 30
0.0
 11
29.76588630265
 21
794.395118500681
 31
0.0
  0
LINE
  5
14D6
330
1D
100
AcDbEntity
  8
0
100
AcDbLine
 10
29.76588630265
 20
794.395118500681
 30
0.0
 11
29.893600744611
 21
794.235126403019
 31
0.0
  0
LINE
  5
14D7
330
1D
100
AcDbEntity
  8
0
100
AcDbLine
 10
29.893600744611
 20
794.235126403019
 30
0.0
 11
29.987143081507
 21
794.102946483183
 31
0.0
  0
LINE
  5
14D8
330
1D
100
AcDbEntity
  8
0
100
AcDbLine
 10
28.91385689962
 20
795.249960285091
 30
0.0
 11
29.068744993078
 21
795.117234332449
 31
0.0
  0
LINE
  5
14D9
330
1D
100
AcDbEntity
  8
0
100
AcDbLine
 10
29.296166643138
 20
796.451940185094
 30
0.0
 11
29.47876703404
 21
796.280813339618
 31
0.0
  0
LINE
  5
14DA
330
1D
100
AcDbEntity
  8
0
100
AcDbLine
 10
29.467149002241
 20
796.641090318257
 30
0.0
 11
29.642901059193
 21
796.452901810433
 31
0.0
  0
LINE
  5
14DB
330
1D
100
AcDbEntity
  8
0
100
AcDbLine
 10
29.47876703404
 20
796.280813339618
 30
0.0
 11
29.647726597469
 21
796.135459887902
 31
0.0
  0
LINE
  5
14DC
330
1D
100
AcDbEntity
  8
0
100
AcDbLine
 10
29.647726597469
 20
796.135459887902
 30
0.0
 11
29.794411874306
 21
796.021326240105
 31
0.0
  0
LINE
  5
14DD
330
1D
100
AcDbEntity
  8
0
100
AcDbLine
 10
29.794411874306
 20
796.021326240105
 30
0.0
 11
29.909820752084
 21
795.947420280061
 31
0.0
  0
LINE
  5
14DE
330
1D
100
AcDbEntity
  8
0
100
AcDbLine
 10
29.909820752084
 20
795.947420280061
 30
0.0
 11
29.979661183697
 21
795.924187456037
 31
0.0
  0
LINE
  5
14DF
330
1D
100
AcDbEntity
  8
0
100
AcDbLine
 10
29.979661183697
 20
795.924187456037
 30
0.0
 11
30.391275295771
 21
796.33466033704
 31
0.0
  0
LINE
  5
14E0
330
1D
100
AcDbEntity
  8
0
100
AcDbLine
 10
29.976786708427
 20
796.019608718825
 30
0.0
 11
30.000368105635
 21
795.950452896903
 31
0.0
  0
LINE
  5
14E1
330
1D
100
AcDbEntity
  8
0
100
AcDbLine
 10
29.642901059193
 20
796.452901810433
 30
0.0
 11
29.792678571814
 21
796.278324072124
 31
0.0
  0
LINE
  5
14E2
330
1D
100
AcDbEntity
  8
0
100
AcDbLine
 10
29.792678571814
 20
796.278324072124
 30
0.0
 11
29.903863659973
 21
796.133302293859
 31
0.0
  0
LINE
  5
14E3
330
1D
100
AcDbEntity
  8
0
100
AcDbLine
 10
29.903863659973
 20
796.133302293859
 30
0.0
 11
29.976786708427
 21
796.019608718825
 31
0.0
  0
LINE
  5
14E4
330
1D
100
AcDbEntity
  8
0
100
AcDbLine
 10
28.785739245176
 20
795.347253998247
 30
0.0
 11
28.91385689962
 21
795.249960285091
 31
0.0
  0
LINE
  5
14E5
330
1D
100
AcDbEntity
  8
0
100
AcDbLine
 10
28.693284334592
 20
795.400517395707
 30
0.0
 11
28.785739245176
 21
795.347253998247
 31
0.0
  0
LINE
  5
14E6
330
1D
100
AcDbEntity
  8
0
100
AcDbLine
 10
28.65280805515
 20
795.352410423213
 30
0.0
 11
28.699886239876
 21
795.261952231085
 31
0.0
  0
LINE
  5
14E7
330
1D
100
AcDbEntity
  8
0
100
AcDbLine
 10
31.976780742096
 20
796.741299999975
 30
0.0
 11
32.163240682881
 21
796.565058090989
 31
0.0
  0
LINE
  5
14E8
330
1D
100
AcDbEntity
  8
0
100
AcDbLine
 10
31.797499262281
 20
796.925175368078
 30
0.0
 11
31.976780742096
 21
796.741299999975
 31
0.0
  0
LINE
  5
14E9
330
1D
100
AcDbEntity
  8
0
100
AcDbLine
 10
32.163240682881
 20
796.565058090989
 30
0.0
 11
32.344363832447
 21
796.410372588465
 31
0.0
  0
LINE
  5
14EA
330
1D
100
AcDbEntity
  8
0
100
AcDbLine
 10
32.344363832447
 20
796.410372588465
 30
0.0
 11
32.509624873248
 21
796.284013107644
 31
0.0
  0
LINE
  5
14EB
330
1D
100
AcDbEntity
  8
0
100
AcDbLine
 10
32.509624873248
 20
796.284013107644
 30
0.0
 11
32.650021692816
 21
796.194987532358
 31
0.0
  0
LINE
  5
14EC
330
1D
100
AcDbEntity
  8
0
100
AcDbLine
 10
32.650021692816
 20
796.194987532358
 30
0.0
 11
32.749370385617
 21
796.155064515955
 31
0.0
  0
LINE
  5
14ED
330
1D
100
AcDbEntity
  8
0
100
AcDbLine
 10
31.633602907634
 20
797.110098554654
 30
0.0
 11
31.797499262281
 21
796.925175368078
 31
0.0
  0
LINE
  5
14EE
330
1D
100
AcDbEntity
  8
0
100
AcDbLine
 10
31.50321551833
 20
797.277060971714
 30
0.0
 11
31.633602907634
 21
797.110098554654
 31
0.0
  0
LINE
  5
14EF
330
1D
100
AcDbEntity
  8
0
100
AcDbLine
 10
31.416726513533
 20
797.41105762111
 30
0.0
 11
31.50321551833
 21
797.277060971714
 31
0.0
  0
LINE
  5
14F0
330
1D
100
AcDbEntity
  8
0
100
AcDbLine
 10
31.372146662758
 20
797.511043054573
 30
0.0
 11
31.416726513533
 21
797.41105762111
 31
0.0
  0
LINE
  5
14F1
330
1D
100
AcDbEntity
  8
0
100
AcDbLine
 10
32.016730848167
 20
797.164295613456
 30
0.0
 11
32.203140788951
 21
796.987967101931
 31
0.0
  0
LINE
  5
14F2
330
1D
100
AcDbEntity
  8
0
100
AcDbLine
 10
32.203140788951
 20
796.987967101931
 30
0.0
 11
32.382472268767
 21
796.804178336368
 31
0.0
  0
LINE
  5
14F3
330
1D
100
AcDbEntity
  8
0
100
AcDbLine
 10
32.382472268767
 20
796.804178336368
 30
0.0
 11
32.546318623414
 21
796.619168547252
 31
0.0
  0
LINE
  5
14F4
330
1D
100
AcDbEntity
  8
0
100
AcDbLine
 10
32.546318623414
 20
796.619168547252
 30
0.0
 11
32.676706012717
 21
796.452206130191
 31
0.0
  0
LINE
  5
14F5
330
1D
100
AcDbEntity
  8
0
100
AcDbLine
 10
32.676706012717
 20
796.452206130191
 30
0.0
 11
32.763245017514
 21
796.318296083336
 31
0.0
  0
LINE
  5
14F6
330
1D
100
AcDbEntity
  8
0
100
AcDbLine
 10
32.749370385617
 20
796.155064515955
 30
0.0
 11
32.800678389067
 21
796.164932584764
 31
0.0
  0
LINE
  5
14F7
330
1D
100
AcDbEntity
  8
0
100
AcDbLine
 10
32.807824868289
 20
796.218310649873
 30
0.0
 11
32.800678389067
 21
796.164932584764
 31
0.0
  0
LINE
  5
14F8
330
1D
100
AcDbEntity
  8
0
100
AcDbLine
 10
32.800678389067
 20
796.164932584764
 30
0.0
 11
33.24451965551
 21
796.614780920143
 31
0.0
  0
LINE
  5
14F9
330
1D
100
AcDbEntity
  8
0
100
AcDbLine
 10
32.763245017514
 20
796.318296083336
 30
0.0
 11
32.807824868289
 21
796.218310649873
 31
0.0
  0
LINE
  5
14FA
330
1D
100
AcDbEntity
  8
0
100
AcDbLine
 10
31.8356076986
 20
797.318981115981
 30
0.0
 11
32.016730848167
 21
797.164295613456
 31
0.0
  0
LINE
  5
14FB
330
1D
100
AcDbEntity
  8
0
100
AcDbLine
 10
31.67043326034
 20
797.445290596802
 30
0.0
 11
31.8356076986
 21
797.318981115981
 31
0.0
  0
LINE
  5
14FC
330
1D
100
AcDbEntity
  8
0
100
AcDbLine
 10
41.840524317131
 20
813.701805024765
 30
0.0
 11
46.076412353391
 21
809.887778318741
 31
0.0
  0
LINE
  5
14FD
330
1D
100
AcDbEntity
  8
0
100
AcDbLine
 10
31.529949838231
 20
797.534366172088
 30
0.0
 11
31.67043326034
 21
797.445290596802
 31
0.0
  0
LINE
  5
14FE
330
1D
100
AcDbEntity
  8
0
100
AcDbLine
 10
31.43060114543
 20
797.574289188491
 30
0.0
 11
31.529949838231
 21
797.534366172088
 31
0.0
  0
LINE
  5
14FF
330
1D
100
AcDbEntity
  8
0
100
AcDbLine
 10
31.37929314198
 20
797.564421119682
 30
0.0
 11
31.372146662758
 21
797.511043054573
 31
0.0
  0
LINE
  5
1500
330
1D
100
AcDbEntity
  8
0
100
AcDbLine
 10
31.37929314198
 20
797.564421119682
 30
0.0
 11
32.002150614981
 21
798.195770488328
 31
0.0
  0
LINE
  5
1501
330
1D
100
AcDbEntity
  8
0
100
AcDbLine
 10
31.37929314198
 20
797.564421119682
 30
0.0
 11
31.43060114543
 21
797.574289188491
 31
0.0
  0
LINE
  5
1502
330
1D
100
AcDbEntity
  8
0
100
AcDbLine
 10
33.331621417545
 20
791.272152886013
 30
0.0
 11
33.51188475949
 21
791.116578153004
 31
0.0
  0
LINE
  5
1503
330
1D
100
AcDbEntity
  8
0
100
AcDbLine
 10
33.168739799608
 20
791.400833648127
 30
0.0
 11
33.331621417545
 21
791.272152886013
 31
0.0
  0
LINE
  5
1504
330
1D
100
AcDbEntity
  8
0
100
AcDbLine
 10
33.032082210524
 20
791.493935760593
 30
0.0
 11
33.168739799608
 21
791.400833648127
 31
0.0
  0
LINE
  5
1505
330
1D
100
AcDbEntity
  8
0
100
AcDbLine
 10
32.93787896599
 20
791.538970954823
 30
0.0
 11
33.032082210524
 21
791.493935760593
 31
0.0
  0
LINE
  5
1506
330
1D
100
AcDbEntity
  8
0
100
AcDbLine
 10
32.892353013348
 20
791.535117691784
 30
0.0
 11
33.313525985901
 21
791.96999983832
 31
0.0
  0
LINE
  5
1507
330
1D
100
AcDbEntity
  8
0
100
AcDbLine
 10
36.265113635798
 20
790.195110451634
 30
0.0
 11
36.420771859976
 21
790.084918404527
 31
0.0
  0
LINE
  5
1508
330
1D
100
AcDbEntity
  8
0
100
AcDbLine
 10
36.420771859976
 20
790.084918404527
 30
0.0
 11
36.538002276785
 21
790.018967442633
 31
0.0
  0
LINE
  5
1509
330
1D
100
AcDbEntity
  8
0
100
AcDbLine
 10
36.538002276785
 20
790.018967442633
 30
0.0
 11
36.608064247429
 21
790.000918335467
 31
0.0
  0
LINE
  5
150A
330
1D
100
AcDbEntity
  8
0
100
AcDbLine
 10
56.086483356303
 20
778.398129883157
 30
0.0
 11
56.297075090156
 21
778.248485465845
 31
0.0
  0
LINE
  5
150B
330
1D
100
AcDbEntity
  8
0
100
AcDbLine
 10
56.297075090156
 20
778.248485465845
 30
0.0
 11
56.518952464656
 21
778.115188351528
 31
0.0
  0
LINE
  5
150C
330
1D
100
AcDbEntity
  8
0
100
AcDbLine
 10
56.518952464656
 20
778.115188351528
 30
0.0
 11
56.72999260152
 21
778.013320591013
 31
0.0
  0
LINE
  5
150D
330
1D
100
AcDbEntity
  8
0
100
AcDbLine
 10
56.72999260152
 20
778.013320591013
 30
0.0
 11
56.91045896727
 21
777.95069750555
 31
0.0
  0
LINE
  5
150E
330
1D
100
AcDbEntity
  8
0
100
AcDbLine
 10
55.89355809427
 20
778.556973527253
 30
0.0
 11
56.086483356303
 21
778.398129883157
 31
0.0
  0
LINE
  5
150F
330
1D
100
AcDbEntity
  8
0
100
AcDbLine
 10
56.91045896727
 20
777.95069750555
 30
0.0
 11
57.057425728881
 21
777.924851403683
 31
0.0
  0
LINE
  5
1510
330
1D
100
AcDbEntity
  8
0
100
AcDbLine
 10
55.734973401972
 20
778.714696782889
 30
0.0
 11
55.89355809427
 21
778.556973527253
 31
0.0
  0
LINE
  5
1511
330
1D
100
AcDbEntity
  8
0
100
AcDbLine
 10
55.616019918204
 20
778.861663305266
 30
0.0
 11
55.734973401972
 21
778.714696782889
 31
0.0
  0
LINE
  5
1512
330
1D
100
AcDbEntity
  8
0
100
AcDbLine
 10
55.546786357973
 20
778.990547261357
 30
0.0
 11
55.616019918204
 21
778.861663305266
 31
0.0
  0
LINE
  5
1513
330
1D
100
AcDbEntity
  8
0
100
AcDbLine
 10
36.088543560592
 20
790.336082110282
 30
0.0
 11
36.265113635798
 21
790.195110451634
 31
0.0
  0
LINE
  5
1514
330
1D
100
AcDbEntity
  8
0
100
AcDbLine
 10
36.633874501467
 20
790.025623006817
 30
0.0
 11
37.153982885075
 21
790.582385309939
 31
0.0
  0
LINE
  5
1515
330
1D
100
AcDbEntity
  8
0
100
AcDbLine
 10
55.538121948063
 20
779.086540063175
 30
0.0
 11
56.036372986256
 21
779.800385785281
 31
0.0
  0
LINE
  5
1516
330
1D
100
AcDbEntity
  8
0
100
AcDbLine
 10
55.538121948063
 20
779.086540063175
 30
0.0
 11
55.586732906257
 21
779.142536712571
 31
0.0
  0
LINE
  5
1517
330
1D
100
AcDbEntity
  8
0
100
AcDbLine
 10
55.538121948063
 20
779.086540063175
 30
0.0
 11
55.546786357973
 21
778.990547261357
 31
0.0
  0
LINE
  5
1518
330
1D
100
AcDbEntity
  8
0
100
AcDbLine
 10
90.723688738165
 20
758.38912943674
 30
0.0
 11
93.352869148687
 21
759.919003490029
 31
0.0
  0
LINE
  5
1519
330
1D
100
AcDbEntity
  8
0
100
AcDbLine
 10
57.194774182448
 20
778.095545903602
 30
0.0
 11
57.203438592358
 21
777.999553101784
 31
0.0
  0
LINE
  5
151A
330
1D
100
AcDbEntity
  8
0
100
AcDbLine
 10
57.203438592358
 20
777.999553101784
 30
0.0
 11
57.689920764412
 21
778.696614734029
 31
0.0
  0
LINE
  5
151B
330
1D
100
AcDbEntity
  8
0
100
AcDbLine
 10
57.154827634165
 20
777.943556452389
 30
0.0
 11
57.203438592358
 21
777.999553101784
 31
0.0
  0
LINE
  5
151C
330
1D
100
AcDbEntity
  8
0
100
AcDbLine
 10
57.057425728881
 20
777.924851403683
 30
0.0
 11
57.154827634165
 21
777.943556452389
 31
0.0
  0
LINE
  5
151D
330
1D
100
AcDbEntity
  8
0
100
AcDbLine
 10
35.711275345073
 20
790.675834392922
 30
0.0
 11
35.899990541746
 21
790.49909870172
 31
0.0
  0
LINE
  5
151E
330
1D
100
AcDbEntity
  8
0
100
AcDbLine
 10
35.899990541746
 20
790.49909870172
 30
0.0
 11
36.088543560592
 21
790.336082110282
 31
0.0
  0
LINE
  5
151F
330
1D
100
AcDbEntity
  8
0
100
AcDbLine
 10
35.534160594817
 20
790.853262646708
 30
0.0
 11
35.711275345073
 21
790.675834392922
 31
0.0
  0
LINE
  5
1520
330
1D
100
AcDbEntity
  8
0
100
AcDbLine
 10
35.3774957755
 20
791.024311219892
 30
0.0
 11
35.534160594817
 21
790.853262646708
 31
0.0
  0
LINE
  5
1521
330
1D
100
AcDbEntity
  8
0
100
AcDbLine
 10
35.258998509514
 20
791.170667934648
 30
0.0
 11
35.3774957755
 21
791.024311219892
 31
0.0
  0
LINE
  5
1522
330
1D
100
AcDbEntity
  8
0
100
AcDbLine
 10
35.187556549973
 20
791.279926830931
 30
0.0
 11
35.258998509514
 21
791.170667934648
 31
0.0
  0
LINE
  5
1523
330
1D
100
AcDbEntity
  8
0
100
AcDbLine
 10
35.894115588008
 20
790.878922983353
 30
0.0
 11
36.082880784681
 21
790.702273894692
 31
0.0
  0
LINE
  5
1524
330
1D
100
AcDbEntity
  8
0
100
AcDbLine
 10
36.082880784681
 20
790.702273894692
 30
0.0
 11
36.259995534937
 21
790.524845640905
 31
0.0
  0
LINE
  5
1525
330
1D
100
AcDbEntity
  8
0
100
AcDbLine
 10
36.259995534937
 20
790.524845640905
 30
0.0
 11
36.416660354254
 21
790.353797067721
 31
0.0
  0
LINE
  5
1526
330
1D
100
AcDbEntity
  8
0
100
AcDbLine
 10
36.416660354254
 20
790.353797067721
 30
0.0
 11
36.535107620239
 21
790.207353750425
 31
0.0
  0
LINE
  5
1527
330
1D
100
AcDbEntity
  8
0
100
AcDbLine
 10
36.535107620239
 20
790.207353750425
 30
0.0
 11
36.60654957978
 21
790.098094854142
 31
0.0
  0
LINE
  5
1528
330
1D
100
AcDbEntity
  8
0
100
AcDbLine
 10
36.60654957978
 20
790.098094854142
 30
0.0
 11
36.633874501467
 21
790.025623006817
 31
0.0
  0
LINE
  5
1529
330
1D
100
AcDbEntity
  8
0
100
AcDbLine
 10
35.705649171702
 20
791.041889574791
 30
0.0
 11
35.894115588008
 21
790.878922983353
 31
0.0
  0
LINE
  5
152A
330
1D
100
AcDbEntity
  8
0
100
AcDbLine
 10
35.529129096496
 20
791.182947835979
 30
0.0
 11
35.705649171702
 21
791.041889574791
 31
0.0
  0
LINE
  5
152B
330
1D
100
AcDbEntity
  8
0
100
AcDbLine
 10
35.373384269777
 20
791.293189883086
 30
0.0
 11
35.529129096496
 21
791.182947835979
 31
0.0
  0
LINE
  5
152C
330
1D
100
AcDbEntity
  8
0
100
AcDbLine
 10
35.256103852968
 20
791.35905424244
 30
0.0
 11
35.373384269777
 21
791.293189883086
 31
0.0
  0
LINE
  5
152D
330
1D
100
AcDbEntity
  8
0
100
AcDbLine
 10
35.186091882324
 20
791.377189952146
 30
0.0
 11
35.256103852968
 21
791.35905424244
 31
0.0
  0
LINE
  5
152E
330
1D
100
AcDbEntity
  8
0
100
AcDbLine
 10
35.160281628287
 20
791.352485280797
 30
0.0
 11
35.680385433127
 21
791.90924268247
 31
0.0
  0
LINE
  5
152F
330
1D
100
AcDbEntity
  8
0
100
AcDbLine
 10
35.160281628287
 20
791.352485280797
 30
0.0
 11
35.187556549973
 21
791.279926830931
 31
0.0
  0
LINE
  5
1530
330
1D
100
AcDbEntity
  8
0
100
AcDbLine
 10
40.855483517011
 20
789.038464311429
 30
0.0
 11
41.031583530557
 21
788.917278482105
 31
0.0
  0
LINE
  5
1531
330
1D
100
AcDbEntity
  8
0
100
AcDbLine
 10
41.031583530557
 20
788.917278482105
 30
0.0
 11
41.175184901859
 21
788.837603353236
 31
0.0
  0
LINE
  5
1532
330
1D
100
AcDbEntity
  8
0
100
AcDbLine
 10
41.175184901859
 20
788.837603353236
 30
0.0
 11
41.274352505747
 21
788.804366681635
 31
0.0
  0
LINE
  5
1533
330
1D
100
AcDbEntity
  8
0
100
AcDbLine
 10
40.471481069156
 20
789.353352561515
 30
0.0
 11
40.665909663289
 21
789.186712764997
 31
0.0
  0
LINE
  5
1534
330
1D
100
AcDbEntity
  8
0
100
AcDbLine
 10
40.665909663289
 20
789.186712764997
 30
0.0
 11
40.855483517011
 21
789.038464311429
 31
0.0
  0
LINE
  5
1535
330
1D
100
AcDbEntity
  8
0
100
AcDbLine
 10
41.274352505747
 20
788.804366681635
 30
0.0
 11
41.330890636215
 21
788.813293596171
 31
0.0
  0
LINE
  5
1536
330
1D
100
AcDbEntity
  8
0
100
AcDbLine
 10
40.285404141074
 20
789.529257867959
 30
0.0
 11
40.471481069156
 21
789.353352561515
 31
0.0
  0
LINE
  5
1537
330
1D
100
AcDbEntity
  8
0
100
AcDbLine
 10
40.118242465178
 20
789.70232535223
 30
0.0
 11
40.285404141074
 21
789.529257867959
 31
0.0
  0
LINE
  5
1538
330
1D
100
AcDbEntity
  8
0
100
AcDbLine
 10
39.979251743775
 20
789.86478636098
 30
0.0
 11
40.118242465178
 21
789.70232535223
 31
0.0
  0
LINE
  5
1539
330
1D
100
AcDbEntity
  8
0
100
AcDbLine
 10
39.885037163692
 20
789.999201921462
 30
0.0
 11
39.979251743775
 21
789.86478636098
 31
0.0
  0
LINE
  5
153A
330
1D
100
AcDbEntity
  8
0
100
AcDbLine
 10
39.84160179929
 20
790.094369663472
 30
0.0
 11
39.885037163692
 21
789.999201921462
 31
0.0
  0
LINE
  5
153B
330
1D
100
AcDbEntity
  8
0
100
AcDbLine
 10
37.269918783314
 20
795.34068401884
 30
0.0
 11
37.457679755054
 21
795.211495561572
 31
0.0
  0
LINE
  5
153C
330
1D
100
AcDbEntity
  8
0
100
AcDbLine
 10
37.457679755054
 20
795.211495561572
 30
0.0
 11
37.632253746898
 21
795.120866585125
 31
0.0
  0
LINE
  5
153D
330
1D
100
AcDbEntity
  8
0
100
AcDbLine
 10
37.632253746898
 20
795.120866585125
 30
0.0
 11
37.774395379639
 21
795.081063114903
 31
0.0
  0
LINE
  5
153E
330
1D
100
AcDbEntity
  8
0
100
AcDbLine
 10
36.892600567795
 20
795.680349698939
 30
0.0
 11
37.077116726362
 21
795.499341060395
 31
0.0
  0
LINE
  5
153F
330
1D
100
AcDbEntity
  8
0
100
AcDbLine
 10
36.726813316613
 20
795.869597756646
 30
0.0
 11
36.892600567795
 21
795.680349698939
 31
0.0
  0
LINE
  5
1540
330
1D
100
AcDbEntity
  8
0
100
AcDbLine
 10
37.077116726362
 20
795.499341060395
 30
0.0
 11
37.269918783314
 21
795.34068401884
 31
0.0
  0
LINE
  5
1541
330
1D
100
AcDbEntity
  8
0
100
AcDbLine
 10
37.774395379639
 20
795.081063114903
 30
0.0
 11
37.872607796699
 21
795.092372011186
 31
0.0
  0
LINE
  5
1542
330
1D
100
AcDbEntity
  8
0
100
AcDbLine
 10
37.872607796699
 20
795.092372011186
 30
0.0
 11
37.928401509856
 21
795.148609557116
 31
0.0
  0
LINE
  5
1543
330
1D
100
AcDbEntity
  8
0
100
AcDbLine
 10
36.588891059881
 20
796.06030940049
 30
0.0
 11
36.726813316613
 21
795.869597756646
 31
0.0
  0
LINE
  5
1544
330
1D
100
AcDbEntity
  8
0
100
AcDbLine
 10
36.495341612368
 20
796.232677004378
 30
0.0
 11
36.588891059881
 21
796.06030940049
 31
0.0
  0
LINE
  5
1545
330
1D
100
AcDbEntity
  8
0
100
AcDbLine
 10
36.452063496703
 20
796.371517109191
 30
0.0
 11
36.495341612368
 21
796.232677004378
 31
0.0
  0
LINE
  5
1546
330
1D
100
AcDbEntity
  8
0
100
AcDbLine
 10
37.656483432458
 20
795.754433631567
 30
0.0
 11
37.794405689191
 21
795.563721987723
 31
0.0
  0
LINE
  5
1547
330
1D
100
AcDbEntity
  8
0
100
AcDbLine
 10
37.794405689191
 20
795.563721987723
 30
0.0
 11
37.887991739244
 21
795.391217781295
 31
0.0
  0
LINE
  5
1548
330
1D
100
AcDbEntity
  8
0
100
AcDbLine
 10
37.887991739244
 20
795.391217781295
 30
0.0
 11
37.931233252368
 21
795.252514279022
 31
0.0
  0
LINE
  5
1549
330
1D
100
AcDbEntity
  8
0
100
AcDbLine
 10
37.931233252368
 20
795.252514279022
 30
0.0
 11
37.928401509856
 21
795.148609557116
 31
0.0
  0
LINE
  5
154A
330
1D
100
AcDbEntity
  8
0
100
AcDbLine
 10
37.928401509856
 20
795.148609557116
 30
0.0
 11
38.505756673095
 21
795.737589947943
 31
0.0
  0
LINE
  5
154B
330
1D
100
AcDbEntity
  8
0
100
AcDbLine
 10
37.30618002271
 20
796.124690327818
 30
0.0
 11
37.490646181277
 21
795.943595086733
 31
0.0
  0
LINE
  5
154C
330
1D
100
AcDbEntity
  8
0
100
AcDbLine
 10
37.490646181277
 20
795.943595086733
 30
0.0
 11
37.656483432458
 21
795.754433631567
 31
0.0
  0
LINE
  5
154D
330
1D
100
AcDbEntity
  8
0
100
AcDbLine
 10
37.113464568298
 20
796.283297369373
 30
0.0
 11
37.30618002271
 21
796.124690327818
 31
0.0
  0
LINE
  5
154E
330
1D
100
AcDbEntity
  8
0
100
AcDbLine
 10
42.999980800884
 20
806.602442563792
 30
0.0
 11
50.125213447736
 21
800.186907523888
 31
0.0
  0
LINE
  5
154F
330
1D
100
AcDbEntity
  8
0
100
AcDbLine
 10
46.076412353391
 20
809.887778318741
 30
0.0
 11
48.380211185286
 21
807.813474946001
 31
0.0
  0
LINE
  5
1550
330
1D
100
AcDbEntity
  8
0
100
AcDbLine
 10
48.380211185286
 20
807.813474946001
 30
0.0
 11
50.683923414641
 21
805.739221573262
 31
0.0
  0
LINE
  5
1551
330
1D
100
AcDbEntity
  8
0
100
AcDbLine
 10
36.925616994018
 20
796.412535826641
 30
0.0
 11
37.113464568298
 21
796.283297369373
 31
0.0
  0
LINE
  5
1552
330
1D
100
AcDbEntity
  8
0
100
AcDbLine
 10
36.751129604714
 20
796.503114803088
 30
0.0
 11
36.925616994018
 21
796.412535826641
 31
0.0
  0
LINE
  5
1553
330
1D
100
AcDbEntity
  8
0
100
AcDbLine
 10
36.608901369433
 20
796.54296827331
 30
0.0
 11
36.751129604714
 21
796.503114803088
 31
0.0
  0
LINE
  5
1554
330
1D
100
AcDbEntity
  8
0
100
AcDbLine
 10
36.510725554913
 20
796.531522774486
 30
0.0
 11
36.608901369433
 21
796.54296827331
 31
0.0
  0
LINE
  5
1555
330
1D
100
AcDbEntity
  8
0
100
AcDbLine
 10
36.454895239216
 20
796.475421831096
 30
0.0
 11
36.510725554913
 21
796.531522774486
 31
0.0
  0
LINE
  5
1556
330
1D
100
AcDbEntity
  8
0
100
AcDbLine
 10
36.454895239216
 20
796.475421831096
 30
0.0
 11
36.86236681304
 21
796.891097973067
 31
0.0
  0
LINE
  5
1557
330
1D
100
AcDbEntity
  8
0
100
AcDbLine
 10
36.454895239216
 20
796.475421831096
 30
0.0
 11
36.452063496703
 21
796.371517109191
 31
0.0
  0
LINE
  5
1558
330
1D
100
AcDbEntity
  8
0
100
AcDbLine
 10
40.509429509177
 20
789.778081187699
 30
0.0
 11
40.70385810331
 21
789.61144139118
 31
0.0
  0
LINE
  5
1559
330
1D
100
AcDbEntity
  8
0
100
AcDbLine
 10
40.319942257996
 20
789.926279641266
 30
0.0
 11
40.509429509177
 21
789.778081187699
 31
0.0
  0
LINE
  5
155A
330
1D
100
AcDbEntity
  8
0
100
AcDbLine
 10
40.143842244449
 20
790.04746547059
 30
0.0
 11
40.319942257996
 21
789.926279641266
 31
0.0
  0
LINE
  5
155B
330
1D
100
AcDbEntity
  8
0
100
AcDbLine
 10
40.000290873148
 20
790.127227201999
 30
0.0
 11
40.143842244449
 21
790.04746547059
 31
0.0
  0
LINE
  5
155C
330
1D
100
AcDbEntity
  8
0
100
AcDbLine
 10
39.90103666672
 20
790.160513873601
 30
0.0
 11
40.000290873148
 21
790.127227201999
 31
0.0
  0
LINE
  5
155D
330
1D
100
AcDbEntity
  8
0
100
AcDbLine
 10
39.844585138792
 20
790.151536959065
 30
0.0
 11
39.90103666672
 21
790.160513873601
 31
0.0
  0
LINE
  5
155E
330
1D
100
AcDbEntity
  8
0
100
AcDbLine
 10
39.844585138792
 20
790.151536959065
 30
0.0
 11
39.84160179929
 21
790.094369663472
 31
0.0
  0
LINE
  5
155F
330
1D
100
AcDbEntity
  8
0
100
AcDbLine
 10
40.70385810331
 20
789.61144139118
 30
0.0
 11
40.889935031392
 21
789.435536084736
 31
0.0
  0
LINE
  5
1560
330
1D
100
AcDbEntity
  8
0
100
AcDbLine
 10
50.683923414641
 20
805.739221573262
 30
0.0
 11
53.136316815517
 21
803.531091543726
 31
0.0
  0
LINE
  5
1561
330
1D
100
AcDbEntity
  8
0
100
AcDbLine
 10
40.889935031392
 20
789.435536084736
 30
0.0
 11
41.057146707288
 21
789.262555203005
 31
0.0
  0
LINE
  5
1562
330
1D
100
AcDbEntity
  8
0
100
AcDbLine
 10
41.057146707288
 20
789.262555203005
 30
0.0
 11
41.196087428691
 21
789.100007591716
 31
0.0
  0
LINE
  5
1563
330
1D
100
AcDbEntity
  8
0
100
AcDbLine
 10
41.196087428691
 20
789.100007591716
 30
0.0
 11
41.290388611314
 21
788.965542031233
 31
0.0
  0
LINE
  5
1564
330
1D
100
AcDbEntity
  8
0
100
AcDbLine
 10
41.290388611314
 20
788.965542031233
 30
0.0
 11
41.333823975717
 21
788.870374289224
 31
0.0
  0
LINE
  5
1565
330
1D
100
AcDbEntity
  8
0
100
AcDbLine
 10
55.586732906257
 20
779.142536712571
 30
0.0
 11
55.684221414081
 21
779.161191761277
 31
0.0
  0
LINE
  5
1566
330
1D
100
AcDbEntity
  8
0
100
AcDbLine
 10
55.684221414081
 20
779.161191761277
 30
0.0
 11
55.831101573151
 21
779.13539565941
 31
0.0
  0
LINE
  5
1567
330
1D
100
AcDbEntity
  8
0
100
AcDbLine
 10
47.232142984902
 20
786.410562492383
 30
0.0
 11
47.436218762413
 21
786.293432107625
 31
0.0
  0
LINE
  5
1568
330
1D
100
AcDbEntity
  8
0
100
AcDbLine
 10
46.827267143289
 20
786.720296963952
 30
0.0
 11
47.026617018714
 21
786.55578107667
 31
0.0
  0
LINE
  5
1569
330
1D
100
AcDbEntity
  8
0
100
AcDbLine
 10
47.026617018714
 20
786.55578107667
 30
0.0
 11
47.232142984902
 21
786.410562492383
 31
0.0
  0
LINE
  5
156A
330
1D
100
AcDbEntity
  8
0
100
AcDbLine
 10
47.436218762413
 20
786.293432107625
 30
0.0
 11
47.617460703449
 21
786.218352357962
 31
0.0
  0
LINE
  5
156B
330
1D
100
AcDbEntity
  8
0
100
AcDbLine
 10
47.617460703449
 20
786.218352357962
 30
0.0
 11
47.75996240155
 21
786.189772539238
 31
0.0
  0
LINE
  5
156C
330
1D
100
AcDbEntity
  8
0
100
AcDbLine
 10
47.75996240155
 20
786.189772539238
 30
0.0
 11
47.863022894822
 21
786.203478549838
 31
0.0
  0
LINE
  5
156D
330
1D
100
AcDbEntity
  8
0
100
AcDbLine
 10
46.649385405735
 20
786.895396756769
 30
0.0
 11
46.827267143289
 21
786.720296963952
 31
0.0
  0
LINE
  5
156E
330
1D
100
AcDbEntity
  8
0
100
AcDbLine
 10
46.501276546462
 20
787.068664687457
 30
0.0
 11
46.649385405735
 21
786.895396756769
 31
0.0
  0
LINE
  5
156F
330
1D
100
AcDbEntity
  8
0
100
AcDbLine
 10
46.392892677936
 20
787.232738320449
 30
0.0
 11
46.501276546462
 21
787.068664687457
 31
0.0
  0
LINE
  5
1570
330
1D
100
AcDbEntity
  8
0
100
AcDbLine
 10
46.338406936178
 20
787.369966247436
 30
0.0
 11
46.392892677936
 21
787.232738320449
 31
0.0
  0
LINE
  5
1571
330
1D
100
AcDbEntity
  8
0
100
AcDbLine
 10
46.339418101554
 20
787.468917637242
 30
0.0
 11
46.389516624182
 21
787.530290823818
 31
0.0
  0
LINE
  5
1572
330
1D
100
AcDbEntity
  8
0
100
AcDbLine
 10
46.339418101554
 20
787.468917637242
 30
0.0
 11
46.338406936178
 21
787.369966247436
 31
0.0
  0
LINE
  5
1573
330
1D
100
AcDbEntity
  8
0
100
AcDbLine
 10
46.389516624182
 20
787.530290823818
 30
0.0
 11
46.914837551031
 21
788.165979207078
 31
0.0
  0
LINE
  5
1574
330
1D
100
AcDbEntity
  8
0
100
AcDbLine
 10
46.389516624182
 20
787.530290823818
 30
0.0
 11
46.492527117454
 21
787.543910231877
 31
0.0
  0
LINE
  5
1575
330
1D
100
AcDbEntity
  8
0
100
AcDbLine
 10
50.125300050277
 20
800.186857523888
 30
0.0
 11
57.250482697129
 21
793.771235881444
 31
0.0
  0
LINE
  5
1576
330
1D
100
AcDbEntity
  8
0
100
AcDbLine
 10
50.125213447736
 20
800.186907523888
 30
0.0
 11
57.250446094588
 21
793.771372483984
 31
0.0
  0
LINE
  5
1577
330
1D
100
AcDbEntity
  8
0
100
AcDbLine
 10
53.136316815517
 20
803.531091543726
 30
0.0
 11
55.588710216393
 21
801.32296151419
 31
0.0
  0
LINE
  5
1578
330
1D
100
AcDbEntity
  8
0
100
AcDbLine
 10
47.22592250029
 20
787.177988296986
 30
0.0
 11
47.425272375715
 21
787.013472409704
 31
0.0
  0
LINE
  5
1579
330
1D
100
AcDbEntity
  8
0
100
AcDbLine
 10
55.588710216393
 20
801.32296151419
 30
0.0
 11
57.892459048288
 21
799.24857153891
 31
0.0
  0
LINE
  5
157A
330
1D
100
AcDbEntity
  8
0
100
AcDbLine
 10
47.020346534101
 20
787.323120278733
 30
0.0
 11
47.22592250029
 21
787.177988296986
 31
0.0
  0
LINE
  5
157B
330
1D
100
AcDbEntity
  8
0
100
AcDbLine
 10
46.816320756591
 20
787.440337266031
 30
0.0
 11
47.020346534101
 21
787.323120278733
 31
0.0
  0
LINE
  5
157C
330
1D
100
AcDbEntity
  8
0
100
AcDbLine
 10
46.635078815555
 20
787.515417015694
 30
0.0
 11
46.816320756591
 21
787.440337266031
 31
0.0
  0
LINE
  5
157D
330
1D
100
AcDbEntity
  8
0
100
AcDbLine
 10
46.492527117454
 20
787.543910231877
 30
0.0
 11
46.635078815555
 21
787.515417015694
 31
0.0
  0
LINE
  5
157E
330
1D
100
AcDbEntity
  8
0
100
AcDbLine
 10
47.425272375715
 20
787.013472409704
 30
0.0
 11
47.603154113269
 21
786.838372616887
 31
0.0
  0
LINE
  5
157F
330
1D
100
AcDbEntity
  8
0
100
AcDbLine
 10
47.603154113269
 20
786.838372616887
 30
0.0
 11
47.751212972542
 21
786.665018083659
 31
0.0
  0
LINE
  5
1580
330
1D
100
AcDbEntity
  8
0
100
AcDbLine
 10
47.751212972542
 20
786.665018083659
 30
0.0
 11
47.859596841068
 21
786.500944450666
 31
0.0
  0
LINE
  5
1581
330
1D
100
AcDbEntity
  8
0
100
AcDbLine
 10
47.859596841068
 20
786.500944450666
 30
0.0
 11
47.914082582826
 21
786.36371652368
 31
0.0
  0
LINE
  5
1582
330
1D
100
AcDbEntity
  8
0
100
AcDbLine
 10
57.250482697129
 20
793.771235881444
 30
0.0
 11
63.582238412268
 21
788.07015848118
 31
0.0
  0
LINE
  5
1583
330
1D
100
AcDbEntity
  8
0
100
AcDbLine
 10
57.250482697129
 20
793.771235881444
 30
0.0
 11
62.236341454248
 21
789.281996567748
 31
0.0
  0
LINE
  5
1584
330
1D
100
AcDbEntity
  8
0
100
AcDbLine
 10
57.250446094588
 20
793.771372483984
 30
0.0
 11
63.582151809728
 21
788.07020848118
 31
0.0
  0
LINE
  5
1585
330
1D
100
AcDbEntity
  8
0
100
AcDbLine
 10
57.250446094588
 20
793.771372483984
 30
0.0
 11
62.236341454242
 21
789.281996567754
 31
0.0
  0
LINE
  5
1586
330
1D
100
AcDbEntity
  8
0
100
AcDbLine
 10
47.914082582826
 20
786.36371652368
 30
0.0
 11
47.91303481491
 21
786.264901736414
 31
0.0
  0
LINE
  5
1587
330
1D
100
AcDbEntity
  8
0
100
AcDbLine
 10
47.863022894822
 20
786.203478549838
 30
0.0
 11
47.91303481491
 21
786.264901736414
 31
0.0
  0
LINE
  5
1588
330
1D
100
AcDbEntity
  8
0
100
AcDbLine
 10
47.863022894822
 20
786.203478549838
 30
0.0
 11
48.233767951954
 21
786.652068080824
 31
0.0
  0
LINE
  5
1589
330
1D
100
AcDbEntity
  8
0
100
AcDbLine
 10
56.655077184118
 20
778.687963281803
 30
0.0
 11
56.848002446151
 21
778.529119637707
 31
0.0
  0
LINE
  5
158A
330
1D
100
AcDbEntity
  8
0
100
AcDbLine
 10
56.444485450265
 20
778.837607699115
 30
0.0
 11
56.655077184118
 21
778.687963281803
 31
0.0
  0
LINE
  5
158B
330
1D
100
AcDbEntity
  8
0
100
AcDbLine
 10
56.222608075765
 20
778.970904813432
 30
0.0
 11
56.444485450265
 21
778.837607699115
 31
0.0
  0
LINE
  5
158C
330
1D
100
AcDbEntity
  8
0
100
AcDbLine
 10
56.011567938901
 20
779.072772573946
 30
0.0
 11
56.222608075765
 21
778.970904813432
 31
0.0
  0
LINE
  5
158D
330
1D
100
AcDbEntity
  8
0
100
AcDbLine
 10
55.831101573151
 20
779.13539565941
 30
0.0
 11
56.011567938901
 21
779.072772573946
 31
0.0
  0
LINE
  5
158E
330
1D
100
AcDbEntity
  8
0
100
AcDbLine
 10
56.848002446151
 20
778.529119637707
 30
0.0
 11
57.006587138449
 21
778.37139638207
 31
0.0
  0
LINE
  5
158F
330
1D
100
AcDbEntity
  8
0
100
AcDbLine
 10
90.18072799114
 20
764.120693836378
 30
0.0
 11
91.807388380643
 21
762.656152277656
 31
0.0
  0
LINE
  5
1590
330
1D
100
AcDbEntity
  8
0
100
AcDbLine
 10
88.270740126026
 20
765.84049781216
 30
0.0
 11
90.18077799114
 21
764.120780438918
 31
0.0
  0
LINE
  5
1591
330
1D
100
AcDbEntity
  8
0
100
AcDbLine
 10
88.270740126026
 20
765.84049781216
 30
0.0
 11
90.18072799114
 21
764.120693836378
 31
0.0
  0
LINE
  5
1592
330
1D
100
AcDbEntity
  8
0
100
AcDbLine
 10
90.18077799114
 20
764.120780438918
 30
0.0
 11
91.807388380643
 21
762.656152277656
 31
0.0
  0
LINE
  5
1593
330
1D
100
AcDbEntity
  8
0
100
AcDbLine
 10
63.582238412268
 20
788.07015848118
 30
0.0
 11
68.342890194922
 21
783.783649245879
 31
0.0
  0
LINE
  5
1594
330
1D
100
AcDbEntity
  8
0
100
AcDbLine
 10
63.582151809728
 20
788.07020848118
 30
0.0
 11
68.342890194922
 21
783.783649245879
 31
0.0
  0
LINE
  5
1595
330
1D
100
AcDbEntity
  8
0
100
AcDbLine
 10
68.342890194922
 20
783.783649245879
 30
0.0
 11
72.279883837333
 21
780.238722263611
 31
0.0
  0
LINE
  5
1596
330
1D
100
AcDbEntity
  8
0
100
AcDbLine
 10
68.342890194922
 20
783.783649245879
 30
0.0
 11
72.279970439873
 21
780.238672263611
 31
0.0
  0
LINE
  5
1597
330
1D
100
AcDbEntity
  8
0
100
AcDbLine
 10
72.279970439873
 20
780.238672263611
 30
0.0
 11
76.653149266597
 21
776.301040182081
 31
0.0
  0
LINE
  5
1598
330
1D
100
AcDbEntity
  8
0
100
AcDbLine
 10
72.279883837333
 20
780.238722263611
 30
0.0
 11
76.653062664056
 21
776.301090182081
 31
0.0
  0
LINE
  5
1599
330
1D
100
AcDbEntity
  8
0
100
AcDbLine
 10
76.653149266597
 20
776.301040182081
 30
0.0
 11
80.822177067324
 21
772.547208151106
 31
0.0
  0
LINE
  5
159A
330
1D
100
AcDbEntity
  8
0
100
AcDbLine
 10
76.653062664056
 20
776.301090182081
 30
0.0
 11
80.822177067324
 21
772.547208151106
 31
0.0
  0
LINE
  5
159B
330
1D
100
AcDbEntity
  8
0
100
AcDbLine
 10
85.977825457405
 20
767.905053108688
 30
0.0
 11
88.270740126026
 21
765.84049781216
 31
0.0
  0
LINE
  5
159C
330
1D
100
AcDbEntity
  8
0
100
AcDbLine
 10
80.822177067324
 20
772.547208151106
 30
0.0
 11
83.468443548705
 21
770.164676147225
 31
0.0
  0
LINE
  5
159D
330
1D
100
AcDbEntity
  8
0
100
AcDbLine
 10
83.468443548705
 20
770.164676147225
 30
0.0
 11
85.977825457405
 21
767.905053108688
 31
0.0
  0
LINE
  5
159E
330
1D
100
AcDbEntity
  8
0
100
AcDbLine
 10
82.527213711832
 20
776.394418248162
 30
0.0
 11
99.990806051551
 21
758.276247463226
 31
0.0
  0
LINE
  5
159F
330
1D
100
AcDbEntity
  8
0
100
AcDbLine
 10
71.714942232041
 20
786.802814699935
 30
0.0
 11
82.527213711832
 21
776.394418248162
 31
0.0
  0
LINE
  5
15A0
330
1D
100
AcDbEntity
  8
0
100
AcDbLine
 10
71.49205037857
 20
787.003554685131
 30
0.0
 11
71.714942232041
 21
786.802814699935
 31
0.0
  0
LINE
  5
15A1
330
1D
100
AcDbEntity
  8
0
100
AcDbLine
 10
93.352869148687
 20
759.919003490029
 30
0.0
 11
94.021236407271
 21
760.662649540011
 31
0.0
  0
LINE
  5
15A2
330
1D
100
AcDbEntity
  8
0
100
AcDbLine
 10
103.623688804829
 20
754.274584969845
 30
0.0
 11
107.288336911407
 21
750.063941682299
 31
0.0
  0
LINE
  5
15A3
330
1D
100
AcDbEntity
  8
0
100
AcDbLine
 10
103.539615756375
 20
754.368966178375
 30
0.0
 11
103.623688804829
 21
754.274584969845
 31
0.0
  0
LINE
  5
15A4
330
1D
100
AcDbEntity
  8
0
100
AcDbLine
 10
100.189243164611
 20
758.059950625152
 30
0.0
 11
103.539615756375
 21
754.368966178375
 31
0.0
  0
LINE
  5
15A5
330
1D
100
AcDbEntity
  8
0
100
AcDbLine
 10
99.990806051551
 20
758.276247463226
 30
0.0
 11
100.189243164611
 21
758.059950625152
 31
0.0
  0
LINE
  5
15A6
330
1D
100
AcDbEntity
  8
0
100
AcDbLine
 10
93.106541821114
 20
761.48635204338
 30
0.0
 11
94.021236407271
 21
760.662649540011
 31
0.0
  0
LINE
  5
15A7
330
1D
100
AcDbEntity
  8
0
100
AcDbLine
 10
91.807388380643
 20
762.656152277656
 30
0.0
 11
93.106541821114
 21
761.48635204338
 31
0.0
  0
LINE
  5
15A8
330
1D
100
AcDbEntity
  8
0
100
AcDbLine
 10
107.288336911407
 20
750.063941682299
 30
0.0
 11
112.827797688799
 21
742.434569195276
 31
0.0
  0
LINE
  5
15A9
330
1D
100
AcDbEntity
  8
0
100
AcDbLine
 10
57.006587138449
 20
778.37139638207
 30
0.0
 11
57.125627224758
 21
778.224379859694
 31
0.0
  0
LINE
  5
15AA
330
1D
100
AcDbEntity
  8
0
100
AcDbLine
 10
57.125627224758
 20
778.224379859694
 30
0.0
 11
57.194774182448
 21
778.095545903602
 31
0.0
  0
LINE
  5
15AB
330
1D
100
AcDbEntity
  8
0
100
AcDbLine
 10
41.333823975717
 20
788.870374289224
 30
0.0
 11
41.330890636215
 21
788.813293596171
 31
0.0
  0
LINE
  5
15AC
330
1D
100
AcDbEntity
  8
0
100
AcDbLine
 10
27.410814319859
 20
794.676214171007
 30
0.0
 11
27.844944625639
 21
794.223149917723
 31
0.0
  0
LINE
  5
15AD
330
1D
100
AcDbEntity
  8
0
100
AcDbLine
 10
112.827797688799
 20
742.434569195276
 30
0.0
 11
119.153264465545
 21
732.70259903419
 31
0.0
  0
LINE
  5
15AE
330
1D
100
AcDbEntity
  8
0
100
AcDbLine
 10
95.760829950514
 20
741.667713941429
 30
0.0
 11
94.534822024336
 21
743.407748066912
 31
0.0
  0
LINE
  5
15AF
330
1D
100
AcDbEntity
  8
0
100
AcDbLine
 10
71.49205037857
 20
787.003554685131
 30
0.0
 11
57.892459048288
 21
799.24857153891
 31
0.0
  0
ENDSEC
  0
SECTION
  2
OBJECTS
  0
DICTIONARY
  5
C
330
0
100
AcDbDictionary
281
     1
  3
ACAD_GROUP
350
D
  3
ACAD_LAYOUT
350
1A
  3
ACAD_MLEADERSTYLE
350
15B2
  3
ACAD_MLINESTYLE
350
17
  3
ACAD_PLOTSETTINGS
350
19
  3
ACAD_PLOTSTYLENAME
350
E
  3
ACAD_SCALELIST
350
7C9
  3
AcDbVariableDictionary
350
15B0
  3
DWGPROPS
350
15B5
  0
DICTIONARY
  5
D
102
{ACAD_REACTORS
330
C
102
}
330
C
100
AcDbDictionary
281
     1
  0
DICTIONARY
  5
1A
102
{ACAD_REACTORS
330
C
102
}
330
C
100
AcDbDictionary
281
     1
  3
Layout1
350
1C
  3
Model
350
1E
  0
DICTIONARY
  5
15B2
102
{ACAD_REACTORS
330
C
102
}
330
C
100
AcDbDictionary
281
     1
  0
DICTIONARY
  5
17
102
{ACAD_REACTORS
330
C
102
}
330
C
100
AcDbDictionary
281
     1
  3
Standard
350
18
  0
DICTIONARY
  5
19
102
{ACAD_REACTORS
330
C
102
}
330
C
100
AcDbDictionary
281
     1
  0
ACDBDICTIONARYWDFLT
  5
E
102
{ACAD_REACTORS
330
C
102
}
330
C
100
AcDbDictionary
281
     1
  3
Normal
350
F
100
AcDbDictionaryWithDefault
340
F
  0
DICTIONARY
  5
7C9
102
{ACAD_REACTORS
330
C
102
}
330
C
100
AcDbDictionary
281
     1
  3
A0
350
7CA
  3
A1
350
7CB
  3
A2
350
7CC
  3
A3
350
7CD
  3
A4
350
7CE
  3
A5
350
7CF
  3
A6
350
7D0
  3
A7
350
7D1
  3
A8
350
7D2
  3
A9
350
7D3
  3
B0
350
7D4
  3
B1
350
7D5
  3
B2
350
7D6
  3
B3
350
7D7
  3
B4
350
7D8
  3
B5
350
7D9
  3
B6
350
7DA
  3
B7
350
7DB
  3
B8
350
7DC
  3
B9
350
7DD
  3
C0
350
7DE
  3
C1
350
7DF
  3
C2
350
7E0
  3
C3
350
7E1
  3
C4
350
7E2
  3
C5
350
7E3
  3
C6
350
7E4
  3
C7
350
7E5
  3
C8
350
7E6
  3
C9
350
7E7
  3
D0
350
7E8
  3
D1
350
7E9
  3
D2
350
7EA
  0
DICTIONARY
  5
15B0
102
{ACAD_REACTORS
330
C
102
}
330
C
100
AcDbDictionary
281
     1
  3
CANNOSCALE
350
15B3
  0
XRECORD
  5
15B5
102
{ACAD_REACTORS
330
C
102
}
330
C
100
AcDbXrecord
280
     1
  1
DWGPROPS COOKIE
  2

  3

  4

  6

  7

  8
MARTIN
  9

300
=
301
=
302
=
303
=
304
=
305
=
306
=
307
=
308
=
309
=
 40
0.0
 41
2456466.543380347
 42
2456466.544360162
  1

 90
        0
  0
LAYOUT
  5
1C
102
{ACAD_REACTORS
330
1A
102
}
330
1A
100
AcDbPlotSettings
  1

  2
none_device
  4

  6

 40
0.0
 41
0.0
 42
0.0
 43
0.0
 44
0.0
 45
0.0
 46
0.0
 47
0.0
 48
0.0
 49
0.0
140
0.0
141
0.0
142
1.0
143
1.0
 70
   688
 72
     0
 73
     0
 74
     5
  7

 75
    16
147
1.0
148
0.0
149
0.0
100
AcDbLayout
  1
Layout1
 70
     1
 71
     1
 10
0.0
 20
0.0
 11
12.0
 21
9.0
 12
0.0
 22
0.0
 32
0.0
 14
1.000000000000E+20
 24
1.000000000000E+20
 34
1.000000000000E+20
 15
-1.000000000000E+20
 25
-1.000000000000E+20
 35
-1.000000000000E+20
146
0.0
 13
0.0
 23
0.0
 33
0.0
 16
1.0
 26
0.0
 36
0.0
 17
0.0
 27
1.0
 37
0.0
 76
     0
330
1B
  0
LAYOUT
  5
1E
102
{ACAD_REACTORS
330
1A
102
}
330
1A
100
AcDbPlotSettings
  1

  2
none_device
  4

  6

 40
0.0
 41
0.0
 42
0.0
 43
0.0
 44
0.0
 45
0.0
 46
0.0
 47
0.0
 48
0.0
 49
0.0
140
0.0
141
0.0
142
1.0
143
1.0
 70
  1712
 72
     0
 73
     0
 74
     0
  7

 75
     0
147
1.0
148
0.0
149
0.0
100
AcDbLayout
  1
Model
 70
     1
 71
     0
 10
0.0
 20
0.0
 11
12.0
 21
9.0
 12
0.0
 22
0.0
 32
0.0
 14
0.082648702272
 24
-49.892914
 34
0.0
 15
205.9498
 25
957.893
 35
0.0
146
0.0
 13
0.0
 23
0.0
 33
0.0
 16
1.0
 26
0.0
 36
0.0
 17
0.0
 27
1.0
 37
0.0
 76
     0
330
1D
331
7C4
  0
MLINESTYLE
  5
18
102
{ACAD_REACTORS
330
17
102
}
330
17
100
AcDbMlineStyle
  2
Standard
 70
     0
  3

 62
   256
 51
90.0
 52
90.0
 71
     2
 49
0.5
 62
   256
  6
BYLAYER
 49
-0.5
 62
   256
  6
BYLAYER
  0
ACDBPLACEHOLDER
  5
F
102
{ACAD_REACTORS
330
E
102
}
330
E
  0
SCALE
  5
7CA
102
{ACAD_REACTORS
330
7C9
102
}
330
7C9
100
AcDbScale
 70
     0
300
1:1
140
1.0
141
1.0
290
     1
  0
SCALE
  5
7CB
102
{ACAD_REACTORS
330
7C9
102
}
330
7C9
100
AcDbScale
 70
     0
300
1:2
140
1.0
141
2.0
290
     0
  0
SCALE
  5
7CC
102
{ACAD_REACTORS
330
7C9
102
}
330
7C9
100
AcDbScale
 70
     0
300
1:4
140
1.0
141
4.0
290
     0
  0
SCALE
  5
7CD
102
{ACAD_REACTORS
330
7C9
102
}
330
7C9
100
AcDbScale
 70
     0
300
1:5
140
1.0
141
5.0
290
     0
  0
SCALE
  5
7CE
102
{ACAD_REACTORS
330
7C9
102
}
330
7C9
100
AcDbScale
 70
     0
300
1:8
140
1.0
141
8.0
290
     0
  0
SCALE
  5
7CF
102
{ACAD_REACTORS
330
7C9
102
}
330
7C9
100
AcDbScale
 70
     0
300
1:10
140
1.0
141
10.0
290
     0
  0
SCALE
  5
7D0
102
{ACAD_REACTORS
330
7C9
102
}
330
7C9
100
AcDbScale
 70
     0
300
1:16
140
1.0
141
16.0
290
     0
  0
SCALE
  5
7D1
102
{ACAD_REACTORS
330
7C9
102
}
330
7C9
100
AcDbScale
 70
     0
300
1:20
140
1.0
141
20.0
290
     0
  0
SCALE
  5
7D2
102
{ACAD_REACTORS
330
7C9
102
}
330
7C9
100
AcDbScale
 70
     0
300
1:30
140
1.0
141
30.0
290
     0
  0
SCALE
  5
7D3
102
{ACAD_REACTORS
330
7C9
102
}
330
7C9
100
AcDbScale
 70
     0
300
1:40
140
1.0
141
40.0
290
     0
  0
SCALE
  5
7D4
102
{ACAD_REACTORS
330
7C9
102
}
330
7C9
100
AcDbScale
 70
     0
300
1:50
140
1.0
141
50.0
290
     0
  0
SCALE
  5
7D5
102
{ACAD_REACTORS
330
7C9
102
}
330
7C9
100
AcDbScale
 70
     0
300
1:100
140
1.0
141
100.0
290
     0
  0
SCALE
  5
7D6
102
{ACAD_REACTORS
330
7C9
102
}
330
7C9
100
AcDbScale
 70
     0
300
2:1
140
2.0
141
1.0
290
     0
  0
SCALE
  5
7D7
102
{ACAD_REACTORS
330
7C9
102
}
330
7C9
100
AcDbScale
 70
     0
300
4:1
140
4.0
141
1.0
290
     0
  0
SCALE
  5
7D8
102
{ACAD_REACTORS
330
7C9
102
}
330
7C9
100
AcDbScale
 70
     0
300
8:1
140
8.0
141
1.0
290
     0
  0
SCALE
  5
7D9
102
{ACAD_REACTORS
330
7C9
102
}
330
7C9
100
AcDbScale
 70
     0
300
10:1
140
10.0
141
1.0
290
     0
  0
SCALE
  5
7DA
102
{ACAD_REACTORS
330
7C9
102
}
330
7C9
100
AcDbScale
 70
     0
300
100:1
140
100.0
141
1.0
290
     0
  0
SCALE
  5
7DB
102
{ACAD_REACTORS
330
7C9
102
}
330
7C9
100
AcDbScale
 70
     0
300
1/128" = 1'-0"
140
0.0078125
141
12.0
290
     0
  0
SCALE
  5
7DC
102
{ACAD_REACTORS
330
7C9
102
}
330
7C9
100
AcDbScale
 70
     0
300
1/64" = 1'-0"
140
0.015625
141
12.0
290
     0
  0
SCALE
  5
7DD
102
{ACAD_REACTORS
330
7C9
102
}
330
7C9
100
AcDbScale
 70
     0
300
1/32" = 1'-0"
140
0.03125
141
12.0
290
     0
  0
SCALE
  5
7DE
102
{ACAD_REACTORS
330
7C9
102
}
330
7C9
100
AcDbScale
 70
     0
300
1/16" = 1'-0"
140
0.0625
141
12.0
290
     0
  0
SCALE
  5
7DF
102
{ACAD_REACTORS
330
7C9
102
}
330
7C9
100
AcDbScale
 70
     0
300
3/32" = 1'-0"
140
0.09375
141
12.0
290
     0
  0
SCALE
  5
7E0
102
{ACAD_REACTORS
330
7C9
102
}
330
7C9
100
AcDbScale
 70
     0
300
1/8" = 1'-0"
140
0.125
141
12.0
290
     0
  0
SCALE
  5
7E1
102
{ACAD_REACTORS
330
7C9
102
}
330
7C9
100
AcDbScale
 70
     0
300
3/16" = 1'-0"
140
0.1875
141
12.0
290
     0
  0
SCALE
  5
7E2
102
{ACAD_REACTORS
330
7C9
102
}
330
7C9
100
AcDbScale
 70
     0
300
1/4" = 1'-0"
140
0.25
141
12.0
290
     0
  0
SCALE
  5
7E3
102
{ACAD_REACTORS
330
7C9
102
}
330
7C9
100
AcDbScale
 70
     0
300
3/8" = 1'-0"
140
0.375
141
12.0
290
     0
  0
SCALE
  5
7E4
102
{ACAD_REACTORS
330
7C9
102
}
330
7C9
100
AcDbScale
 70
     0
300
1/2" = 1'-0"
140
0.5
141
12.0
290
     0
  0
SCALE
  5
7E5
102
{ACAD_REACTORS
330
7C9
102
}
330
7C9
100
AcDbScale
 70
     0
300
3/4" = 1'-0"
140
0.75
141
12.0
290
     0
  0
SCALE
  5
7E6
102
{ACAD_REACTORS
330
7C9
102
}
330
7C9
100
AcDbScale
 70
     0
300
1" = 1'-0"
140
1.0
141
12.0
290
     0
  0
SCALE
  5
7E7
102
{ACAD_REACTORS
330
7C9
102
}
330
7C9
100
AcDbScale
 70
     0
300
1-1/2" = 1'-0"
140
1.5
141
12.0
290
     0
  0
SCALE
  5
7E8
102
{ACAD_REACTORS
330
7C9
102
}
330
7C9
100
AcDbScale
 70
     0
300
3" = 1'-0"
140
3.0
141
12.0
290
     0
  0
SCALE
  5
7E9
102
{ACAD_REACTORS
330
7C9
102
}
330
7C9
100
AcDbScale
 70
     0
300
6" = 1'-0"
140
6.0
141
12.0
290
     0
  0
SCALE
  5
7EA
102
{ACAD_REACTORS
330
7C9
102
}
330
7C9
100
AcDbScale
 70
     0
300
1'-0" = 1'-0"
140
12.0
141
12.0
290
     0
  0
DICTIONARYVAR
  5
15B3
102
{ACAD_REACTORS
330
15B0
102
}
330
15B0
100
DictionaryVariables
280
     0
  1
1:1
  0
ENDSEC
  0
SECTION
  2
THUMBNAILIMAGE
 90
    16364
310
28000000B40000005500000001000800000000000000000000000000000000000000000000000000FFFFFF000000FF0000FFFF0000FF0000FFFF0000FF000000FF00FF000000000080808000C0C0C0000000FF007F7FFF000000A5005252A50000007F003F3F7F0000004C0026264C000000260013132600003FFF007F9FFF
310
000029A5005267A500001F7F003F4F7F0000134C00262F4C000009260013172600007FFF007FBFFF000052A500527CA500003F7F003F5F7F0000264C0026394C0000132600131C260000BFFF007FDFFF00007CA5005291A500005F7F003F6F7F0000394C0026424C00001C26001321260000FFFF007FFFFF0000A5A50052A5
310
A500007F7F003F7F7F00004C4C00264C4C00002626001326260000FFBF007FFFDF0000A57C0052A59100007F5F003F7F6F00004C3900264C420000261C001326210000FF7F007FFFBF0000A5520052A57C00007F3F003F7F5F00004C2600264C39000026130013261C0000FF3F007FFF9F0000A5290052A56700007F1F003F
310
7F4F00004C1300264C2F00002609001326170000FF00007FFF7F0000A5000052A55200007F00003F7F3F00004C0000264C260000260000132613003FFF00009FFF7F0029A5000067A552001F7F00004F7F3F00134C00002F4C260009260000172613007FFF0000BFFF7F0052A500007CA552003F7F00005F7F3F00264C0000
310
394C2600132600001C261300BFFF0000DFFF7F007CA5000091A552005F7F00006F7F3F00394C0000424C26001C26000021261300FFFF0000FFFF7F00A5A50000A5A552007F7F00007F7F3F004C4C00004C4C26002626000026261300FFBF0000FFDF7F00A57C0000A59152007F5F00007F6F3F004C3900004C422600261C00
310
0026211300FF7F0000FFBF7F00A5520000A57C52007F3F00007F5F3F004C2600004C39260026130000261C1300FF3F0000FF9F7F00A5290000A56752007F1F00007F4F3F004C1300004C2F26002609000026171300FF000000FF7F7F00A5000000A55252007F0000007F3F3F004C0000004C2626002600000026131300FF00
310
3F00FF7F9F00A5002900A55267007F001F007F3F4F004C0013004C262F002600090026131700FF007F00FF7FBF00A5005200A5527C007F003F007F3F5F004C0026004C2639002600130026131C00FF00BF00FF7FDF00A5007C00A55291007F005F007F3F6F004C0039004C26420026001C0026132100FF00FF00FF7FFF00A5
310
00A500A552A5007F007F007F3F7F004C004C004C264C002600260026132600BF00FF00DF7FFF007C00A5009152A5005F007F006F3F7F0039004C0042264C001C002600211326007F00FF00BF7FFF005200A5007C52A5003F007F005F3F7F0026004C0039264C00130026001C1326003F00FF009F7FFF002900A5006752A500
310
1F007F004F3F7F0013004C002F264C000900260017132600000000002D2D2D005B5B5B0089898900B7B7B700B3B3B30000000000000000000000000000000000000000000000000000000000000000000000000000000000000000000000000000000000000000000000000000000000000000000000000000000000000000
310
00000000000000000000000000000000000007070000000000000000000000000000000000000000000000000000000000000000000000000000000000000000000000000000000000000000000000000000000000000000000000000000000000000000000000000000000000000000000000000000000000000000000000
310
00000000000000000000000000000000000000000000000000000000000000000000000000000000000000000000000000000000000000000000000000000000000000000000000700070000000000000000000000000000000000000000000000000000000000000000000000000000000000000000000000000000000000
310
00000000000000000000000000000000000000000000000000000000000000000000000000000000000000000000000000000000000000000000000000000000000000000000000000000000000000000000000000000000000000000000000000000000000000000000000000000000000000000000000000000000070007
310
00000000000000000000000000000000000000000000000000000000000000000000000000000000000000000000000000000000000000000000000000000000000000000000000000000000000000000000000000000000000000000000000000000000000000000000000000000000000000000000000000000000000000
310
00000000000000000000000000000000000000000000000000000000000000000000000000000000000000000000000000000700070000000000000000000000000000000000000000000000000000000000000000000000000000000000000000000000000000000000000000000000000000000000000000000000000000
310
00000000000000000000000000000000000000000000000000000000000000000000000000000000000000000000000000000000000000000000000000000000000000000000000000000000000000000000000000000000000000000000000000000000000000070007000000000000000000000000000000000000000000
310
00000000000000000000000000000000000000000000000000000000000000000000000000000000000000000000000000000000000000000000000000000000000000000000000000000000000000000000000000000000000000000000000000000000000000000000000000000000000000000000000000000000000000
310
00000000000000000000000000000000000000000000000000000000000700070000000000000000000000000000000000000000000000000000000000000000000000000000000000000000000000000000000000000000000000000000000000000000000000000000000000000000000000000000000000000000000000
310
00000000000000000000000000000000000000000000000000000000000000000000000000000000000000000000000000000000000000000000000000000000000000000000000000000000000000000000070007000000000000000000000000000000000000000000000000000000000000000000000000000000000000
310
00000000000000000000000000000000000000000000000000000000000000000000000000000000000000000000000000000000000000000000000000000000000000000000000000000000000000000000000000000000000000000000000000000000000000000000000000000000000000000000000000000000000000
310
00000000000000000700070000000000000000000000000000000000000000000000000000000000000000000000000000000000000000000000000000000000000000000000000000000000000000000000000000000000000000000000000000000000000000000000000000000000000000000000000000000000000000
310
00000000000000000000000000000000000000000000000000000000000000000000000000000000000000000000000000000000000000000000000000070007000000000000000000000000000000000000000000000000000000000000000000000000000000000000000000000000000000000000000000000000000000
310
00000000000000000000000000000000000000000000000000000000000000000000000000000000000000000000000000000000000000000000000000000000000000000000000000000000000000000000000000000000000000000000000000000000000000000000000000000000000007000700000000000000000000
310
00000000000000000000000000000000000000000000000000000000000000000000000000000000000000000000000000000000000000000000000000000000000000000000000000000000000000000000000000000000000000000000000000000000000000000000000000000000000000000000000000000000000000
310
00000000000000000000000000000000000000000000000000000000000000000000000000000000070007000000000000000000000000000000000000000000000000000000000000000000000000000000000000000000000000000000000000000000000000000000000000000000000000000000000000000000000000
310
00000000000000000000000000000000000000000000000000000000000000000000000000000000000000000000000000000000000000000000000000000000000000000000000000000000000000000000000000000000000000000007000700000000000000000000000000000000000000000000000000000000000000
310
00000000000000000000000000000000000000000000000000000000000000000000000000000000000000000000000000000000000000000000000000000000000000000000000000000000000000000000000000000000000000000000000000000000000000000000000000000000000000000000000000000000000000
310
00000000000000000000000000000000000000070007000000000000000000000000000000000000000000000000000000000000000000000000000000000000000000000000000000000000000000000000000000000000000000000000000000000000000000000000000000000000000000000000000000000000000000
310
00000000000000000000000000000000000000000000000000000000000000000000000000000000000000000000000000000000000000000000000000000000000000000000000007000700000000000000000000000000000000000000000000000000000000000000000000000000000000000000000000000000000000
310
00000000000000000000000000000000000000000000000000000000000000000000000000000000000000000000000000000000000000000000000000000000000000000000000000000000000000000000000000000000000000000000000000000000000000000000000000000000000000000000000000000000000700
310
07000000000000000000000000000000000000000000000000000000000000000000000000000000000000000000000000000000000000000000000000000000000000000000000000000000000000000000000000000000000000000000000000000000000000000000000000000000000000000000000000000000000000
310
00000000000000000000000000000000000000000000000000000000000000000000000000000000000000000000000000000007000700000000000000000000000000000000000000000000000000000000000000000000000000000000000000000000000000000000000000000000000000000000000000000000000000
310
00000000000000000000000000000000000000000000000000000000000000000000000000000000000000000000000000000000000000000000000000000000000000000000000000000000000000000000000000000000000000000000000000000000000000000700070000000000000000000000000000000000000000
310
00000000000000000000000000000000000000000000000000000000000000000000000000000000000000000000000000000000000000000000000000000000000000000000000000000000000000000000000000000000000000000000000000000000000000000000000000000000000000000000000000000000000000
310
00000000000000000000000000000000000000000000000000000000000007000700000000000000000000000000000000000000000000000000000000000000000000000000000000000000000000000000000000000000000000000000000000000000000000000000000000000000000000000000000000000000000000
310
00000000000000000000000000000000000000000000000000000000000000000000000000000000000000000000000000000000000000000000000000000000000000000000000000000000000000000000000700070000000000000000000000000000000000000000000000000000000000000000000000000000000000
310
00000000000000000000000000000000000000000000000000000000000000000000000000000000000000000000000000000000000000000000000000000000000000000000000000000000000000000000000000000000000000000000000000000000000000000000000000000000000000000000000000000000000000
310
00000000000000000007000700000000000000000000000000000000000000000000000000000000000000000000000000000000000000000000000000000000000000000000000000000000000000000000000000000000000000000000000000000000000000000000000000000000000000000000000000000000000000
310
00000000000000000000000000000000000000000000000000000000000000000000000000000000000000000000000000000000000000000000000707070700070000000000000000000000000000000000000000000000000000000000000000000000000000000000000000000000000000000000000000000000000000
310
00000000000000000000000000000000000000000000000000000000000000000000000000000000000000000000000000000000000000000000000000000000000000000000000000000000000000000000000000000000000000000000000000000000000000000000000000000000070707070007000000000000000000
310
00000000000000000000000000000000000000000000000000000000000000000000000000000000000000000000000000000000000000000000000000000000000000000000000000000000000000000000000000000000000000000000000000000000000000000000000000000000000000000000000000000000000000
310
00000000000000000000000000000000000000000000000000000000000000000000000000000700070707000000000000000000000000000000000000000000000000000000000000000000000000000000000000000000000000000000000000000000000000000000000000000000000000000000000000000000000000
310
00000000000000000000000000000000000000000000000000000000000000000000000000000000000000000000000000000000000000000000000000000000000000000000000000000000000000000000000000000000000000070007070700000000000000000000000000000000000000000000000000000000000000
310
00000000000000000000000000000000000000000000000000000000000000000000000000000000000000000000000000000000000000000000000000000000000000000000000000000000000000000000000000000000000000000000000000000000000000000000000000000000000000000000000000000000000000
310
00000000000000000000000000000000000700000707000000000000000000000000000000000000000000000000000000000000000000000000000000000000000000000000000000000000000000000000000000000000000000000000000000000000000000000000000000000000000000000000000000000000000000
310
00000000000000000000000000000000000000000000000000000000000000000000000000000000000000000000000000000000000000000000000000000000000000000000070000070700000000000000000000000000000000000000000000000000000000000000000000000000000000000000000000000000000000
310
00000000000000000000000000000000000000000000000000000000000000000000000000000000000000000000000000000000000000000000000000000000000000000000000000000000000000000000000000000000000000000000000000000000000000000000000000000000000000000000000000000007070707
310
07000000000000000000000000000000000000000000000000000000000000000000000000000000000000000000000000000000000000000000000000000000000000000000000000000000000000000000000000000000000000000000000000000000000000000000000000000000000000000000000000000000000000
310
00000000000000000000000000000000000000000000000000000000000000000000000000000000000000000000000000070007070700000000000000000000000000000000000000000000000000000000000000000000000000000000000000000000000000000000000000000000000000000000000000000000000000
310
00000000000000000000000000000000000000000000000000000000000000000000000000000000000000000000000000000000000000000000000000000000000000000000000000000000000000000000000000000000000000000000000000000000000007000707070000000000000000000000000000000000000000
310
00000000000000000000000000000000000000000000000000000000000000000000000000000000000000000000000000000000000000000000000000000000000000000000000000000000000000000000000000000000000000000000000000000000000000000000000000000000000000000000000000000000000000
310
00000000000000000000000000000000000000070707070707070707070707070700000000000000000000000000000000000000000000000000000000000000000000000000000000000000000000000000000000000000000000000000000000000000000000000000000000000000000000000000000000000000000000
310
00000000000000000000000000000000000000000000000000000000000000000000000000000000000000000000000000000000000000000000000000000000000000000000000007070707070707070707070707070000000000000000000000000000000000000000000000000000000000000000000000000000000000
310
00000000000000000000000000000000000000000000000000000000000000000000000000000000000000000000000000000000000000000000000000000000000000000000000000000000000000000000000000000000000000000000000000000000000000000000000000000000000000000000000000000000000000
310
00000000000000070007070700000000000000000000000000000000000000000000000000000000000000000000000000000000000000000000000000000000000000000000000000000000000000000000000000000000000000000000000000000000000000000000000000000000000000000000000000000000000000
310
00000000000000000000000000000000000000000000000000000000000000000000000000000000000000000000000000000000000000000000000007000707070000000000000000000000000000000000000000000000000000000000000000000000000000000000000000000000000000000000000000000000000000
310
00000000000000000000000000000000000000000000000000000000000000000000000000000000000000000000000000000000000000000000000000000000000000000000000000000000000000000000000000000000000000000000000000000000000000000000000000000000000700070707000000000000000000
310
00000000000000000000000000000000000000000000000000000000000000000000000000000000000000000000000000000000000000000000000000000000000000000000000000000000000000000000000000000000000000000000000000000000000000000000000000000000000000000000000000000000000000
310
00000000000000000000000000000000000000000000000000000000000000000000000000000007000707070000000000000000000000000000000000000000000000000000000000000000000000000000000000000000000000000000000000000000000000000000000000000000000000000000000000000000000000
310
00000000000000000000000000000000000000000000000000000000000000000000000000000000000000000000000000000000000000000000000000000000000000000000000000000000000000000000000000000000000000000700070707000000000000000000000000000000000000000000000000000000000000
310
00000000000000000000000000000000000000000000000000000000000000000000000000000000000000000000000000000000000000000000000000000000000000000000000000000000000000000000000000000000000000000000000000000000000000000000000000000000000000000000000000000000000000
310
00000000000000000000000000000000000007000707070000000000000000000000000000000000000000000000000000000000000000000000000000000000000000000000000000000000000000000000000000000000000000000000000000000000000000000000000000000000000000000000000000000000000000
310
00000000000000000000000000000000000000000000000000000000000000000000000000000000000000000000000000000000000000000000000000000000000000000000000700070707000000000000000000000000000000000000000000000000000000000000000000000000000000000000000000000000000000
310
00000000000000000000000000000000000000000000000000000000000000000000000000000000000000000000000000000000000000000000000000000000000000000000000000000000000000000000000000000000000000000000000000000000000000000000000000000000000000000000000000000000070007
310
07070000000000000000000000000000000000000000000000000000000000000000000000000000000000000000000000000000000000000000000000000000000000000000000000000000000000000000000000000000000000000000000000000000000000000000000000000000000000000000000000000000000000
310
00000000000000000000000000000000000000000000000000000000000000000000000000000000000000000000000000000700070707000000000000000000000000000000000000000000000000000000000000000000000000000000000000000000000000000000000000000000000000000000000000000000000000
310
00000000000000000000000000000000000000000000000000000000000000000000000000000000000000000000000000000000000000000000000000000000000000000000000000000000000000000000000000000000000000000000000000000000000000070007070700000000000000000000000000000000000000
310
00000000000000000000000000000000000000000000000000000000000000000000000000000000000000000000000000000000000000000000000000000000000000000000000000000000000000000000000000000000000000000000000000000000000000000000000000000000000000000000000000000000000000
310
00000000000000000000000000000000000000000000000000000000000700070707000000000000000000000000000000000000000000000000000000000000000000000000000000000000000000000000000000000000000000000000000000000000000000000000000000000000000000000000000000000000000000
310
00000000000000000000000000000000000000000000000000000000000000000000000000000000000000000000000000000000000000000000000000000000000000000000000000000000000000000000070007070700000000000000000000000000000000000000000000000000000000000000000000000000000000
310
00000000000000000000000000000000000000000000000000000000000000000000000000000000000000000000000000000000000000000000000000000000000000000000000000000000000000000000000000000000000000000000000000000000000000000000000000000000000000000000000000000000000000
310
00000000000000000700070707000000000000000000000000000000000000000000000000000000000000000000000000000000000000000000000000000000000000000000000000000000000000000000000000000000000000000000000000000000000000000000000000000000000000000000000000000000000000
310
00000000000000000000000000000000000000000000000000000000000000000000000000000000000000000000000000000000000000000000000000070007070700000000000000000000000000000000000000000000000000000000000000000000000000000000000000000000000000000000000000000000000000
310
00000000000000000000000000000000000000000000000000000000000000000000000000000000000000000000000000000000000000000000000000000000000000000000000000000000000000000000000000000000000000000000000000000000000000000000000000000000000007000707070000000000000000
310
00000000000000000000000000000000000000000000000000000000000000000000000000000000000000000000000000000000000000000000000000000000000000000000000000000000000000000000000000000000000000000000000000000000000000000000000000000000000000000000000000000000000000
310
00000000000000000000000000000000000000000000000000000000000000000000000000000000070007070700000000000000000000000000000000000000000000000000000000000000000000000000000000000000000000000000000000000000000000000000000000000000000000000000000000000000000000
310
00000000000000000000000000000000000000000000000000000000000000000000000000000000000000000000000000000000000000000000000000000000000000000000000000000000000000000000000000000000000000000007000707070000000000000000000000000000000000000000000000000000000000
310
00000000000000000000000000000000000000000000000000000000000000000000000000000000000000000000000000000000000000000000000000000000000000000000000000000000000000000000000000000000000000000000000000000000000000000000000000000000000000000000000000000000000000
310
00000000000000000000000000000000000000070007070700000000000000000000000000000000000000000000000000000000000000000000000000000000000000000000000000000000000000000000000000000000000000000000000000000000000000000000000000000000000000000000000000000000000000
310
00000000000000000000000000000000000000000000000000000000000000000000000000000000000000000000000000000000000000000000000000000000000000000000000007000700070000000000000000000000000000000000000000000000000000000000000000000000000000000000000000000000000000
310
00000000000000000000000000000000000000000000000000000000000000000000000000000000000000000000000000000000000000000000000000000000000000000000000000000000000000000000000000000000000000000000000000000000000000000000000000000000000000000000000000000000000700
310
07000700000000000000000000000000000000000000000000000000000000000000000000000000000000000000000000000000000000000000000000000000000000000000000000000000000000000000000000000000000000000000000000000000000000000000000000000000000000000000000000000000000000
310
00000000000000000000000000000000000000000000000000000000000000000000000000000000000000000000000000000007000707000000000000000000000000000000000000000000000000000000000000000000000000000000000000000000000000000000000000000000000000000000000000000000000000
310
00000000000000000000000000000000000000000000000000000000000000000000000000000000000000000000000000000000000000000000000000000000000000000000000000000000000000000000000000000000000000000000000000000000000000000700070700000000000000000000000000000000000000
310
00000000000000000000000000000000000000000000000000000000000000000000000000000000000000000000000000000000000000000000000000000000000000000000000000000000000000000000000000000000000000000000000000000000000000000000000000000000000000000000000000000000000000
310
00000000000000000000000000000000000000000000000000000000000007070700000000000000000000000000000000000000000000000000000000000000000000000000000000000000000000000000000000000000000000000000000000000000000000000000000000000000000000000000000000000000000000
310
00000000000000000000000000000000000000000000000000000000000000000000000000000000000000000000000000000000000000000000000000000000000000000000000000000000000000000000000707070000000000000000000000000000000000000000000000000000000000000000000000000000000000
310
00000000000000000000000000000000000000000000000000000000000000000000000000000000000000000000000000000000000000000000000000000000000000000000000000000000000000000000000000000000000000000000000000000000000000000000000000000000000000000000000000000000000000
310
00000000000000000007070700000000000000000000000000000000000000000000000000000000000000000000000000000000000000000000000000000000000000000000000000000000000000000000000000000000000000000000000000000000000000000000000000000000000000000000000000000000000000
310
00000000000000000000000000000000000000000000000000000000000000000000000000000000000000000000000000000000000000000000000000070000070000000000000000000000000000000000000000000000000000000000000000000000000000000000000000000000000000000000000000000000000000
310
00000000000000000000000000000000000000000000000000000000000000000000000000000000000000000000000000000000000000000000000000000000000000000000000000000000000000000000000000000000000000000000000000000000000000000000000000000000000007000707000000000000000000
310
00000000000000000000000000000000000000000000000000000000000000000000000000000000000000000000000000000000000000000000000000000000000000000000000000000000000000000000000000000000000000000000000000000000000000000000000000000000000000000000000000000000000000
310
00000000000000000000000000000000000000000000000000000000000000000000000000000000070707070000000000000000000000000000000000000000000000000000000000000000000000000000000000000000000000000000000000000000000000000000000000000000000000000000000000000000000000
310
00000000000000000000000000000000000000000000000000000000000000000000000000000000000000000000000000000000000000000000000000000000000000000000000000000000000000000000000000000000000000000700000007000000000000000000000000000000000000000000000000000000000000
310
00000000000000000000000000000000000000000000000000000000000000000000000000000000000000000000000000000000000000000000000000000000000000000000000000000000000000000000000000000000000000000000000000000000000000000000000000000000000000000000000000000000000000
310
00000000000000000000000000000000000007000700070000000000000000000000000000000000000000000000000000000000000000000000000000000000000000000000000000000000000000000000000000000000000000000000000000000000000000000000000000000000000000000000000000000000000000
310
00000000000000000000000000000000000000000000000000000000000000000000000000000000000000000000000000000000000000000000000000000000000000000000070000070007000000000000000000000000000000000000000000000000000000000000000000000000000000000000000000000000000000
310
00000000000000000000000000000000000000000000000000000000000000000000000000000000000000000000000000000000000000000000000000000000000000000000000000000000000000000000000000000000000000000000000000000000000000000000000000000000000000000000000000000007000707
310
00070000000000000000000000000000000000000000000000000000000000000000000000000000000000000000000000000000000000000000000000000000000000000000000000000000000000000000000000000000000000000000000000000000000000000000000000000000000000000000000000000000000000
310
00000000000000000000000000000000000000000000000000000000000000000000000000000000000000000000000007000700070007000000000000000000000000000000000000000000000000000000000000000000000000000000000000000000000000000000000000000000000000000000000000000000000000
310
00000000000000000000000000000000000000000000000000000000000000000000000000000000000000000000000000000000000000000000000000000000000000000000000000000000000000000000000000000000000000000000000000000000000700070007000700000000000000000000000000000000000000
310
00000000000000000000000000000000000000000000000000000000000000000000000000000000000000000000000000000000000000000000000000000000000000000000000000000000000000000000000000000000000000000000000000000000000000000000000000000000000000000000000000000000000000
310
00000000000000000000000000000000000000000000000000000707070000070007000000000000000000000000000000000000000000000000000000000000000000000000000000000000000000000000000000000000000000000000000000000000000000000000000000000000000000000000000000000000000000
310
00000000000000000000000000000000000000000000000000000000000000000000000000000000000000000000000000000000000000000000000000000000000000000000000000000000000007070700000007000700000000000000000000000000000000000000000000000000000000000000000000000000000000
310
00000000000000000000000000000000000000000000000000000000000000000000000000000000000000000000000000000000000000000000000000000000000000000000000000000000000000000000000000000000000000000000000000000000000000000000000000000000000000000000000000000000000000
310
00000007070707000000070007000000000000000000000000000000000000000000000000000000000000000000000000000000000000000000000000000000000000000000000000000000000000000000000000000000000000000000000000000000000000000000000000000000000000000000000000000000000000
310
00000000000000000000000000000000000000000000000000000000000000000000000000000000000000000000000000000000000007070707070000000007000700000000000000000000000000000000000000000000000000000000000000000000000000000000000000000000000000000000000000000000000000
310
00000000000000000000000000000000000000000000000000000000000000000000000000000000000000000000000000000000000000000000000000000000000000000000000000000000000000000000000000000000000000000000000000000000000000000000070707070000000000000700070000000000000000
310
00000000000000000000000000000000000000000000000000000000000000000000000000000000000000000000000000000000000000000000000000000000000000000000000000000000000000000000000000000000000000000000000000000000000000000000000000000000000000000000000000000000000000
310
00000000000000000000000000000000000000000000000000000000000000070707070000000000000007000700000000000000000000000000000000000000000000000000000000000000000000000000000000000000000000000000000000000000000000000000000000000000000000000000000000000000000000
310
00000000000000000000000000000000000000000000000000000000000000000000000000000000000000000000000000000000000000000000000000000000000000000000000000000000000000000000000707070707000000000000000700070000000000000000000000000000000000000000000000000000000000
310
00000000000000000000000000000000000000000000000000000000000000000000000000000000000000000000000000000000000000000000000000000000000000000000000000000000000000000000000000000000000000000000000000000000000000000000000000000000000000000000000000000000000000
310
00000000000000000007070700000000000000000007000700000000000000000000000000000000000000000000000000000000000000000000000000000000000000000000000000000000000000000000000000000000000000000000000000000000000000000000000000000000000000000000000000000000000000
310
00000000000000000000000000000000000000000000000000000000000000000000000000000000000000000000000000000000000000000000000000070707000000000000000000000700070000000000000000000000000000000000000000000000000000000000000000000000000000000000000000000000000000
310
00000000000000000000000000000000000000000000000000000000000000000000000000000000000000000000000000000000000000000000000000000000000000000000000000000000000000000000000000000000000000000000000000000000000000000000000000000000000000070000000000000000000000
310
07000700000000000000000000000000000000000000000000000000000000000000000000000000000000000000000000000000000000000000000000000000000000000000000000000000000000000000000000000000000000000000000000000000000000000000000000000000000000000000000000000000000000
310
00000000000000000000000000000000000000000000000000000000000000000000000000000000000000000000000000000000000700070000000000000000000000000000000000000000000000000000000000000000000000000000000000000000000000000000000000000000000000000000000000000000000000
310
00000000000000000000000000000000000000000000000000000000000000000000000000000000000000000000000000000000000000000000000000000000000000000000000000000000000000000000000000000000000000000000000000000000000000000000070007000000000000000000000000000000000000
310
00000000000000000000000000000000000000000000000000000000000000000000000000000000000000000000000000000000000000000000000000000000000000000000000000000000000000000000000000000000000000000000000000000000000000000000000000000000000000000000000000000000000000
310
00000000000000000000000000000000000000000000000000000000000000000707070707000000000000000000000000000000000000000000000000000000000000000000000000000000000000000000000000000000000000000000000000000000000000000000000000000000000000000000000000000000000000
310
00000000000000000000000000000000000000000000000000000000000000000000000000000000000000000000000000000000000000000000000000000000000000000000000000000000000000000000000000070000000700000000000000000000000000000000000000000000000000000000000000000000000000
310
00000000000000000000000000000000000000000000000000000000000000000000000000000000000000000000000000000000000000000000000000000000000000000000000000000000000000000000000000000000000000000000000000000000000000000000000000000000000000000000000000000000000000
310
00000000000000000000000700000007000000000000000000000000000000000000000000000000000000000000000000000000000000000000000000000000000000000000000000000000000000000000000000000000000000000000000000000000000000000000000000000000000000000000000000000000000000
310
00000000000000000000000000000000000000000000000000000000000000000000000000000000000000000000000000000000000000000000000000000000070000000700000000000000000000000000000000000000000000000000000000000000000000000000000000000000000000000000000000000000000000
310
00000000000000000000000000000000000000000000000000000000000000000000000000000000000000000000000000000000000000000000000000000000000000000000000000000000000000000000000000000000000000000000000000000000000000000000000000000000000000000007070707070000000000
310
00000000000000000000000000000000000000000000000000000000000000000000000000000000000000000000000000000000000000000000000000000000000000000000000000000000000000000000000000000000000000000000000000000000000000000000000000000000000000000000000000000000000000
310
00000000000000000000000000000000000000000000000000000000000000000000000000000000000000070007000000000000000000000000000000000000000000000000000000000000000000000000000000000000000000000000000000000000000000000000000000000000000000000000000000000000000000
310
00000000000000000000000000000000000000000000000000000000000000000000000000000000000000000000000000000000000000000000000000000000000000000000000000000000000000000000000000000000000000000000000007070700000000000000000000000000000000000000000000000000000000
310
00000000000000000000000000000000000000000000000000000000000000000000000000000000000000000000000000000000000000000000000000000000000000000000000000000000000000000000000000000000000000000000000000000000000000000000000000000000000000000000000000000000000000
310
000000000000000000000000000000000000000000000000000000000000000000000000000000000000000000000000000000000000000000000000000000000000000000000000000000000000000000000000000000000000000000000000000000000000000000000000
  0
ENDSEC
  0
EOF
